0
SECTION
  2
HEADER
  9
$ACADVER
  1
AC1027
  9
$ACADMAINTVER
 70
     8
  9
$DWGCODEPAGE
  3
ANSI_1252
  9
$REQUIREDVERSIONS
160
                 0
  9
$COMMENTS
  1
File was created by Cadenas
  9
$CUSTOMPROPERTYTAG
  1
NN
  9
$CUSTOMPROPERTY
  1
Set Screw Intermediate Duty Wide Slot Take Up Inch
  9
$CUSTOMPROPERTYTAG
  1
NT
  9
$CUSTOMPROPERTY
  1
VSC Intermediate Duty Wide Slot Take-Up Bearings
  9
$CUSTOMPROPERTYTAG
  1
NB
  9
$CUSTOMPROPERTY
  1
125550
  9
$CUSTOMPROPERTYTAG
  1
NBSYN
  9
$CUSTOMPROPERTY
  1
$PN.
  9
$CUSTOMPROPERTYTAG
  1
LINA
  9
$CUSTOMPROPERTY
  1
125550
  9
$CUSTOMPROPERTYTAG
  1
RS
  9
$CUSTOMPROPERTY
  1
205
  9
$CUSTOMPROPERTYTAG
  1
SS
  9
$CUSTOMPROPERTY
  1
7/8
  9
$CUSTOMPROPERTYTAG
  1
PN
  9
$CUSTOMPROPERTY
  1
125550
  9
$CUSTOMPROPERTYTAG
  1
DESCRIPTION
  9
$CUSTOMPROPERTY
  1
WSTU-VSC-014
  9
$CUSTOMPROPERTYTAG
  1
WEIGHT
  9
$CUSTOMPROPERTY
  1
2.2
  9
$CUSTOMPROPERTYTAG
  1
A
  9
$CUSTOMPROPERTY
  1
1.34
  9
$CUSTOMPROPERTYTAG
  1
B
  9
$CUSTOMPROPERTY
  1
3.81
  9
$CUSTOMPROPERTYTAG
  1
C
  9
$CUSTOMPROPERTY
  1
0.531
  9
$CUSTOMPROPERTYTAG
  1
D
  9
$CUSTOMPROPERTY
  1
2.00
  9
$CUSTOMPROPERTYTAG
  1
E
  9
$CUSTOMPROPERTY
  1
2.44
  9
$CUSTOMPROPERTYTAG
  1
F
  9
$CUSTOMPROPERTY
  1
5/8
  9
$CUSTOMPROPERTYTAG
  1
G
  9
$CUSTOMPROPERTY
  1
0.38
  9
$CUSTOMPROPERTYTAG
  1
H
  9
$CUSTOMPROPERTY
  1
0.63
  9
$CUSTOMPROPERTYTAG
  1
J
  9
$CUSTOMPROPERTY
  1
2.00
  9
$CUSTOMPROPERTYTAG
  1
K
  9
$CUSTOMPROPERTY
  1
1.31
  9
$CUSTOMPROPERTYTAG
  1
L
  9
$CUSTOMPROPERTY
  1
1.32
  9
$CUSTOMPROPERTYTAG
  1
M
  9
$CUSTOMPROPERTY
  1
2.985/3.015
  9
$CUSTOMPROPERTYTAG
  1
N
  9
$CUSTOMPROPERTY
  1
3.63
  9
$CUSTOMPROPERTYTAG
  1
R
  9
$CUSTOMPROPERTY
  1
0.56
  9
$CUSTOMPROPERTYTAG
  1
S
  9
$CUSTOMPROPERTY
  1
0.78
  9
$CUSTOMPROPERTYTAG
  1
T
  9
$CUSTOMPROPERTY
  1
1.38
  9
$CUSTOMPROPERTYTAG
  1
COMPANY
  9
$CUSTOMPROPERTY
  1
baldor
  9
$INSBASE
 10
0.0
 20
0.0
 30
0.0
  9
$EXTMIN
 10
1.000000000000000E+20
 20
1.000000000000000E+20
 30
1.000000000000000E+20
  9
$EXTMAX
 10
-1.000000000000000E+20
 20
-1.000000000000000E+20
 30
-1.000000000000000E+20
  9
$LIMMIN
 10
0.0
 20
0.0
  9
$LIMMAX
 10
12.0
 20
9.0
  9
$ORTHOMODE
 70
     0
  9
$REGENMODE
 70
     1
  9
$FILLMODE
 70
     1
  9
$QTEXTMODE
 70
     0
  9
$MIRRTEXT
 70
     1
  9
$LTSCALE
 40
1.0
  9
$ATTMODE
 70
     1
  9
$TEXTSIZE
 40
0.2
  9
$TRACEWID
 40
0.05
  9
$TEXTSTYLE
  7
Standard
  9
$CLAYER
  8
0
  9
$CELTYPE
  6
ByLayer
  9
$CECOLOR
 62
   256
  9
$CELTSCALE
 40
1.0
  9
$DISPSILH
 70
     0
  9
$DIMSCALE
 40
1.0
  9
$DIMASZ
 40
0.18
  9
$DIMEXO
 40
0.0625
  9
$DIMDLI
 40
0.38
  9
$DIMRND
 40
0.0
  9
$DIMDLE
 40
0.0
  9
$DIMEXE
 40
0.18
  9
$DIMTP
 40
0.0
  9
$DIMTM
 40
0.0
  9
$DIMTXT
 40
0.18
  9
$DIMCEN
 40
0.09
  9
$DIMTSZ
 40
0.0
  9
$DIMTOL
 70
     0
  9
$DIMLIM
 70
     0
  9
$DIMTIH
 70
     1
  9
$DIMTOH
 70
     1
  9
$DIMSE1
 70
     0
  9
$DIMSE2
 70
     0
  9
$DIMTAD
 70
     0
  9
$DIMZIN
 70
     0
  9
$DIMBLK
  1

  9
$DIMASO
 70
     1
  9
$DIMSHO
 70
     1
  9
$DIMPOST
  1

  9
$DIMAPOST
  1

  9
$DIMALT
 70
     0
  9
$DIMALTD
 70
     2
  9
$DIMALTF
 40
25.4
  9
$DIMLFAC
 40
1.0
  9
$DIMTOFL
 70
     0
  9
$DIMTVP
 40
0.0
  9
$DIMTIX
 70
     0
  9
$DIMSOXD
 70
     0
  9
$DIMSAH
 70
     0
  9
$DIMBLK1
  1

  9
$DIMBLK2
  1

  9
$DIMSTYLE
  2
Standard
  9
$DIMCLRD
 70
     0
  9
$DIMCLRE
 70
     0
  9
$DIMCLRT
 70
     0
  9
$DIMTFAC
 40
1.0
  9
$DIMGAP
 40
0.09
  9
$DIMJUST
 70
     0
  9
$DIMSD1
 70
     0
  9
$DIMSD2
 70
     0
  9
$DIMTOLJ
 70
     1
  9
$DIMTZIN
 70
     0
  9
$DIMALTZ
 70
     0
  9
$DIMALTTZ
 70
     0
  9
$DIMUPT
 70
     0
  9
$DIMDEC
 70
     4
  9
$DIMTDEC
 70
     4
  9
$DIMALTU
 70
     2
  9
$DIMALTTD
 70
     2
  9
$DIMTXSTY
  7
Standard
  9
$DIMAUNIT
 70
     0
  9
$DIMADEC
 70
     0
  9
$DIMALTRND
 40
0.0
  9
$DIMAZIN
 70
     0
  9
$DIMDSEP
 70
    46
  9
$DIMATFIT
 70
     3
  9
$DIMFRAC
 70
     0
  9
$DIMLDRBLK
  1

  9
$DIMLUNIT
 70
     2
  9
$DIMLWD
 70
    -2
  9
$DIMLWE
 70
    -2
  9
$DIMTMOVE
 70
     0
  9
$DIMFXL
 40
1.0
  9
$DIMFXLON
 70
     0
  9
$DIMJOGANG
 40
0.7853981633974483
  9
$DIMTFILL
 70
     0
  9
$DIMTFILLCLR
 70
     0
  9
$DIMARCSYM
 70
     0
  9
$DIMLTYPE
  6

  9
$DIMLTEX1
  6

  9
$DIMLTEX2
  6

  9
$DIMTXTDIRECTION
 70
     0
  9
$LUNITS
 70
     2
  9
$LUPREC
 70
     4
  9
$SKETCHINC
 40
0.1
  9
$FILLETRAD
 40
0.5
  9
$AUNITS
 70
     0
  9
$AUPREC
 70
     0
  9
$MENU
  1
.
  9
$ELEVATION
 40
0.0
  9
$PELEVATION
 40
0.0
  9
$THICKNESS
 40
0.0
  9
$LIMCHECK
 70
     0
  9
$CHAMFERA
 40
0.0
  9
$CHAMFERB
 40
0.0
  9
$CHAMFERC
 40
0.0
  9
$CHAMFERD
 40
0.0
  9
$SKPOLY
 70
     0
  9
$TDCREATE
 40
2458168.998089398
  9
$TDUCREATE
 40
2458168.956422731
  9
$TDUPDATE
 40
2458168.998089572
  9
$TDUUPDATE
 40
2458168.956422905
  9
$TDINDWG
 40
0.0000000116
  9
$TDUSRTIMER
 40
0.0000000116
  9
$USRTIMER
 70
     1
  9
$ANGBASE
 50
0.0
  9
$ANGDIR
 70
     0
  9
$PDMODE
 70
     0
  9
$PDSIZE
 40
0.0
  9
$PLINEWID
 40
0.0
  9
$SPLFRAME
 70
     0
  9
$SPLINETYPE
 70
     6
  9
$SPLINESEGS
 70
     8
  9
$HANDSEED
  5
1AA
  9
$SURFTAB1
 70
     6
  9
$SURFTAB2
 70
     6
  9
$SURFTYPE
 70
     6
  9
$SURFU
 70
     6
  9
$SURFV
 70
     6
  9
$UCSBASE
  2

  9
$UCSNAME
  2

  9
$UCSORG
 10
0.0
 20
0.0
 30
0.0
  9
$UCSXDIR
 10
1.0
 20
0.0
 30
0.0
  9
$UCSYDIR
 10
0.0
 20
1.0
 30
0.0
  9
$UCSORTHOREF
  2

  9
$UCSORTHOVIEW
 70
     0
  9
$UCSORGTOP
 10
0.0
 20
0.0
 30
0.0
  9
$UCSORGBOTTOM
 10
0.0
 20
0.0
 30
0.0
  9
$UCSORGLEFT
 10
0.0
 20
0.0
 30
0.0
  9
$UCSORGRIGHT
 10
0.0
 20
0.0
 30
0.0
  9
$UCSORGFRONT
 10
0.0
 20
0.0
 30
0.0
  9
$UCSORGBACK
 10
0.0
 20
0.0
 30
0.0
  9
$PUCSBASE
  2

  9
$PUCSNAME
  2

  9
$PUCSORG
 10
0.0
 20
0.0
 30
0.0
  9
$PUCSXDIR
 10
1.0
 20
0.0
 30
0.0
  9
$PUCSYDIR
 10
0.0
 20
1.0
 30
0.0
  9
$PUCSORTHOREF
  2

  9
$PUCSORTHOVIEW
 70
     0
  9
$PUCSORGTOP
 10
0.0
 20
0.0
 30
0.0
  9
$PUCSORGBOTTOM
 10
0.0
 20
0.0
 30
0.0
  9
$PUCSORGLEFT
 10
0.0
 20
0.0
 30
0.0
  9
$PUCSORGRIGHT
 10
0.0
 20
0.0
 30
0.0
  9
$PUCSORGFRONT
 10
0.0
 20
0.0
 30
0.0
  9
$PUCSORGBACK
 10
0.0
 20
0.0
 30
0.0
  9
$USERI1
 70
     0
  9
$USERI2
 70
     0
  9
$USERI3
 70
     0
  9
$USERI4
 70
     0
  9
$USERI5
 70
     0
  9
$USERR1
 40
0.0
  9
$USERR2
 40
0.0
  9
$USERR3
 40
0.0
  9
$USERR4
 40
0.0
  9
$USERR5
 40
0.0
  9
$WORLDVIEW
 70
     1
  9
$SHADEDGE
 70
     3
  9
$SHADEDIF
 70
    70
  9
$TILEMODE
 70
     1
  9
$MAXACTVP
 70
    64
  9
$PINSBASE
 10
0.0
 20
0.0
 30
0.0
  9
$PLIMCHECK
 70
     0
  9
$PEXTMIN
 10
1.000000000000000E+20
 20
1.000000000000000E+20
 30
1.000000000000000E+20
  9
$PEXTMAX
 10
-1.000000000000000E+20
 20
-1.000000000000000E+20
 30
-1.000000000000000E+20
  9
$PLIMMIN
 10
0.0
 20
0.0
  9
$PLIMMAX
 10
12.0
 20
9.0
  9
$UNITMODE
 70
     0
  9
$VISRETAIN
 70
     1
  9
$PLINEGEN
 70
     0
  9
$PSLTSCALE
 70
     1
  9
$TREEDEPTH
 70
  3020
  9
$CMLSTYLE
  2
Standard
  9
$CMLJUST
 70
     0
  9
$CMLSCALE
 40
1.0
  9
$PROXYGRAPHICS
 70
     1
  9
$MEASUREMENT
 70
     0
  9
$CELWEIGHT
370
    -1
  9
$ENDCAPS
280
     0
  9
$JOINSTYLE
280
     0
  9
$LWDISPLAY
290
     0
  9
$INSUNITS
 70
     1
  9
$HYPERLINKBASE
  1

  9
$STYLESHEET
  1

  9
$XEDIT
290
     1
  9
$CEPSNTYPE
380
     0
  9
$PSTYLEMODE
290
     1
  9
$FINGERPRINTGUID
  2
{C15522DF-433D-48CB-AA2B-C0814DD5C555}
  9
$VERSIONGUID
  2
{FAEB1C32-E019-11D5-929B-00C0DF256EC4}
  9
$EXTNAMES
290
     1
  9
$PSVPSCALE
 40
0.0
  9
$OLESTARTUP
290
     0
  9
$SORTENTS
280
   127
  9
$INDEXCTL
280
     0
  9
$HIDETEXT
280
     1
  9
$XCLIPFRAME
280
     2
  9
$HALOGAP
280
     0
  9
$OBSCOLOR
 70
   257
  9
$OBSLTYPE
280
     0
  9
$INTERSECTIONDISPLAY
280
     0
  9
$INTERSECTIONCOLOR
 70
   257
  9
$DIMASSOC
280
     2
  9
$PROJECTNAME
  1

  9
$CAMERADISPLAY
290
     0
  9
$LENSLENGTH
 40
50.0
  9
$CAMERAHEIGHT
 40
0.0
  9
$STEPSPERSEC
 40
2.0
  9
$STEPSIZE
 40
6.0
  9
$3DDWFPREC
 40
2.0
  9
$PSOLWIDTH
 40
0.25
  9
$PSOLHEIGHT
 40
4.0
  9
$LOFTANG1
 40
1.570796326794897
  9
$LOFTANG2
 40
1.570796326794897
  9
$LOFTMAG1
 40
0.0
  9
$LOFTMAG2
 40
0.0
  9
$LOFTPARAM
 70
     7
  9
$LOFTNORMALS
280
     1
  9
$LATITUDE
 40
37.795
  9
$LONGITUDE
 40
-122.394
  9
$NORTHDIRECTION
 40
0.0
  9
$TIMEZONE
 70
 -8000
  9
$LIGHTGLYPHDISPLAY
280
     1
  9
$TILEMODELIGHTSYNCH
280
     1
  9
$CMATERIAL
347
44
  9
$SOLIDHIST
280
     0
  9
$SHOWHIST
280
     1
  9
$DWFFRAME
280
     2
  9
$DGNFRAME
280
     2
  9
$REALWORLDSCALE
290
     1
  9
$INTERFERECOLOR
 62
   256
  9
$CSHADOW
280
     0
  9
$SHADOWPLANELOCATION
 40
0.0
  0
ENDSEC
  0
SECTION
  2
CLASSES
  0
CLASS
  1
ACDBDICTIONARYWDFLT
  2
AcDbDictionaryWithDefault
  3
ObjectDBX Classes
 90
        0
 91
        4
280
     0
281
     0
  0
CLASS
  1
VISUALSTYLE
  2
AcDbVisualStyle
  3
ObjectDBX Classes
 90
     4095
 91
        4
280
     0
281
     0
  0
CLASS
  1
MATERIAL
  2
AcDbMaterial
  3
ObjectDBX Classes
 90
     1153
 91
        4
280
     0
281
     0
  0
CLASS
  1
SCALE
  2
AcDbScale
  3
ObjectDBX Classes
 90
     1153
 91
        4
280
     0
281
     0
  0
CLASS
  1
TABLESTYLE
  2
AcDbTableStyle
  3
ObjectDBX Classes
 90
     4095
 91
        4
280
     0
281
     0
  0
CLASS
  1
MLEADERSTYLE
  2
AcDbMLeaderStyle
  3
ACDB_MLEADERSTYLE_CLASS
 90
     4095
 91
        4
280
     0
281
     0
  0
CLASS
  1
SUN
  2
AcDbSun
  3
SCENEOE
 90
     1153
 91
        4
280
     0
281
     0
  0
CLASS
  1
DICTIONARYVAR
  2
AcDbDictionaryVar
  3
ObjectDBX Classes
 90
        0
 91
        4
280
     0
281
     0
  0
CLASS
  1
CELLSTYLEMAP
  2
AcDbCellStyleMap
  3
ObjectDBX Classes
 90
     1152
 91
        4
280
     0
281
     0
  0
ENDSEC
  0
SECTION
  2
TABLES
  0
TABLE
  2
VPORT
  5
8
330
0
100
AcDbSymbolTable
 70
     1
  0
VPORT
  5
29
330
8
100
AcDbSymbolTableRecord
100
AcDbViewportTableRecord
  2
*Active
 70
     0
 10
0.0
 20
0.0
 11
1.0
 21
1.0
 12
0.3121993292620893
 22
0.0
 13
0.0
 23
0.0
 14
0.5
 24
0.5
 15
0.5
 25
0.5
 16
0.0
 26
0.0
 36
1.0
 17
0.0
 27
0.0
 37
0.0
 40
3.702599999999999
 41
1.18281028690794
 42
50.0
 43
0.0
 44
0.0
 50
0.0
 51
0.0
 71
     0
 72
   100
 73
     1
 74
     3
 75
     0
 76
     0
 77
     0
 78
     0
281
     0
 65
     1
110
0.0
120
0.0
130
0.0
111
1.0
121
0.0
131
0.0
112
0.0
122
1.0
132
0.0
 79
     0
146
0.0
348
2F
 60
     3
 61
     5
292
     1
282
     1
141
0.0
142
0.0
 63
   250
361
6D
  0
ENDTAB
  0
TABLE
  2
LTYPE
  5
5
330
0
100
AcDbSymbolTable
 70
     3
  0
LTYPE
  5
14
330
5
100
AcDbSymbolTableRecord
100
AcDbLinetypeTableRecord
  2
ByBlock
 70
     0
  3

 72
    65
 73
     0
 40
0.0
  0
LTYPE
  5
15
330
5
100
AcDbSymbolTableRecord
100
AcDbLinetypeTableRecord
  2
ByLayer
 70
     0
  3

 72
    65
 73
     0
 40
0.0
  0
LTYPE
  5
16
330
5
100
AcDbSymbolTableRecord
100
AcDbLinetypeTableRecord
  2
Continuous
 70
     0
  3
Solid line
 72
    65
 73
     0
 40
0.0
  0
LTYPE
  5
A5
330
5
100
AcDbSymbolTableRecord
100
AcDbLinetypeTableRecord
  2
Dashed
 70
     0
  3

 72
    65
 73
     2
 40
2.0
 49
1.0
 74
     0
 49
-1.0
 74
     0
  0
LTYPE
  5
C3
330
5
100
AcDbSymbolTableRecord
100
AcDbLinetypeTableRecord
  2
Center
 70
     0
  3

 72
    65
 73
     4
 40
1.5
 49
0.45
 74
     0
 49
-0.5
 74
     0
 49
0.05
 74
     0
 49
-0.5
 74
     0
  0
ENDTAB
  0
TABLE
  2
LAYER
  5
2
330
0
100
AcDbSymbolTable
 70
     7
  0
LAYER
  5
10
330
2
100
AcDbSymbolTableRecord
100
AcDbLayerTableRecord
  2
0
 70
     0
 62
     7
  6
Continuous
370
    -3
390
F
347
46
348
0
  0
LAYER
  5
72
330
2
100
AcDbSymbolTableRecord
100
AcDbLayerTableRecord
  2
AM_6
 70
     0
 62
    -2
  6
Continuous
370
    35
390
F
347
46
348
0
  0
LAYER
  5
A6
330
2
100
AcDbSymbolTableRecord
100
AcDbLayerTableRecord
  2
AM_9
 70
     0
 62
     6
  6
Dashed
370
    25
390
F
347
46
348
0
  0
LAYER
  5
BE
330
2
100
AcDbSymbolTableRecord
100
AcDbLayerTableRecord
  2
AM_5
 70
     0
 62
     3
  6
Continuous
370
    25
390
F
347
46
348
0
  0
LAYER
  5
C4
330
2
100
AcDbSymbolTableRecord
100
AcDbLayerTableRecord
  2
AM_7
 70
     0
 62
     7
  6
Center
370
    25
390
F
347
46
348
0
  0
LAYER
  5
C6
330
2
100
AcDbSymbolTableRecord
100
AcDbLayerTableRecord
  2
AM_4
 70
     0
 62
     7
  6
Continuous
370
    50
390
F
347
46
348
0
  0
LAYER
  5
19D
330
2
100
AcDbSymbolTableRecord
100
AcDbLayerTableRecord
  2
ConnectionPoints
 70
     0
 62
     7
  6
Continuous
370
    50
390
F
347
46
348
0
  0
ENDTAB
  0
TABLE
  2
STYLE
  5
3
330
0
100
AcDbSymbolTable
 70
     1
  0
STYLE
  5
11
330
3
100
AcDbSymbolTableRecord
100
AcDbTextStyleTableRecord
  2
Standard
 70
     0
 40
0.0
 41
1.0
 50
0.0
 71
     0
 42
0.2
  3
txt
  4

  0
ENDTAB
  0
TABLE
  2
VIEW
  5
6
330
0
100
AcDbSymbolTable
 70
     0
  0
ENDTAB
  0
TABLE
  2
UCS
  5
7
330
0
100
AcDbSymbolTable
 70
     0
  0
ENDTAB
  0
TABLE
  2
APPID
  5
9
330
0
100
AcDbSymbolTable
 70
     1
  0
APPID
  5
12
330
9
100
AcDbSymbolTableRecord
100
AcDbRegAppTableRecord
  2
ACAD
 70
     0
  0
ENDTAB
  0
TABLE
  2
DIMSTYLE
  5
A
330
0
100
AcDbSymbolTable
 70
     1
100
AcDbDimStyleTable
  0
DIMSTYLE
105
27
330
A
100
AcDbSymbolTableRecord
100
AcDbDimStyleTableRecord
  2
Standard
 70
     0
178
     0
340
11
  0
ENDTAB
  0
TABLE
  2
BLOCK_RECORD
  5
1
330
0
100
AcDbSymbolTable
 70
     5
  0
BLOCK_RECORD
  5
1F
330
1
100
AcDbSymbolTableRecord
100
AcDbBlockTableRecord
  2
*Model_Space
340
22
 70
     0
280
     1
281
     0
  0
BLOCK_RECORD
  5
1B
330
1
100
AcDbSymbolTableRecord
100
AcDbBlockTableRecord
  2
*Paper_Space
340
1E
 70
     0
280
     1
281
     0
  0
BLOCK_RECORD
  5
23
330
1
100
AcDbSymbolTableRecord
100
AcDbBlockTableRecord
  2
*Paper_Space0
340
26
 70
     0
280
     1
281
     0
  0
BLOCK_RECORD
  5
6E
330
1
100
AcDbSymbolTableRecord
100
AcDbBlockTableRecord
  2
1_125550_0
340
0
102
{BLKREFS
331
6F
102
}
 70
     0
280
     1
281
     0
  0
BLOCK_RECORD
  5
8E
330
1
100
AcDbSymbolTableRecord
100
AcDbBlockTableRecord
  2
2_389936_0_in_125550_0
340
0
102
{BLKREFS
331
8F
102
}
 70
     0
280
     1
281
     0
  0
BLOCK_RECORD
  5
CF
330
1
100
AcDbSymbolTableRecord
100
AcDbBlockTableRecord
  2
3_405016_Inch_0_in_125550_0
340
0
102
{BLKREFS
331
D0
102
}
 70
     0
280
     1
281
     0
  0
BLOCK_RECORD
  5
147
330
1
100
AcDbSymbolTableRecord
100
AcDbBlockTableRecord
  2
4_125534vscwd_0_in_125550_0
340
0
102
{BLKREFS
331
148
102
}
 70
     0
280
     1
281
     0
  0
ENDTAB
  0
ENDSEC
  0
SECTION
  2
BLOCKS
  0
BLOCK
  5
20
330
1F
100
AcDbEntity
  8
0
100
AcDbBlockBegin
  2
*Model_Space
 70
     0
 10
0.0
 20
0.0
 30
0.0
  3
*Model_Space
  1

  0
ENDBLK
  5
21
330
1F
100
AcDbEntity
  8
0
100
AcDbBlockEnd
  0
BLOCK
  5
1C
330
1B
100
AcDbEntity
 67
     1
  8
0
100
AcDbBlockBegin
  2
*Paper_Space
 70
     0
 10
0.0
 20
0.0
 30
0.0
  3
*Paper_Space
  1

  0
ENDBLK
  5
1D
330
1B
100
AcDbEntity
 67
     1
  8
0
100
AcDbBlockEnd
  0
BLOCK
  5
24
330
23
100
AcDbEntity
  8
0
100
AcDbBlockBegin
  2
*Paper_Space0
 70
     0
 10
0.0
 20
0.0
 30
0.0
  3
*Paper_Space0
  1

  0
ENDBLK
  5
25
330
23
100
AcDbEntity
  8
0
100
AcDbBlockEnd
  0
BLOCK
  5
70
330
6E
100
AcDbEntity
  8
0
100
AcDbBlockBegin
  2
1_125550_0
 70
     2
 10
0.0
 20
0.0
 30
0.0
  3
1_125550_0
  1

  0
ATTDEF
  5
73
330
6E
100
AcDbEntity
  8
AM_6
100
AcDbText
 10
7.459
 20
1.815
 30
0.0
 40
0.5
  1
Set Screw Intermediate Duty Wide Slot Take Up Inch
100
AcDbAttributeDefinition
  3

  2
NN
 70
     8
280
     0
  0
ATTDEF
  5
74
330
6E
100
AcDbEntity
  8
AM_6
100
AcDbText
 10
7.459
 20
1.315
 30
0.0
 40
0.5
  1
VSC Intermediate Duty Wide Slot Take-Up Bearings
100
AcDbAttributeDefinition
  3

  2
NT
 70
     8
280
     0
  0
ATTDEF
  5
75
330
6E
100
AcDbEntity
  8
AM_6
100
AcDbText
 10
7.459
 20
0.815
 30
0.0
 40
0.5
  1
125550
100
AcDbAttributeDefinition
  3

  2
NB
 70
     8
280
     0
  0
ATTDEF
  5
76
330
6E
100
AcDbEntity
  8
AM_6
100
AcDbText
 10
7.459
 20
0.3149999999999999
 30
0.0
 40
0.5
  1
$PN.
100
AcDbAttributeDefinition
  3

  2
NBSYN
 70
     8
280
     0
  0
ATTDEF
  5
77
330
6E
100
AcDbEntity
  8
AM_6
100
AcDbText
 10
7.459
 20
-0.1850000000000001
 30
0.0
 40
0.5
  1
125550
100
AcDbAttributeDefinition
  3

  2
LINA
 70
     8
280
     0
  0
ATTDEF
  5
78
330
6E
100
AcDbEntity
  8
AM_6
100
AcDbText
 10
7.459
 20
-0.685
 30
0.0
 40
0.5
  1
205
100
AcDbAttributeDefinition
  3

  2
RS
 70
     8
280
     0
  0
ATTDEF
  5
79
330
6E
100
AcDbEntity
  8
AM_6
100
AcDbText
 10
7.459
 20
-1.185
 30
0.0
 40
0.5
  1
7/8
100
AcDbAttributeDefinition
  3

  2
SS
 70
     8
280
     0
  0
ATTDEF
  5
7A
330
6E
100
AcDbEntity
  8
AM_6
100
AcDbText
 10
7.459
 20
-1.685
 30
0.0
 40
0.5
  1
125550
100
AcDbAttributeDefinition
  3

  2
PN
 70
     8
280
     0
  0
ATTDEF
  5
7B
330
6E
100
AcDbEntity
  8
AM_6
100
AcDbText
 10
7.459
 20
-2.185
 30
0.0
 40
0.5
  1
WSTU-VSC-014
100
AcDbAttributeDefinition
  3

  2
DESCRIPTION
 70
     8
280
     0
  0
ATTDEF
  5
7C
330
6E
100
AcDbEntity
  8
AM_6
100
AcDbText
 10
7.459
 20
-2.685
 30
0.0
 40
0.5
  1
2.2
100
AcDbAttributeDefinition
  3

  2
WEIGHT
 70
     8
280
     0
  0
ATTDEF
  5
7D
330
6E
100
AcDbEntity
  8
AM_6
100
AcDbText
 10
7.459
 20
-3.185
 30
0.0
 40
0.5
  1
1.34
100
AcDbAttributeDefinition
  3

  2
A
 70
     8
280
     0
  0
ATTDEF
  5
7E
330
6E
100
AcDbEntity
  8
AM_6
100
AcDbText
 10
7.459
 20
-3.685
 30
0.0
 40
0.5
  1
3.81
100
AcDbAttributeDefinition
  3

  2
B
 70
     8
280
     0
  0
ATTDEF
  5
7F
330
6E
100
AcDbEntity
  8
AM_6
100
AcDbText
 10
7.459
 20
-4.185
 30
0.0
 40
0.5
  1
0.531
100
AcDbAttributeDefinition
  3

  2
C
 70
     8
280
     0
  0
ATTDEF
  5
80
330
6E
100
AcDbEntity
  8
AM_6
100
AcDbText
 10
7.459
 20
-4.685
 30
0.0
 40
0.5
  1
2.00
100
AcDbAttributeDefinition
  3

  2
D
 70
     8
280
     0
  0
ATTDEF
  5
81
330
6E
100
AcDbEntity
  8
AM_6
100
AcDbText
 10
7.459
 20
-5.185
 30
0.0
 40
0.5
  1
2.44
100
AcDbAttributeDefinition
  3

  2
E
 70
     8
280
     0
  0
ATTDEF
  5
82
330
6E
100
AcDbEntity
  8
AM_6
100
AcDbText
 10
7.459
 20
-5.685
 30
0.0
 40
0.5
  1
5/8
100
AcDbAttributeDefinition
  3

  2
F
 70
     8
280
     0
  0
ATTDEF
  5
83
330
6E
100
AcDbEntity
  8
AM_6
100
AcDbText
 10
7.459
 20
-6.185
 30
0.0
 40
0.5
  1
0.38
100
AcDbAttributeDefinition
  3

  2
G
 70
     8
280
     0
  0
ATTDEF
  5
84
330
6E
100
AcDbEntity
  8
AM_6
100
AcDbText
 10
7.459
 20
-6.685
 30
0.0
 40
0.5
  1
0.63
100
AcDbAttributeDefinition
  3

  2
H
 70
     8
280
     0
  0
ATTDEF
  5
85
330
6E
100
AcDbEntity
  8
AM_6
100
AcDbText
 10
7.459
 20
-7.185
 30
0.0
 40
0.5
  1
2.00
100
AcDbAttributeDefinition
  3

  2
J
 70
     8
280
     0
  0
ATTDEF
  5
86
330
6E
100
AcDbEntity
  8
AM_6
100
AcDbText
 10
7.459
 20
-7.685
 30
0.0
 40
0.5
  1
1.31
100
AcDbAttributeDefinition
  3

  2
K
 70
     8
280
     0
  0
ATTDEF
  5
87
330
6E
100
AcDbEntity
  8
AM_6
100
AcDbText
 10
7.459
 20
-8.185
 30
0.0
 40
0.5
  1
1.32
100
AcDbAttributeDefinition
  3

  2
L
 70
     8
280
     0
  0
ATTDEF
  5
88
330
6E
100
AcDbEntity
  8
AM_6
100
AcDbText
 10
7.459
 20
-8.685
 30
0.0
 40
0.5
  1
2.985/3.015
100
AcDbAttributeDefinition
  3

  2
M
 70
     8
280
     0
  0
ATTDEF
  5
89
330
6E
100
AcDbEntity
  8
AM_6
100
AcDbText
 10
7.459
 20
-9.185
 30
0.0
 40
0.5
  1
3.63
100
AcDbAttributeDefinition
  3

  2
N
 70
     8
280
     0
  0
ATTDEF
  5
8A
330
6E
100
AcDbEntity
  8
AM_6
100
AcDbText
 10
7.459
 20
-9.685
 30
0.0
 40
0.5
  1
0.56
100
AcDbAttributeDefinition
  3

  2
R
 70
     8
280
     0
  0
ATTDEF
  5
8B
330
6E
100
AcDbEntity
  8
AM_6
100
AcDbText
 10
7.459
 20
-10.185
 30
0.0
 40
0.5
  1
0.78
100
AcDbAttributeDefinition
  3

  2
S
 70
     8
280
     0
  0
ATTDEF
  5
8C
330
6E
100
AcDbEntity
  8
AM_6
100
AcDbText
 10
7.459
 20
-10.685
 30
0.0
 40
0.5
  1
1.38
100
AcDbAttributeDefinition
  3

  2
T
 70
     8
280
     0
  0
ATTDEF
  5
8D
330
6E
100
AcDbEntity
  8
AM_6
100
AcDbText
 10
7.459
 20
-11.185
 30
0.0
 40
0.5
  1
baldor
100
AcDbAttributeDefinition
  3

  2
COMPANY
 70
     8
280
     0
  0
INSERT
  5
8F
330
6E
100
AcDbEntity
  8
0
100
AcDbBlockReference
  2
2_389936_0_in_125550_0
 10
0.0
 20
0.0
 30
0.0
  0
INSERT
  5
D0
330
6E
100
AcDbEntity
  8
0
100
AcDbBlockReference
  2
3_405016_Inch_0_in_125550_0
 10
0.0
 20
0.0
 30
0.0
  0
INSERT
  5
148
330
6E
100
AcDbEntity
  8
0
100
AcDbBlockReference
  2
4_125534vscwd_0_in_125550_0
 10
0.0
 20
0.0
 30
0.0
  0
ENDBLK
  5
71
330
6E
100
AcDbEntity
  8
0
100
AcDbBlockEnd
  0
BLOCK
  5
90
330
8E
100
AcDbEntity
  8
0
100
AcDbBlockBegin
  2
2_389936_0_in_125550_0
 70
     2
 10
0.0
 20
0.0
 30
0.0
  3
2_389936_0_in_125550_0
  1

  0
ATTDEF
  5
92
330
8E
100
AcDbEntity
  8
AM_6
100
AcDbText
 10
6.015565340093881
 20
1.015565340093881
 30
0.0
 40
0.5
  1
Set Screw Intermediate Duty Insert Inch Bore
100
AcDbAttributeDefinition
  3

  2
NN
 70
     8
280
     0
  0
ATTDEF
  5
93
330
8E
100
AcDbEntity
  8
AM_6
100
AcDbText
 10
6.015565340093881
 20
0.5155653400938811
 30
0.0
 40
0.5
  1
VSC Intermediate Duty Bearing Inserts
100
AcDbAttributeDefinition
  3

  2
NT
 70
     8
280
     0
  0
ATTDEF
  5
94
330
8E
100
AcDbEntity
  8
AM_6
100
AcDbText
 10
6.015565340093881
 20
0.0155653400938811
 30
0.0
 40
0.5
  1
389936
100
AcDbAttributeDefinition
  3

  2
NB
 70
     8
280
     0
  0
ATTDEF
  5
95
330
8E
100
AcDbEntity
  8
AM_6
100
AcDbText
 10
6.015565340093881
 20
-0.4844346599061189
 30
0.0
 40
0.5
  1
$PN.
100
AcDbAttributeDefinition
  3

  2
NBSYN
 70
     8
280
     0
  0
ATTDEF
  5
96
330
8E
100
AcDbEntity
  8
AM_6
100
AcDbText
 10
6.015565340093881
 20
-0.9844346599061189
 30
0.0
 40
0.5
  1
389936
100
AcDbAttributeDefinition
  3

  2
LINA
 70
     8
280
     0
  0
ATTDEF
  5
97
330
8E
100
AcDbEntity
  8
AM_6
100
AcDbText
 10
6.015565340093881
 20
-1.484434659906119
 30
0.0
 40
0.5
  1
205
100
AcDbAttributeDefinition
  3

  2
SERIES
 70
     8
280
     0
  0
ATTDEF
  5
98
330
8E
100
AcDbEntity
  8
AM_6
100
AcDbText
 10
6.015565340093881
 20
-1.984434659906119
 30
0.0
 40
0.5
  1
7/8
100
AcDbAttributeDefinition
  3

  2
SS
 70
     8
280
     0
  0
ATTDEF
  5
99
330
8E
100
AcDbEntity
  8
AM_6
100
AcDbText
 10
6.015565340093881
 20
-2.484434659906119
 30
0.0
 40
0.5
  1
389936
100
AcDbAttributeDefinition
  3

  2
PN
 70
     8
280
     0
  0
ATTDEF
  5
9A
330
8E
100
AcDbEntity
  8
AM_6
100
AcDbText
 10
6.015565340093881
 20
-2.984434659906119
 30
0.0
 40
0.5
  1
INS-VSC-014
100
AcDbAttributeDefinition
  3

  2
DESCRIPTION
 70
     8
280
     0
  0
ATTDEF
  5
9B
330
8E
100
AcDbEntity
  8
AM_6
100
AcDbText
 10
6.015565340093881
 20
-3.484434659906119
 30
0.0
 40
0.5
  1
0.41
100
AcDbAttributeDefinition
  3

  2
WEIGHT
 70
     8
280
     0
  0
ATTDEF
  5
9C
330
8E
100
AcDbEntity
  8
AM_6
100
AcDbText
 10
6.015565340093881
 20
-3.984434659906119
 30
0.0
 40
0.5
  1
1.34
100
AcDbAttributeDefinition
  3

  2
A
 70
     8
280
     0
  0
ATTDEF
  5
9D
330
8E
100
AcDbEntity
  8
AM_6
100
AcDbText
 10
6.015565340093881
 20
-4.484434659906119
 30
0.0
 40
0.5
  1
0.59
100
AcDbAttributeDefinition
  3

  2
C
 70
     8
280
     0
  0
ATTDEF
  5
9E
330
8E
100
AcDbEntity
  8
AM_6
100
AcDbText
 10
6.015565340093881
 20
-4.984434659906119
 30
0.0
 40
0.5
  1
2.0472
100
AcDbAttributeDefinition
  3

  2
D
 70
     8
280
     0
  0
ATTDEF
  5
9F
330
8E
100
AcDbEntity
  8
AM_6
100
AcDbText
 10
6.015565340093881
 20
-5.484434659906119
 30
0.0
 40
0.5
  1
0.160
100
AcDbAttributeDefinition
  3

  2
J
 70
     8
280
     0
  0
ATTDEF
  5
A0
330
8E
100
AcDbEntity
  8
AM_6
100
AcDbText
 10
6.015565340093881
 20
-5.984434659906119
 30
0.0
 40
0.5
  1
1.32
100
AcDbAttributeDefinition
  3

  2
L
 70
     8
280
     0
  0
ATTDEF
  5
A1
330
8E
100
AcDbEntity
  8
AM_6
100
AcDbText
 10
6.015565340093881
 20
-6.484434659906119
 30
0.0
 40
0.5
  1
1/4-28
100
AcDbAttributeDefinition
  3

  2
N
 70
     8
280
     0
  0
ATTDEF
  5
A2
330
8E
100
AcDbEntity
  8
AM_6
100
AcDbText
 10
6.015565340093881
 20
-6.984434659906119
 30
0.0
 40
0.5
  1
0.56
100
AcDbAttributeDefinition
  3

  2
W
 70
     8
280
     0
  0
ATTDEF
  5
A3
330
8E
100
AcDbEntity
  8
AM_6
100
AcDbText
 10
6.015565340093881
 20
-7.484434659906119
 30
0.0
 40
0.5
  1
0.78
100
AcDbAttributeDefinition
  3

  2
Y
 70
     8
280
     0
  0
ATTDEF
  5
A4
330
8E
100
AcDbEntity
  8
AM_6
100
AcDbText
 10
6.015565340093881
 20
-7.984434659906119
 30
0.0
 40
0.5
  1
baldor
100
AcDbAttributeDefinition
  3

  2
COMPANY
 70
     8
280
     0
  0
CIRCLE
  5
A7
330
8E
100
AcDbEntity
  8
AM_9
100
AcDbCircle
 10
0.0
 20
0.0
 30
0.0
 40
0.6533999999999999
  0
CIRCLE
  5
A8
330
8E
100
AcDbEntity
  8
AM_9
100
AcDbCircle
 10
0.0
 20
0.0
 30
0.0
 40
0.4441
  0
LINE
  5
A9
330
8E
100
AcDbEntity
  8
AM_9
100
AcDbLine
 10
-1.013713636363636
 20
-0.0833333333333381
 30
0.0
 11
-1.007580152679102
 21
-0.0833333333333381
 31
0.0
  0
LINE
  5
AA
330
8E
100
AcDbEntity
  8
AM_9
100
AcDbLine
 10
-1.007587356954615
 20
0.083333333333338
 30
0.0
 11
-1.013713636363636
 21
0.083333333333338
 31
0.0
  0
LWPOLYLINE
  5
AB
330
8E
100
AcDbEntity
  8
AM_9
100
AcDbPolyline
 90
       11
 70
     0
 43
0.0
 10
-1.007582595211118
 20
-0.0833333272723156
 10
-1.004980133303317
 20
-0.0817165037132081
 10
-1.000758029601446
 20
-0.0715026997941395
 10
-0.9973156564007866
 20
-0.0530165949437594
 10
-0.9950689157049075
 20
-0.0285711397029911
 10
-0.9942576782171179
 20
-0.0011369021636187
 10
-0.9949363951883701
 20
0.0262031217231359
 10
-0.9970060987115089
 20
0.0505861731525153
 10
-1.000244690722923
 20
0.0694806484516369
 10
-1.00431666425063
 20
0.0807720467047568
 10
-1.007589372653146
 20
0.083333300064432
  0
LWPOLYLINE
  5
AC
330
8E
100
AcDbEntity
  8
AM_9
100
AcDbPolyline
 90
        4
 70
     0
 43
0.0
 10
-1.007589372653146
 20
0.083333300064432
 10
-1.008778751391522
 20
0.0829888903855648
 10
-1.013111746818672
 20
0.0756517223234475
 10
-1.013713636363636
 20
0.0737712590189045
  0
LINE
  5
AD
330
8E
100
AcDbEntity
  8
AM_9
100
AcDbLine
 10
-1.06735
 20
0.0296969696969725
 30
0.0
 11
-1.06735
 21
-0.0296969661198727
 31
0.0
  0
ARC
  5
AE
330
8E
100
AcDbEntity
  8
AM_9
100
AcDbCircle
 10
-1.013713636363636
 20
-0.0296969696969741
 30
0.0
 40
0.0536363636363639
100
AcDbArc
 50
180.0
 51
270.0
  0
ARC
  5
AF
330
8E
100
AcDbEntity
  8
AM_9
100
AcDbCircle
 10
-1.013713636363637
 20
0.0296969696969743
 30
0.0
 40
0.0536363636363637
100
AcDbArc
 50
90.0
 51
180.0
  0
LINE
  5
B0
330
8E
100
AcDbEntity
  8
AM_9
100
AcDbLine
 10
-1.013713636363636
 20
0.083333333333338
 30
0.0
 11
-1.013713636363636
 21
-0.0833333333333381
 31
0.0
  0
LWPOLYLINE
  5
B1
330
8E
100
AcDbEntity
  8
AM_9
100
AcDbPolyline
 90
        8
 70
     0
 43
0.0
 10
-1.013713636363636
 20
-0.0737712590189002
 10
-1.017099535204977
 20
-0.057477524013388
 10
-1.019521553174639
 20
-0.0345267989910646
 10
-1.020636547183976
 20
-0.0075827243306417
 10
-1.020296925175739
 20
0.0203451803404582
 10
-1.018527712592652
 20
0.0460120648236516
 10
-1.015537638478528
 20
0.066394566800613
 10
-1.013713636363636
 20
0.0737712590189041
  0
LWPOLYLINE
  5
B2
330
8E
100
AcDbEntity
  8
AM_9
100
AcDbPolyline
 90
        3
 70
     0
 43
0.0
 10
-1.013713636363636
 20
-0.0737712590189002
 10
-1.009465840014711
 20
-0.0824789513921681
 10
-1.007582595211118
 20
-0.0833333272723156
  0
CIRCLE
  5
B3
330
8E
100
AcDbEntity
  8
AM_9
100
AcDbCircle
 10
0.0
 20
0.0
 30
0.0
 40
0.9702666666666667
  0
LINE
  5
B4
330
8E
100
AcDbEntity
  8
AM_9
100
AcDbLine
 10
0.10565
 20
0.4246430889117392
 30
0.0
 11
0.10565
 21
0.64065
 31
0.0
  0
LINE
  5
B5
330
8E
100
AcDbEntity
  8
AM_9
100
AcDbLine
 10
-0.10565
 20
0.64065
 30
0.0
 11
-0.10565
 21
0.4246116824055285
 31
0.0
  0
LINE
  5
B6
330
8E
100
AcDbEntity
  8
AM_9
100
AcDbLine
 10
0.4294804378113067
 20
0.0836981400407866
 30
0.0
 11
0.6252757031179348
 21
0.174998971683757
 31
0.0
  0
LINE
  5
B7
330
8E
100
AcDbEntity
  8
AM_9
100
AcDbLine
 10
0.5359764644121249
 20
0.3665018070846013
 30
0.0
 11
0.3401250861133475
 21
0.2751748095236696
 31
0.0
  0
LINE
  5
B8
330
8E
100
AcDbEntity
  8
AM_9
100
AcDbLine
 10
-0.10565
 20
0.64065
 30
0.0
 11
0.10565
 21
0.64065
 31
0.0
  0
LINE
  5
B9
330
8E
100
AcDbEntity
  8
AM_9
100
AcDbLine
 10
0.10565
 20
0.64065
 30
0.0
 11
0.114855607368773
 21
0.649855607368773
 31
0.0
  0
LINE
  5
BA
330
8E
100
AcDbEntity
  8
AM_9
100
AcDbLine
 10
-0.1147418714163459
 20
0.649741871416346
 30
0.0
 11
-0.10565
 21
0.64065
 31
0.0
  0
LINE
  5
BB
330
8E
100
AcDbEntity
  8
AM_9
100
AcDbLine
 10
0.5359764644121249
 20
0.3665018070846012
 30
0.0
 11
0.6252757031179348
 21
0.174998971683757
 31
0.0
  0
LINE
  5
BC
330
8E
100
AcDbEntity
  8
AM_9
100
AcDbLine
 10
0.6252757031179348
 20
0.174998971683757
 30
0.0
 11
0.637360716163865
 21
0.1706003866543197
 31
0.0
  0
LINE
  5
BD
330
8E
100
AcDbEntity
  8
AM_9
100
AcDbLine
 10
0.540436224465036
 20
0.3787548971261602
 30
0.0
 11
0.5359764644121249
 21
0.3665018070846012
 31
0.0
  0
LINE
  5
BF
330
8E
100
AcDbEntity
  8
AM_5
100
AcDbLine
 10
-0.125
 20
0.6480547816350094
 30
0.0
 11
-0.125
 21
0.4192627457812106
 31
0.0
  0
LINE
  5
C0
330
8E
100
AcDbEntity
  8
AM_5
100
AcDbLine
 10
0.125
 20
0.6480547816350094
 30
0.0
 11
0.125
 21
0.4192627457812106
 31
0.0
  0
LINE
  5
C1
330
8E
100
AcDbEntity
  8
AM_5
100
AcDbLine
 10
0.5345098123045574
 20
0.3871682587069175
 30
0.0
 11
0.327153808598291
 21
0.2904765662142693
 31
0.0
  0
LINE
  5
C2
330
8E
100
AcDbEntity
  8
AM_5
100
AcDbLine
 10
0.6401643777397322
 20
0.160591311947755
 30
0.0
 11
0.4328083740334659
 21
0.0638996194551067
 31
0.0
  0
LINE
  5
C5
330
8E
100
AcDbEntity
  8
AM_7
100
AcDbLine
 10
0.3008471306108229
 20
0.1402873209377839
 30
0.0
 11
0.6577793332229427
 21
0.306727540457947
 31
0.0
  0
CIRCLE
  5
C7
330
8E
100
AcDbEntity
  8
AM_4
100
AcDbCircle
 10
0.0
 20
0.0
 30
0.0
 40
1.015565340093881
  0
CIRCLE
  5
C8
330
8E
100
AcDbEntity
  8
AM_4
100
AcDbCircle
 10
0.0
 20
0.0
 30
0.0
 40
1.005431728164573
  0
CIRCLE
  5
C9
330
8E
100
AcDbEntity
  8
AM_4
100
AcDbCircle
 10
0.0
 20
0.0
 30
0.0
 40
0.9869405299188527
  0
CIRCLE
  5
CA
330
8E
100
AcDbEntity
  8
AM_4
100
AcDbCircle
 10
0.0
 20
0.0
 30
0.0
 40
0.9560865860370598
  0
CIRCLE
  5
CB
330
8E
100
AcDbEntity
  8
AM_4
100
AcDbCircle
 10
0.0
 20
0.0
 30
0.0
 40
0.4375
  0
CIRCLE
  5
CC
330
8E
100
AcDbEntity
  8
AM_4
100
AcDbCircle
 10
0.0
 20
0.0
 30
0.0
 40
0.66
  0
CIRCLE
  5
CD
330
8E
100
AcDbEntity
  8
AM_4
100
AcDbCircle
 10
0.0
 20
0.0
 30
0.0
 40
0.4639
  0
CIRCLE
  5
CE
330
8E
100
AcDbEntity
  8
AM_4
100
AcDbCircle
 10
0.0
 20
0.0
 30
0.0
 40
0.6336
  0
ENDBLK
  5
91
330
8E
100
AcDbEntity
  8
0
100
AcDbBlockEnd
  0
BLOCK
  5
D1
330
CF
100
AcDbEntity
  8
0
100
AcDbBlockBegin
  2
3_405016_Inch_0_in_125550_0
 70
     2
 10
0.0
 20
0.0
 30
0.0
  3
3_405016_Inch_0_in_125550_0
  1

  0
ATTDEF
  5
D3
330
CF
100
AcDbEntity
  8
AM_6
100
AcDbText
 10
3.997217576453332
 20
-0.4769256983551584
 30
0.0
 40
0.5
  1
405016 -Inch
100
AcDbAttributeDefinition
  3

  2
NN
 70
     8
280
     0
  0
ATTDEF
  5
D4
330
CF
100
AcDbEntity
  8
AM_6
100
AcDbText
 10
3.997217576453332
 20
-0.9769256983551584
 30
0.0
 40
0.5
  1
Grease Fitting
100
AcDbAttributeDefinition
  3

  2
NT
 70
     8
280
     0
  0
ATTDEF
  5
D5
330
CF
100
AcDbEntity
  8
AM_6
100
AcDbText
 10
3.997217576453332
 20
-1.476925698355158
 30
0.0
 40
0.5
  1
405016-Inch
100
AcDbAttributeDefinition
  3

  2
NB
 70
     8
280
     0
  0
ATTDEF
  5
D6
330
CF
100
AcDbEntity
  8
AM_6
100
AcDbText
 10
3.997217576453332
 20
-1.976925698355158
 30
0.0
 40
0.5
  1
$MN.-Inch
100
AcDbAttributeDefinition
  3

  2
NBSYN
 70
     8
280
     0
  0
ATTDEF
  5
D7
330
CF
100
AcDbEntity
  8
AM_6
100
AcDbText
 10
3.997217576453332
 20
-2.476925698355158
 30
0.0
 40
0.5
  1
405016
100
AcDbAttributeDefinition
  3

  2
LINA
 70
     8
280
     0
  0
ATTDEF
  5
D8
330
CF
100
AcDbEntity
  8
AM_6
100
AcDbText
 10
3.997217576453332
 20
-2.976925698355158
 30
0.0
 40
0.5
  1
405016
100
AcDbAttributeDefinition
  3

  2
MN
 70
     8
280
     0
  0
ATTDEF
  5
D9
330
CF
100
AcDbEntity
  8
AM_6
100
AcDbText
 10
3.997217576453332
 20
-3.476925698355158
 30
0.0
 40
0.5
  1
7/16 HEX
100
AcDbAttributeDefinition
  3

  2
H
 70
     8
280
     0
  0
ATTDEF
  5
DA
330
CF
100
AcDbEntity
  8
AM_6
100
AcDbText
 10
3.997217576453332
 20
-3.976925698355158
 30
0.0
 40
0.5
  1
0.383
100
AcDbAttributeDefinition
  3

  2
NDR
 70
     8
280
     0
  0
ATTDEF
  5
DB
330
CF
100
AcDbEntity
  8
AM_6
100
AcDbText
 10
3.997217576453332
 20
-4.476925698355158
 30
0.0
 40
0.5
  1
0.337
100
AcDbAttributeDefinition
  3

  2
KDR
 70
     8
280
     0
  0
ATTDEF
  5
DC
330
CF
100
AcDbEntity
  8
AM_6
100
AcDbText
 10
3.997217576453332
 20
-4.976925698355158
 30
0.0
 40
0.5
  1
0.1575
100
AcDbAttributeDefinition
  3

  2
BZE
 70
     8
280
     0
  0
ATTDEF
  5
DD
330
CF
100
AcDbEntity
  8
AM_6
100
AcDbText
 10
3.997217576453332
 20
-5.476925698355158
 30
0.0
 40
0.5
  1
0.4375
100
AcDbAttributeDefinition
  3

  2
HEX
 70
     8
280
     0
  0
ATTDEF
  5
DE
330
CF
100
AcDbEntity
  8
AM_6
100
AcDbText
 10
3.997217576453332
 20
-5.976925698355158
 30
0.0
 40
0.5
  1
0.281250
100
AcDbAttributeDefinition
  3

  2
HEX2
 70
     8
280
     0
  0
ATTDEF
  5
DF
330
CF
100
AcDbEntity
  8
AM_6
100
AcDbText
 10
3.997217576453332
 20
-6.476925698355158
 30
0.0
 40
0.5
  1
baldor
100
AcDbAttributeDefinition
  3

  2
COMPANY
 70
     8
280
     0
  0
LINE
  5
E0
330
CF
100
AcDbEntity
  8
AM_9
100
AcDbLine
 10
-1.002782423546668
 20
-0.7656298934801196
 30
0.0
 11
-1.164446149423891
 21
-0.4856201065198805
 31
0.0
  0
LINE
  5
E1
330
CF
100
AcDbEntity
  8
AM_9
100
AcDbLine
 10
-1.164446149423891
 20
-0.4856201065198805
 30
0.0
 11
-1.196894122436375
 21
-0.4769256983551584
 31
0.0
  0
LINE
  5
E2
330
CF
100
AcDbEntity
  8
AM_9
100
AcDbLine
 10
-1.011476831711389
 20
-0.7980778664926034
 30
0.0
 11
-1.002782423546668
 21
-0.7656298934801196
 31
0.0
  0
ARC
  5
E3
330
CF
100
AcDbEntity
  8
AM_9
100
AcDbCircle
 10
-1.554515599803071
 20
-0.8975000000057738
 30
0.0
 40
0.1999999999916981
100
AcDbArc
 50
165.9462742889819
 51
254.041173906375
  0
LINE
  5
E4
330
CF
100
AcDbEntity
  8
AM_9
100
AcDbLine
 10
-1.011476831711389
 20
-0.7980778664926034
 30
0.0
 11
-1.196894122436375
 21
-0.4769256983551584
 31
0.0
  0
LINE
  5
E5
330
CF
100
AcDbEntity
  8
AM_9
100
AcDbLine
 10
-1.196894122436375
 20
-0.4769256983551584
 30
0.0
 11
-1.36881296048824
 21
-0.5691464063755989
 31
0.0
  0
LINE
  5
E6
330
CF
100
AcDbEntity
  8
AM_9
100
AcDbLine
 10
-1.177301726638011
 20
-0.900853593624401
 30
0.0
 11
-1.011476831711389
 21
-0.7980778664926034
 31
0.0
  0
LINE
  5
E7
330
CF
100
AcDbEntity
  8
AM_9
100
AcDbLine
 10
-1.699925241377208
 20
-1.07520229571137
 30
0.0
 11
-1.711246814601085
 21
-1.081738809059826
 31
0.0
  0
LINE
  5
E8
330
CF
100
AcDbEntity
  8
AM_9
100
AcDbLine
 10
-1.781115122981999
 20
-0.9345772957113703
 30
0.0
 11
-1.792436696205876
 21
-0.9411138090598259
 31
0.0
  0
LWPOLYLINE
  5
E9
330
CF
100
AcDbEntity
  8
AM_9
100
AcDbPolyline
 90
        7
 70
     0
 43
0.0
 10
-1.781115122981999
 20
-0.9345772957113703
 10
-1.764499280994471
 20
-0.958510622598914
 10
-1.748444668339338
 20
-0.9833672121093315
 10
-1.732961002275654
 20
-1.009566312422038
 10
-1.718472087160904
 20
-1.036595324422914
 10
-1.708954212862311
 20
-1.05583829813727
 10
-1.699925241377208
 20
-1.07520229571137
  0
LINE
  5
EA
330
CF
100
AcDbEntity
  8
AM_9
100
AcDbLine
 10
-1.499469898750743
 20
-0.9928419509435532
 30
0.0
 11
-1.609601805589262
 21
-0.8020878927647964
 31
0.0
  0
ELLIPSE
  5
EB
330
CF
100
AcDbEntity
  8
AM_9
100
AcDbEllipse
 10
-1.625131735288365
 20
-0.9382702448373408
 30
0.0
 11
-0.07031249999999997
 21
0.1217848224071866
 31
0.0
210
0.0
220
0.0
230
1.0
 40
0.906307787036651
 41
5.859216366485144
 42
9.848746901463825
  0
LWPOLYLINE
  5
EC
330
CF
100
AcDbEntity
  8
AM_9
100
AcDbPolyline
 90
        6
 70
     0
 43
0.0
 10
-1.699925241377208
 20
-1.07520229571137
 10
-1.670720633877685
 20
-1.075146258798399
 10
-1.641846865163553
 20
-1.075585121917566
 10
-1.613158134576025
 20
-1.076646289109958
 10
-1.585369653003054
 20
-1.078363121169831
 10
-1.548750395338711
 20
-1.081671457656344
  0
LWPOLYLINE
  5
ED
330
CF
100
AcDbEntity
  8
AM_9
100
AcDbPolyline
 90
        7
 70
     0
 43
0.0
 10
-1.711130158548293
 20
-0.8004214576563438
 10
-1.721439294905623
 20
-0.8229928542882339
 10
-1.732783121739833
 20
-0.8464568843635378
 10
-1.74549709631664
 20
-0.8712101678463051
 10
-1.759393022506332
 20
-0.8967686897126438
 10
-1.770066362146975
 20
-0.9156071719614788
 10
-1.781115122981999
 20
-0.9345772957113703
  0
LWPOLYLINE
  5
EE
330
CF
100
AcDbEntity
  8
AM_9
100
AcDbPolyline
 90
        5
 70
     0
 43
0.0
 10
-1.509946499609108
 20
-0.9746959459662461
 10
-1.5179139646853
 20
-0.990209976006311
 10
-1.528670038119482
 20
-1.00435797563067
 10
-1.541313089641926
 20
-1.015955943415793
 10
-1.551722615261978
 20
-1.022904528105157
  0
LWPOLYLINE
  5
EF
330
CF
100
AcDbEntity
  8
AM_9
100
AcDbPolyline
 90
       13
 70
     0
 43
0.0
 10
-1.509946499609108
 20
-0.9746959459662461
 10
-1.50499183913704
 20
-0.958701216295605
 10
-1.502883954670297
 20
-0.9426444582564122
 10
-1.503363726388183
 20
-0.9258778251052954
 10
-1.506579263340821
 20
-0.9084298087252539
 10
-1.512597626583604
 20
-0.8909576332075927
 10
-1.52094871440335
 20
-0.8747474927945716
 10
-1.531822314880099
 20
-0.8594770462991154
 10
-1.544220636594082
 20
-0.8465478285833823
 10
-1.558644066960074
 20
-0.8354958498463314
 10
-1.574157046820891
 20
-0.8272268040530578
 10
-1.591250450607862
 20
-0.8217034871441516
 10
-1.599084699977028
 20
-0.8203040540337536
  0
LINE
  5
F0
330
CF
100
AcDbEntity
  8
AM_9
100
AcDbLine
 10
-1.661712825902409
 20
-0.8323732881288919
 30
0.0
 11
-1.680131735288365
 21
-0.8430074504210526
 31
0.0
  0
LINE
  5
F1
330
CF
100
AcDbEntity
  8
AM_9
100
AcDbLine
 10
-1.570131735288365
 20
-1.033533039253629
 30
0.0
 11
-1.551712897261253
 21
-1.022898918160516
 31
0.0
  0
LWPOLYLINE
  5
F2
330
CF
100
AcDbEntity
  8
AM_9
100
AcDbPolyline
 90
        3
 70
     0
 43
0.0
 10
-1.673272281343472
 20
-0.8402190035077143
 10
-1.666582163469251
 20
-0.8353813720298789
 10
-1.661720516304999
 20
-0.8323777286414944
  0
LWPOLYLINE
  5
F3
330
CF
100
AcDbEntity
  8
AM_9
100
AcDbPolyline
 90
       20
 70
     0
 43
0.0
 10
-1.551722615261978
 20
-1.022904528105157
 10
-1.556203512787767
 20
-1.025334802540261
 10
-1.572105389594647
 20
-1.031712011960484
 10
-1.589466359416366
 20
-1.035261709638181
 10
-1.606821836546611
 20
-1.035684256104104
 10
-1.624679548130899
 20
-1.032990967168627
 10
-1.641509309630973
 20
-1.027417196040507
 10
-1.657826053531678
 20
-1.018797239076489
 10
-1.672225104391512
 20
-1.007880991490922
 10
-1.68515745725726
 20
-0.9943362126550239
 10
-1.69551718541696
 20
-0.9793302713177414
 10
-1.703627360233657
 20
-0.9624082867497737
 10
-1.708804001424499
 20
-0.9450047030275385
 10
-1.711203937868647
 20
-0.926607393511457
 10
-1.71062635391152
 20
-0.9087474551200029
 10
-1.707054650102397
 20
-0.8909224816066245
 10
-1.700777102834733
 20
-0.8745960564441003
 10
-1.691619503772012
 20
-0.8593288727646309
 10
-1.680323314610001
 20
-0.8463704784891934
 10
-1.673272281343472
 20
-0.8402190035077143
  0
LWPOLYLINE
  5
F4
330
CF
100
AcDbEntity
  8
AM_9
100
AcDbPolyline
 90
        5
 70
     0
 43
0.0
 10
-1.661720516304999
 20
-0.8323777286414944
 10
-1.651520673729769
 20
-0.8272689428626643
 10
-1.63472725091011
 20
-0.8218204774364152
 10
-1.617327914756114
 20
-0.8194809397560726
 10
-1.599084699977011
 20
-0.8203040540337613
  0
ELLIPSE
  5
F5
330
CF
100
AcDbEntity
  8
AM_9
100
AcDbEllipse
 10
-1.625131735288364
 20
-0.9382702448373405
 30
0.0
 11
-0.07031249999999928
 21
0.1217848224071856
 31
0.0
210
0.0
220
0.0
230
1.0
 40
0.906307787036651
 41
3.764821264091941
 42
4.571432719802702
  0
ELLIPSE
  5
F6
330
CF
100
AcDbEntity
  8
AM_9
100
AcDbEllipse
 10
-1.625131735288366
 20
-0.9382702448373437
 30
0.0
 11
-0.07031250000001889
 21
0.1217848224071794
 31
0.0
210
0.0
220
0.0
230
1.0
 40
0.9063077870366861
 41
4.853345240966584
 42
5.659956696677299
  0
LWPOLYLINE
  5
F7
330
CF
100
AcDbEntity
  8
AM_9
100
AcDbPolyline
 90
        5
 70
     0
 43
0.0
 10
-1.711246814601085
 20
-1.081738809059826
 10
-1.733109203099711
 20
-1.048670119967152
 10
-1.754005290029704
 20
-1.014312409178914
 10
-1.773922909584614
 20
-0.9781264462853559
 10
-1.792436696205876
 20
-0.9411138090598259
  0
LWPOLYLINE
  5
F8
330
CF
100
AcDbEntity
  8
AM_9
100
AcDbPolyline
 90
        4
 70
     0
 43
0.0
 10
-1.608274468866608
 20
-1.087795008657906
 10
-1.637413976957604
 20
-1.086802555641742
 10
-1.675032771318787
 20
-1.084676787031713
 10
-1.711246814601085
 20
-1.081738809059826
  0
LWPOLYLINE
  5
F9
330
CF
100
AcDbEntity
  8
AM_9
100
AcDbPolyline
 90
        4
 70
     0
 43
0.0
 10
-1.792436696205876
 20
-0.9411138090598259
 10
-1.777559578162801
 20
-0.909688517736611
 10
-1.761130305920126
 20
-0.8769977243283276
 10
-1.746162168605433
 20
-0.8488480968015752
  0
ELLIPSE
  5
FA
330
CF
100
AcDbEntity
  8
AM_9
100
AcDbEllipse
 10
-1.643431642826898
 20
-0.9488357013808584
 30
0.0
 11
-0.07031249999999997
 21
0.1217848224071866
 31
0.0
210
0.0
220
0.0
230
1.0
 40
0.9063077870366489
 41
0.2383364328489908
 42
2.908414161905651
  0
LWPOLYLINE
  5
FB
330
CF
100
AcDbEntity
  8
AM_9
100
AcDbPolyline
 90
       21
 70
     0
 43
0.0
 10
-1.585883287316939
 20
-0.9442717069062659
 10
-1.584352188355605
 20
-0.9492603407797296
 10
-1.581134095249364
 20
-0.9643154512406831
 10
-1.57997629141432
 20
-0.9792555776117668
 10
-1.580843171283553
 20
-0.9937240843464216
 10
-1.583648970473211
 20
-1.007405362327484
 10
-1.588279806871046
 20
-1.020039632060099
 10
-1.594625745213395
 20
-1.031427798102316
 10
-1.602618451455188
 20
-1.041417420959909
 10
-1.61225550631986
 20
-1.049858020986286
 10
-1.62355860313241
 20
-1.056524459447643
 10
-1.636398387261995
 20
-1.061071074026499
 10
-1.650155187291764
 20
-1.063150826469783
 10
-1.664280046936707
 20
-1.062727619675672
 10
-1.678394997176487
 20
-1.059906953713398
 10
-1.692213710480664
 20
-1.054815800051722
 10
-1.705458578745078
 20
-1.047588264084268
 10
-1.717839905819644
 20
-1.038387384773175
 10
-1.729066126881384
 20
-1.027422273606076
 10
-1.738862258658423
 20
-1.014954038431499
 10
-1.743955001632553
 20
-1.006872889647148
  0
LWPOLYLINE
  5
FC
330
CF
100
AcDbEntity
  8
AM_9
100
AcDbPolyline
 90
       20
 70
     0
 43
0.0
 10
-1.743955001632553
 20
-1.006872889647148
 10
-1.747210620262333
 20
-1.000854500991835
 10
-1.753410449682347
 20
-0.9863426342610947
 10
-1.757620859754544
 20
-0.9713673406966494
 10
-1.759775742298929
 20
-0.9563251643820131
 10
-1.759881463028198
 20
-0.9415858749267051
 10
-1.758001610334424
 20
-0.9274871676807902
 10
-1.754239857227764
 20
-0.9143172481758326
 10
-1.748712608746021
 20
-0.9023042726539438
 10
-1.741512939852532
 20
-0.8916198720311047
 10
-1.732675831521832
 20
-0.8824075512640551
 10
-1.722178592320591
 20
-0.8748458554509542
 10
-1.710047515439505
 20
-0.869224128691898
 10
-1.696658169843577
 20
-0.8659257771406729
 10
-1.682654643874607
 20
-0.8651420799574686
 10
-1.668496184088559
 20
-0.8668142407287165
 10
-1.654499486479275
 20
-0.8708186207883158
 10
-1.640940457724067
 20
-0.8770266689424528
 10
-1.628103053042755
 20
-0.885292200689857
 10
-1.616308863216679
 20
-0.8954016421357154
  0
ELLIPSE
  5
FD
330
CF
100
AcDbEntity
  8
AM_9
100
AcDbEllipse
 10
-1.694432546090883
 20
-0.978281086609234
 30
0.0
 11
0.06659694825923297
 21
-0.1153492980140274
 31
0.0
210
0.0
220
0.0
230
1.0
 40
0.90630778703665
 41
0.0
 42
6.283185307179586
  0
LINE
  5
FE
330
CF
100
AcDbEntity
  8
AM_5
100
AcDbLine
 10
-1.152973635417585
 20
-0.8587161035794529
 30
0.0
 11
-1.002782423546668
 21
-0.7656298934801198
 31
0.0
  0
LINE
  5
FF
330
CF
100
AcDbEntity
  8
AM_5
100
AcDbLine
 10
-1.177301726638011
 20
-0.9008535936244013
 30
0.0
 11
-1.152973635417585
 21
-0.8587161035794529
 31
0.0
  0
LINE
  5
100
330
CF
100
AcDbEntity
  8
AM_5
100
AcDbLine
 10
-1.14146802099247
 20
-0.8786444123360491
 30
0.0
 11
-1.331662392472503
 21
-0.5492180976190028
 31
0.0
  0
LINE
  5
101
330
CF
100
AcDbEntity
  8
AM_5
100
AcDbLine
 10
-1.320156778047388
 20
-0.5691464063755989
 30
0.0
 11
-1.164446149423891
 21
-0.4856201065198805
 31
0.0
  0
LINE
  5
102
330
CF
100
AcDbEntity
  8
AM_5
100
AcDbLine
 10
-1.36881296048824
 20
-0.5691464063755989
 30
0.0
 11
-1.320156778047388
 21
-0.5691464063755989
 31
0.0
  0
ELLIPSE
  5
103
330
CF
100
AcDbEntity
  8
AM_9
100
AcDbEllipse
 10
-1.625131735288365
 20
-0.938270244837341
 30
0.0
 11
-0.05499999999999993
 21
0.09526279441628807
 31
0.0
210
0.0
220
0.0
230
1.0
 40
0.9063077870366504
 41
0.0
 42
6.283185307179586
  0
LINE
  5
104
330
CF
100
AcDbEntity
  8
AM_7
100
AcDbLine
 10
-1.764515599793066
 20
-0.8975000000000016
 30
0.0
 11
-1.34451559979307
 21
-0.8975000000000016
 31
0.0
  0
LINE
  5
105
330
CF
100
AcDbEntity
  8
AM_7
100
AcDbLine
 10
-1.554515599793068
 20
-1.1075
 30
0.0
 11
-1.554515599793068
 21
-0.6875000000000036
 31
0.0
  0
LINE
  5
106
330
CF
100
AcDbEntity
  8
AM_4
100
AcDbLine
 10
-1.317943118612228
 20
-1.013505557077846
 30
0.0
 11
-1.536693118612229
 21
-0.634619442922154
 31
0.0
  0
LINE
  5
107
330
CF
100
AcDbEntity
  8
AM_4
100
AcDbLine
 10
-1.545760718308843
 20
-0.6007787001516928
 30
0.0
 11
-1.536693118612229
 21
-0.634619442922154
 31
0.0
  0
LINE
  5
108
330
CF
100
AcDbEntity
  8
AM_4
100
AcDbLine
 10
-1.317943118612228
 20
-1.013505557077846
 30
0.0
 11
-1.293169975538382
 21
-1.038278700151693
 31
0.0
  0
LINE
  5
109
330
CF
100
AcDbEntity
  8
AM_4
100
AcDbLine
 10
-1.22227297853717
 20
-0.9973462998483071
 30
0.0
 11
-1.231340578233785
 21
-0.9635055570778459
 31
0.0
  0
LINE
  5
10A
330
CF
100
AcDbEntity
  8
AM_4
100
AcDbLine
 10
-1.231340578233785
 20
-0.9635055570778459
 30
0.0
 11
-1.450090578233784
 21
-0.584619442922154
 31
0.0
  0
LINE
  5
10B
330
CF
100
AcDbEntity
  8
AM_4
100
AcDbLine
 10
-1.450090578233784
 20
-0.584619442922154
 30
0.0
 11
-1.474863721307631
 21
-0.5598462998483071
 31
0.0
  0
ARC
  5
10C
330
CF
100
AcDbEntity
  8
AM_4
100
AcDbCircle
 10
-1.554515599793068
 20
-0.8975000000000013
 30
0.0
 40
0.1999999999999986
100
AcDbArc
 50
254.0411739040743
 51
300.0000000000001
  0
ARC
  5
10D
330
CF
100
AcDbEntity
  8
AM_4
100
AcDbCircle
 10
-1.554515599793066
 20
-0.8975000000000015
 30
0.0
 40
0.200000000000002
100
AcDbArc
 50
120.0000000000001
 51
165.9462742912821
  0
LINE
  5
10E
330
CF
100
AcDbEntity
  8
AM_4
100
AcDbLine
 10
-1.173057343563125
 20
-0.9082050807568877
 30
0.0
 11
-1.373057343563125
 21
-0.5617949192431122
 31
0.0
  0
LINE
  5
10F
330
CF
100
AcDbEntity
  8
AM_4
100
AcDbLine
 10
-1.373057343563125
 20
-0.5617949192431122
 30
0.0
 11
-1.440715578233784
 21
-0.6008574192431123
 31
0.0
  0
LINE
  5
110
330
CF
100
AcDbEntity
  8
AM_4
100
AcDbLine
 10
-1.240715578233785
 20
-0.9472675807568876
 30
0.0
 11
-1.173057343563125
 21
-0.9082050807568877
 31
0.0
  0
LINE
  5
111
330
CF
100
AcDbEntity
  8
AM_4
100
AcDbLine
 10
-1.609601805589262
 20
-0.8020878927647964
 30
0.0
 11
-1.654515599793068
 21
-0.7242949192431122
 31
0.0
  0
LINE
  5
112
330
CF
100
AcDbEntity
  8
AM_4
100
AcDbLine
 10
-1.527318118612228
 20
-0.6508574192431121
 30
0.0
 11
-1.654515599793068
 21
-0.7242949192431122
 31
0.0
  0
LINE
  5
113
330
CF
100
AcDbEntity
  8
AM_4
100
AcDbLine
 10
-1.454515599793068
 20
-1.070705080756888
 30
0.0
 11
-1.327318118612228
 21
-0.9972675807568876
 31
0.0
  0
LINE
  5
114
330
CF
100
AcDbEntity
  8
AM_4
100
AcDbLine
 10
-1.454515599793068
 20
-1.070705080756888
 30
0.0
 11
-1.499469898750743
 21
-0.9928419509435532
 31
0.0
  0
LINE
  5
115
330
CF
100
AcDbEntity
  8
AM_4
100
AcDbLine
 10
-1.545760718308843
 20
-0.6007787001516928
 30
0.0
 11
-1.474863721307631
 21
-0.5598462998483071
 31
0.0
  0
LWPOLYLINE
  5
116
330
CF
100
AcDbEntity
  8
AM_4
100
AcDbPolyline
 90
        4
 70
     0
 43
0.0
 10
-1.522039647151151
 20
-0.6599999999999999
 10
-1.529407071904651
 20
-0.6460244179980004
 10
-1.535753840013536
 20
-0.6314595596074827
 10
-1.545760718308843
 20
-0.6007787001516928
  0
LWPOLYLINE
  5
117
330
CF
100
AcDbEntity
  8
AM_4
100
AcDbPolyline
 90
        4
 70
     0
 43
0.0
 10
-1.474863721307631
 20
-0.5598462998483071
 10
-1.453386050390009
 20
-0.5837405676118848
 10
-1.443909342178178
 20
-0.5965547814524962
 10
-1.435437106772707
 20
-0.6099999999999999
  0
LWPOLYLINE
  5
118
330
CF
100
AcDbEntity
  8
AM_4
100
AcDbPolyline
 90
        4
 70
     0
 43
0.0
 10
-1.482613032616228
 20
-0.7101537001516927
 10
-1.50409070353385
 20
-0.6862594323881152
 10
-1.513567411745681
 20
-0.6734452185475037
 10
-1.522039647151151
 20
-0.6599999999999999
  0
LWPOLYLINE
  5
119
330
CF
100
AcDbEntity
  8
AM_4
100
AcDbPolyline
 90
        4
 70
     0
 43
0.0
 10
-1.332596590073305
 20
-0.988125
 10
-1.339964014826805
 20
-0.9741494179980004
 10
-1.34631078293569
 20
-0.9595845596074827
 10
-1.356317661230997
 20
-0.9289037001516928
  0
LWPOLYLINE
  5
11A
330
CF
100
AcDbEntity
  8
AM_4
100
AcDbPolyline
 90
        4
 70
     0
 43
0.0
 10
-1.293169975538382
 20
-1.038278700151693
 10
-1.314647646456004
 20
-1.014384432388115
 10
-1.324124354667835
 20
-1.001570218547504
 10
-1.332596590073305
 20
-0.988125
  0
LINE
  5
11B
330
CF
100
AcDbEntity
  8
AM_4
100
AcDbLine
 10
-1.293169975538382
 20
-1.038278700151693
 30
0.0
 11
-1.22227297853717
 21
-0.9973462998483071
 31
0.0
  0
LWPOLYLINE
  5
11C
330
CF
100
AcDbEntity
  8
AM_4
100
AcDbPolyline
 90
        4
 70
     0
 43
0.0
 10
-1.245994049694862
 20
-0.938125
 10
-1.238626624941362
 20
-0.9521005820019995
 10
-1.232279856832477
 20
-0.9666654403925172
 10
-1.22227297853717
 20
-0.9973462998483071
  0
LWPOLYLINE
  5
11D
330
CF
100
AcDbEntity
  8
AM_4
100
AcDbPolyline
 90
        4
 70
     0
 43
0.0
 10
-1.435437106772707
 20
-0.6099999999999999
 10
-1.428069682019208
 20
-0.6239755820019995
 10
-1.421722913910323
 20
-0.6385404403925172
 10
-1.411716035615016
 20
-0.6692212998483071
  0
LWPOLYLINE
  5
11E
330
CF
100
AcDbEntity
  8
AM_4
100
AcDbPolyline
 90
        4
 70
     0
 43
0.0
 10
-1.285420664229785
 20
-0.8879712998483072
 10
-1.263942993312163
 20
-0.9118655676118848
 10
-1.254466285100332
 20
-0.9246797814524962
 10
-1.245994049694862
 20
-0.938125
  0
LINE
  5
11F
330
CF
100
AcDbEntity
  8
AM_4
100
AcDbLine
 10
-1.482613032616228
 20
-0.7101537001516927
 30
0.0
 11
-1.411716035615016
 21
-0.6692212998483071
 31
0.0
  0
LWPOLYLINE
  5
120
330
CF
100
AcDbEntity
  8
AM_4
100
AcDbPolyline
 90
        4
 70
     0
 43
0.0
 10
-1.427318118612228
 20
-0.8240624999999999
 10
-1.45029038304773
 20
-0.7814382493985289
 10
-1.470970026153649
 20
-0.7374903532552732
 10
-1.482613032616228
 20
-0.7101537001516927
  0
LWPOLYLINE
  5
121
330
CF
100
AcDbEntity
  8
AM_4
100
AcDbPolyline
 90
        4
 70
     0
 43
0.0
 10
-1.356317661230997
 20
-0.9289037001516928
 10
-1.393511271322068
 20
-0.8777886272510403
 10
-1.410905873944604
 20
-0.8512602180021211
 10
-1.427318118612228
 20
-0.8240624999999999
  0
LINE
  5
122
330
CF
100
AcDbEntity
  8
AM_4
100
AcDbLine
 10
-1.356317661230997
 20
-0.9289037001516928
 30
0.0
 11
-1.285420664229785
 21
-0.8879712998483072
 31
0.0
  0
LWPOLYLINE
  5
123
330
CF
100
AcDbEntity
  8
AM_4
100
AcDbPolyline
 90
        4
 70
     0
 43
0.0
 10
-1.340715578233785
 20
-0.7740624999999999
 10
-1.325454692768708
 20
-0.8017099570019995
 10
-1.311214463948246
 20
-0.8299466903925173
 10
-1.285420664229785
 20
-0.8879712998483072
  0
LWPOLYLINE
  5
124
330
CF
100
AcDbEntity
  8
AM_4
100
AcDbPolyline
 90
        4
 70
     0
 43
0.0
 10
-1.411716035615016
 20
-0.6692212998483071
 10
-1.393863302804162
 20
-0.6929727657731171
 10
-1.366221602337595
 20
-0.7327364268392671
 10
-1.340715578233785
 20
-0.7740624999999999
  0
LINE
  5
125
330
CF
100
AcDbEntity
  8
AM_4
100
AcDbLine
 10
-1.560437641558256
 20
-1.088419092407284
 30
0.0
 11
-1.608274468866608
 21
-1.087795008657906
 31
0.0
  0
LINE
  5
126
330
CF
100
AcDbEntity
  8
AM_4
100
AcDbLine
 10
-1.746162168605433
 20
-0.8488480968015752
 30
0.0
 11
-1.722817404767838
 21
-0.8071690924072835
 31
0.0
  0
LWPOLYLINE
  5
127
330
CF
100
AcDbEntity
  8
AM_4
100
AcDbPolyline
 90
        3
 70
     0
 43
0.0
 10
-1.548750395338711
 20
-1.081671457656344
 10
-1.531776713005188
 20
-1.052339189975666
 10
-1.515638455821005
 20
-1.023057477599441
  0
LINE
  5
128
330
CF
100
AcDbEntity
  8
AM_4
100
AcDbLine
 10
-1.515638455821005
 20
-1.023057477599441
 30
0.0
 11
-1.503616925639198
 21
-0.9999657255010712
 31
0.0
  0
LWPOLYLINE
  5
129
330
CF
100
AcDbEntity
  8
AM_4
100
AcDbPolyline
 90
        4
 70
     0
 43
0.0
 10
-1.503616925639198
 20
-0.9999657255010712
 10
-1.494451939062641
 20
-0.9814216112135015
 10
-1.486360668283654
 20
-0.9642846905716822
 10
-1.478763897605643
 20
-0.9475147343505178
  0
LWPOLYLINE
  5
12A
330
CF
100
AcDbEntity
  8
AM_4
100
AcDbPolyline
 90
        3
 70
     0
 43
0.0
 10
-1.533938363359538
 20
-1.033622934142958
 10
-1.547673541124111
 20
-1.061327936735335
 10
-1.560437641558256
 20
-1.088419092407284
  0
LINE
  5
12B
330
CF
100
AcDbEntity
  8
AM_4
100
AcDbLine
 10
-1.548750395338711
 20
-1.081671457656344
 30
0.0
 11
-1.560437641558256
 21
-1.088419092407284
 31
0.0
  0
LWPOLYLINE
  5
12C
330
CF
100
AcDbEntity
  8
AM_4
100
AcDbPolyline
 90
        3
 70
     0
 43
0.0
 10
-1.559953779210434
 20
-0.8068897343505177
 10
-1.588016079179278
 20
-0.8042388430145476
 10
-1.617804184017264
 20
-0.8021875924132664
  0
LINE
  5
12D
330
CF
100
AcDbEntity
  8
AM_4
100
AcDbLine
 10
-1.617804184017264
 20
-0.8021875924132664
 30
0.0
 11
-1.643812993043249
 21
-0.8010526668938883
 31
0.0
  0
LWPOLYLINE
  5
12E
330
CF
100
AcDbEntity
  8
AM_4
100
AcDbPolyline
 90
        4
 70
     0
 43
0.0
 10
-1.643812993043249
 20
-0.8010526668938883
 10
-1.666803027735489
 20
-0.8005103698475838
 10
-1.688808897596174
 20
-0.8003309118621996
 10
-1.711130158548293
 20
-0.8004214576563438
  0
LINE
  5
12F
330
CF
100
AcDbEntity
  8
AM_4
100
AcDbLine
 10
-1.711130158548293
 20
-0.8004214576563438
 30
0.0
 11
-1.722817404767838
 21
-0.8071690924072835
 31
0.0
  0
LWPOLYLINE
  5
130
330
CF
100
AcDbEntity
  8
AM_4
100
AcDbPolyline
 90
        3
 70
     0
 43
0.0
 10
-1.722817404767838
 20
-0.8071690924072835
 10
-1.693137583534037
 20
-0.8096484915217362
 10
-1.662112900581781
 20
-0.8116181234374058
  0
LWPOLYLINE
  5
131
330
CF
100
AcDbEntity
  8
AM_4
100
AcDbPolyline
 90
        3
 70
     0
 43
0.0
 10
-1.636104091555798
 20
-0.812753048956784
 10
-1.604453540701774
 20
-0.8135555934942604
 10
-1.572009428521412
 20
-0.8138500667254667
  0
LWPOLYLINE
  5
132
330
CF
100
AcDbEntity
  8
AM_4
100
AcDbPolyline
 90
        3
 70
     0
 43
0.0
 10
-1.490819546916621
 20
-0.9544750667254667
 10
-1.506706831479717
 20
-0.9825761834951973
 10
-1.521916833177732
 20
-1.010531182044589
  0
LWPOLYLINE
  5
133
330
CF
100
AcDbEntity
  8
AM_4
100
AcDbPolyline
 90
        3
 70
     0
 43
0.0
 10
-1.478763897605643
 20
-0.9475147343505178
 10
-1.491759785455254
 20
-0.9198909589556474
 10
-1.505973685569494
 20
-0.8922870384185166
  0
LINE
  5
134
330
CF
100
AcDbEntity
  8
AM_4
100
AcDbLine
 10
-1.505973685569494
 20
-0.8922870384185166
 30
0.0
 11
-1.525730085522762
 21
-0.8580679499247962
 31
0.0
  0
LWPOLYLINE
  5
135
330
CF
100
AcDbEntity
  8
AM_4
100
AcDbPolyline
 90
        4
 70
     0
 43
0.0
 10
-1.525730085522762
 20
-0.8580679499247962
 10
-1.534978720936656
 20
-0.8434112730526003
 10
-1.547276238386291
 20
-0.8249547701127596
 10
-1.559953779210434
 20
-0.8068897343505177
  0
LINE
  5
136
330
CF
100
AcDbEntity
  8
AM_4
100
AcDbLine
 10
-1.559953779210434
 20
-0.8068897343505177
 30
0.0
 11
-1.572009428521412
 21
-0.8138500667254667
 31
0.0
  0
LWPOLYLINE
  5
137
330
CF
100
AcDbEntity
  8
AM_4
100
AcDbPolyline
 90
        3
 70
     0
 43
0.0
 10
-1.572009428521412
 20
-0.8138500667254667
 10
-1.558476163021022
 20
-0.8412941224080119
 10
-1.544029993061298
 20
-0.8686334064683195
  0
LWPOLYLINE
  5
138
330
CF
100
AcDbEntity
  8
AM_4
100
AcDbPolyline
 90
        3
 70
     0
 43
0.0
 10
-1.524273593108028
 20
-0.902852494962034
 10
-1.50789163848905
 20
-0.9289228551816321
 10
-1.490819546916621
 20
-0.9544750667254667
  0
LINE
  5
139
330
CF
100
AcDbEntity
  8
AM_4
100
AcDbLine
 10
-1.478763897605643
 20
-0.9475147343505178
 30
0.0
 11
-1.490819546916621
 21
-0.9544750667254667
 31
0.0
  0
LINE
  5
13A
330
CF
100
AcDbEntity
  8
AM_4
100
AcDbLine
 10
-1.662112900581781
 20
-0.8116181234374058
 30
0.0
 11
-1.636104091555798
 21
-0.812753048956784
 31
0.0
  0
ELLIPSE
  5
13B
330
CF
100
AcDbEntity
  8
AM_4
100
AcDbEllipse
 10
-1.643431642826899
 20
-0.9488357013808582
 30
0.0
 11
-0.07031250000000203
 21
0.1217848224071859
 31
0.0
210
0.0
220
0.0
230
1.0
 40
0.9063077870366504
 41
2.908414161905637
 42
3.565561594284228
  0
ELLIPSE
  5
13C
330
CF
100
AcDbEntity
  8
AM_4
100
AcDbEllipse
 10
-1.643431642826898
 20
-0.9488357013808599
 30
0.0
 11
-0.07031249999999893
 21
0.121784822407189
 31
0.0
210
0.0
220
0.0
230
1.0
 40
0.9063077870366507
 41
5.859216366485154
 42
6.521521740028587
  0
LINE
  5
13D
330
CF
100
AcDbEntity
  8
AM_4
100
AcDbLine
 10
-1.521916833177732
 20
-1.010531182044589
 30
0.0
 11
-1.533938363359538
 21
-1.033622934142958
 31
0.0
  0
ELLIPSE
  5
13E
330
CF
100
AcDbEntity
  8
AM_4
100
AcDbEllipse
 10
-1.643431642826898
 20
-0.9488357013808586
 30
0.0
 11
-0.07031250000000114
 21
0.1217848224071856
 31
0.0
210
0.0
220
0.0
230
1.0
 40
0.9063077870366528
 41
3.76482126409193
 42
4.571432719802694
  0
LWPOLYLINE
  5
13F
330
CF
100
AcDbEntity
  8
AM_4
100
AcDbPolyline
 90
        3
 70
     0
 43
0.0
 10
-1.544029993061298
 20
-0.8686334064683195
 10
-1.534579794174989
 20
-0.8858698068452319
 10
-1.524273593108028
 20
-0.902852494962034
  0
ELLIPSE
  5
140
330
CF
100
AcDbEntity
  8
AM_4
100
AcDbEllipse
 10
-1.643431642826899
 20
-0.9488357013808593
 30
0.0
 11
-0.07031250000000092
 21
0.1217848224071875
 31
0.0
210
0.0
220
0.0
230
1.0
 40
0.9063077870366482
 41
4.853345240966673
 42
5.65995669667743
  0
LINE
  5
141
330
CF
100
AcDbEntity
  8
AM_4
100
AcDbLine
 10
-1.826865313220388
 20
-1.019711462979213
 30
0.0
 11
-1.826352095790605
 21
-1.021213697210819
 31
0.0
  0
LWPOLYLINE
  5
142
330
CF
100
AcDbEntity
  8
AM_4
100
AcDbPolyline
 90
        6
 70
     0
 43
0.0
 10
-1.831489231798927
 20
-0.9428057365533844
 10
-1.83250393819317
 20
-0.9479586005020709
 10
-1.83452290953574
 20
-0.9665259163582846
 10
-1.834074670712028
 20
-0.985405725761901
 10
-1.831159868862622
 20
-1.004249041604779
 10
-1.826865313220388
 20
-1.019711462979213
  0
LWPOLYLINE
  5
143
330
CF
100
AcDbEntity
  8
AM_4
100
AcDbPolyline
 90
       36
 70
     0
 43
0.0
 10
-1.722453313367493
 20
-1.11744892632143
 10
-1.716004865730484
 20
-1.118825547864309
 10
-1.697710387705309
 20
-1.120945567580277
 10
-1.679500287843691
 20
-1.120451636716582
 10
-1.661725440166592
 20
-1.11736449587317
 10
-1.64472209404927
 20
-1.111757590321194
 10
-1.628803932798686
 20
-1.103751545001794
 10
-1.614257156190253
 20
-1.093507469723693
 10
-1.601341380595478
 20
-1.081224226882183
 10
-1.59028269835254
 20
-1.067130546149314
 10
-1.581273372438933
 20
-1.051479648919518
 10
-1.574473542654148
 20
-1.034549535809148
 10
-1.570008718547739
 20
-1.016641830383009
 10
-1.567966021150866
 20
-0.998079216624035
 10
-1.568390316695775
 20
-0.9792007686972404
 10
-1.571281402482168
 20
-0.9603554143817454
 10
-1.576592897678396
 20
-0.9418944074193218
 10
-1.584232840328927
 20
-0.924163776237611
 10
-1.594065545125762
 20
-0.907497390106728
 10
-1.605914038698398
 20
-0.8922109624451381
 10
-1.619561357561538
 20
-0.8785977293911283
 10
-1.634756084759572
 20
-0.8669198142142988
 10
-1.651214549078801
 20
-0.8574047205241869
 10
-1.668624890664462
 20
-0.8502395086030532
 10
-1.686652592197356
 20
-0.8455649080978983
 10
-1.70494795797334
 20
-0.843470102781954
 10
-1.723155511650965
 20
-0.8439893114312543
 10
-1.740924474812336
 20
-0.8471012648511328
 10
-1.757918782838229
 20
-0.8527320314656002
 10
-1.773824999854908
 20
-0.8607605621956061
 10
-1.788357206132782
 20
-0.8710253874529106
 10
-1.801256033565201
 20
-0.883327279871638
 10
-1.812295757180808
 20
-0.8974372817416191
 10
-1.821284418434802
 20
-0.9131019275946389
 10
-1.828062197879548
 20
-0.9300429814365142
 10
-1.831489231798927
 20
-0.9428057365533844
  0
ELLIPSE
  5
144
330
CF
100
AcDbEntity
  8
AM_4
100
AcDbEllipse
 10
-1.705107527568228
 20
-0.984444290038772
 30
0.0
 11
-0.06957427803572086
 21
0.1205061844577808
 31
0.0
210
0.0
220
0.0
230
1.0
 40
0.9063077870367148
 41
1.362619622875883
 42
1.570796326794897
  0
ELLIPSE
  5
145
330
CF
100
AcDbEntity
  8
AM_4
100
AcDbEllipse
 10
-1.705107527568228
 20
-0.9844442900387741
 30
0.0
 11
-0.06957427803572025
 21
0.1205061844577911
 31
0.0
210
0.0
220
0.0
230
1.0
 40
0.9063077870366509
 41
1.570796326794897
 42
7.645804930055506
  0
ELLIPSE
  5
146
330
CF
100
AcDbEntity
  8
AM_4
100
AcDbEllipse
 10
-1.733101189765712
 20
-1.000606438444094
 30
0.0
 11
0.05174132036229489
 21
-0.08961859571819301
 31
0.0
210
0.0
220
0.0
230
1.0
 40
0.9063077870366497
 41
0.0
 42
6.283185307179586
  0
ENDBLK
  5
D2
330
CF
100
AcDbEntity
  8
0
100
AcDbBlockEnd
  0
BLOCK
  5
149
330
147
100
AcDbEntity
  8
0
100
AcDbBlockBegin
  2
4_125534vscwd_0_in_125550_0
 70
     2
 10
0.0
 20
0.0
 30
0.0
  3
4_125534vscwd_0_in_125550_0
  1

  0
ATTDEF
  5
14B
330
147
100
AcDbEntity
  8
AM_6
100
AcDbText
 10
7.459
 20
1.815
 30
0.0
 40
0.5
  1
WSTU-VSC - Body
100
AcDbAttributeDefinition
  3

  2
NN
 70
     8
280
     0
  0
ATTDEF
  5
14C
330
147
100
AcDbEntity
  8
AM_6
100
AcDbText
 10
7.459
 20
1.315
 30
0.0
 40
0.5
  1
VSC Intermediate Duty Wide Slot Take-Up Bearings
100
AcDbAttributeDefinition
  3

  2
NT
 70
     8
280
     0
  0
ATTDEF
  5
14D
330
147
100
AcDbEntity
  8
AM_6
100
AcDbText
 10
7.459
 20
0.815
 30
0.0
 40
0.5
  1
125534vscwd
100
AcDbAttributeDefinition
  3

  2
NB
 70
     8
280
     0
  0
ATTDEF
  5
14E
330
147
100
AcDbEntity
  8
AM_6
100
AcDbText
 10
7.459
 20
0.3149999999999999
 30
0.0
 40
0.5
  1
$PN.
100
AcDbAttributeDefinition
  3

  2
NBSYN
 70
     8
280
     0
  0
ATTDEF
  5
14F
330
147
100
AcDbEntity
  8
AM_6
100
AcDbText
 10
7.459
 20
-0.1850000000000001
 30
0.0
 40
0.5
  1
125534vscwd
100
AcDbAttributeDefinition
  3

  2
LINA
 70
     8
280
     0
  0
ATTDEF
  5
150
330
147
100
AcDbEntity
  8
AM_6
100
AcDbText
 10
7.459
 20
-0.685
 30
0.0
 40
0.5
  1
205
100
AcDbAttributeDefinition
  3

  2
RS
 70
     8
280
     0
  0
ATTDEF
  5
151
330
147
100
AcDbEntity
  8
AM_6
100
AcDbText
 10
7.459
 20
-1.185
 30
0.0
 40
0.5
  1
7/8
100
AcDbAttributeDefinition
  3

  2
SS
 70
     8
280
     0
  0
ATTDEF
  5
152
330
147
100
AcDbEntity
  8
AM_6
100
AcDbText
 10
7.459
 20
-1.685
 30
0.0
 40
0.5
  1
125534vscwd
100
AcDbAttributeDefinition
  3

  2
PN
 70
     8
280
     0
  0
ATTDEF
  5
153
330
147
100
AcDbEntity
  8
AM_6
100
AcDbText
 10
7.459
 20
-2.185
 30
0.0
 40
0.5
  1
WSTU-VSC-014
100
AcDbAttributeDefinition
  3

  2
DESCRIPTION
 70
     8
280
     0
  0
ATTDEF
  5
154
330
147
100
AcDbEntity
  8
AM_6
100
AcDbText
 10
7.459
 20
-2.685
 30
0.0
 40
0.5
  1
1.34
100
AcDbAttributeDefinition
  3

  2
A
 70
     8
280
     0
  0
ATTDEF
  5
155
330
147
100
AcDbEntity
  8
AM_6
100
AcDbText
 10
7.459
 20
-3.185
 30
0.0
 40
0.5
  1
3.81
100
AcDbAttributeDefinition
  3

  2
B
 70
     8
280
     0
  0
ATTDEF
  5
156
330
147
100
AcDbEntity
  8
AM_6
100
AcDbText
 10
7.459
 20
-3.685
 30
0.0
 40
0.5
  1
0.531
100
AcDbAttributeDefinition
  3

  2
C
 70
     8
280
     0
  0
ATTDEF
  5
157
330
147
100
AcDbEntity
  8
AM_6
100
AcDbText
 10
7.459
 20
-4.185
 30
0.0
 40
0.5
  1
2.00
100
AcDbAttributeDefinition
  3

  2
D
 70
     8
280
     0
  0
ATTDEF
  5
158
330
147
100
AcDbEntity
  8
AM_6
100
AcDbText
 10
7.459
 20
-4.685
 30
0.0
 40
0.5
  1
2.44
100
AcDbAttributeDefinition
  3

  2
E
 70
     8
280
     0
  0
ATTDEF
  5
159
330
147
100
AcDbEntity
  8
AM_6
100
AcDbText
 10
7.459
 20
-5.185
 30
0.0
 40
0.5
  1
5/8
100
AcDbAttributeDefinition
  3

  2
F
 70
     8
280
     0
  0
ATTDEF
  5
15A
330
147
100
AcDbEntity
  8
AM_6
100
AcDbText
 10
7.459
 20
-5.685
 30
0.0
 40
0.5
  1
0.38
100
AcDbAttributeDefinition
  3

  2
G
 70
     8
280
     0
  0
ATTDEF
  5
15B
330
147
100
AcDbEntity
  8
AM_6
100
AcDbText
 10
7.459
 20
-6.185
 30
0.0
 40
0.5
  1
0.63
100
AcDbAttributeDefinition
  3

  2
H
 70
     8
280
     0
  0
ATTDEF
  5
15C
330
147
100
AcDbEntity
  8
AM_6
100
AcDbText
 10
7.459
 20
-6.685
 30
0.0
 40
0.5
  1
2.00
100
AcDbAttributeDefinition
  3

  2
J
 70
     8
280
     0
  0
ATTDEF
  5
15D
330
147
100
AcDbEntity
  8
AM_6
100
AcDbText
 10
7.459
 20
-7.185
 30
0.0
 40
0.5
  1
1.31
100
AcDbAttributeDefinition
  3

  2
K
 70
     8
280
     0
  0
ATTDEF
  5
15E
330
147
100
AcDbEntity
  8
AM_6
100
AcDbText
 10
7.459
 20
-7.685
 30
0.0
 40
0.5
  1
1.32
100
AcDbAttributeDefinition
  3

  2
L
 70
     8
280
     0
  0
ATTDEF
  5
15F
330
147
100
AcDbEntity
  8
AM_6
100
AcDbText
 10
7.459
 20
-8.185
 30
0.0
 40
0.5
  1
2.985/3.015
100
AcDbAttributeDefinition
  3

  2
M
 70
     8
280
     0
  0
ATTDEF
  5
160
330
147
100
AcDbEntity
  8
AM_6
100
AcDbText
 10
7.459
 20
-8.685
 30
0.0
 40
0.5
  1
3.63
100
AcDbAttributeDefinition
  3

  2
N
 70
     8
280
     0
  0
ATTDEF
  5
161
330
147
100
AcDbEntity
  8
AM_6
100
AcDbText
 10
7.459
 20
-9.185
 30
0.0
 40
0.5
  1
0.56
100
AcDbAttributeDefinition
  3

  2
R
 70
     8
280
     0
  0
ATTDEF
  5
162
330
147
100
AcDbEntity
  8
AM_6
100
AcDbText
 10
7.459
 20
-9.685
 30
0.0
 40
0.5
  1
0.78
100
AcDbAttributeDefinition
  3

  2
S
 70
     8
280
     0
  0
ATTDEF
  5
163
330
147
100
AcDbEntity
  8
AM_6
100
AcDbText
 10
7.459
 20
-10.185
 30
0.0
 40
0.5
  1
1.38
100
AcDbAttributeDefinition
  3

  2
T
 70
     8
280
     0
  0
ATTDEF
  5
164
330
147
100
AcDbEntity
  8
AM_6
100
AcDbText
 10
7.459
 20
-10.685
 30
0.0
 40
0.5
  1
baldor
100
AcDbAttributeDefinition
  3

  2
COMPANY
 70
     8
280
     0
  0
ARC
  5
165
330
147
100
AcDbEntity
  8
AM_9
100
AcDbCircle
 10
0.0000000000000003
 20
-0.0000000000000013
 30
0.0
 40
1.067349999999999
100
AcDbArc
 50
254.1415062670009
 51
285.858493732999
  0
LINE
  5
166
330
147
100
AcDbEntity
  8
AM_9
100
AcDbLine
 10
-0.2916666666666666
 20
-0.9811664056395101
 30
0.0
 11
-0.2916666666666667
 21
-1.026726145598502
 31
0.0
  0
LINE
  5
167
330
147
100
AcDbEntity
  8
AM_9
100
AcDbLine
 10
0.2916666666666665
 20
-1.026726145598502
 30
0.0
 11
0.2916666666666666
 21
-0.9811664056395101
 31
0.0
  0
ARC
  5
168
330
147
100
AcDbEntity
  8
AM_9
100
AcDbCircle
 10
-0.0000000000000004
 20
0.0000000000000062
 30
0.0
 40
1.067349999999994
100
AcDbArc
 50
74.1415062670008
 51
105.8584937329991
  0
LINE
  5
169
330
147
100
AcDbEntity
  8
AM_9
100
AcDbLine
 10
0.2916666666666666
 20
0.9811664056395101
 30
0.0
 11
0.2916666666666667
 21
1.026726145598502
 31
0.0
  0
LINE
  5
16A
330
147
100
AcDbEntity
  8
AM_9
100
AcDbLine
 10
-0.2916666666666667
 20
1.026726145598502
 30
0.0
 11
-0.2916666666666666
 21
0.9811664056395101
 31
0.0
  0
LINE
  5
16B
330
147
100
AcDbEntity
  8
AM_9
100
AcDbLine
 10
1.0
 20
1.5075
 30
0.0
 11
-1.0
 21
1.5075
 31
0.0
  0
LINE
  5
16C
330
147
100
AcDbEntity
  8
AM_9
100
AcDbLine
 10
1.0
 20
-1.5075
 30
0.0
 11
-1.0
 21
-1.5075
 31
0.0
  0
LINE
  5
16D
330
147
100
AcDbEntity
  8
AM_9
100
AcDbLine
 10
2.06
 20
-0.3125
 30
0.0
 11
2.44
 21
-0.3125
 31
0.0
  0
LINE
  5
16E
330
147
100
AcDbEntity
  8
AM_9
100
AcDbLine
 10
2.44
 20
0.3125
 30
0.0
 11
2.06
 21
0.3125
 31
0.0
  0
LINE
  5
16F
330
147
100
AcDbEntity
  8
AM_7
100
AcDbLine
 10
-1.0877175
 20
0.0
 30
0.0
 11
1.07478
 21
0.0
 31
0.0
  0
LINE
  5
170
330
147
100
AcDbEntity
  8
AM_7
100
AcDbLine
 10
0.0
 20
-1.07478
 30
0.0
 11
0.0
 21
1.07478
 31
0.0
  0
LINE
  5
171
330
147
100
AcDbEntity
  8
AM_7
100
AcDbLine
 10
-1.759926000253189
 20
-1.01609375
 30
0.0
 11
-0.7869492692378526
 21
-0.4543453724330534
 31
0.0
  0
LINE
  5
172
330
147
100
AcDbEntity
  8
AM_7
100
AcDbLine
 10
2.459
 20
0.0
 30
0.0
 11
2.041
 21
0.0
 31
0.0
  0
LINE
  5
173
330
147
100
AcDbEntity
  8
AM_4
100
AcDbLine
 10
-1.373057343563125
 20
-0.5617949192431125
 30
0.0
 11
-1.173057343607906
 21
-0.9082050806793256
 31
0.0
  0
ARC
  5
174
330
147
100
AcDbEntity
  8
AM_4
100
AcDbCircle
 10
-1.086454803184681
 20
-0.8582050807568865
 30
0.0
 40
0.100000000000001
100
AcDbArc
 50
210.0000000000003
 51
299.9999999999997
  0
ARC
  5
175
330
147
100
AcDbEntity
  8
AM_4
100
AcDbCircle
 10
-1.28645480318468
 20
-0.5117949192431126
 30
0.0
 40
0.1000000000000011
100
AcDbArc
 50
120.0000000000005
 51
209.9999999999997
  0
LINE
  5
176
330
147
100
AcDbEntity
  8
AM_4
100
AcDbLine
 10
-1.336454803184681
 20
-0.4251923788646682
 30
0.0
 11
-1.036454803184681
 21
-0.9448076211353317
 31
0.0
  0
LINE
  5
177
330
147
100
AcDbEntity
  8
AM_4
100
AcDbLine
 10
-1.036454803184681
 20
-0.9448076211353317
 30
0.0
 11
-1.00785921351717
 21
-0.9282979497431578
 31
0.0
  0
LINE
  5
178
330
147
100
AcDbEntity
  8
AM_4
100
AcDbLine
 10
-1.307767712536771
 20
-0.4086298793568299
 30
0.0
 11
-1.336454803184681
 21
-0.4251923788646682
 31
0.0
  0
ARC
  5
179
330
147
100
AcDbEntity
  8
AM_4
100
AcDbCircle
 10
0.0000000000000002
 20
0.0
 30
0.0
 40
1.37
100
AcDbArc
 50
136.880275168082
 51
223.1197248319181
  0
LWPOLYLINE
  5
17A
330
147
100
AcDbEntity
  8
AM_4
100
AcDbPolyline
 90
       19
 70
     0
 43
0.0
 10
2.44
 20
0.9468999953862499
 10
2.439797938870787
 20
0.9515279653437072
 10
2.439193292486118
 20
0.956120713690457
 10
2.438190662570076
 20
0.9606432868384033
 10
2.436797679741728
 20
0.965061265275086
 10
2.435024945441501
 20
0.9693410255169532
 10
2.432885951247829
 20
0.9734499960043749
 10
2.430396976198084
 20
0.9773569049908775
 10
2.42757696289528
 20
0.9810320185400173
 10
2.42444737334342
 20
0.9844473668185914
 10
2.421032025608694
 20
0.987576956963956
 10
2.417356912549604
 20
0.9903969709054068
 10
2.413450003995626
 20
0.9928859466340784
 10
2.409341033879909
 20
0.9950249415417907
 10
2.405061273946101
 20
0.9967976765857359
 10
2.400643295751485
 20
0.9981906601818228
 10
2.396120722777772
 20
0.9991932908837787
 10
2.391527974536095
 20
0.9997979380665566
 10
2.386900004613751
 20
0.9999999999999997
  0
LINE
  5
17B
330
147
100
AcDbEntity
  8
AM_4
100
AcDbLine
 10
2.3869
 20
1.0
 30
0.0
 11
1.0
 21
1.0
 31
0.0
  0
LWPOLYLINE
  5
17C
330
147
100
AcDbEntity
  8
AM_4
100
AcDbPolyline
 90
       19
 70
     0
 43
0.0
 10
2.386900000000001
 20
-1.0
 10
2.391527969939901
 20
-0.9997979384686717
 10
2.396120718234115
 20
-0.9991932916849482
 10
2.400643291294944
 20
-0.9981906613759495
 10
2.405061269610594
 20
-0.9967976781637317
 10
2.409341029698432
 20
-0.9950249434916462
 10
2.413450000000001
 20
-0.9928859489409537
 10
2.417356908770241
 20
-0.9903969735517455
 10
2.421032022074356
 20
-0.9875769599296178
 10
2.424447370081006
 20
-0.9844473700810057
 10
2.427576959929618
 20
-0.9810320220743554
 10
2.430396973551746
 20
-0.9773569087702407
 10
2.432885948940954
 20
-0.9734500000000003
 10
2.435024943491646
 20
-0.9693410296984314
 10
2.436797678163732
 20
-0.9650612696105934
 10
2.43819066137595
 20
-0.9606432912949442
 10
2.439193291684949
 20
-0.9561207182341144
 10
2.439797938468672
 20
-0.951527969939901
 10
2.44
 20
-0.9469000000000005
  0
LINE
  5
17D
330
147
100
AcDbEntity
  8
AM_4
100
AcDbLine
 10
2.386900000000001
 20
-1.0
 30
0.0
 11
1.0
 21
-1.0
 31
0.0
  0
LINE
  5
17E
330
147
100
AcDbEntity
  8
AM_4
100
AcDbLine
 10
2.06
 20
-0.6019000000000007
 30
0.0
 11
2.06
 21
0.6019
 31
0.0
  0
LINE
  5
17F
330
147
100
AcDbEntity
  8
AM_4
100
AcDbLine
 10
2.44
 20
0.9469000000000001
 30
0.0
 11
2.44
 21
-0.9469
 31
0.0
  0
CIRCLE
  5
180
330
147
100
AcDbEntity
  8
AM_4
100
AcDbCircle
 10
0.0
 20
0.0
 30
0.0
 40
1.0236
  0
LINE
  5
181
330
147
100
AcDbEntity
  8
AM_4
100
AcDbLine
 10
2.44
 20
0.9469000000000001
 30
0.0
 11
1.0
 21
0.9469000000000001
 31
0.0
  0
ARC
  5
182
330
147
100
AcDbEntity
  8
AM_4
100
AcDbCircle
 10
-0.0000000000000002
 20
0.0000000000000001
 30
0.0
 40
1.3424
100
AcDbArc
 50
138.1534686261605
 51
221.8465313738394
  0
LINE
  5
183
330
147
100
AcDbEntity
  8
AM_4
100
AcDbLine
 10
2.44
 20
-0.9469
 30
0.0
 11
1.0
 21
-0.9469
 31
0.0
  0
ARC
  5
184
330
147
100
AcDbEntity
  8
AM_4
100
AcDbCircle
 10
2.006900000000001
 20
-0.601900000000001
 30
0.0
 40
0.053099999999999
100
AcDbArc
 50
270.0
 51
0.0
  0
LINE
  5
185
330
147
100
AcDbEntity
  8
AM_4
100
AcDbLine
 10
1.4831
 20
-0.6550000000000001
 30
0.0
 11
2.0069
 21
-0.655
 31
0.0
  0
ARC
  5
186
330
147
100
AcDbEntity
  8
AM_4
100
AcDbCircle
 10
1.483100000000001
 20
-0.6018999999999994
 30
0.0
 40
0.0531000000000008
100
AcDbArc
 50
179.9999991462263
 51
270.0
  0
LINE
  5
187
330
147
100
AcDbEntity
  8
AM_4
100
AcDbLine
 10
1.43
 20
0.6018999999999998
 30
0.0
 11
1.43
 21
-0.6018999999999998
 31
0.0
  0
ARC
  5
188
330
147
100
AcDbEntity
  8
AM_4
100
AcDbCircle
 10
1.4831
 20
0.6019000000000005
 30
0.0
 40
0.0530999999999995
100
AcDbArc
 50
90.0
 51
179.9999991462263
  0
LINE
  5
189
330
147
100
AcDbEntity
  8
AM_4
100
AcDbLine
 10
2.006900000000001
 20
0.6550000000000001
 30
0.0
 11
1.4831
 21
0.655
 31
0.0
  0
ARC
  5
18A
330
147
100
AcDbEntity
  8
AM_4
100
AcDbCircle
 10
2.0069
 20
0.6019000000000007
 30
0.0
 40
0.0530999999999997
100
AcDbArc
 50
0.0000008537736463
 51
90.0
  0
LWPOLYLINE
  5
18B
330
147
100
AcDbEntity
  8
AM_4
100
AcDbPolyline
 90
       19
 70
     0
 43
0.0
 10
0.9999999999999997
 20
1.7619
 10
0.9997979384686714
 20
1.766527969939901
 10
0.9991932916849481
 20
1.771120718234114
 10
0.9981906613759494
 20
1.775643291294944
 10
0.9967976781637315
 20
1.780061269610593
 10
0.9950249434916459
 20
1.784341029698431
 10
0.9928859489409535
 20
1.78845
 10
0.9903969735517454
 20
1.79235690877024
 10
0.9875769599296175
 20
1.796032022074355
 10
0.9844473700810055
 20
1.799447370081005
 10
0.9810320220743551
 20
1.802576959929618
 10
0.9773569087702404
 20
1.805396973551745
 10
0.9734499999999998
 20
1.807885948940954
 10
0.969341029698431
 20
1.810024943491646
 10
0.9650612696105929
 20
1.811797678163731
 10
0.9606432912949437
 20
1.813190661375949
 10
0.9561207182341138
 20
1.814193291684948
 10
0.9515279699399006
 20
1.814797938468672
 10
0.9469
 20
1.815
  0
LWPOLYLINE
  5
18C
330
147
100
AcDbEntity
  8
AM_4
100
AcDbPolyline
 90
       19
 70
     0
 43
0.0
 10
-0.9469
 20
1.815
 10
-0.9515279699399006
 20
1.814797938468672
 10
-0.9561207182341138
 20
1.814193291684948
 10
-0.9606432912949436
 20
1.813190661375949
 10
-0.9650612696105929
 20
1.811797678163731
 10
-0.969341029698431
 20
1.810024943491646
 10
-0.9734499999999998
 20
1.807885948940954
 10
-0.9773569087702404
 20
1.805396973551745
 10
-0.981032022074355
 20
1.802576959929618
 10
-0.9844473700810055
 20
1.799447370081006
 10
-0.9875769599296175
 20
1.796032022074355
 10
-0.9903969735517452
 20
1.792356908770241
 10
-0.9928859489409534
 20
1.78845
 10
-0.9950249434916458
 20
1.784341029698431
 10
-0.9967976781637314
 20
1.780061269610593
 10
-0.9981906613759491
 20
1.775643291294944
 10
-0.999193291684948
 20
1.771120718234114
 10
-0.9997979384686714
 20
1.766527969939901
 10
-0.9999999999999997
 20
1.7619
  0
LINE
  5
18D
330
147
100
AcDbEntity
  8
AM_4
100
AcDbLine
 10
0.9468999999999999
 20
1.815
 30
0.0
 11
-0.9469
 21
1.815
 31
0.0
  0
LINE
  5
18E
330
147
100
AcDbEntity
  8
AM_4
100
AcDbLine
 10
-0.9999999999999997
 20
1.7619
 30
0.0
 11
-0.9999999999999997
 21
0.8955656089868574
 31
0.0
  0
LINE
  5
18F
330
147
100
AcDbEntity
  8
AM_4
100
AcDbLine
 10
1.0
 20
1.7619
 30
0.0
 11
1.0
 21
0.9469000000000001
 31
0.0
  0
LINE
  5
190
330
147
100
AcDbEntity
  8
AM_4
100
AcDbLine
 10
1.0
 20
1.7619
 30
0.0
 11
-0.9999999999999997
 21
1.7619
 31
0.0
  0
LINE
  5
191
330
147
100
AcDbEntity
  8
AM_4
100
AcDbLine
 10
1.0
 20
1.353750000000001
 30
0.0
 11
-1.0
 21
1.353750000000001
 31
0.0
  0
LINE
  5
192
330
147
100
AcDbEntity
  8
AM_4
100
AcDbLine
 10
1.0
 20
1.4334
 30
0.0
 11
-1.0
 21
1.4334
 31
0.0
  0
LINE
  5
193
330
147
100
AcDbEntity
  8
AM_4
100
AcDbLine
 10
1.0
 20
-1.353750000000001
 30
0.0
 11
-1.0
 21
-1.353750000000001
 31
0.0
  0
LWPOLYLINE
  5
194
330
147
100
AcDbEntity
  8
AM_4
100
AcDbPolyline
 90
       19
 70
     0
 43
0.0
 10
-1.0
 20
-1.761900000791252
 10
-0.9997979383997098
 20
-1.766527970728141
 10
-0.9991932915475491
 20
-1.771120719013345
 10
-0.9981906611711588
 20
-1.775643292059234
 10
-0.996797677893108
 20
-1.780061270354126
 10
-0.995024943157249
 20
-1.784341030415548
 10
-0.9928859485453281
 20
-1.788450000685244
 10
-0.9903969730979023
 20
-1.792356909418396
 10
-0.9875769594210112
 20
-1.796032022680489
 10
-0.9844473695215065
 20
-1.799447370640505
 10
-0.9810320214682215
 20
-1.802576960438224
 10
-0.9773569081220854
 20
-1.805396974005589
 10
-0.9734499993147562
 20
-1.80788594933658
 10
-0.9693410289813138
 20
-1.810024943826043
 10
-0.96506126886706
 20
-1.811797678434355
 10
-0.9606432905306538
 20
-1.81319066158074
 10
-0.9561207174548835
 20
-1.814193291822347
 10
-0.9515279691516602
 20
-1.814797938537634
 10
-0.9469000000000002
 20
-1.815
  0
LWPOLYLINE
  5
195
330
147
100
AcDbEntity
  8
AM_4
100
AcDbPolyline
 90
       19
 70
     0
 43
0.0
 10
0.9469000000000001
 20
-1.815
 10
0.9515279699399007
 20
-1.814797938468672
 10
0.9561207182341142
 20
-1.814193291684948
 10
0.960643291294944
 20
-1.813190661375949
 10
0.965061269610593
 20
-1.811797678163731
 10
0.9693410296984313
 20
-1.810024943491646
 10
0.9734500000000001
 20
-1.807885948940954
 10
0.9773569087702406
 20
-1.805396973551745
 10
0.9810320220743554
 20
-1.802576959929618
 10
0.9844473700810057
 20
-1.799447370081006
 10
0.9875769599296179
 20
-1.796032022074355
 10
0.9903969735517456
 20
-1.792356908770241
 10
0.9928859489409537
 20
-1.78845
 10
0.9950249434916463
 20
-1.784341029698431
 10
0.996797678163732
 20
-1.780061269610593
 10
0.9981906613759497
 20
-1.775643291294944
 10
0.9991932916849485
 20
-1.771120718234114
 10
0.9997979384686719
 20
-1.766527969939901
 10
1.0
 20
-1.761900000791252
  0
LINE
  5
196
330
147
100
AcDbEntity
  8
AM_4
100
AcDbLine
 10
0.9469
 20
-1.815
 30
0.0
 11
-0.9469000000000002
 21
-1.815
 31
0.0
  0
LINE
  5
197
330
147
100
AcDbEntity
  8
AM_4
100
AcDbLine
 10
-1.0
 20
-0.895565608986857
 30
0.0
 11
-1.0
 21
-1.7619
 31
0.0
  0
LINE
  5
198
330
147
100
AcDbEntity
  8
AM_4
100
AcDbLine
 10
1.0
 20
-1.7619
 30
0.0
 11
-1.0
 21
-1.7619
 31
0.0
  0
LINE
  5
199
330
147
100
AcDbEntity
  8
AM_4
100
AcDbLine
 10
1.0
 20
-0.9469
 30
0.0
 11
1.0
 21
-1.7619
 31
0.0
  0
LINE
  5
19A
330
147
100
AcDbEntity
  8
AM_4
100
AcDbLine
 10
1.0
 20
-1.4334
 30
0.0
 11
-1.0
 21
-1.4334
 31
0.0
  0
LINE
  5
19B
330
147
100
AcDbEntity
  8
AM_4
100
AcDbLine
 10
2.06
 20
0.5219034177891536
 30
0.0
 11
2.44
 21
0.5219034177891536
 31
0.0
  0
LINE
  5
19C
330
147
100
AcDbEntity
  8
AM_4
100
AcDbLine
 10
2.44
 20
-0.5219034177891528
 30
0.0
 11
2.06
 21
-0.5219034177891535
 31
0.0
  0
ENDBLK
  5
14A
330
147
100
AcDbEntity
  8
0
100
AcDbBlockEnd
  0
ENDSEC
  0
SECTION
  2
ENTITIES
  0
INSERT
  5
6F
330
1F
100
AcDbEntity
  8
0
100
AcDbBlockReference
  2
1_125550_0
 10
0.0
 20
0.0
 30
0.0
  0
POINT
  5
19E
330
1F
100
AcDbEntity
  8
ConnectionPoints
100
AcDbPoint
 10
-1.273057343563125
 20
-0.735
 30
0.0
  0
POINT
  5
19F
330
1F
100
AcDbEntity
  8
ConnectionPoints
100
AcDbPoint
 10
-1.273057343563125
 20
-0.735
 30
0.0
  0
POINT
  5
1A0
330
1F
100
AcDbEntity
  8
ConnectionPoints
100
AcDbPoint
 10
0.0
 20
0.0
 30
0.78
  0
ENDSEC
  0
SECTION
  2
OBJECTS
  0
DICTIONARY
  5
C
330
0
100
AcDbDictionary
281
     1
  3
ACAD_DETAILVIEWSTYLE
350
1A8
  3
ACAD_GROUP
350
D
  3
ACAD_LAYOUT
350
1A
  3
ACAD_MATERIAL
350
43
  3
ACAD_MLEADERSTYLE
350
6B
  3
ACAD_MLINESTYLE
350
17
  3
ACAD_PLOTSETTINGS
350
19
  3
ACAD_PLOTSTYLENAME
350
E
  3
ACAD_SCALELIST
350
47
  3
ACAD_SECTIONVIEWSTYLE
350
1A9
  3
ACAD_TABLESTYLE
350
69
  3
ACAD_VISUALSTYLE
350
2A
  3
ACDB_RECOMPOSE_DATA
350
1A5
  3
AcDbVariableDictionary
350
1A1
  0
SUN
  5
6D
330
29
100
AcDbSun
 90
        1
290
     0
 63
     7
421
 16777215
 40
1.0
291
     1
 91
  2455826
 92
 54000000
292
     0
 70
     2
 71
   256
280
     1
  0
DICTIONARY
  5
1A8
102
{ACAD_REACTORS
330
C
102
}
330
C
100
AcDbDictionary
281
     1
  0
DICTIONARY
  5
D
102
{ACAD_REACTORS
330
C
102
}
330
C
100
AcDbDictionary
281
     1
  0
DICTIONARY
  5
1A
102
{ACAD_REACTORS
330
C
102
}
330
C
100
AcDbDictionary
281
     1
  3
Layout1
350
1E
  3
Layout2
350
26
  3
Model
350
22
  0
DICTIONARY
  5
43
102
{ACAD_REACTORS
330
C
102
}
330
C
100
AcDbDictionary
281
     1
  3
ByBlock
350
45
  3
ByLayer
350
44
  3
Global
350
46
  0
DICTIONARY
  5
6B
102
{ACAD_REACTORS
330
C
102
}
330
C
100
AcDbDictionary
281
     1
  3
Standard
350
6C
  0
DICTIONARY
  5
17
102
{ACAD_REACTORS
330
C
102
}
330
C
100
AcDbDictionary
281
     1
  3
Standard
350
18
  0
DICTIONARY
  5
19
102
{ACAD_REACTORS
330
C
102
}
330
C
100
AcDbDictionary
281
     1
  0
ACDBDICTIONARYWDFLT
  5
E
102
{ACAD_REACTORS
330
C
102
}
330
C
100
AcDbDictionary
281
     1
  3
Normal
350
F
100
AcDbDictionaryWithDefault
340
F
  0
DICTIONARY
  5
47
102
{ACAD_REACTORS
330
C
102
}
330
C
100
AcDbDictionary
281
     1
  3
A0
350
48
  3
A1
350
49
  3
A2
350
4A
  3
A3
350
4B
  3
A4
350
4C
  3
A5
350
4D
  3
A6
350
4E
  3
A7
350
4F
  3
A8
350
50
  3
A9
350
51
  3
B0
350
52
  3
B1
350
53
  3
B2
350
54
  3
B3
350
55
  3
B4
350
56
  3
B5
350
57
  3
B6
350
58
  3
B7
350
59
  3
B8
350
5A
  3
B9
350
5B
  3
C0
350
5C
  3
C1
350
5D
  3
C2
350
5E
  3
C3
350
5F
  3
C4
350
60
  3
C5
350
61
  3
C6
350
62
  3
C7
350
63
  3
C8
350
64
  3
C9
350
65
  3
D0
350
66
  3
D1
350
67
  3
D2
350
68
  0
DICTIONARY
  5
1A9
102
{ACAD_REACTORS
330
C
102
}
330
C
100
AcDbDictionary
281
     1
  0
DICTIONARY
  5
69
102
{ACAD_REACTORS
330
C
102
}
330
C
100
AcDbDictionary
281
     1
  3
Standard
350
6A
  0
DICTIONARY
  5
2A
102
{ACAD_REACTORS
330
C
102
}
330
C
100
AcDbDictionary
281
     1
  3
2dWireframe
350
2F
  3
Basic
350
32
  3
Brighten
350
36
  3
ColorChange
350
3A
  3
Conceptual
350
34
  3
Dim
350
35
  3
EdgeColorOff
350
3D
  3
Facepattern
350
39
  3
Flat
350
2B
  3
FlatWithEdges
350
2C
  3
Gouraud
350
2D
  3
GouraudWithEdges
350
2E
  3
Hidden
350
31
  3
JitterOff
350
3B
  3
Linepattern
350
38
  3
OverhangOff
350
3C
  3
Realistic
350
33
  3
Shaded
350
42
  3
Shaded with edges
350
41
  3
Shades of Gray
350
3E
  3
Sketchy
350
3F
  3
Thicken
350
37
  3
Wireframe
350
30
  3
X-Ray
350
40
  0
XRECORD
  5
1A5
102
{ACAD_REACTORS
330
C
102
}
330
C
100
AcDbXrecord
280
     1
 90
        1
330
6A
  0
DICTIONARY
  5
1A1
102
{ACAD_REACTORS
330
C
102
}
330
C
100
AcDbDictionary
281
     1
  3
CANNOSCALE
350
1A2
  3
CMLEADERSTYLE
350
1A7
  3
CTABLESTYLE
350
1A6
  0
LAYOUT
  5
1E
102
{ACAD_REACTORS
330
1A
102
}
330
1A
100
AcDbPlotSettings
  1

  2
none_device
  4

  6

 40
0.0
 41
0.0
 42
0.0
 43
0.0
 44
0.0
 45
0.0
 46
0.0
 47
0.0
 48
0.0
 49
0.0
140
0.0
141
0.0
142
1.0
143
1.0
 70
   688
 72
     0
 73
     0
 74
     5
  7

 75
    16
 76
     0
 77
     2
 78
   300
147
1.0
148
0.0
149
0.0
100
AcDbLayout
  1
Layout1
 70
     1
 71
     1
 10
0.0
 20
0.0
 11
12.0
 21
9.0
 12
0.0
 22
0.0
 32
0.0
 14
1.000000000000000E+20
 24
1.000000000000000E+20
 34
1.000000000000000E+20
 15
-1.000000000000000E+20
 25
-1.000000000000000E+20
 35
-1.000000000000000E+20
146
0.0
 13
0.0
 23
0.0
 33
0.0
 16
1.0
 26
0.0
 36
0.0
 17
0.0
 27
1.0
 37
0.0
 76
     0
330
1B
  0
LAYOUT
  5
26
102
{ACAD_REACTORS
330
1A
102
}
330
1A
100
AcDbPlotSettings
  1

  2
none_device
  4

  6

 40
0.0
 41
0.0
 42
0.0
 43
0.0
 44
0.0
 45
0.0
 46
0.0
 47
0.0
 48
0.0
 49
0.0
140
0.0
141
0.0
142
1.0
143
1.0
 70
   688
 72
     0
 73
     0
 74
     5
  7

 75
    16
 76
     0
 77
     2
 78
   300
147
1.0
148
0.0
149
0.0
100
AcDbLayout
  1
Layout2
 70
     1
 71
     2
 10
0.0
 20
0.0
 11
0.0
 21
0.0
 12
0.0
 22
0.0
 32
0.0
 14
0.0
 24
0.0
 34
0.0
 15
0.0
 25
0.0
 35
0.0
146
0.0
 13
0.0
 23
0.0
 33
0.0
 16
1.0
 26
0.0
 36
0.0
 17
0.0
 27
1.0
 37
0.0
 76
     0
330
23
  0
LAYOUT
  5
22
102
{ACAD_REACTORS
330
1A
102
}
330
1A
100
AcDbPlotSettings
  1

  2
none_device
  4
Letter_(8.50_x_11.00_Inches)
  6

 40
6.35
 41
6.35
 42
6.35000508
 43
6.35000508
 44
215.9
 45
279.4
 46
0.0
 47
0.0
 48
0.0
 49
0.0
140
0.0
141
0.0
142
1.0
143
1.0
 70
  1712
 72
     0
 73
     0
 74
     0
  7

 75
     0
 76
     0
 77
     2
 78
   300
147
1.0
148
0.0
149
0.0
100
AcDbLayout
  1
Model
 70
     1
 71
     0
 10
0.0
 20
0.0
 11
12.0
 21
9.0
 12
0.0
 22
0.0
 32
0.0
 14
1.000000000000000E+20
 24
1.000000000000000E+20
 34
1.000000000000000E+20
 15
-1.000000000000000E+20
 25
-1.000000000000000E+20
 35
-1.000000000000000E+20
146
0.0
 13
0.0
 23
0.0
 33
0.0
 16
1.0
 26
0.0
 36
0.0
 17
0.0
 27
1.0
 37
0.0
 76
     0
330
1F
331
29
  0
MATERIAL
  5
45
102
{ACAD_REACTORS
330
43
102
}
330
43
100
AcDbMaterial
  1
ByBlock
 72
     1
 94
      127
  0
MATERIAL
  5
44
102
{ACAD_REACTORS
330
43
102
}
330
43
100
AcDbMaterial
  1
ByLayer
 72
     1
 94
      127
  0
MATERIAL
  5
46
102
{ACAD_REACTORS
330
43
102
}
330
43
100
AcDbMaterial
  1
Global
 72
     1
 94
      127
  0
MLEADERSTYLE
  5
6C
102
{ACAD_REACTORS
330
6B
102
}
330
6B
100
AcDbMLeaderStyle
179
     2
170
     2
171
     1
172
     0
 90
        2
 40
0.0
 41
0.0
173
     1
 91
-1056964608
340
14
 92
       -2
290
     1
 42
0.09
291
     1
 43
0.36
  3
Standard
341
0
 44
0.18
300

342
11
174
     1
178
     6
175
     1
176
     0
 93
-1056964608
 45
0.18
292
     0
297
     0
 46
0.18
343
0
 94
-1056964608
 47
1.0
 49
1.0
140
1.0
293
     1
141
0.0
294
     1
177
     0
142
1.0
295
     0
296
     0
143
0.125
271
     0
272
     9
273
     9
298
     0
  0
MLINESTYLE
  5
18
102
{ACAD_REACTORS
330
17
102
}
330
17
100
AcDbMlineStyle
  2
Standard
 70
     0
  3

 62
   256
 51
90.0
 52
90.0
 71
     2
 49
0.5
 62
   256
  6
BYLAYER
 49
-0.5
 62
   256
  6
BYLAYER
  0
ACDBPLACEHOLDER
  5
F
102
{ACAD_REACTORS
330
E
102
}
330
E
  0
SCALE
  5
48
102
{ACAD_REACTORS
330
47
102
}
330
47
100
AcDbScale
 70
     0
300
1:1
140
1.0
141
1.0
290
     1
  0
SCALE
  5
49
102
{ACAD_REACTORS
330
47
102
}
330
47
100
AcDbScale
 70
     0
300
1:2
140
1.0
141
2.0
290
     0
  0
SCALE
  5
4A
102
{ACAD_REACTORS
330
47
102
}
330
47
100
AcDbScale
 70
     0
300
1:4
140
1.0
141
4.0
290
     0
  0
SCALE
  5
4B
102
{ACAD_REACTORS
330
47
102
}
330
47
100
AcDbScale
 70
     0
300
1:5
140
1.0
141
5.0
290
     0
  0
SCALE
  5
4C
102
{ACAD_REACTORS
330
47
102
}
330
47
100
AcDbScale
 70
     0
300
1:8
140
1.0
141
8.0
290
     0
  0
SCALE
  5
4D
102
{ACAD_REACTORS
330
47
102
}
330
47
100
AcDbScale
 70
     0
300
1:10
140
1.0
141
10.0
290
     0
  0
SCALE
  5
4E
102
{ACAD_REACTORS
330
47
102
}
330
47
100
AcDbScale
 70
     0
300
1:16
140
1.0
141
16.0
290
     0
  0
SCALE
  5
4F
102
{ACAD_REACTORS
330
47
102
}
330
47
100
AcDbScale
 70
     0
300
1:20
140
1.0
141
20.0
290
     0
  0
SCALE
  5
50
102
{ACAD_REACTORS
330
47
102
}
330
47
100
AcDbScale
 70
     0
300
1:30
140
1.0
141
30.0
290
     0
  0
SCALE
  5
51
102
{ACAD_REACTORS
330
47
102
}
330
47
100
AcDbScale
 70
     0
300
1:40
140
1.0
141
40.0
290
     0
  0
SCALE
  5
52
102
{ACAD_REACTORS
330
47
102
}
330
47
100
AcDbScale
 70
     0
300
1:50
140
1.0
141
50.0
290
     0
  0
SCALE
  5
53
102
{ACAD_REACTORS
330
47
102
}
330
47
100
AcDbScale
 70
     0
300
1:100
140
1.0
141
100.0
290
     0
  0
SCALE
  5
54
102
{ACAD_REACTORS
330
47
102
}
330
47
100
AcDbScale
 70
     0
300
2:1
140
2.0
141
1.0
290
     0
  0
SCALE
  5
55
102
{ACAD_REACTORS
330
47
102
}
330
47
100
AcDbScale
 70
     0
300
4:1
140
4.0
141
1.0
290
     0
  0
SCALE
  5
56
102
{ACAD_REACTORS
330
47
102
}
330
47
100
AcDbScale
 70
     0
300
8:1
140
8.0
141
1.0
290
     0
  0
SCALE
  5
57
102
{ACAD_REACTORS
330
47
102
}
330
47
100
AcDbScale
 70
     0
300
10:1
140
10.0
141
1.0
290
     0
  0
SCALE
  5
58
102
{ACAD_REACTORS
330
47
102
}
330
47
100
AcDbScale
 70
     0
300
100:1
140
100.0
141
1.0
290
     0
  0
SCALE
  5
59
102
{ACAD_REACTORS
330
47
102
}
330
47
100
AcDbScale
 70
     0
300
1/128" = 1'-0"
140
0.0078125
141
12.0
290
     0
  0
SCALE
  5
5A
102
{ACAD_REACTORS
330
47
102
}
330
47
100
AcDbScale
 70
     0
300
1/64" = 1'-0"
140
0.015625
141
12.0
290
     0
  0
SCALE
  5
5B
102
{ACAD_REACTORS
330
47
102
}
330
47
100
AcDbScale
 70
     0
300
1/32" = 1'-0"
140
0.03125
141
12.0
290
     0
  0
SCALE
  5
5C
102
{ACAD_REACTORS
330
47
102
}
330
47
100
AcDbScale
 70
     0
300
1/16" = 1'-0"
140
0.0625
141
12.0
290
     0
  0
SCALE
  5
5D
102
{ACAD_REACTORS
330
47
102
}
330
47
100
AcDbScale
 70
     0
300
3/32" = 1'-0"
140
0.09375
141
12.0
290
     0
  0
SCALE
  5
5E
102
{ACAD_REACTORS
330
47
102
}
330
47
100
AcDbScale
 70
     0
300
1/8" = 1'-0"
140
0.125
141
12.0
290
     0
  0
SCALE
  5
5F
102
{ACAD_REACTORS
330
47
102
}
330
47
100
AcDbScale
 70
     0
300
3/16" = 1'-0"
140
0.1875
141
12.0
290
     0
  0
SCALE
  5
60
102
{ACAD_REACTORS
330
47
102
}
330
47
100
AcDbScale
 70
     0
300
1/4" = 1'-0"
140
0.25
141
12.0
290
     0
  0
SCALE
  5
61
102
{ACAD_REACTORS
330
47
102
}
330
47
100
AcDbScale
 70
     0
300
3/8" = 1'-0"
140
0.375
141
12.0
290
     0
  0
SCALE
  5
62
102
{ACAD_REACTORS
330
47
102
}
330
47
100
AcDbScale
 70
     0
300
1/2" = 1'-0"
140
0.5
141
12.0
290
     0
  0
SCALE
  5
63
102
{ACAD_REACTORS
330
47
102
}
330
47
100
AcDbScale
 70
     0
300
3/4" = 1'-0"
140
0.75
141
12.0
290
     0
  0
SCALE
  5
64
102
{ACAD_REACTORS
330
47
102
}
330
47
100
AcDbScale
 70
     0
300
1" = 1'-0"
140
1.0
141
12.0
290
     0
  0
SCALE
  5
65
102
{ACAD_REACTORS
330
47
102
}
330
47
100
AcDbScale
 70
     0
300
1-1/2" = 1'-0"
140
1.5
141
12.0
290
     0
  0
SCALE
  5
66
102
{ACAD_REACTORS
330
47
102
}
330
47
100
AcDbScale
 70
     0
300
3" = 1'-0"
140
3.0
141
12.0
290
     0
  0
SCALE
  5
67
102
{ACAD_REACTORS
330
47
102
}
330
47
100
AcDbScale
 70
     0
300
6" = 1'-0"
140
6.0
141
12.0
290
     0
  0
SCALE
  5
68
102
{ACAD_REACTORS
330
47
102
}
330
47
100
AcDbScale
 70
     0
300
1'-0" = 1'-0"
140
12.0
141
12.0
290
     0
  0
TABLESTYLE
  5
6A
102
{ACAD_REACTORS
330
69
102
}
102
{ACAD_XDICTIONARY
360
1A3
102
}
330
69
100
AcDbTableStyle
  3
Standard
 70
     0
 71
     0
 40
0.06
 41
0.06
280
     0
281
     0
  7
Standard
140
0.18
170
     2
 62
     0
 63
   257
283
     0
 90
        4
 91
        0
  1

274
    -2
284
     1
 64
     0
275
    -2
285
     1
 65
     0
276
    -2
286
     1
 66
     0
277
    -2
287
     1
 67
     0
278
    -2
288
     1
 68
     0
279
    -2
289
     1
 69
     0
  7
Standard
140
0.25
170
     5
 62
     0
 63
   257
283
     0
 90
        4
 91
        0
  1

274
    -2
284
     1
 64
     0
275
    -2
285
     1
 65
     0
276
    -2
286
     1
 66
     0
277
    -2
287
     1
 67
     0
278
    -2
288
     1
 68
     0
279
    -2
289
     1
 69
     0
  7
Standard
140
0.18
170
     5
 62
     0
 63
   257
283
     0
 90
        4
 91
        0
  1

274
    -2
284
     1
 64
     0
275
    -2
285
     1
 65
     0
276
    -2
286
     1
 66
     0
277
    -2
287
     1
 67
     0
278
    -2
288
     1
 68
     0
279
    -2
289
     1
 69
     0
  0
VISUALSTYLE
  5
2F
102
{ACAD_REACTORS
330
2A
102
}
330
2A
100
AcDbVisualStyle
  2
2dWireframe
 70
     4
177
     3
291
     0
 70
    58
 90
        0
176
     1
 90
        2
176
     1
 90
        0
176
     1
 90
        0
176
     1
 40
0.6
176
     1
 40
30.0
176
     1
 62
     7
420
 16777215
176
     1
 90
        1
176
     1
 90
        4
176
     1
 62
     7
176
     1
 62
   257
176
     1
 90
        1
176
     1
 90
        1
176
     1
 40
1.0
176
     1
 90
        0
176
     1
 62
   257
176
     1
 40
1.0
176
     1
 90
        1
176
     1
 90
        6
176
     1
 90
        2
176
     1
 62
     7
176
     1
 90
        5
176
     1
 90
        0
176
     1
 90
        0
176
     1
290
     0
176
     1
 90
        1
176
     1
 40
0.0
176
     1
 90
        0
176
     1
290
     1
176
     1
290
     1
176
     1
290
     0
176
     1
290
     0
176
     1
290
     0
176
     1
290
     0
176
     1
290
     0
176
     1
290
     0
176
     1
290
     0
176
     1
 90
       50
176
     1
 40
0.0
176
     1
 40
1.0
176
     1
 90
        0
176
     1
 62
    18
420
        0
176
     1
 90
       50
176
     1
 90
        3
176
     1
 62
     5
420
      255
176
     1
290
     0
176
     1
 90
       50
176
     1
 90
       50
176
     1
 90
       50
176
     1
290
     0
176
     1
 90
       50
176
     1
 62
   256
176
     0
 40
1.0
176
     0
 90
        2
176
     1
  1
strokes_ogs.tif
176
     1
290
     0
176
     1
 40
1.0
176
     1
 40
1.0
176
     1
  0
VISUALSTYLE
  5
32
102
{ACAD_REACTORS
330
2A
102
}
330
2A
100
AcDbVisualStyle
  2
Basic
 70
     7
177
     3
291
     1
 70
    58
 90
        1
176
     1
 90
        0
176
     1
 90
        1
176
     1
 90
        0
176
     1
 40
0.6
176
     1
 40
30.0
176
     1
 62
     7
420
 16777215
176
     1
 90
        0
176
     1
 90
        4
176
     1
 62
     7
176
     1
 62
   257
176
     1
 90
        1
176
     1
 90
        1
176
     1
 40
1.0
176
     1
 90
        8
176
     1
 62
     7
176
     1
 40
1.0
176
     1
 90
        1
176
     1
 90
        6
176
     1
 90
        2
176
     1
 62
     7
176
     1
 90
        5
176
     1
 90
        0
176
     1
 90
        0
176
     1
290
     0
176
     1
 90
        1
176
     1
 40
0.0
176
     1
 90
        0
176
     1
290
     0
176
     1
290
     1
176
     1
290
     1
176
     1
290
     0
176
     1
290
     0
176
     1
290
     0
176
     1
290
     0
176
     1
290
     0
176
     1
290
     0
176
     1
 90
       50
176
     1
 40
0.0
176
     1
 40
1.0
176
     1
 90
        0
176
     1
 62
    18
420
        0
176
     1
 90
       50
176
     1
 90
        3
176
     1
 62
     5
420
      255
176
     1
290
     0
176
     1
 90
       50
176
     1
 90
       50
176
     1
 90
       50
176
     1
290
     0
176
     1
 90
       50
176
     1
 62
   256
176
     0
 40
1.0
176
     0
 90
        2
176
     1
  1
strokes_ogs.tif
176
     1
290
     0
176
     1
 40
1.0
176
     1
 40
1.0
176
     1
  0
VISUALSTYLE
  5
36
102
{ACAD_REACTORS
330
2A
102
}
330
2A
100
AcDbVisualStyle
  2
Brighten
 70
    12
177
     3
291
     1
 70
    58
 90
        2
176
     1
 90
        2
176
     1
 90
        0
176
     1
 90
        0
176
     1
 40
0.6
176
     1
 40
30.0
176
     1
 62
     7
420
 16777215
176
     1
 90
        1
176
     1
 90
        4
176
     1
 62
     7
176
     1
 62
   257
176
     1
 90
        1
176
     1
 90
        1
176
     1
 40
1.0
176
     1
 90
        8
176
     1
 62
     7
176
     1
 40
1.0
176
     1
 90
        1
176
     1
 90
        6
176
     1
 90
        2
176
     1
 62
     7
176
     1
 90
        5
176
     1
 90
        0
176
     1
 90
        0
176
     1
290
     0
176
     1
 90
        1
176
     1
 40
50.0
176
     1
 90
        0
176
     1
290
     0
176
     1
290
     1
176
     1
290
     1
176
     1
290
     0
176
     1
290
     0
176
     1
290
     0
176
     1
290
     0
176
     1
290
     0
176
     1
290
     0
176
     1
 90
       50
176
     1
 40
0.0
176
     1
 40
1.0
176
     1
 90
        0
176
     1
 62
    18
420
        0
176
     1
 90
       50
176
     1
 90
        3
176
     1
 62
     5
420
      255
176
     1
290
     0
176
     1
 90
       50
176
     1
 90
       50
176
     1
 90
       50
176
     1
290
     0
176
     1
 90
       50
176
     1
 62
   256
176
     0
 40
1.0
176
     0
 90
        2
176
     1
  1
strokes_ogs.tif
176
     1
290
     0
176
     1
 40
1.0
176
     1
 40
1.0
176
     1
  0
VISUALSTYLE
  5
3A
102
{ACAD_REACTORS
330
2A
102
}
330
2A
100
AcDbVisualStyle
  2
ColorChange
 70
    16
177
     3
291
     1
 70
    58
 90
        2
176
     1
 90
        2
176
     1
 90
        3
176
     1
 90
        0
176
     1
 40
0.6
176
     1
 40
30.0
176
     1
 62
     8
420
  8421504
176
     1
 90
        1
176
     1
 90
        4
176
     1
 62
     7
176
     1
 62
   257
176
     1
 90
        1
176
     1
 90
        1
176
     1
 40
1.0
176
     1
 90
        8
176
     1
 62
     8
420
  8421504
176
     1
 40
1.0
176
     1
 90
        1
176
     1
 90
        6
176
     1
 90
        2
176
     1
 62
     7
176
     1
 90
        5
176
     1
 90
        0
176
     1
 90
        0
176
     1
290
     0
176
     1
 90
        1
176
     1
 40
0.0
176
     1
 90
        0
176
     1
290
     0
176
     1
290
     1
176
     1
290
     1
176
     1
290
     0
176
     1
290
     0
176
     1
290
     0
176
     1
290
     0
176
     1
290
     0
176
     1
290
     0
176
     1
 90
       50
176
     1
 40
0.0
176
     1
 40
1.0
176
     1
 90
        0
176
     1
 62
    18
420
        0
176
     1
 90
       50
176
     1
 90
        3
176
     1
 62
     5
420
      255
176
     1
290
     0
176
     1
 90
       50
176
     1
 90
       50
176
     1
 90
       50
176
     1
290
     0
176
     1
 90
       50
176
     1
 62
   256
176
     0
 40
1.0
176
     0
 90
        2
176
     1
  1
strokes_ogs.tif
176
     1
290
     0
176
     1
 40
1.0
176
     1
 40
1.0
176
     1
  0
VISUALSTYLE
  5
34
102
{ACAD_REACTORS
330
2A
102
}
330
2A
100
AcDbVisualStyle
  2
Conceptual
 70
     9
177
     3
291
     0
 70
    58
 90
        3
176
     1
 90
        2
176
     1
 90
        0
176
     1
 90
        0
176
     1
 40
0.6
176
     1
 40
30.0
176
     1
 62
     7
420
 16777215
176
     1
 90
        2
176
     1
 90
        2
176
     1
 62
     7
176
     1
 62
   257
176
     1
 90
        1
176
     1
 90
        1
176
     1
 40
179.0
176
     1
 90
        8
176
     1
 62
     7
176
     1
 40
1.0
176
     1
 90
        1
176
     1
 90
        6
176
     1
 90
        2
176
     1
 62
     7
176
     1
 90
        3
176
     1
 90
        0
176
     1
 90
        0
176
     1
290
     0
176
     1
 90
        1
176
     1
 40
0.0
176
     1
 90
        0
176
     1
290
     0
176
     1
290
     1
176
     1
290
     1
176
     1
290
     0
176
     1
290
     0
176
     1
290
     0
176
     1
290
     0
176
     1
290
     0
176
     1
290
     0
176
     1
 90
       50
176
     1
 40
0.0
176
     1
 40
1.0
176
     1
 90
        0
176
     1
 62
    18
420
        0
176
     1
 90
       50
176
     1
 90
        3
176
     1
 62
     5
420
      255
176
     1
290
     0
176
     1
 90
       50
176
     1
 90
       50
176
     1
 90
       50
176
     1
290
     0
176
     1
 90
       50
176
     1
 62
   256
176
     0
 40
1.0
176
     0
 90
        2
176
     1
  1
strokes_ogs.tif
176
     1
290
     0
176
     1
 40
1.0
176
     1
 40
1.0
176
     1
  0
VISUALSTYLE
  5
35
102
{ACAD_REACTORS
330
2A
102
}
330
2A
100
AcDbVisualStyle
  2
Dim
 70
    11
177
     3
291
     1
 70
    58
 90
        2
176
     1
 90
        2
176
     1
 90
        0
176
     1
 90
        0
176
     1
 40
0.6
176
     1
 40
30.0
176
     1
 62
     7
420
 16777215
176
     1
 90
        1
176
     1
 90
        4
176
     1
 62
     7
176
     1
 62
   257
176
     1
 90
        1
176
     1
 90
        1
176
     1
 40
1.0
176
     1
 90
        8
176
     1
 62
     7
176
     1
 40
1.0
176
     1
 90
        1
176
     1
 90
        6
176
     1
 90
        2
176
     1
 62
     7
176
     1
 90
        5
176
     1
 90
        0
176
     1
 90
        0
176
     1
290
     0
176
     1
 90
        1
176
     1
 40
-50.0
176
     1
 90
        0
176
     1
290
     0
176
     1
290
     1
176
     1
290
     1
176
     1
290
     0
176
     1
290
     0
176
     1
290
     0
176
     1
290
     0
176
     1
290
     0
176
     1
290
     0
176
     1
 90
       50
176
     1
 40
0.0
176
     1
 40
1.0
176
     1
 90
        0
176
     1
 62
    18
420
        0
176
     1
 90
       50
176
     1
 90
        3
176
     1
 62
     5
420
      255
176
     1
290
     0
176
     1
 90
       50
176
     1
 90
       50
176
     1
 90
       50
176
     1
290
     0
176
     1
 90
       50
176
     1
 62
   256
176
     0
 40
1.0
176
     0
 90
        2
176
     1
  1
strokes_ogs.tif
176
     1
290
     0
176
     1
 40
1.0
176
     1
 40
1.0
176
     1
  0
VISUALSTYLE
  5
3D
102
{ACAD_REACTORS
330
2A
102
}
330
2A
100
AcDbVisualStyle
  2
EdgeColorOff
 70
    22
177
     3
291
     1
 70
    58
 90
        2
176
     0
 90
        2
176
     0
 90
        0
176
     0
 90
        0
176
     0
 40
0.6
176
     0
 40
30.0
176
     0
 62
     7
420
 16777215
176
     0
 90
        1
176
     0
 90
        4
176
     0
 62
     7
176
     0
 62
   257
176
     0
 90
        1
176
     0
 90
        1
176
     0
 40
1.0
176
     0
 90
        8
176
     2
 62
     7
176
     0
 40
1.0
176
     0
 90
        1
176
     0
 90
        6
176
     0
 90
        2
176
     0
 62
     7
176
     0
 90
        5
176
     0
 90
        0
176
     0
 90
        0
176
     0
290
     0
176
     0
 90
        1
176
     0
 40
0.0
176
     0
 90
        0
176
     0
290
     0
176
     0
290
     1
176
     0
290
     1
176
     0
290
     0
176
     0
290
     0
176
     0
290
     0
176
     0
290
     0
176
     0
290
     0
176
     0
290
     0
176
     0
 90
       50
176
     0
 40
0.0
176
     0
 40
1.0
176
     0
 90
        0
176
     0
 62
    18
420
        0
176
     0
 90
       50
176
     0
 90
        3
176
     0
 62
     5
420
      255
176
     0
290
     0
176
     0
 90
       50
176
     0
 90
       50
176
     0
 90
       50
176
     0
290
     0
176
     0
 90
       50
176
     0
 62
   256
176
     0
 40
1.0
176
     0
 90
        2
176
     0
  1
strokes_ogs.tif
176
     0
290
     0
176
     0
 40
1.0
176
     0
 40
1.0
176
     0
  0
VISUALSTYLE
  5
39
102
{ACAD_REACTORS
330
2A
102
}
330
2A
100
AcDbVisualStyle
  2
Facepattern
 70
    15
177
     3
291
     1
 70
    58
 90
        2
176
     1
 90
        2
176
     1
 90
        0
176
     1
 90
        0
176
     1
 40
0.6
176
     1
 40
30.0
176
     1
 62
     7
420
 16777215
176
     1
 90
        1
176
     1
 90
        4
176
     1
 62
     7
176
     1
 62
   257
176
     1
 90
        1
176
     1
 90
        1
176
     1
 40
1.0
176
     1
 90
        8
176
     1
 62
     7
176
     1
 40
1.0
176
     1
 90
        1
176
     1
 90
        6
176
     1
 90
        2
176
     1
 62
     7
176
     1
 90
        5
176
     1
 90
        0
176
     1
 90
        0
176
     1
290
     0
176
     1
 90
        1
176
     1
 40
0.0
176
     1
 90
        0
176
     1
290
     0
176
     1
290
     1
176
     1
290
     1
176
     1
290
     0
176
     1
290
     0
176
     1
290
     0
176
     1
290
     0
176
     1
290
     0
176
     1
290
     0
176
     1
 90
       50
176
     1
 40
0.0
176
     1
 40
1.0
176
     1
 90
        0
176
     1
 62
    18
420
        0
176
     1
 90
       50
176
     1
 90
        3
176
     1
 62
     5
420
      255
176
     1
290
     0
176
     1
 90
       50
176
     1
 90
       50
176
     1
 90
       50
176
     1
290
     0
176
     1
 90
       50
176
     1
 62
   256
176
     0
 40
1.0
176
     0
 90
        2
176
     1
  1
strokes_ogs.tif
176
     1
290
     0
176
     1
 40
1.0
176
     1
 40
1.0
176
     1
  0
VISUALSTYLE
  5
2B
102
{ACAD_REACTORS
330
2A
102
}
330
2A
100
AcDbVisualStyle
  2
Flat
 70
     0
177
     3
291
     1
 70
    58
 90
        2
176
     1
 90
        1
176
     1
 90
        1
176
     1
 90
        2
176
     1
 40
0.6
176
     1
 40
30.0
176
     1
 62
     7
420
 16777215
176
     1
 90
        0
176
     1
 90
        0
176
     1
 62
     7
176
     1
 62
   257
176
     1
 90
        1
176
     1
 90
        1
176
     1
 40
1.0
176
     1
 90
        8
176
     1
 62
     7
176
     1
 40
1.0
176
     1
 90
        1
176
     1
 90
        6
176
     1
 90
        2
176
     1
 62
     7
176
     1
 90
        5
176
     1
 90
        0
176
     1
 90
        0
176
     1
290
     0
176
     1
 90
       13
176
     1
 40
0.0
176
     1
 90
        0
176
     1
290
     0
176
     1
290
     1
176
     1
290
     1
176
     1
290
     0
176
     1
290
     0
176
     1
290
     0
176
     1
290
     0
176
     1
290
     0
176
     1
290
     0
176
     1
 90
       50
176
     1
 40
0.0
176
     1
 40
1.0
176
     1
 90
        0
176
     1
 62
    18
420
        0
176
     1
 90
       50
176
     1
 90
        3
176
     1
 62
     5
420
      255
176
     1
290
     0
176
     1
 90
       50
176
     1
 90
       50
176
     1
 90
       50
176
     1
290
     0
176
     1
 90
       50
176
     1
 62
   256
176
     0
 40
1.0
176
     0
 90
        2
176
     1
  1
strokes_ogs.tif
176
     1
290
     0
176
     1
 40
1.0
176
     1
 40
1.0
176
     1
  0
VISUALSTYLE
  5
2C
102
{ACAD_REACTORS
330
2A
102
}
330
2A
100
AcDbVisualStyle
  2
FlatWithEdges
 70
     1
177
     3
291
     1
 70
    58
 90
        2
176
     1
 90
        1
176
     1
 90
        1
176
     1
 90
        2
176
     1
 40
0.6
176
     1
 40
30.0
176
     1
 62
     7
420
 16777215
176
     1
 90
        1
176
     1
 90
        0
176
     1
 62
     7
176
     1
 62
   257
176
     1
 90
        1
176
     1
 90
        1
176
     1
 40
1.0
176
     1
 90
        0
176
     1
 62
   257
176
     1
 40
1.0
176
     1
 90
        1
176
     1
 90
        6
176
     1
 90
        2
176
     1
 62
     7
176
     1
 90
        5
176
     1
 90
        0
176
     1
 90
        0
176
     1
290
     0
176
     1
 90
       13
176
     1
 40
0.0
176
     1
 90
        0
176
     1
290
     0
176
     1
290
     1
176
     1
290
     1
176
     1
290
     0
176
     1
290
     0
176
     1
290
     0
176
     1
290
     0
176
     1
290
     0
176
     1
290
     0
176
     1
 90
       50
176
     1
 40
0.0
176
     1
 40
1.0
176
     1
 90
        0
176
     1
 62
    18
420
        0
176
     1
 90
       50
176
     1
 90
        3
176
     1
 62
     5
420
      255
176
     1
290
     0
176
     1
 90
       50
176
     1
 90
       50
176
     1
 90
       50
176
     1
290
     0
176
     1
 90
       50
176
     1
 62
   256
176
     0
 40
1.0
176
     0
 90
        2
176
     1
  1
strokes_ogs.tif
176
     1
290
     0
176
     1
 40
1.0
176
     1
 40
1.0
176
     1
  0
VISUALSTYLE
  5
2D
102
{ACAD_REACTORS
330
2A
102
}
330
2A
100
AcDbVisualStyle
  2
Gouraud
 70
     2
177
     3
291
     1
 70
    58
 90
        2
176
     1
 90
        2
176
     1
 90
        1
176
     1
 90
        2
176
     1
 40
0.6
176
     1
 40
30.0
176
     1
 62
     7
420
 16777215
176
     1
 90
        0
176
     1
 90
        0
176
     1
 62
     7
176
     1
 62
   257
176
     1
 90
        1
176
     1
 90
        1
176
     1
 40
1.0
176
     1
 90
        0
176
     1
 62
     7
176
     1
 40
1.0
176
     1
 90
        1
176
     1
 90
        6
176
     1
 90
        2
176
     1
 62
     7
176
     1
 90
        5
176
     1
 90
        0
176
     1
 90
        0
176
     1
290
     0
176
     1
 90
       13
176
     1
 40
0.0
176
     1
 90
        0
176
     1
290
     0
176
     1
290
     1
176
     1
290
     1
176
     1
290
     0
176
     1
290
     0
176
     1
290
     0
176
     1
290
     0
176
     1
290
     0
176
     1
290
     0
176
     1
 90
       50
176
     1
 40
0.0
176
     1
 40
1.0
176
     1
 90
        0
176
     1
 62
    18
420
        0
176
     1
 90
       50
176
     1
 90
        3
176
     1
 62
     5
420
      255
176
     1
290
     0
176
     1
 90
       50
176
     1
 90
       50
176
     1
 90
       50
176
     1
290
     0
176
     1
 90
       50
176
     1
 62
   256
176
     0
 40
1.0
176
     0
 90
        2
176
     1
  1
strokes_ogs.tif
176
     1
290
     0
176
     1
 40
1.0
176
     1
 40
1.0
176
     1
  0
VISUALSTYLE
  5
2E
102
{ACAD_REACTORS
330
2A
102
}
330
2A
100
AcDbVisualStyle
  2
GouraudWithEdges
 70
     3
177
     3
291
     1
 70
    58
 90
        2
176
     1
 90
        2
176
     1
 90
        1
176
     1
 90
        2
176
     1
 40
0.6
176
     1
 40
30.0
176
     1
 62
     7
420
 16777215
176
     1
 90
        1
176
     1
 90
        0
176
     1
 62
     7
176
     1
 62
   257
176
     1
 90
        1
176
     1
 90
        1
176
     1
 40
1.0
176
     1
 90
        0
176
     1
 62
   257
176
     1
 40
1.0
176
     1
 90
        1
176
     1
 90
        6
176
     1
 90
        2
176
     1
 62
     7
176
     1
 90
        5
176
     1
 90
        0
176
     1
 90
        0
176
     1
290
     0
176
     1
 90
       13
176
     1
 40
0.0
176
     1
 90
        0
176
     1
290
     0
176
     1
290
     1
176
     1
290
     1
176
     1
290
     0
176
     1
290
     0
176
     1
290
     0
176
     1
290
     0
176
     1
290
     0
176
     1
290
     0
176
     1
 90
       50
176
     1
 40
0.0
176
     1
 40
1.0
176
     1
 90
        0
176
     1
 62
    18
420
        0
176
     1
 90
       50
176
     1
 90
        3
176
     1
 62
     5
420
      255
176
     1
290
     0
176
     1
 90
       50
176
     1
 90
       50
176
     1
 90
       50
176
     1
290
     0
176
     1
 90
       50
176
     1
 62
   256
176
     0
 40
1.0
176
     0
 90
        2
176
     1
  1
strokes_ogs.tif
176
     1
290
     0
176
     1
 40
1.0
176
     1
 40
1.0
176
     1
  0
VISUALSTYLE
  5
31
102
{ACAD_REACTORS
330
2A
102
}
330
2A
100
AcDbVisualStyle
  2
Hidden
 70
     6
177
     3
291
     0
 70
    58
 90
        1
176
     1
 90
        2
176
     1
 90
        2
176
     1
 90
        0
176
     1
 40
0.6
176
     1
 40
30.0
176
     1
 62
     7
420
 16777215
176
     1
 90
        2
176
     1
 90
        2
176
     1
 62
     7
176
     1
 62
   257
176
     1
 90
        2
176
     1
 90
        1
176
     1
 40
40.0
176
     1
 90
        0
176
     1
 62
   257
176
     1
 40
1.0
176
     1
 90
        1
176
     1
 90
        6
176
     1
 90
        2
176
     1
 62
     7
176
     1
 90
        3
176
     1
 90
        0
176
     1
 90
        0
176
     1
290
     0
176
     1
 90
        1
176
     1
 40
0.0
176
     1
 90
        0
176
     1
290
     0
176
     1
290
     1
176
     1
290
     1
176
     1
290
     0
176
     1
290
     0
176
     1
290
     0
176
     1
290
     0
176
     1
290
     0
176
     1
290
     0
176
     1
 90
       50
176
     1
 40
0.0
176
     1
 40
1.0
176
     1
 90
        0
176
     1
 62
    18
420
        0
176
     1
 90
       50
176
     1
 90
        3
176
     1
 62
     5
420
      255
176
     1
290
     0
176
     1
 90
       50
176
     1
 90
       50
176
     1
 90
       50
176
     1
290
     0
176
     1
 90
       50
176
     1
 62
   256
176
     0
 40
1.0
176
     0
 90
        2
176
     1
  1
strokes_ogs.tif
176
     1
290
     0
176
     1
 40
1.0
176
     1
 40
1.0
176
     1
  0
VISUALSTYLE
  5
3B
102
{ACAD_REACTORS
330
2A
102
}
330
2A
100
AcDbVisualStyle
  2
JitterOff
 70
    20
177
     3
291
     1
 70
    58
 90
        2
176
     0
 90
        2
176
     0
 90
        0
176
     0
 90
        0
176
     0
 40
0.6
176
     0
 40
30.0
176
     0
 62
     7
420
 16777215
176
     0
 90
        1
176
     0
 90
        4
176
     0
 62
     7
176
     0
 62
   257
176
     0
 90
        1
176
     0
 90
        1
176
     0
 40
1.0
176
     0
 90
       10
176
     2
 62
     7
176
     0
 40
1.0
176
     0
 90
        1
176
     0
 90
        6
176
     0
 90
        2
176
     0
 62
     7
176
     0
 90
        5
176
     0
 90
        0
176
     0
 90
        0
176
     0
290
     0
176
     0
 90
        1
176
     0
 40
0.0
176
     0
 90
        0
176
     0
290
     0
176
     0
290
     1
176
     0
290
     1
176
     0
290
     0
176
     0
290
     0
176
     0
290
     0
176
     0
290
     0
176
     0
290
     0
176
     0
290
     0
176
     0
 90
       50
176
     0
 40
0.0
176
     0
 40
1.0
176
     0
 90
        0
176
     0
 62
    18
420
        0
176
     0
 90
       50
176
     0
 90
        3
176
     0
 62
     5
420
      255
176
     0
290
     0
176
     0
 90
       50
176
     0
 90
       50
176
     0
 90
       50
176
     0
290
     0
176
     0
 90
       50
176
     0
 62
   256
176
     0
 40
1.0
176
     0
 90
        2
176
     0
  1
strokes_ogs.tif
176
     0
290
     0
176
     0
 40
1.0
176
     0
 40
1.0
176
     0
  0
VISUALSTYLE
  5
38
102
{ACAD_REACTORS
330
2A
102
}
330
2A
100
AcDbVisualStyle
  2
Linepattern
 70
    14
177
     3
291
     1
 70
    58
 90
        2
176
     1
 90
        2
176
     1
 90
        0
176
     1
 90
        0
176
     1
 40
0.6
176
     1
 40
30.0
176
     1
 62
     7
420
 16777215
176
     1
 90
        1
176
     1
 90
        4
176
     1
 62
     7
176
     1
 62
   257
176
     1
 90
        7
176
     1
 90
        7
176
     1
 40
1.0
176
     1
 90
        8
176
     1
 62
     7
176
     1
 40
1.0
176
     1
 90
        1
176
     1
 90
        6
176
     1
 90
        2
176
     1
 62
     7
176
     1
 90
        5
176
     1
 90
        0
176
     1
 90
        0
176
     1
290
     0
176
     1
 90
        1
176
     1
 40
0.0
176
     1
 90
        0
176
     1
290
     0
176
     1
290
     1
176
     1
290
     1
176
     1
290
     0
176
     1
290
     0
176
     1
290
     0
176
     1
290
     0
176
     1
290
     0
176
     1
290
     0
176
     1
 90
       50
176
     1
 40
0.0
176
     1
 40
1.0
176
     1
 90
        0
176
     1
 62
    18
420
        0
176
     1
 90
       50
176
     1
 90
        3
176
     1
 62
     5
420
      255
176
     1
290
     0
176
     1
 90
       50
176
     1
 90
       50
176
     1
 90
       50
176
     1
290
     0
176
     1
 90
       50
176
     1
 62
   256
176
     0
 40
1.0
176
     0
 90
        2
176
     1
  1
strokes_ogs.tif
176
     1
290
     0
176
     1
 40
1.0
176
     1
 40
1.0
176
     1
  0
VISUALSTYLE
  5
3C
102
{ACAD_REACTORS
330
2A
102
}
330
2A
100
AcDbVisualStyle
  2
OverhangOff
 70
    21
177
     3
291
     1
 70
    58
 90
        2
176
     0
 90
        2
176
     0
 90
        0
176
     0
 90
        0
176
     0
 40
0.6
176
     0
 40
30.0
176
     0
 62
     7
420
 16777215
176
     0
 90
        1
176
     0
 90
        4
176
     0
 62
     7
176
     0
 62
   257
176
     0
 90
        1
176
     0
 90
        1
176
     0
 40
1.0
176
     0
 90
        9
176
     2
 62
     7
176
     0
 40
1.0
176
     0
 90
        1
176
     0
 90
        6
176
     0
 90
        2
176
     0
 62
     7
176
     0
 90
        5
176
     0
 90
        0
176
     0
 90
        0
176
     0
290
     0
176
     0
 90
        1
176
     0
 40
0.0
176
     0
 90
        0
176
     0
290
     0
176
     0
290
     1
176
     0
290
     1
176
     0
290
     0
176
     0
290
     0
176
     0
290
     0
176
     0
290
     0
176
     0
290
     0
176
     0
290
     0
176
     0
 90
       50
176
     0
 40
0.0
176
     0
 40
1.0
176
     0
 90
        0
176
     0
 62
    18
420
        0
176
     0
 90
       50
176
     0
 90
        3
176
     0
 62
     5
420
      255
176
     0
290
     0
176
     0
 90
       50
176
     0
 90
       50
176
     0
 90
       50
176
     0
290
     0
176
     0
 90
       50
176
     0
 62
   256
176
     0
 40
1.0
176
     0
 90
        2
176
     0
  1
strokes_ogs.tif
176
     0
290
     0
176
     0
 40
1.0
176
     0
 40
1.0
176
     0
  0
VISUALSTYLE
  5
33
102
{ACAD_REACTORS
330
2A
102
}
330
2A
100
AcDbVisualStyle
  2
Realistic
 70
     8
177
     3
291
     0
 70
    58
 90
        2
176
     1
 90
        3
176
     1
 90
        0
176
     1
 90
        2
176
     1
 40
0.6
176
     1
 40
30.0
176
     1
 62
     7
420
 16777215
176
     1
 90
        0
176
     1
 90
        0
176
     1
 62
     7
176
     1
 62
   257
176
     1
 90
        1
176
     1
 90
        1
176
     1
 40
1.0
176
     1
 90
        8
176
     1
 62
   257
176
     1
 40
1.0
176
     1
 90
        1
176
     1
 90
        6
176
     1
 90
        2
176
     1
 62
     7
176
     1
 90
        3
176
     1
 90
        0
176
     1
 90
        0
176
     1
290
     0
176
     1
 90
       13
176
     1
 40
0.0
176
     1
 90
        0
176
     1
290
     0
176
     1
290
     1
176
     1
290
     1
176
     1
290
     0
176
     1
290
     0
176
     1
290
     0
176
     1
290
     0
176
     1
290
     0
176
     1
290
     0
176
     1
 90
       50
176
     1
 40
0.0
176
     1
 40
1.0
176
     1
 90
        0
176
     1
 62
    18
420
        0
176
     1
 90
       50
176
     1
 90
        3
176
     1
 62
     5
420
      255
176
     1
290
     0
176
     1
 90
       50
176
     1
 90
       50
176
     1
 90
       50
176
     1
290
     0
176
     1
 90
       50
176
     1
 62
   256
176
     0
 40
1.0
176
     0
 90
        2
176
     1
  1
strokes_ogs.tif
176
     1
290
     0
176
     1
 40
1.0
176
     1
 40
1.0
176
     1
  0
VISUALSTYLE
  5
42
102
{ACAD_REACTORS
330
2A
102
}
330
2A
100
AcDbVisualStyle
  2
Shaded
 70
    27
177
     3
291
     0
 70
    58
 90
        2
176
     1
 90
        2
176
     1
 90
        1
176
     1
 90
        2
176
     1
 40
0.6
176
     1
 40
30.0
176
     1
 62
     7
420
 16777215
176
     1
 90
        0
176
     1
 90
        4
176
     1
 62
     7
176
     1
 62
   257
176
     1
 90
        1
176
     1
 90
        1
176
     1
 40
1.0
176
     1
 90
        8
176
     1
 62
   257
176
     1
 40
1.0
176
     1
 90
        1
176
     1
 90
        6
176
     1
 90
        2
176
     1
 62
     8
420
  7895160
176
     1
 90
        3
176
     1
 90
        0
176
     1
 90
        0
176
     1
290
     0
176
     1
 90
        5
176
     1
 40
0.0
176
     1
 90
        0
176
     1
290
     0
176
     1
290
     1
176
     1
290
     1
176
     1
290
     0
176
     1
290
     0
176
     1
290
     0
176
     1
290
     0
176
     1
290
     0
176
     1
290
     0
176
     1
 90
       50
176
     1
 40
0.0
176
     1
 40
1.0
176
     1
 90
        0
176
     1
 62
    18
420
        0
176
     1
 90
       50
176
     1
 90
        3
176
     1
 62
     5
420
      255
176
     1
290
     0
176
     1
 90
       50
176
     1
 90
       50
176
     1
 90
       50
176
     1
290
     0
176
     1
 90
       50
176
     1
 62
   256
176
     0
 40
1.0
176
     0
 90
        2
176
     1
  1
strokes_ogs.tif
176
     1
290
     0
176
     1
 40
1.0
176
     1
 40
1.0
176
     1
  0
VISUALSTYLE
  5
41
102
{ACAD_REACTORS
330
2A
102
}
330
2A
100
AcDbVisualStyle
  2
Shaded with edges
 70
    26
177
     3
291
     0
 70
    58
 90
        2
176
     1
 90
        2
176
     1
 90
        1
176
     1
 90
        2
176
     1
 40
0.6
176
     1
 40
30.0
176
     1
 62
     7
420
 16777215
176
     1
 90
        1
176
     1
 90
       10
176
     1
 62
     7
176
     1
 62
   257
176
     1
 90
        2
176
     1
 90
        1
176
     1
 40
1.0
176
     1
 90
        8
176
     1
 62
   257
176
     1
 40
1.0
176
     1
 90
        1
176
     1
 90
        6
176
     1
 90
        2
176
     1
 62
     7
176
     1
 90
        3
176
     1
 90
        0
176
     1
 90
        0
176
     1
290
     0
176
     1
 90
        5
176
     1
 40
0.0
176
     1
 90
        0
176
     1
290
     0
176
     1
290
     1
176
     1
290
     1
176
     1
290
     0
176
     1
290
     0
176
     1
290
     0
176
     1
290
     0
176
     1
290
     0
176
     1
290
     0
176
     1
 90
       50
176
     1
 40
0.0
176
     1
 40
1.0
176
     1
 90
        0
176
     1
 62
    18
420
        0
176
     1
 90
       50
176
     1
 90
        3
176
     1
 62
     5
420
      255
176
     1
290
     0
176
     1
 90
       50
176
     1
 90
       50
176
     1
 90
       50
176
     1
290
     0
176
     1
 90
       50
176
     1
 62
   256
176
     0
 40
1.0
176
     0
 90
        2
176
     1
  1
strokes_ogs.tif
176
     1
290
     0
176
     1
 40
1.0
176
     1
 40
1.0
176
     1
  0
VISUALSTYLE
  5
3E
102
{ACAD_REACTORS
330
2A
102
}
330
2A
100
AcDbVisualStyle
  2
Shades of Gray
 70
    23
177
     3
291
     0
 70
    58
 90
        2
176
     1
 90
        2
176
     1
 90
        3
176
     1
 90
        0
176
     1
 40
0.6
176
     1
 40
30.0
176
     1
 62
     7
420
 16777215
176
     1
 90
        2
176
     1
 90
        2
176
     1
 62
     7
176
     1
 62
     7
176
     1
 90
        1
176
     1
 90
        1
176
     1
 40
40.0
176
     1
 90
        8
176
     1
 62
     7
176
     1
 40
1.0
176
     1
 90
        1
176
     1
 90
        6
176
     1
 90
        2
176
     1
 62
     7
176
     1
 90
        3
176
     1
 90
        0
176
     1
 90
        0
176
     1
290
     0
176
     1
 90
        1
176
     1
 40
0.0
176
     1
 90
        0
176
     1
290
     0
176
     1
290
     1
176
     1
290
     1
176
     1
290
     0
176
     1
290
     0
176
     1
290
     0
176
     1
290
     0
176
     1
290
     0
176
     1
290
     0
176
     1
 90
       50
176
     1
 40
0.0
176
     1
 40
1.0
176
     1
 90
        0
176
     1
 62
    18
420
        0
176
     1
 90
       50
176
     1
 90
        3
176
     1
 62
     5
420
      255
176
     1
290
     0
176
     1
 90
       50
176
     1
 90
       50
176
     1
 90
       50
176
     1
290
     0
176
     1
 90
       50
176
     1
 62
   256
176
     0
 40
1.0
176
     0
 90
        2
176
     1
  1
strokes_ogs.tif
176
     1
290
     0
176
     1
 40
1.0
176
     1
 40
1.0
176
     1
  0
VISUALSTYLE
  5
3F
102
{ACAD_REACTORS
330
2A
102
}
330
2A
100
AcDbVisualStyle
  2
Sketchy
 70
    24
177
     3
291
     0
 70
    58
 90
        1
176
     1
 90
        2
176
     1
 90
        2
176
     1
 90
        0
176
     1
 40
0.6
176
     1
 40
30.0
176
     1
 62
     7
420
 16777215
176
     1
 90
        2
176
     1
 90
        2
176
     1
 62
     7
176
     1
 62
     7
176
     1
 90
        1
176
     1
 90
        1
176
     1
 40
40.0
176
     1
 90
       11
176
     1
 62
     7
176
     1
 40
1.0
176
     1
 90
        1
176
     1
 90
        6
176
     1
 90
        2
176
     1
 62
     7
176
     1
 90
        6
176
     1
 90
        0
176
     1
 90
        0
176
     1
290
     0
176
     1
 90
        1
176
     1
 40
0.0
176
     1
 90
        0
176
     1
290
     0
176
     1
290
     1
176
     1
290
     1
176
     1
290
     0
176
     1
290
     0
176
     1
290
     0
176
     1
290
     0
176
     1
290
     0
176
     1
290
     0
176
     1
 90
       50
176
     1
 40
0.0
176
     1
 40
1.0
176
     1
 90
        0
176
     1
 62
    18
420
        0
176
     1
 90
       50
176
     1
 90
        3
176
     1
 62
     5
420
      255
176
     1
290
     0
176
     1
 90
       50
176
     1
 90
       50
176
     1
 90
       50
176
     1
290
     0
176
     1
 90
       50
176
     1
 62
   256
176
     0
 40
1.0
176
     0
 90
        2
176
     1
  1
strokes_ogs.tif
176
     1
290
     0
176
     1
 40
1.0
176
     1
 40
1.0
176
     1
  0
VISUALSTYLE
  5
37
102
{ACAD_REACTORS
330
2A
102
}
330
2A
100
AcDbVisualStyle
  2
Thicken
 70
    13
177
     3
291
     1
 70
    58
 90
        2
176
     1
 90
        2
176
     1
 90
        0
176
     1
 90
        0
176
     1
 40
0.6
176
     1
 40
30.0
176
     1
 62
     7
420
 16777215
176
     1
 90
        1
176
     1
 90
        4
176
     1
 62
     7
176
     1
 62
   257
176
     1
 90
        1
176
     1
 90
        1
176
     1
 40
1.0
176
     1
 90
       12
176
     1
 62
     7
176
     1
 40
1.0
176
     1
 90
        1
176
     1
 90
        6
176
     1
 90
        2
176
     1
 62
     7
176
     1
 90
        5
176
     1
 90
        0
176
     1
 90
        0
176
     1
290
     0
176
     1
 90
        1
176
     1
 40
0.0
176
     1
 90
        0
176
     1
290
     0
176
     1
290
     1
176
     1
290
     1
176
     1
290
     0
176
     1
290
     0
176
     1
290
     0
176
     1
290
     0
176
     1
290
     0
176
     1
290
     0
176
     1
 90
       50
176
     1
 40
0.0
176
     1
 40
1.0
176
     1
 90
        0
176
     1
 62
    18
420
        0
176
     1
 90
       50
176
     1
 90
        3
176
     1
 62
     5
420
      255
176
     1
290
     0
176
     1
 90
       50
176
     1
 90
       50
176
     1
 90
       50
176
     1
290
     0
176
     1
 90
       50
176
     1
 62
   256
176
     0
 40
1.0
176
     0
 90
        2
176
     1
  1
strokes_ogs.tif
176
     1
290
     0
176
     1
 40
1.0
176
     1
 40
1.0
176
     1
  0
VISUALSTYLE
  5
30
102
{ACAD_REACTORS
330
2A
102
}
330
2A
100
AcDbVisualStyle
  2
Wireframe
 70
     5
177
     3
291
     0
 70
    58
 90
        0
176
     1
 90
        2
176
     1
 90
        0
176
     1
 90
        0
176
     1
 40
0.6
176
     1
 40
30.0
176
     1
 62
     7
420
 16777215
176
     1
 90
        1
176
     1
 90
        4
176
     1
 62
     7
176
     1
 62
   257
176
     1
 90
        1
176
     1
 90
        1
176
     1
 40
1.0
176
     1
 90
        0
176
     1
 62
   257
176
     1
 40
1.0
176
     1
 90
        1
176
     1
 90
        6
176
     1
 90
        2
176
     1
 62
     7
176
     1
 90
        3
176
     1
 90
        0
176
     1
 90
        0
176
     1
290
     0
176
     1
 90
        1
176
     1
 40
0.0
176
     1
 90
        0
176
     1
290
     0
176
     1
290
     1
176
     1
290
     1
176
     1
290
     0
176
     1
290
     0
176
     1
290
     0
176
     1
290
     0
176
     1
290
     0
176
     1
290
     0
176
     1
 90
       50
176
     1
 40
0.0
176
     1
 40
1.0
176
     1
 90
        0
176
     1
 62
    18
420
        0
176
     1
 90
       50
176
     1
 90
        3
176
     1
 62
     5
420
      255
176
     1
290
     0
176
     1
 90
       50
176
     1
 90
       50
176
     1
 90
       50
176
     1
290
     0
176
     1
 90
       50
176
     1
 62
   256
176
     0
 40
1.0
176
     0
 90
        2
176
     1
  1
strokes_ogs.tif
176
     1
290
     0
176
     1
 40
1.0
176
     1
 40
1.0
176
     1
  0
VISUALSTYLE
  5
40
102
{ACAD_REACTORS
330
2A
102
}
330
2A
100
AcDbVisualStyle
  2
X-Ray
 70
    25
177
     3
291
     0
 70
    58
 90
        2
176
     1
 90
        2
176
     1
 90
        1
176
     1
 90
        1
176
     1
 40
0.5
176
     1
 40
30.0
176
     1
 62
     7
420
 16777215
176
     1
 90
        1
176
     1
 90
        0
176
     1
 62
     7
176
     1
 62
   257
176
     1
 90
        1
176
     1
 90
        1
176
     1
 40
1.0
176
     1
 90
        8
176
     1
 62
     7
176
     1
 40
1.0
176
     1
 90
        1
176
     1
 90
        6
176
     1
 90
        2
176
     1
 62
     7
176
     1
 90
        3
176
     1
 90
        0
176
     1
 90
        0
176
     1
290
     0
176
     1
 90
       13
176
     1
 40
0.0
176
     1
 90
        0
176
     1
290
     0
176
     1
290
     1
176
     1
290
     1
176
     1
290
     0
176
     1
290
     0
176
     1
290
     0
176
     1
290
     0
176
     1
290
     0
176
     1
290
     0
176
     1
 90
       50
176
     1
 40
0.0
176
     1
 40
1.0
176
     1
 90
        0
176
     1
 62
    18
420
        0
176
     1
 90
       50
176
     1
 90
        3
176
     1
 62
     5
420
      255
176
     1
290
     0
176
     1
 90
       50
176
     1
 90
       50
176
     1
 90
       50
176
     1
290
     0
176
     1
 90
       50
176
     1
 62
   256
176
     0
 40
1.0
176
     0
 90
        2
176
     1
  1
strokes_ogs.tif
176
     1
290
     0
176
     1
 40
1.0
176
     1
 40
1.0
176
     1
  0
DICTIONARYVAR
  5
1A2
102
{ACAD_REACTORS
330
1A1
102
}
330
1A1
100
DictionaryVariables
280
     0
  1
1:1
  0
DICTIONARYVAR
  5
1A7
102
{ACAD_REACTORS
330
1A1
102
}
330
1A1
100
DictionaryVariables
280
     0
  1
Standard
  0
DICTIONARYVAR
  5
1A6
102
{ACAD_REACTORS
330
1A1
102
}
330
1A1
100
DictionaryVariables
280
     0
  1
Standard
  0
DICTIONARY
  5
1A3
330
6A
100
AcDbDictionary
280
     1
281
     1
  3
ACAD_ROUNDTRIP_2008_TABLESTYLE_CELLSTYLEMAP
360
1A4
  0
CELLSTYLEMAP
  5
1A4
102
{ACAD_REACTORS
330
1A3
102
}
330
1A3
100
AcDbCellStyleMap
 90
        3
300
CELLSTYLE
  1
TABLEFORMAT_BEGIN
 90
        5
170
     1
 91
        0
 92
    32768
 62
   257
 93
        1
300
CONTENTFORMAT
  1
CONTENTFORMAT_BEGIN
 90
        0
 91
        0
 92
        4
 93
        0
300

 40
0.0
140
1.0
 94
        5
 62
     0
340
11
144
0.25
309
CONTENTFORMAT_END
171
     1
301
MARGIN
  1
CELLMARGIN_BEGIN
 40
0.06
 40
0.06
 40
0.06
 40
0.06
 40
0.06
 40
0.06
309
CELLMARGIN_END
 94
        6
 95
        1
302
GRIDFORMAT
  1
GRIDFORMAT_BEGIN
 90
        0
 91
        1
 62
     0
 92
       -2
340
14
 93
        0
 40
0.045
309
GRIDFORMAT_END
 95
        2
302
GRIDFORMAT
  1
GRIDFORMAT_BEGIN
 90
        0
 91
        1
 62
     0
 92
       -2
340
14
 93
        0
 40
0.045
309
GRIDFORMAT_END
 95
        4
302
GRIDFORMAT
  1
GRIDFORMAT_BEGIN
 90
        0
 91
        1
 62
     0
 92
       -2
340
14
 93
        0
 40
0.045
309
GRIDFORMAT_END
 95
        8
302
GRIDFORMAT
  1
GRIDFORMAT_BEGIN
 90
        0
 91
        1
 62
     0
 92
       -2
340
14
 93
        0
 40
0.045
309
GRIDFORMAT_END
 95
       16
302
GRIDFORMAT
  1
GRIDFORMAT_BEGIN
 90
        0
 91
        1
 62
     0
 92
       -2
340
14
 93
        0
 40
0.045
309
GRIDFORMAT_END
 95
       32
302
GRIDFORMAT
  1
GRIDFORMAT_BEGIN
 90
        0
 91
        1
 62
     0
 92
       -2
340
14
 93
        0
 40
0.045
309
GRIDFORMAT_END
309
TABLEFORMAT_END
  1
CELLSTYLE_BEGIN
 90
        1
 91
        1
300
_TITLE
309
CELLSTYLE_END
300
CELLSTYLE
  1
TABLEFORMAT_BEGIN
 90
        5
170
     1
 91
        0
 92
        0
 62
   257
 93
        1
300
CONTENTFORMAT
  1
CONTENTFORMAT_BEGIN
 90
        0
 91
        0
 92
        4
 93
        0
300

 40
0.0
140
1.0
 94
        5
 62
     0
340
11
144
0.18
309
CONTENTFORMAT_END
171
     1
301
MARGIN
  1
CELLMARGIN_BEGIN
 40
0.06
 40
0.06
 40
0.06
 40
0.06
 40
0.06
 40
0.06
309
CELLMARGIN_END
 94
        6
 95
        1
302
GRIDFORMAT
  1
GRIDFORMAT_BEGIN
 90
        0
 91
        1
 62
     0
 92
       -2
340
14
 93
        0
 40
0.045
309
GRIDFORMAT_END
 95
        2
302
GRIDFORMAT
  1
GRIDFORMAT_BEGIN
 90
        0
 91
        1
 62
     0
 92
       -2
340
14
 93
        0
 40
0.045
309
GRIDFORMAT_END
 95
        4
302
GRIDFORMAT
  1
GRIDFORMAT_BEGIN
 90
        0
 91
        1
 62
     0
 92
       -2
340
14
 93
        0
 40
0.045
309
GRIDFORMAT_END
 95
        8
302
GRIDFORMAT
  1
GRIDFORMAT_BEGIN
 90
        0
 91
        1
 62
     0
 92
       -2
340
14
 93
        0
 40
0.045
309
GRIDFORMAT_END
 95
       16
302
GRIDFORMAT
  1
GRIDFORMAT_BEGIN
 90
        0
 91
        1
 62
     0
 92
       -2
340
14
 93
        0
 40
0.045
309
GRIDFORMAT_END
 95
       32
302
GRIDFORMAT
  1
GRIDFORMAT_BEGIN
 90
        0
 91
        1
 62
     0
 92
       -2
340
14
 93
        0
 40
0.045
309
GRIDFORMAT_END
309
TABLEFORMAT_END
  1
CELLSTYLE_BEGIN
 90
        2
 91
        1
300
_HEADER
309
CELLSTYLE_END
300
CELLSTYLE
  1
TABLEFORMAT_BEGIN
 90
        5
170
     1
 91
        0
 92
        0
 62
   257
 93
        1
300
CONTENTFORMAT
  1
CONTENTFORMAT_BEGIN
 90
        0
 91
        0
 92
        4
 93
        0
300

 40
0.0
140
1.0
 94
        2
 62
     0
340
11
144
0.18
309
CONTENTFORMAT_END
171
     1
301
MARGIN
  1
CELLMARGIN_BEGIN
 40
0.06
 40
0.06
 40
0.06
 40
0.06
 40
0.06
 40
0.06
309
CELLMARGIN_END
 94
        6
 95
        1
302
GRIDFORMAT
  1
GRIDFORMAT_BEGIN
 90
        0
 91
        1
 62
     0
 92
       -2
340
14
 93
        0
 40
0.045
309
GRIDFORMAT_END
 95
        2
302
GRIDFORMAT
  1
GRIDFORMAT_BEGIN
 90
        0
 91
        1
 62
     0
 92
       -2
340
14
 93
        0
 40
0.045
309
GRIDFORMAT_END
 95
        4
302
GRIDFORMAT
  1
GRIDFORMAT_BEGIN
 90
        0
 91
        1
 62
     0
 92
       -2
340
14
 93
        0
 40
0.045
309
GRIDFORMAT_END
 95
        8
302
GRIDFORMAT
  1
GRIDFORMAT_BEGIN
 90
        0
 91
        1
 62
     0
 92
       -2
340
14
 93
        0
 40
0.045
309
GRIDFORMAT_END
 95
       16
302
GRIDFORMAT
  1
GRIDFORMAT_BEGIN
 90
        0
 91
        1
 62
     0
 92
       -2
340
14
 93
        0
 40
0.045
309
GRIDFORMAT_END
 95
       32
302
GRIDFORMAT
  1
GRIDFORMAT_BEGIN
 90
        0
 91
        1
 62
     0
 92
       -2
340
14
 93
        0
 40
0.045
309
GRIDFORMAT_END
309
TABLEFORMAT_END
  1
CELLSTYLE_BEGIN
 90
        3
 91
        2
300
_DATA
309
CELLSTYLE_END
  0
ENDSEC
  0
EOF