0
SECTION
  2
HEADER
  9
$ACADVER
  1
AC1027
  9
$ACADMAINTVER
 70
     8
  9
$DWGCODEPAGE
  3
ANSI_1252
  9
$REQUIREDVERSIONS
160
                 0
  9
$COMMENTS
  1
File was created by Cadenas
  9
$CUSTOMPROPERTYTAG
  1
NN
  9
$CUSTOMPROPERTY
  1
Set Screw Intermediate Duty Narrow Slot Take Up
  9
$CUSTOMPROPERTYTAG
  1
NT
  9
$CUSTOMPROPERTY
  1
VSC Intermediate Duty Narrow Slot Take-Up Bearings
  9
$CUSTOMPROPERTYTAG
  1
NB
  9
$CUSTOMPROPERTY
  1
125548
  9
$CUSTOMPROPERTYTAG
  1
NBSYN
  9
$CUSTOMPROPERTY
  1
$PN.
  9
$CUSTOMPROPERTYTAG
  1
LINA
  9
$CUSTOMPROPERTY
  1
125548
  9
$CUSTOMPROPERTYTAG
  1
RS
  9
$CUSTOMPROPERTY
  1
211
  9
$CUSTOMPROPERTYTAG
  1
SS
  9
$CUSTOMPROPERTY
  1
2-3/16
  9
$CUSTOMPROPERTYTAG
  1
PN
  9
$CUSTOMPROPERTY
  1
125548
  9
$CUSTOMPROPERTYTAG
  1
DESCRIPTION
  9
$CUSTOMPROPERTY
  1
NSTU-VSC-203
  9
$CUSTOMPROPERTYTAG
  1
WEIGHT
  9
$CUSTOMPROPERTY
  1
6.58
  9
$CUSTOMPROPERTYTAG
  1
A
  9
$CUSTOMPROPERTY
  1
2.22
  9
$CUSTOMPROPERTYTAG
  1
B
  9
$CUSTOMPROPERTY
  1
6.13
  9
$CUSTOMPROPERTYTAG
  1
C
  9
$CUSTOMPROPERTY
  1
0.313
  9
$CUSTOMPROPERTYTAG
  1
D
  9
$CUSTOMPROPERTY
  1
3.50
  9
$CUSTOMPROPERTYTAG
  1
E
  9
$CUSTOMPROPERTY
  1
3.63
  9
$CUSTOMPROPERTYTAG
  1
F
  9
$CUSTOMPROPERTY
  1
1
  9
$CUSTOMPROPERTYTAG
  1
G
  9
$CUSTOMPROPERTY
  1
0.69
  9
$CUSTOMPROPERTYTAG
  1
H
  9
$CUSTOMPROPERTY
  1
1.28
  9
$CUSTOMPROPERTYTAG
  1
J
  9
$CUSTOMPROPERTY
  1
1.75
  9
$CUSTOMPROPERTYTAG
  1
L
  9
$CUSTOMPROPERTY
  1
2.71
  9
$CUSTOMPROPERTYTAG
  1
M
  9
$CUSTOMPROPERTY
  1
4.448/4.418
  9
$CUSTOMPROPERTYTAG
  1
N
  9
$CUSTOMPROPERTY
  1
5.38
  9
$CUSTOMPROPERTYTAG
  1
P
  9
$CUSTOMPROPERTY
  1
0.44
  9
$CUSTOMPROPERTYTAG
  1
R
  9
$CUSTOMPROPERTY
  1
0.87
  9
$CUSTOMPROPERTYTAG
  1
S
  9
$CUSTOMPROPERTY
  1
1.35
  9
$CUSTOMPROPERTYTAG
  1
COMPANY
  9
$CUSTOMPROPERTY
  1
baldor
  9
$INSBASE
 10
0.0
 20
0.0
 30
0.0
  9
$EXTMIN
 10
1.000000000000000E+20
 20
1.000000000000000E+20
 30
1.000000000000000E+20
  9
$EXTMAX
 10
-1.000000000000000E+20
 20
-1.000000000000000E+20
 30
-1.000000000000000E+20
  9
$LIMMIN
 10
0.0
 20
0.0
  9
$LIMMAX
 10
12.0
 20
9.0
  9
$ORTHOMODE
 70
     0
  9
$REGENMODE
 70
     1
  9
$FILLMODE
 70
     1
  9
$QTEXTMODE
 70
     0
  9
$MIRRTEXT
 70
     1
  9
$LTSCALE
 40
1.0
  9
$ATTMODE
 70
     1
  9
$TEXTSIZE
 40
0.2
  9
$TRACEWID
 40
0.05
  9
$TEXTSTYLE
  7
Standard
  9
$CLAYER
  8
0
  9
$CELTYPE
  6
ByLayer
  9
$CECOLOR
 62
   256
  9
$CELTSCALE
 40
1.0
  9
$DISPSILH
 70
     0
  9
$DIMSCALE
 40
1.0
  9
$DIMASZ
 40
0.18
  9
$DIMEXO
 40
0.0625
  9
$DIMDLI
 40
0.38
  9
$DIMRND
 40
0.0
  9
$DIMDLE
 40
0.0
  9
$DIMEXE
 40
0.18
  9
$DIMTP
 40
0.0
  9
$DIMTM
 40
0.0
  9
$DIMTXT
 40
0.18
  9
$DIMCEN
 40
0.09
  9
$DIMTSZ
 40
0.0
  9
$DIMTOL
 70
     0
  9
$DIMLIM
 70
     0
  9
$DIMTIH
 70
     1
  9
$DIMTOH
 70
     1
  9
$DIMSE1
 70
     0
  9
$DIMSE2
 70
     0
  9
$DIMTAD
 70
     0
  9
$DIMZIN
 70
     0
  9
$DIMBLK
  1

  9
$DIMASO
 70
     1
  9
$DIMSHO
 70
     1
  9
$DIMPOST
  1

  9
$DIMAPOST
  1

  9
$DIMALT
 70
     0
  9
$DIMALTD
 70
     2
  9
$DIMALTF
 40
25.4
  9
$DIMLFAC
 40
1.0
  9
$DIMTOFL
 70
     0
  9
$DIMTVP
 40
0.0
  9
$DIMTIX
 70
     0
  9
$DIMSOXD
 70
     0
  9
$DIMSAH
 70
     0
  9
$DIMBLK1
  1

  9
$DIMBLK2
  1

  9
$DIMSTYLE
  2
Standard
  9
$DIMCLRD
 70
     0
  9
$DIMCLRE
 70
     0
  9
$DIMCLRT
 70
     0
  9
$DIMTFAC
 40
1.0
  9
$DIMGAP
 40
0.09
  9
$DIMJUST
 70
     0
  9
$DIMSD1
 70
     0
  9
$DIMSD2
 70
     0
  9
$DIMTOLJ
 70
     1
  9
$DIMTZIN
 70
     0
  9
$DIMALTZ
 70
     0
  9
$DIMALTTZ
 70
     0
  9
$DIMUPT
 70
     0
  9
$DIMDEC
 70
     4
  9
$DIMTDEC
 70
     4
  9
$DIMALTU
 70
     2
  9
$DIMALTTD
 70
     2
  9
$DIMTXSTY
  7
Standard
  9
$DIMAUNIT
 70
     0
  9
$DIMADEC
 70
     0
  9
$DIMALTRND
 40
0.0
  9
$DIMAZIN
 70
     0
  9
$DIMDSEP
 70
    46
  9
$DIMATFIT
 70
     3
  9
$DIMFRAC
 70
     0
  9
$DIMLDRBLK
  1

  9
$DIMLUNIT
 70
     2
  9
$DIMLWD
 70
    -2
  9
$DIMLWE
 70
    -2
  9
$DIMTMOVE
 70
     0
  9
$DIMFXL
 40
1.0
  9
$DIMFXLON
 70
     0
  9
$DIMJOGANG
 40
0.7853981633974483
  9
$DIMTFILL
 70
     0
  9
$DIMTFILLCLR
 70
     0
  9
$DIMARCSYM
 70
     0
  9
$DIMLTYPE
  6

  9
$DIMLTEX1
  6

  9
$DIMLTEX2
  6

  9
$DIMTXTDIRECTION
 70
     0
  9
$LUNITS
 70
     2
  9
$LUPREC
 70
     4
  9
$SKETCHINC
 40
0.1
  9
$FILLETRAD
 40
0.5
  9
$AUNITS
 70
     0
  9
$AUPREC
 70
     0
  9
$MENU
  1
.
  9
$ELEVATION
 40
0.0
  9
$PELEVATION
 40
0.0
  9
$THICKNESS
 40
0.0
  9
$LIMCHECK
 70
     0
  9
$CHAMFERA
 40
0.0
  9
$CHAMFERB
 40
0.0
  9
$CHAMFERC
 40
0.0
  9
$CHAMFERD
 40
0.0
  9
$SKPOLY
 70
     0
  9
$TDCREATE
 40
2458168.998500845
  9
$TDUCREATE
 40
2458168.956834178
  9
$TDUPDATE
 40
2458168.998500845
  9
$TDUUPDATE
 40
2458168.956834178
  9
$TDINDWG
 40
0.0000000116
  9
$TDUSRTIMER
 40
0.0000000116
  9
$USRTIMER
 70
     1
  9
$ANGBASE
 50
0.0
  9
$ANGDIR
 70
     0
  9
$PDMODE
 70
     0
  9
$PDSIZE
 40
0.0
  9
$PLINEWID
 40
0.0
  9
$SPLFRAME
 70
     0
  9
$SPLINETYPE
 70
     6
  9
$SPLINESEGS
 70
     8
  9
$HANDSEED
  5
1F7
  9
$SURFTAB1
 70
     6
  9
$SURFTAB2
 70
     6
  9
$SURFTYPE
 70
     6
  9
$SURFU
 70
     6
  9
$SURFV
 70
     6
  9
$UCSBASE
  2

  9
$UCSNAME
  2

  9
$UCSORG
 10
0.0
 20
0.0
 30
0.0
  9
$UCSXDIR
 10
1.0
 20
0.0
 30
0.0
  9
$UCSYDIR
 10
0.0
 20
1.0
 30
0.0
  9
$UCSORTHOREF
  2

  9
$UCSORTHOVIEW
 70
     0
  9
$UCSORGTOP
 10
0.0
 20
0.0
 30
0.0
  9
$UCSORGBOTTOM
 10
0.0
 20
0.0
 30
0.0
  9
$UCSORGLEFT
 10
0.0
 20
0.0
 30
0.0
  9
$UCSORGRIGHT
 10
0.0
 20
0.0
 30
0.0
  9
$UCSORGFRONT
 10
0.0
 20
0.0
 30
0.0
  9
$UCSORGBACK
 10
0.0
 20
0.0
 30
0.0
  9
$PUCSBASE
  2

  9
$PUCSNAME
  2

  9
$PUCSORG
 10
0.0
 20
0.0
 30
0.0
  9
$PUCSXDIR
 10
1.0
 20
0.0
 30
0.0
  9
$PUCSYDIR
 10
0.0
 20
1.0
 30
0.0
  9
$PUCSORTHOREF
  2

  9
$PUCSORTHOVIEW
 70
     0
  9
$PUCSORGTOP
 10
0.0
 20
0.0
 30
0.0
  9
$PUCSORGBOTTOM
 10
0.0
 20
0.0
 30
0.0
  9
$PUCSORGLEFT
 10
0.0
 20
0.0
 30
0.0
  9
$PUCSORGRIGHT
 10
0.0
 20
0.0
 30
0.0
  9
$PUCSORGFRONT
 10
0.0
 20
0.0
 30
0.0
  9
$PUCSORGBACK
 10
0.0
 20
0.0
 30
0.0
  9
$USERI1
 70
     0
  9
$USERI2
 70
     0
  9
$USERI3
 70
     0
  9
$USERI4
 70
     0
  9
$USERI5
 70
     0
  9
$USERR1
 40
0.0
  9
$USERR2
 40
0.0
  9
$USERR3
 40
0.0
  9
$USERR4
 40
0.0
  9
$USERR5
 40
0.0
  9
$WORLDVIEW
 70
     1
  9
$SHADEDGE
 70
     3
  9
$SHADEDIF
 70
    70
  9
$TILEMODE
 70
     1
  9
$MAXACTVP
 70
    64
  9
$PINSBASE
 10
0.0
 20
0.0
 30
0.0
  9
$PLIMCHECK
 70
     0
  9
$PEXTMIN
 10
1.000000000000000E+20
 20
1.000000000000000E+20
 30
1.000000000000000E+20
  9
$PEXTMAX
 10
-1.000000000000000E+20
 20
-1.000000000000000E+20
 30
-1.000000000000000E+20
  9
$PLIMMIN
 10
0.0
 20
0.0
  9
$PLIMMAX
 10
12.0
 20
9.0
  9
$UNITMODE
 70
     0
  9
$VISRETAIN
 70
     1
  9
$PLINEGEN
 70
     0
  9
$PSLTSCALE
 70
     1
  9
$TREEDEPTH
 70
  3020
  9
$CMLSTYLE
  2
Standard
  9
$CMLJUST
 70
     0
  9
$CMLSCALE
 40
1.0
  9
$PROXYGRAPHICS
 70
     1
  9
$MEASUREMENT
 70
     0
  9
$CELWEIGHT
370
    -1
  9
$ENDCAPS
280
     0
  9
$JOINSTYLE
280
     0
  9
$LWDISPLAY
290
     0
  9
$INSUNITS
 70
     1
  9
$HYPERLINKBASE
  1

  9
$STYLESHEET
  1

  9
$XEDIT
290
     1
  9
$CEPSNTYPE
380
     0
  9
$PSTYLEMODE
290
     1
  9
$FINGERPRINTGUID
  2
{B2C51CFD-3E9F-4985-81DF-6B1DCEFA30E6}
  9
$VERSIONGUID
  2
{FAEB1C32-E019-11D5-929B-00C0DF256EC4}
  9
$EXTNAMES
290
     1
  9
$PSVPSCALE
 40
0.0
  9
$OLESTARTUP
290
     0
  9
$SORTENTS
280
   127
  9
$INDEXCTL
280
     0
  9
$HIDETEXT
280
     1
  9
$XCLIPFRAME
280
     2
  9
$HALOGAP
280
     0
  9
$OBSCOLOR
 70
   257
  9
$OBSLTYPE
280
     0
  9
$INTERSECTIONDISPLAY
280
     0
  9
$INTERSECTIONCOLOR
 70
   257
  9
$DIMASSOC
280
     2
  9
$PROJECTNAME
  1

  9
$CAMERADISPLAY
290
     0
  9
$LENSLENGTH
 40
50.0
  9
$CAMERAHEIGHT
 40
0.0
  9
$STEPSPERSEC
 40
2.0
  9
$STEPSIZE
 40
6.0
  9
$3DDWFPREC
 40
2.0
  9
$PSOLWIDTH
 40
0.25
  9
$PSOLHEIGHT
 40
4.0
  9
$LOFTANG1
 40
1.570796326794897
  9
$LOFTANG2
 40
1.570796326794897
  9
$LOFTMAG1
 40
0.0
  9
$LOFTMAG2
 40
0.0
  9
$LOFTPARAM
 70
     7
  9
$LOFTNORMALS
280
     1
  9
$LATITUDE
 40
37.795
  9
$LONGITUDE
 40
-122.394
  9
$NORTHDIRECTION
 40
0.0
  9
$TIMEZONE
 70
 -8000
  9
$LIGHTGLYPHDISPLAY
280
     1
  9
$TILEMODELIGHTSYNCH
280
     1
  9
$CMATERIAL
347
44
  9
$SOLIDHIST
280
     0
  9
$SHOWHIST
280
     1
  9
$DWFFRAME
280
     2
  9
$DGNFRAME
280
     2
  9
$REALWORLDSCALE
290
     1
  9
$INTERFERECOLOR
 62
   256
  9
$CSHADOW
280
     0
  9
$SHADOWPLANELOCATION
 40
0.0
  0
ENDSEC
  0
SECTION
  2
CLASSES
  0
CLASS
  1
ACDBDICTIONARYWDFLT
  2
AcDbDictionaryWithDefault
  3
ObjectDBX Classes
 90
        0
 91
        4
280
     0
281
     0
  0
CLASS
  1
VISUALSTYLE
  2
AcDbVisualStyle
  3
ObjectDBX Classes
 90
     4095
 91
        4
280
     0
281
     0
  0
CLASS
  1
MATERIAL
  2
AcDbMaterial
  3
ObjectDBX Classes
 90
     1153
 91
        4
280
     0
281
     0
  0
CLASS
  1
SCALE
  2
AcDbScale
  3
ObjectDBX Classes
 90
     1153
 91
        4
280
     0
281
     0
  0
CLASS
  1
TABLESTYLE
  2
AcDbTableStyle
  3
ObjectDBX Classes
 90
     4095
 91
        4
280
     0
281
     0
  0
CLASS
  1
MLEADERSTYLE
  2
AcDbMLeaderStyle
  3
ACDB_MLEADERSTYLE_CLASS
 90
     4095
 91
        4
280
     0
281
     0
  0
CLASS
  1
SUN
  2
AcDbSun
  3
SCENEOE
 90
     1153
 91
        4
280
     0
281
     0
  0
CLASS
  1
DICTIONARYVAR
  2
AcDbDictionaryVar
  3
ObjectDBX Classes
 90
        0
 91
        4
280
     0
281
     0
  0
CLASS
  1
CELLSTYLEMAP
  2
AcDbCellStyleMap
  3
ObjectDBX Classes
 90
     1152
 91
        4
280
     0
281
     0
  0
ENDSEC
  0
SECTION
  2
TABLES
  0
TABLE
  2
VPORT
  5
8
330
0
100
AcDbSymbolTable
 70
     1
  0
VPORT
  5
29
330
8
100
AcDbSymbolTableRecord
100
AcDbViewportTableRecord
  2
*Active
 70
     0
 10
0.0
 20
0.0
 11
1.0
 21
1.0
 12
0.4907100253042636
 22
-0.2400000000000002
 13
0.0
 23
0.0
 14
0.5
 24
0.5
 15
0.5
 25
0.5
 16
0.0
 26
0.0
 36
1.0
 17
0.0
 27
0.0
 37
0.0
 40
2.49084
 41
2.635024549300358
 42
50.0
 43
0.0
 44
0.0
 50
0.0
 51
0.0
 71
     0
 72
   100
 73
     1
 74
     3
 75
     0
 76
     0
 77
     0
 78
     0
281
     0
 65
     1
110
0.0
120
0.0
130
0.0
111
1.0
121
0.0
131
0.0
112
0.0
122
1.0
132
0.0
 79
     0
146
0.0
348
2F
 60
     3
 61
     5
292
     1
282
     1
141
0.0
142
0.0
 63
   250
361
6D
  0
ENDTAB
  0
TABLE
  2
LTYPE
  5
5
330
0
100
AcDbSymbolTable
 70
     3
  0
LTYPE
  5
14
330
5
100
AcDbSymbolTableRecord
100
AcDbLinetypeTableRecord
  2
ByBlock
 70
     0
  3

 72
    65
 73
     0
 40
0.0
  0
LTYPE
  5
15
330
5
100
AcDbSymbolTableRecord
100
AcDbLinetypeTableRecord
  2
ByLayer
 70
     0
  3

 72
    65
 73
     0
 40
0.0
  0
LTYPE
  5
16
330
5
100
AcDbSymbolTableRecord
100
AcDbLinetypeTableRecord
  2
Continuous
 70
     0
  3
Solid line
 72
    65
 73
     0
 40
0.0
  0
LTYPE
  5
9E
330
5
100
AcDbSymbolTableRecord
100
AcDbLinetypeTableRecord
  2
Dashed
 70
     0
  3

 72
    65
 73
     2
 40
2.0
 49
1.0
 74
     0
 49
-1.0
 74
     0
  0
LTYPE
  5
155
330
5
100
AcDbSymbolTableRecord
100
AcDbLinetypeTableRecord
  2
Center
 70
     0
  3

 72
    65
 73
     4
 40
1.5
 49
0.45
 74
     0
 49
-0.5
 74
     0
 49
0.05
 74
     0
 49
-0.5
 74
     0
  0
ENDTAB
  0
TABLE
  2
LAYER
  5
2
330
0
100
AcDbSymbolTable
 70
     7
  0
LAYER
  5
10
330
2
100
AcDbSymbolTableRecord
100
AcDbLayerTableRecord
  2
0
 70
     0
 62
     7
  6
Continuous
370
    -3
390
F
347
46
348
0
  0
LAYER
  5
72
330
2
100
AcDbSymbolTableRecord
100
AcDbLayerTableRecord
  2
AM_6
 70
     0
 62
    -2
  6
Continuous
370
    35
390
F
347
46
348
0
  0
LAYER
  5
9F
330
2
100
AcDbSymbolTableRecord
100
AcDbLayerTableRecord
  2
AM_9
 70
     0
 62
     6
  6
Dashed
370
    25
390
F
347
46
348
0
  0
LAYER
  5
F6
330
2
100
AcDbSymbolTableRecord
100
AcDbLayerTableRecord
  2
AM_4
 70
     0
 62
     7
  6
Continuous
370
    50
390
F
347
46
348
0
  0
LAYER
  5
156
330
2
100
AcDbSymbolTableRecord
100
AcDbLayerTableRecord
  2
AM_7
 70
     0
 62
     7
  6
Center
370
    25
390
F
347
46
348
0
  0
LAYER
  5
16C
330
2
100
AcDbSymbolTableRecord
100
AcDbLayerTableRecord
  2
AM_5
 70
     0
 62
     3
  6
Continuous
370
    25
390
F
347
46
348
0
  0
LAYER
  5
1EA
330
2
100
AcDbSymbolTableRecord
100
AcDbLayerTableRecord
  2
ConnectionPoints
 70
     0
 62
     7
  6
Continuous
370
    50
390
F
347
46
348
0
  0
ENDTAB
  0
TABLE
  2
STYLE
  5
3
330
0
100
AcDbSymbolTable
 70
     1
  0
STYLE
  5
11
330
3
100
AcDbSymbolTableRecord
100
AcDbTextStyleTableRecord
  2
Standard
 70
     0
 40
0.0
 41
1.0
 50
0.0
 71
     0
 42
0.2
  3
txt
  4

  0
ENDTAB
  0
TABLE
  2
VIEW
  5
6
330
0
100
AcDbSymbolTable
 70
     0
  0
ENDTAB
  0
TABLE
  2
UCS
  5
7
330
0
100
AcDbSymbolTable
 70
     0
  0
ENDTAB
  0
TABLE
  2
APPID
  5
9
330
0
100
AcDbSymbolTable
 70
     1
  0
APPID
  5
12
330
9
100
AcDbSymbolTableRecord
100
AcDbRegAppTableRecord
  2
ACAD
 70
     0
  0
ENDTAB
  0
TABLE
  2
DIMSTYLE
  5
A
330
0
100
AcDbSymbolTable
 70
     1
100
AcDbDimStyleTable
  0
DIMSTYLE
105
27
330
A
100
AcDbSymbolTableRecord
100
AcDbDimStyleTableRecord
  2
Standard
 70
     0
178
     0
340
11
  0
ENDTAB
  0
TABLE
  2
BLOCK_RECORD
  5
1
330
0
100
AcDbSymbolTable
 70
     5
  0
BLOCK_RECORD
  5
1F
330
1
100
AcDbSymbolTableRecord
100
AcDbBlockTableRecord
  2
*Model_Space
340
22
 70
     0
280
     1
281
     0
  0
BLOCK_RECORD
  5
1B
330
1
100
AcDbSymbolTableRecord
100
AcDbBlockTableRecord
  2
*Paper_Space
340
1E
 70
     0
280
     1
281
     0
  0
BLOCK_RECORD
  5
23
330
1
100
AcDbSymbolTableRecord
100
AcDbBlockTableRecord
  2
*Paper_Space0
340
26
 70
     0
280
     1
281
     0
  0
BLOCK_RECORD
  5
6E
330
1
100
AcDbSymbolTableRecord
100
AcDbBlockTableRecord
  2
1_125548_4
340
0
102
{BLKREFS
331
6F
102
}
 70
     0
280
     1
281
     0
  0
BLOCK_RECORD
  5
8D
330
1
100
AcDbSymbolTableRecord
100
AcDbBlockTableRecord
  2
2_405016_Inch_0_in_125548_4
340
0
102
{BLKREFS
331
8E
102
}
 70
     0
280
     1
281
     0
  0
BLOCK_RECORD
  5
114
330
1
100
AcDbSymbolTableRecord
100
AcDbBlockTableRecord
  2
3_389933_0_in_125548_4
340
0
102
{BLKREFS
331
115
102
}
 70
     0
280
     1
281
     0
  0
BLOCK_RECORD
  5
16F
330
1
100
AcDbSymbolTableRecord
100
AcDbBlockTableRecord
  2
4_125548vsc_0_in_125548_4
340
0
102
{BLKREFS
331
170
102
}
 70
     0
280
     1
281
     0
  0
ENDTAB
  0
ENDSEC
  0
SECTION
  2
BLOCKS
  0
BLOCK
  5
20
330
1F
100
AcDbEntity
  8
0
100
AcDbBlockBegin
  2
*Model_Space
 70
     0
 10
0.0
 20
0.0
 30
0.0
  3
*Model_Space
  1

  0
ENDBLK
  5
21
330
1F
100
AcDbEntity
  8
0
100
AcDbBlockEnd
  0
BLOCK
  5
1C
330
1B
100
AcDbEntity
 67
     1
  8
0
100
AcDbBlockBegin
  2
*Paper_Space
 70
     0
 10
0.0
 20
0.0
 30
0.0
  3
*Paper_Space
  1

  0
ENDBLK
  5
1D
330
1B
100
AcDbEntity
 67
     1
  8
0
100
AcDbBlockEnd
  0
BLOCK
  5
24
330
23
100
AcDbEntity
  8
0
100
AcDbBlockBegin
  2
*Paper_Space0
 70
     0
 10
0.0
 20
0.0
 30
0.0
  3
*Paper_Space0
  1

  0
ENDBLK
  5
25
330
23
100
AcDbEntity
  8
0
100
AcDbBlockEnd
  0
BLOCK
  5
70
330
6E
100
AcDbEntity
  8
0
100
AcDbBlockBegin
  2
1_125548_4
 70
     2
 10
0.0
 20
0.0
 30
0.0
  3
1_125548_4
  1

  0
ATTDEF
  5
73
330
6E
100
AcDbEntity
  8
AM_6
100
AcDbText
 10
8.708075000000001
 20
0.981
 30
0.0
 40
0.5
  1
Set Screw Intermediate Duty Narrow Slot Take Up
100
AcDbAttributeDefinition
  3

  2
NN
 70
     8
280
     0
  0
ATTDEF
  5
74
330
6E
100
AcDbEntity
  8
AM_6
100
AcDbText
 10
8.708075000000001
 20
0.481
 30
0.0
 40
0.5
  1
VSC Intermediate Duty Narrow Slot Take-Up Bearings
100
AcDbAttributeDefinition
  3

  2
NT
 70
     8
280
     0
  0
ATTDEF
  5
75
330
6E
100
AcDbEntity
  8
AM_6
100
AcDbText
 10
8.708075000000001
 20
-0.019
 30
0.0
 40
0.5
  1
125548
100
AcDbAttributeDefinition
  3

  2
NB
 70
     8
280
     0
  0
ATTDEF
  5
76
330
6E
100
AcDbEntity
  8
AM_6
100
AcDbText
 10
8.708075000000001
 20
-0.519
 30
0.0
 40
0.5
  1
$PN.
100
AcDbAttributeDefinition
  3

  2
NBSYN
 70
     8
280
     0
  0
ATTDEF
  5
77
330
6E
100
AcDbEntity
  8
AM_6
100
AcDbText
 10
8.708075000000001
 20
-1.019
 30
0.0
 40
0.5
  1
125548
100
AcDbAttributeDefinition
  3

  2
LINA
 70
     8
280
     0
  0
ATTDEF
  5
78
330
6E
100
AcDbEntity
  8
AM_6
100
AcDbText
 10
8.708075000000001
 20
-1.519
 30
0.0
 40
0.5
  1
211
100
AcDbAttributeDefinition
  3

  2
RS
 70
     8
280
     0
  0
ATTDEF
  5
79
330
6E
100
AcDbEntity
  8
AM_6
100
AcDbText
 10
8.708075000000001
 20
-2.019
 30
0.0
 40
0.5
  1
2-3/16
100
AcDbAttributeDefinition
  3

  2
SS
 70
     8
280
     0
  0
ATTDEF
  5
7A
330
6E
100
AcDbEntity
  8
AM_6
100
AcDbText
 10
8.708075000000001
 20
-2.519
 30
0.0
 40
0.5
  1
125548
100
AcDbAttributeDefinition
  3

  2
PN
 70
     8
280
     0
  0
ATTDEF
  5
7B
330
6E
100
AcDbEntity
  8
AM_6
100
AcDbText
 10
8.708075000000001
 20
-3.019
 30
0.0
 40
0.5
  1
NSTU-VSC-203
100
AcDbAttributeDefinition
  3

  2
DESCRIPTION
 70
     8
280
     0
  0
ATTDEF
  5
7C
330
6E
100
AcDbEntity
  8
AM_6
100
AcDbText
 10
8.708075000000001
 20
-3.519
 30
0.0
 40
0.5
  1
6.58
100
AcDbAttributeDefinition
  3

  2
WEIGHT
 70
     8
280
     0
  0
ATTDEF
  5
7D
330
6E
100
AcDbEntity
  8
AM_6
100
AcDbText
 10
8.708075000000001
 20
-4.019
 30
0.0
 40
0.5
  1
2.22
100
AcDbAttributeDefinition
  3

  2
A
 70
     8
280
     0
  0
ATTDEF
  5
7E
330
6E
100
AcDbEntity
  8
AM_6
100
AcDbText
 10
8.708075000000001
 20
-4.519
 30
0.0
 40
0.5
  1
6.13
100
AcDbAttributeDefinition
  3

  2
B
 70
     8
280
     0
  0
ATTDEF
  5
7F
330
6E
100
AcDbEntity
  8
AM_6
100
AcDbText
 10
8.708075000000001
 20
-5.019
 30
0.0
 40
0.5
  1
0.313
100
AcDbAttributeDefinition
  3

  2
C
 70
     8
280
     0
  0
ATTDEF
  5
80
330
6E
100
AcDbEntity
  8
AM_6
100
AcDbText
 10
8.708075000000001
 20
-5.519
 30
0.0
 40
0.5
  1
3.50
100
AcDbAttributeDefinition
  3

  2
D
 70
     8
280
     0
  0
ATTDEF
  5
81
330
6E
100
AcDbEntity
  8
AM_6
100
AcDbText
 10
8.708075000000001
 20
-6.019
 30
0.0
 40
0.5
  1
3.63
100
AcDbAttributeDefinition
  3

  2
E
 70
     8
280
     0
  0
ATTDEF
  5
82
330
6E
100
AcDbEntity
  8
AM_6
100
AcDbText
 10
8.708075000000001
 20
-6.519
 30
0.0
 40
0.5
  1
1
100
AcDbAttributeDefinition
  3

  2
F
 70
     8
280
     0
  0
ATTDEF
  5
83
330
6E
100
AcDbEntity
  8
AM_6
100
AcDbText
 10
8.708075000000001
 20
-7.019
 30
0.0
 40
0.5
  1
0.69
100
AcDbAttributeDefinition
  3

  2
G
 70
     8
280
     0
  0
ATTDEF
  5
84
330
6E
100
AcDbEntity
  8
AM_6
100
AcDbText
 10
8.708075000000001
 20
-7.519
 30
0.0
 40
0.5
  1
1.28
100
AcDbAttributeDefinition
  3

  2
H
 70
     8
280
     0
  0
ATTDEF
  5
85
330
6E
100
AcDbEntity
  8
AM_6
100
AcDbText
 10
8.708075000000001
 20
-8.019
 30
0.0
 40
0.5
  1
1.75
100
AcDbAttributeDefinition
  3

  2
J
 70
     8
280
     0
  0
ATTDEF
  5
86
330
6E
100
AcDbEntity
  8
AM_6
100
AcDbText
 10
8.708075000000001
 20
-8.519
 30
0.0
 40
0.5
  1
2.71
100
AcDbAttributeDefinition
  3

  2
L
 70
     8
280
     0
  0
ATTDEF
  5
87
330
6E
100
AcDbEntity
  8
AM_6
100
AcDbText
 10
8.708075000000001
 20
-9.019
 30
0.0
 40
0.5
  1
4.448/4.418
100
AcDbAttributeDefinition
  3

  2
M
 70
     8
280
     0
  0
ATTDEF
  5
88
330
6E
100
AcDbEntity
  8
AM_6
100
AcDbText
 10
8.708075000000001
 20
-9.519
 30
0.0
 40
0.5
  1
5.38
100
AcDbAttributeDefinition
  3

  2
N
 70
     8
280
     0
  0
ATTDEF
  5
89
330
6E
100
AcDbEntity
  8
AM_6
100
AcDbText
 10
8.708075000000001
 20
-10.019
 30
0.0
 40
0.5
  1
0.44
100
AcDbAttributeDefinition
  3

  2
P
 70
     8
280
     0
  0
ATTDEF
  5
8A
330
6E
100
AcDbEntity
  8
AM_6
100
AcDbText
 10
8.708075000000001
 20
-10.519
 30
0.0
 40
0.5
  1
0.87
100
AcDbAttributeDefinition
  3

  2
R
 70
     8
280
     0
  0
ATTDEF
  5
8B
330
6E
100
AcDbEntity
  8
AM_6
100
AcDbText
 10
8.708075000000001
 20
-11.019
 30
0.0
 40
0.5
  1
1.35
100
AcDbAttributeDefinition
  3

  2
S
 70
     8
280
     0
  0
ATTDEF
  5
8C
330
6E
100
AcDbEntity
  8
AM_6
100
AcDbText
 10
8.708075000000001
 20
-11.519
 30
0.0
 40
0.5
  1
baldor
100
AcDbAttributeDefinition
  3

  2
COMPANY
 70
     8
280
     0
  0
INSERT
  5
8E
330
6E
100
AcDbEntity
  8
0
100
AcDbBlockReference
  2
2_405016_Inch_0_in_125548_4
 10
0.0
 20
0.0
 30
0.0
  0
INSERT
  5
115
330
6E
100
AcDbEntity
  8
0
100
AcDbBlockReference
  2
3_389933_0_in_125548_4
 10
0.0
 20
0.0
 30
0.0
  0
INSERT
  5
170
330
6E
100
AcDbEntity
  8
0
100
AcDbBlockReference
  2
4_125548vsc_0_in_125548_4
 10
0.0
 20
0.0
 30
0.0
  0
ENDBLK
  5
71
330
6E
100
AcDbEntity
  8
0
100
AcDbBlockEnd
  0
BLOCK
  5
8F
330
8D
100
AcDbEntity
  8
0
100
AcDbBlockBegin
  2
2_405016_Inch_0_in_125548_4
 70
     2
 10
0.0
 20
0.0
 30
0.0
  3
2_405016_Inch_0_in_125548_4
  1

  0
ATTDEF
  5
91
330
8D
100
AcDbEntity
  8
AM_6
100
AcDbText
 10
3.105211410555361
 20
0.2187500000000008
 30
0.0
 40
0.5
  1
405016 -Inch
100
AcDbAttributeDefinition
  3

  2
NN
 70
     8
280
     0
  0
ATTDEF
  5
92
330
8D
100
AcDbEntity
  8
AM_6
100
AcDbText
 10
3.105211410555361
 20
-0.2812499999999992
 30
0.0
 40
0.5
  1
Grease Fitting
100
AcDbAttributeDefinition
  3

  2
NT
 70
     8
280
     0
  0
ATTDEF
  5
93
330
8D
100
AcDbEntity
  8
AM_6
100
AcDbText
 10
3.105211410555361
 20
-0.7812499999999992
 30
0.0
 40
0.5
  1
405016-Inch
100
AcDbAttributeDefinition
  3

  2
NB
 70
     8
280
     0
  0
ATTDEF
  5
94
330
8D
100
AcDbEntity
  8
AM_6
100
AcDbText
 10
3.105211410555361
 20
-1.281249999999999
 30
0.0
 40
0.5
  1
$MN.-Inch
100
AcDbAttributeDefinition
  3

  2
NBSYN
 70
     8
280
     0
  0
ATTDEF
  5
95
330
8D
100
AcDbEntity
  8
AM_6
100
AcDbText
 10
3.105211410555361
 20
-1.781249999999999
 30
0.0
 40
0.5
  1
405016
100
AcDbAttributeDefinition
  3

  2
LINA
 70
     8
280
     0
  0
ATTDEF
  5
96
330
8D
100
AcDbEntity
  8
AM_6
100
AcDbText
 10
3.105211410555361
 20
-2.281249999999999
 30
0.0
 40
0.5
  1
405016
100
AcDbAttributeDefinition
  3

  2
MN
 70
     8
280
     0
  0
ATTDEF
  5
97
330
8D
100
AcDbEntity
  8
AM_6
100
AcDbText
 10
3.105211410555361
 20
-2.781249999999999
 30
0.0
 40
0.5
  1
7/16 HEX
100
AcDbAttributeDefinition
  3

  2
H
 70
     8
280
     0
  0
ATTDEF
  5
98
330
8D
100
AcDbEntity
  8
AM_6
100
AcDbText
 10
3.105211410555361
 20
-3.281249999999999
 30
0.0
 40
0.5
  1
0.383
100
AcDbAttributeDefinition
  3

  2
NDR
 70
     8
280
     0
  0
ATTDEF
  5
99
330
8D
100
AcDbEntity
  8
AM_6
100
AcDbText
 10
3.105211410555361
 20
-3.781249999999999
 30
0.0
 40
0.5
  1
0.337
100
AcDbAttributeDefinition
  3

  2
KDR
 70
     8
280
     0
  0
ATTDEF
  5
9A
330
8D
100
AcDbEntity
  8
AM_6
100
AcDbText
 10
3.105211410555361
 20
-4.281249999999999
 30
0.0
 40
0.5
  1
0.1575
100
AcDbAttributeDefinition
  3

  2
BZE
 70
     8
280
     0
  0
ATTDEF
  5
9B
330
8D
100
AcDbEntity
  8
AM_6
100
AcDbText
 10
3.105211410555361
 20
-4.781249999999999
 30
0.0
 40
0.5
  1
0.4375
100
AcDbAttributeDefinition
  3

  2
HEX
 70
     8
280
     0
  0
ATTDEF
  5
9C
330
8D
100
AcDbEntity
  8
AM_6
100
AcDbText
 10
3.105211410555361
 20
-5.281249999999999
 30
0.0
 40
0.5
  1
0.281250
100
AcDbAttributeDefinition
  3

  2
HEX2
 70
     8
280
     0
  0
ATTDEF
  5
9D
330
8D
100
AcDbEntity
  8
AM_6
100
AcDbText
 10
3.105211410555361
 20
-5.781249999999999
 30
0.0
 40
0.5
  1
baldor
100
AcDbAttributeDefinition
  3

  2
COMPANY
 70
     8
280
     0
  0
LINE
  5
A0
330
8D
100
AcDbEntity
  8
AM_9
100
AcDbLine
 10
-2.59193140727518
 20
-0.151074129835757
 30
0.0
 11
-2.603252980499057
 21
-0.1791093260592887
 31
0.0
  0
LINE
  5
A1
330
8D
100
AcDbEntity
  8
AM_9
100
AcDbLine
 10
-2.440756561236683
 20
-0.2099962668917053
 30
0.0
 11
-2.452443807456227
 21
-0.2389369657326276
 31
0.0
  0
LWPOLYLINE
  5
A2
330
8D
100
AcDbEntity
  8
AM_9
100
AcDbPolyline
 90
        3
 70
     0
 43
0.0
 10
-2.224602755971277
 20
0.1093749999999999
 10
-2.206743105987354
 20
0.0546874999999999
 10
-2.185176141436353
 20
-0.0000000000000001
  0
LWPOLYLINE
  5
A3
330
8D
100
AcDbEntity
  8
AM_9
100
AcDbPolyline
 90
        3
 70
     0
 43
0.0
 10
-2.185176141436353
 20
-0.0000000000000001
 10
-2.206653812353976
 20
-0.0544416102741497
 10
-2.224602755971277
 20
-0.109375
  0
LWPOLYLINE
  5
A4
330
8D
100
AcDbEntity
  8
AM_9
100
AcDbPolyline
 90
        3
 70
     0
 43
0.0
 10
-2.382825712814593
 20
-0.2987675689889718
 10
-2.398712997377689
 20
-0.2912216284034024
 10
-2.413922999075703
 20
-0.2813919000363599
  0
LWPOLYLINE
  5
A5
330
8D
100
AcDbEntity
  8
AM_9
100
AcDbPolyline
 90
        3
 70
     0
 43
0.0
 10
-2.114279144435142
 20
-0.0000000000000001
 10
-2.124233351864416
 20
0.0544416102741495
 10
-2.138000215592833
 20
0.1093749999999999
  0
LWPOLYLINE
  5
A6
330
8D
100
AcDbEntity
  8
AM_9
100
AcDbPolyline
 90
        3
 70
     0
 43
0.0
 10
-2.138000215592833
 20
-0.1093750000000001
 10
-2.124286022730449
 20
-0.0546875000000001
 10
-2.114279144435142
 20
-0.0000000000000001
  0
LWPOLYLINE
  5
A7
330
8D
100
AcDbEntity
  8
AM_9
100
AcDbPolyline
 90
        3
 70
     0
 43
0.0
 10
-2.395623091537169
 20
-0.2360765106845277
 10
-2.386458104960612
 20
-0.2462091938631851
 10
-2.370770063503614
 20
-0.2689146070947222
  0
LWPOLYLINE
  5
A8
330
8D
100
AcDbEntity
  8
AM_9
100
AcDbPolyline
 90
        3
 70
     0
 43
0.0
 10
-2.224602755971277
 20
-0.109375
 10
-2.238316948833661
 20
-0.1640625
 10
-2.248323827128968
 20
-0.2187500000000001
  0
LINE
  5
A9
330
8D
100
AcDbEntity
  8
AM_9
100
AcDbLine
 10
-2.185176141436353
 20
-0.0000000000000001
 30
0.0
 11
-2.114279144435142
 21
-0.0000000000000001
 31
0.0
  0
LWPOLYLINE
  5
AA
330
8D
100
AcDbEntity
  8
AM_9
100
AcDbPolyline
 90
        3
 70
     0
 43
0.0
 10
-2.248323827128968
 20
0.2187499999999999
 10
-2.238369619699694
 20
0.1643083897258503
 10
-2.224602755971277
 20
0.1093749999999999
  0
LWPOLYLINE
  5
AB
330
8D
100
AcDbEntity
  8
AM_9
100
AcDbPolyline
 90
        3
 70
     0
 43
0.0
 10
-2.370770063503614
 20
-0.2689146070947222
 10
-2.383765951353225
 20
-0.2634308483997528
 10
-2.397979851467466
 20
-0.2602304684431305
  0
LWPOLYLINE
  5
AC
330
8D
100
AcDbEntity
  8
AM_9
100
AcDbPolyline
 90
        3
 70
     0
 43
0.0
 10
-2.416279759006
 20
-0.3055458577949631
 10
-2.399897804387022
 20
-0.3030753670497808
 10
-2.382825712814593
 20
-0.2987675689889718
  0
LINE
  5
AD
330
8D
100
AcDbEntity
  8
AM_9
100
AcDbLine
 10
-2.370770063503614
 20
-0.2689146070947222
 30
0.0
 11
-2.382825712814593
 21
-0.2987675689889718
 31
0.0
  0
ELLIPSE
  5
AE
330
8D
100
AcDbEntity
  8
AM_9
100
AcDbEllipse
 10
-2.625107355663683
 20
-0.4687500000000002
 30
0.0
 11
-0.09595382955731768
 21
0.03874944547499698
 31
0.0
210
0.0
220
0.0
230
1.0
 40
0.2113091308703566
 41
3.04060964969654
 42
6.384168311072828
  0
LINE
  5
AF
330
8D
100
AcDbEntity
  8
AM_9
100
AcDbLine
 10
-2.480804519635908
 20
-0.4640121274406705
 30
0.0
 11
-2.469856063525073
 21
-0.4540180898723598
 31
0.0
  0
ELLIPSE
  5
B0
330
8D
100
AcDbEntity
  8
AM_9
100
AcDbEllipse
 10
-2.5971136934662
 20
-0.3994303217889761
 30
0.0
 11
-0.1290248947933268
 21
0.05210467522533572
 31
0.0
210
0.0
220
0.0
230
1.0
 40
0.211309130870353
 41
2.744134720775069
 42
5.80110563949218
  0
LWPOLYLINE
  5
B1
330
8D
100
AcDbEntity
  8
AM_9
100
AcDbPolyline
 90
        8
 70
     0
 43
0.0
 10
-2.470021145115664
 20
-0.4541677307114522
 10
-2.465963368996685
 20
-0.4497468730719745
 10
-2.462597096388206
 20
-0.4441067909407603
 10
-2.460431896608843
 20
-0.437417936820558
 10
-2.459842640103987
 20
-0.4308687355727011
 10
-2.460537305797176
 20
-0.4247161129899244
 10
-2.462264413499671
 20
-0.4189795381396472
 10
-2.464589873764277
 20
-0.4140854568598178
  0
LWPOLYLINE
  5
B2
330
8D
100
AcDbEntity
  8
AM_9
100
AcDbPolyline
 90
        3
 70
     0
 43
0.0
 10
-2.464015594419384
 20
-0.2987675689889718
 10
-2.450482328918994
 20
-0.3030606061861223
 10
-2.436923044294009
 20
-0.305456396233367
  0
ELLIPSE
  5
B3
330
8D
100
AcDbEntity
  8
AM_9
100
AcDbEllipse
 10
-2.535437808724871
 20
-0.2467045921760189
 30
0.0
 11
-0.1303939210191767
 21
0.05265753494273542
 31
0.0
210
0.0
220
0.0
230
1.0
 40
0.2113091308703529
 41
-4.353046845368475
 42
-3.764628581859196
  0
LWPOLYLINE
  5
B4
330
8D
100
AcDbEntity
  8
AM_9
100
AcDbPolyline
 90
        5
 70
     0
 43
0.0
 10
-2.603252980499057
 20
-0.1791093260592887
 10
-2.625115368997682
 20
-0.1842540823997054
 10
-2.646011455927676
 20
-0.1862220679364951
 10
-2.665929075482585
 20
-0.1844124966919381
 10
-2.684442862103848
 20
-0.1791093260592887
  0
LWPOLYLINE
  5
B5
330
8D
100
AcDbEntity
  8
AM_9
100
AcDbPolyline
 90
        5
 70
     0
 43
0.0
 10
-2.452443807456227
 20
-0.2389369657326276
 10
-2.491285096143657
 20
-0.2295338871417796
 10
-2.529420142855575
 20
-0.216687117104632
 10
-2.567038937216759
 20
-0.1996402057054678
 10
-2.603252980499057
 20
-0.1791093260592887
  0
LWPOLYLINE
  5
B6
330
8D
100
AcDbEntity
  8
AM_9
100
AcDbPolyline
 90
        3
 70
     0
 43
0.0
 10
-2.42594452925751
 20
-0.2711532636537956
 10
-2.439679707022083
 20
-0.2561815527589921
 10
-2.452443807456227
 20
-0.2389369657326276
  0
ELLIPSE
  5
B7
330
8D
100
AcDbEntity
  8
AM_9
100
AcDbEllipse
 10
-2.535437808724861
 20
-0.2467045921760145
 30
0.0
 11
-0.1303939210191838
 21
0.05265753494272878
 31
0.0
210
0.0
220
0.0
230
1.0
 40
0.2113091308703787
 41
3.806340372002371
 42
6.919181903097249
  0
LWPOLYLINE
  5
B8
330
8D
100
AcDbEntity
  8
AM_9
100
AcDbPolyline
 90
        4
 70
     0
 43
0.0
 10
-2.417736251420734
 20
-0.2602304684431209
 10
-2.426984886834628
 20
-0.2616913382589203
 10
-2.439282404284262
 20
-0.2647402074337707
 10
-2.451959945108405
 20
-0.2689146070947222
  0
LINE
  5
B9
330
8D
100
AcDbEntity
  8
AM_9
100
AcDbLine
 10
-2.169687312121072
 20
0.2000413016192557
 30
0.0
 11
-2.177426830127757
 21
0.2187499999999999
 31
0.0
  0
LWPOLYLINE
  5
BA
330
8D
100
AcDbEntity
  8
AM_9
100
AcDbPolyline
 90
        3
 70
     0
 43
0.0
 10
-2.138000215592833
 20
0.1093749999999999
 10
-2.155859865576756
 20
0.1640624999999999
 10
-2.169687312121072
 20
0.2000413016192557
  0
LWPOLYLINE
  5
BB
330
8D
100
AcDbEntity
  8
AM_9
100
AcDbPolyline
 90
        3
 70
     0
 43
0.0
 10
-2.169687190039107
 20
-0.2000409996967265
 10
-2.155949159210135
 20
-0.1643083897258505
 10
-2.138000215592833
 20
-0.1093750000000001
  0
LINE
  5
BC
330
8D
100
AcDbEntity
  8
AM_9
100
AcDbLine
 10
-2.177426830127757
 20
-0.2187500000000001
 30
0.0
 11
-2.169687190039107
 21
-0.2000409996967265
 31
0.0
  0
LINE
  5
BD
330
8D
100
AcDbEntity
  8
AM_9
100
AcDbLine
 10
-2.60306620812707
 20
-0.1204089378707286
 30
0.0
 11
-2.604151653116782
 21
-0.1230967854582223
 31
0.0
  0
LINE
  5
BE
330
8D
100
AcDbEntity
  8
AM_9
100
AcDbLine
 10
-2.415140878522449
 20
-0.2425790968238377
 30
0.0
 11
-2.395277500356491
 21
-0.193392142543456
 31
0.0
  0
ELLIPSE
  5
BF
330
8D
100
AcDbEntity
  8
AM_9
100
AcDbEllipse
 10
-2.517137901186351
 20
-0.2013892028241755
 30
0.0
 11
-0.1019970226638729
 21
0.0411898939996376
 31
0.0
210
0.0
220
0.0
230
1.0
 40
0.2113091308703377
 41
1.82413114710373
 42
6.283185307179586
  0
LWPOLYLINE
  5
C0
330
8D
100
AcDbEntity
  8
AM_9
100
AcDbPolyline
 90
        4
 70
     0
 43
0.0
 10
-2.60307093778209
 20
-0.1204206514110938
 10
-2.603210103766619
 20
-0.1208367673933812
 10
-2.602632519809492
 20
-0.1245107513506023
 10
-2.600724736745332
 20
-0.1273633910775155
  0
LWPOLYLINE
  5
C1
330
8D
100
AcDbEntity
  8
AM_9
100
AcDbPolyline
 90
        5
 70
     0
 43
0.0
 10
-2.395276556155003
 20
-0.1933898041312626
 10
-2.395369892286154
 20
-0.1936098952159724
 10
-2.398585429238793
 20
-0.1971856748420371
 10
-2.404603792481575
 20
-0.1994144431868155
 10
-2.411467763062018
 20
-0.1999999999699529
  0
LWPOLYLINE
  5
C2
330
8D
100
AcDbEntity
  8
AM_9
100
AcDbPolyline
 90
        3
 70
     0
 43
0.0
 10
-2.504764894274456
 20
-0.1745741884610189
 10
-2.477375818901026
 20
-0.1876759562813858
 10
-2.440756561236683
 20
-0.2099962668917053
  0
LWPOLYLINE
  5
C3
330
8D
100
AcDbEntity
  8
AM_9
100
AcDbPolyline
 90
        3
 70
     0
 43
0.0
 10
-2.59193140727518
 20
-0.151074129835757
 10
-2.562726799775656
 20
-0.1564222384464442
 10
-2.534056300833362
 20
-0.1639312493177432
  0
LWPOLYLINE
  5
C4
330
8D
100
AcDbEntity
  8
AM_9
100
AcDbPolyline
 90
        3
 70
     0
 43
0.0
 10
-2.440756561236683
 20
-0.2099962668917053
 10
-2.42378287890316
 20
-0.2163479371246913
 10
-2.407644621718977
 20
-0.2258378743019629
  0
LWPOLYLINE
  5
C5
330
8D
100
AcDbEntity
  8
AM_9
100
AcDbPolyline
 90
        4
 70
     0
 43
0.0
 10
-2.628842287619675
 20
-0.141958509815605
 10
-2.624967168173626
 20
-0.1420496512545706
 10
-2.610478253058875
 20
-0.1441228263802214
 10
-2.59193140727518
 20
-0.151074129835757
  0
ELLIPSE
  5
C6
330
8D
100
AcDbEntity
  8
AM_9
100
AcDbEllipse
 10
-2.517137901186337
 20
-0.2013892028241876
 30
0.0
 11
-0.1303939210191745
 21
0.05265753494273405
 31
0.0
210
0.0
220
0.0
230
1.0
 40
0.2113091308703471
 41
3.814164134970071
 42
4.691382374875839
  0
ELLIPSE
  5
C7
330
8D
100
AcDbEntity
  8
AM_9
100
AcDbEllipse
 10
-2.517137901186336
 20
-0.2013892028241911
 30
0.0
 11
-0.1303939210191776
 21
0.05265753494273612
 31
0.0
210
0.0
220
0.0
230
1.0
 40
0.2113091308703605
 41
-1.284946771305282
 42
-0.672571481380289
  0
LINE
  5
C8
330
8D
100
AcDbEntity
  8
AM_9
100
AcDbLine
 10
-2.413922999075703
 20
-0.2813919000363599
 30
0.0
 11
-2.42594452925751
 21
-0.2711532636537956
 31
0.0
  0
ELLIPSE
  5
C9
330
8D
100
AcDbEntity
  8
AM_9
100
AcDbEllipse
 10
-2.535437808724867
 20
-0.2467045921760219
 30
0.0
 11
-0.1303939210191722
 21
0.05265753494273273
 31
0.0
210
0.0
220
0.0
230
1.0
 40
0.2113091308703495
 41
2.800469246484364
 42
3.607080702195142
  0
LWPOLYLINE
  5
CA
330
8D
100
AcDbEntity
  8
AM_9
100
AcDbPolyline
 90
        3
 70
     0
 43
0.0
 10
-2.436036158959269
 20
-0.3055458577949631
 10
-2.42658596007296
 20
-0.3064767622622302
 10
-2.416279759006
 20
-0.3055458577949631
  0
LWPOLYLINE
  5
CB
330
8D
100
AcDbEntity
  8
AM_9
100
AcDbPolyline
 90
       18
 70
     0
 43
0.0
 10
-2.464178312133875
 20
-0.4148366404956252
 10
-2.465438677917806
 20
-0.4122481455399223
 10
-2.467936163265334
 20
-0.4060000236362499
 10
-2.470119624378982
 20
-0.3982825566089627
 10
-2.471579347134424
 20
-0.3892805759560283
 10
-2.471952383797806
 20
-0.3793705243474477
 10
-2.471006881902131
 20
-0.3689960002794863
 10
-2.468313496362663
 20
-0.3574697629505347
 10
-2.464062927389458
 20
-0.3466611891621302
 10
-2.458545694189412
 20
-0.3369286247163443
 10
-2.452083368472082
 20
-0.3284559089050561
 10
-2.445026051783793
 20
-0.3213478342855416
 10
-2.437775116821958
 20
-0.3156593178473082
 10
-2.430778869831719
 20
-0.3113760323608346
 10
-2.424468486172219
 20
-0.3083814254975639
 10
-2.419156338227074
 20
-0.3064565366397919
 10
-2.414999427122229
 20
-0.3053366515551492
 10
-2.414418562784625
 20
-0.30520920711892
  0
ELLIPSE
  5
CC
330
8D
100
AcDbEntity
  8
AM_9
100
AcDbEllipse
 10
-2.586438711988855
 20
-0.3729962569746644
 30
0.0
 11
-0.1235034625625957
 21
0.04987493162723555
 31
0.0
210
0.0
220
0.0
230
1.0
 40
0.2113091308703481
 41
2.544777061543881
 42
6.031907653373112
  0
ELLIPSE
  5
CD
330
8D
100
AcDbEntity
  8
AM_9
100
AcDbEllipse
 10
-2.517137901186338
 20
-0.2013892028241879
 30
0.0
 11
-0.1303939210191837
 21
0.05265753494272001
 31
0.0
210
0.0
220
0.0
230
1.0
 40
0.2113091308703676
 41
1.787257001543626
 42
2.518556725320338
  0
LINE
  5
CE
330
8D
100
AcDbEntity
  8
AM_9
100
AcDbLine
 10
-2.397979851467466
 20
-0.2602304684431305
 30
0.0
 11
-2.417736251420734
 21
-0.2602304684431209
 31
0.0
  0
ELLIPSE
  5
CF
330
8D
100
AcDbEntity
  8
AM_9
100
AcDbEllipse
 10
-2.517137901186338
 20
-0.201389202824188
 30
0.0
 11
-0.1303939210191762
 21
0.05265753494273393
 31
0.0
210
0.0
220
0.0
230
1.0
 40
0.211309130870349
 41
2.80046924648437
 42
3.607080702195119
  0
LINE
  5
D0
330
8D
100
AcDbEntity
  8
AM_9
100
AcDbLine
 10
-2.407644621718977
 20
-0.2258378743019629
 30
0.0
 11
-2.395623091537169
 21
-0.2360765106845277
 31
0.0
  0
LWPOLYLINE
  5
D1
330
8D
100
AcDbEntity
  8
AM_9
100
AcDbPolyline
 90
        3
 70
     0
 43
0.0
 10
-2.451959945108405
 20
-0.2689146070947222
 10
-2.48002224507725
 20
-0.251275593729576
 10
-2.499831562699676
 20
-0.2407483919466223
  0
LWPOLYLINE
  5
D2
330
8D
100
AcDbEntity
  8
AM_9
100
AcDbPolyline
 90
        3
 70
     0
 43
0.0
 10
-2.5000337838145
 20
-0.2902031835049196
 10
-2.496459706599746
 20
-0.2911775952746243
 10
-2.464015594419384
 20
-0.2987675689889718
  0
LINE
  5
D3
330
8D
100
AcDbEntity
  8
AM_9
100
AcDbLine
 10
-2.451959945108405
 20
-0.2689146070947222
 30
0.0
 11
-2.464015594419384
 21
-0.2987675689889718
 31
0.0
  0
LWPOLYLINE
  5
D4
330
8D
100
AcDbEntity
  8
AM_9
100
AcDbPolyline
 90
       17
 70
     0
 43
0.0
 10
-2.401952665507079
 20
-0.1790373738501779
 10
-2.409920130583272
 20
-0.1733931390117467
 10
-2.420676204017453
 20
-0.1670729780242511
 10
-2.433319255539897
 20
-0.1606047421316795
 10
-2.448209678685738
 20
-0.1538031670974777
 10
-2.464111555492619
 20
-0.1472336073736393
 10
-2.481472525314337
 20
-0.1407130262602576
 10
-2.498828002444582
 20
-0.1347930597680667
 10
-2.516685714028871
 20
-0.1293028157827817
 10
-2.533515475528945
 20
-0.1247141396218192
 10
-2.54983221942965
 20
-0.1208880884981781
 10
-2.564231270289484
 20
-0.1181545989145989
 10
-2.577163623155231
 20
-0.1164278875396128
 10
-2.587523351314931
 20
-0.1158549073091554
 10
-2.595633526131629
 20
-0.1164156227038168
 10
-2.60081016732247
 20
-0.1180609686233502
 10
-2.60307093778209
 20
-0.1204206514110938
  0
ARC
  5
D5
330
8D
100
AcDbEntity
  8
AM_9
100
AcDbCircle
 10
-2.44652176569104
 20
0.0000000000000102
 30
0.0
 40
0.1999999999999898
100
AcDbArc
 50
90.0
 51
105.5090851507038
  0
LINE
  5
D6
330
8D
100
AcDbEntity
  8
AM_9
100
AcDbLine
 10
-2.500005961320114
 20
-0.1762216824476663
 30
0.0
 11
-2.491090865874982
 21
-0.1790373738502114
 31
0.0
  0
ELLIPSE
  5
D7
330
8D
100
AcDbEntity
  8
AM_9
100
AcDbEllipse
 10
-2.446521765691041
 20
0.0000000000000001
 30
0.0
 11
1.224646799147352E-17
 21
0.1999999999999998
 31
0.0
210
0.0
220
0.0
230
1.0
 40
0.4999999999999965
 41
0.0
 42
0.5642501408952225
  0
ELLIPSE
  5
D8
330
8D
100
AcDbEntity
  8
AM_9
100
AcDbEllipse
 10
-2.446521765691039
 20
0.0000000000000181
 30
0.0
 11
1.224646799147482E-17
 21
0.200000000000021
 31
0.0
210
0.0
220
0.0
230
1.0
 40
0.4999999999999836
 41
-3.705842794484993
 42
-3.603538674156733
  0
LWPOLYLINE
  5
D9
330
8D
100
AcDbEntity
  8
AM_9
100
AcDbPolyline
 90
        4
 70
     0
 43
0.0
 10
-2.401952665507079
 20
-0.1790373738501784
 10
-2.396998005035011
 20
-0.1842628795203941
 10
-2.394890120568268
 20
-0.1891729979031393
 10
-2.395276556155003
 20
-0.1933898041312626
  0
LINE
  5
DA
330
8D
100
AcDbEntity
  8
AM_9
100
AcDbLine
 10
-2.3193242845102
 20
0.1999999999999999
 30
0.0
 11
-2.44652176569104
 21
0.1999999999999999
 31
0.0
  0
LINE
  5
DB
330
8D
100
AcDbEntity
  8
AM_9
100
AcDbLine
 10
-2.411615547288926
 20
-0.2
 30
0.0
 11
-2.3193242845102
 21
-0.2
 31
0.0
  0
LWPOLYLINE
  5
DC
330
8D
100
AcDbEntity
  8
AM_9
100
AcDbPolyline
 90
        8
 70
     0
 43
0.0
 10
-2.411467763062018
 20
-0.1999999999699529
 10
-2.412954880301322
 20
-0.1999786710855128
 10
-2.423828480778071
 20
-0.1988321115509053
 10
-2.436226802492053
 20
-0.1961649429984259
 10
-2.450650232858045
 20
-0.1920694300574958
 10
-2.466163212718862
 20
-0.1870948030566195
 10
-2.483256616505834
 20
-0.181500594761393
 10
-2.491090865875
 20
-0.1790373738501783
  0
LINE
  5
DD
330
8D
100
AcDbEntity
  8
AM_9
100
AcDbLine
 10
-2.165063509461097
 20
0.1999999999999999
 30
0.0
 11
-2.232721744131756
 21
0.1999999999999999
 31
0.0
  0
LINE
  5
DE
330
8D
100
AcDbEntity
  8
AM_9
100
AcDbLine
 10
-2.232721744131756
 20
-0.2
 30
0.0
 11
-2.165063509461097
 21
-0.2
 31
0.0
  0
LINE
  5
DF
330
8D
100
AcDbEntity
  8
AM_9
100
AcDbLine
 10
-2.374619198514199
 20
0.2187499999999999
 30
0.0
 11
-2.177426830127757
 21
0.2187499999999999
 31
0.0
  0
LWPOLYLINE
  5
E0
330
8D
100
AcDbEntity
  8
AM_9
100
AcDbPolyline
 90
        3
 70
     0
 43
0.0
 10
-2.414045813049123
 20
0.1093749999999999
 10
-2.396186163065199
 20
0.1640624999999999
 10
-2.374619198514199
 20
0.2187499999999999
  0
LWPOLYLINE
  5
E1
330
8D
100
AcDbEntity
  8
AM_9
100
AcDbPolyline
 90
        3
 70
     0
 43
0.0
 10
-2.437766884206814
 20
-0.0000000000000001
 10
-2.42781267677754
 20
0.0544416102741495
 10
-2.414045813049123
 20
0.1093749999999999
  0
LWPOLYLINE
  5
E2
330
8D
100
AcDbEntity
  8
AM_9
100
AcDbPolyline
 90
        3
 70
     0
 43
0.0
 10
-2.327443272670679
 20
0.1093749999999999
 10
-2.345302922654602
 20
0.0546874999999999
 10
-2.366869887205603
 20
-0.0000000000000001
  0
LWPOLYLINE
  5
E3
330
8D
100
AcDbEntity
  8
AM_9
100
AcDbPolyline
 90
        3
 70
     0
 43
0.0
 10
-2.303722201512988
 20
0.2187499999999999
 10
-2.313676408942262
 20
0.1643083897258503
 10
-2.327443272670679
 20
0.1093749999999999
  0
LINE
  5
E4
330
8D
100
AcDbEntity
  8
AM_9
100
AcDbLine
 10
-2.437766884206814
 20
-0.0000000000000001
 30
0.0
 11
-2.366869887205603
 21
-0.0000000000000001
 31
0.0
  0
LWPOLYLINE
  5
E5
330
8D
100
AcDbEntity
  8
AM_9
100
AcDbPolyline
 90
        3
 70
     0
 43
0.0
 10
-2.414045813049123
 20
-0.109375
 10
-2.427760005911507
 20
-0.0546875
 10
-2.437766884206814
 20
-0.0000000000000001
  0
LWPOLYLINE
  5
E6
330
8D
100
AcDbEntity
  8
AM_9
100
AcDbPolyline
 90
        3
 70
     0
 43
0.0
 10
-2.374619198514199
 20
-0.2187500000000001
 10
-2.396096869431822
 20
-0.1643083897258504
 10
-2.414045813049123
 20
-0.109375
  0
LINE
  5
E7
330
8D
100
AcDbEntity
  8
AM_9
100
AcDbLine
 10
-2.374619198514199
 20
-0.2187500000000001
 30
0.0
 11
-2.177426830127757
 21
-0.2187500000000001
 31
0.0
  0
LWPOLYLINE
  5
E8
330
8D
100
AcDbEntity
  8
AM_9
100
AcDbPolyline
 90
        3
 70
     0
 43
0.0
 10
-2.327443272670679
 20
-0.109375
 10
-2.313729079808295
 20
-0.1640625
 10
-2.303722201512988
 20
-0.2187500000000001
  0
LWPOLYLINE
  5
E9
330
8D
100
AcDbEntity
  8
AM_9
100
AcDbPolyline
 90
        3
 70
     0
 43
0.0
 10
-2.366869887205603
 20
-0.0000000000000001
 10
-2.34539221628798
 20
-0.0544416102741496
 10
-2.327443272670679
 20
-0.109375
  0
LINE
  5
EA
330
8D
100
AcDbEntity
  8
AM_9
100
AcDbLine
 10
-1.994518891838694
 20
0.1853871066562612
 30
0.0
 11
-2.163333714097633
 21
0.1914799831312452
 31
0.0
  0
LINE
  5
EB
330
8D
100
AcDbEntity
  8
AM_9
100
AcDbLine
 10
-2.163333714097633
 20
-0.1914799831312453
 30
0.0
 11
-1.994518891838694
 21
-0.1853871066562613
 31
0.0
  0
LINE
  5
EC
330
8D
100
AcDbEntity
  8
AM_9
100
AcDbLine
 10
-1.928952154556544
 20
0.1319978794387896
 30
0.0
 11
-1.942666281615612
 21
0.1513925839218323
 31
0.0
  0
LINE
  5
ED
330
8D
100
AcDbEntity
  8
AM_9
100
AcDbLine
 10
-1.942666281615612
 20
-0.1513925839218325
 30
0.0
 11
-1.928952154556544
 21
-0.1319978794387897
 31
0.0
  0
ELLIPSE
  5
EE
330
8D
100
AcDbEntity
  8
AM_9
100
AcDbEllipse
 10
-2.3193242845102
 20
0.0
 30
0.0
 11
1.339457436567406E-17
 21
0.2187499999999982
 31
0.0
210
0.0
220
0.0
230
1.0
 40
0.5000000000000062
 41
0.0
 42
6.283185307179586
  0
ELLIPSE
  5
EF
330
8D
100
AcDbEntity
  8
AM_9
100
AcDbEllipse
 10
-2.3193242845102
 20
0.0000000000000003
 30
0.0
 11
1.224646799147355E-17
 21
0.2000000000000004
 31
0.0
210
0.0
220
0.0
230
1.0
 40
0.4999999999999996
 41
0.0
 42
6.283185307179586
  0
ELLIPSE
  5
F0
330
8D
100
AcDbEntity
  8
AM_9
100
AcDbEllipse
 10
-2.232721744131756
 20
0.0000000000000004
 30
0.0
 11
1.339457436567420E-17
 21
0.2187500000000004
 31
0.0
210
0.0
220
0.0
230
1.0
 40
0.5000000000000011
 41
0.0
 42
6.283185307179586
  0
ELLIPSE
  5
F1
330
8D
100
AcDbEntity
  8
AM_9
100
AcDbEllipse
 10
-2.232721744131756
 20
-0.0000000000000004
 30
0.0
 11
1.224646799147350E-17
 21
0.1999999999999995
 31
0.0
210
0.0
220
0.0
230
1.0
 40
0.4999999999999996
 41
0.0
 42
6.283185307179586
  0
ELLIPSE
  5
F2
330
8D
100
AcDbEntity
  8
AM_9
100
AcDbEllipse
 10
-2.165063509461098
 20
-0.0000000000000003
 30
0.0
 11
1.224646799147355E-17
 21
0.2000000000000002
 31
0.0
210
0.0
220
0.0
230
1.0
 40
0.5000000000000021
 41
0.0
 42
6.283185307179586
  0
ELLIPSE
  5
F3
330
8D
100
AcDbEntity
  8
AM_9
100
AcDbEllipse
 10
-2.165063509461798
 20
-0.0000000000001608
 30
0.0
 11
1.172668097678203E-17
 21
0.1915112338503902
 31
0.0
210
0.0
220
0.0
230
1.0
 40
0.5000000000000387
 41
0.0
 42
6.283185307179586
  0
ELLIPSE
  5
F4
330
8D
100
AcDbEntity
  8
AM_9
100
AcDbEllipse
 10
-1.996191642971854
 20
-0.0000000000000002
 30
0.0
 11
1.135353457964639E-17
 21
0.1854172907249856
 31
0.0
210
0.0
220
0.0
230
1.0
 40
0.5000000000000022
 41
0.0
 42
6.283185307179586
  0
ELLIPSE
  5
F5
330
8D
100
AcDbEntity
  8
AM_9
100
AcDbEllipse
 10
-1.975620452383251
 20
-0.0000000000000003
 30
0.0
 11
9.899048221688872E-18
 21
0.1616637258772239
 31
0.0
210
0.0
220
0.0
230
1.0
 40
0.5000000000000002
 41
0.0
 42
6.283185307179586
  0
LINE
  5
F7
330
8D
100
AcDbEntity
  8
AM_4
100
AcDbLine
 10
-2.530467813792337
 20
-0.5093460834378319
 30
0.0
 11
-2.480804519635908
 21
-0.4640121274406705
 31
0.0
  0
LINE
  5
F8
330
8D
100
AcDbEntity
  8
AM_4
100
AcDbLine
 10
-2.726591230824948
 20
-0.3503396289636352
 30
0.0
 11
-2.721397808534218
 21
-0.4322420068738781
 31
0.0
  0
ELLIPSE
  5
F9
330
8D
100
AcDbEntity
  8
AM_4
100
AcDbEllipse
 10
-2.625107355663684
 20
-0.4687500000000001
 30
0.0
 11
-0.0959538295573177
 21
0.03874944547499708
 31
0.0
210
0.0
220
0.0
230
1.0
 40
0.2113091308703435
 41
0.1009830038932451
 42
3.04060964969654
  0
LINE
  5
FA
330
8D
100
AcDbEntity
  8
AM_4
100
AcDbLine
 10
-2.673121288879971
 20
-0.151074129835757
 30
0.0
 11
-2.684442862103848
 21
-0.1791093260592887
 31
0.0
  0
LWPOLYLINE
  5
FB
330
8D
100
AcDbEntity
  8
AM_4
100
AcDbPolyline
 90
        9
 70
     0
 43
0.0
 10
-2.703065654447293
 20
-0.3180765642849221
 10
-2.704693259411576
 20
-0.3186242552459662
 10
-2.710505633765325
 20
-0.3212699362460236
 10
-2.715723811766274
 20
-0.3248886369100819
 10
-2.720202133417186
 20
-0.3295353935948538
 10
-2.723664716721523
 20
-0.3351088216058399
 10
-2.725957628553493
 20
-0.3417920131227975
 10
-2.726654949391474
 20
-0.348365482680621
 10
-2.72655903249568
 20
-0.350795822415164
  0
ELLIPSE
  5
FC
330
8D
100
AcDbEntity
  8
AM_4
100
AcDbEllipse
 10
-2.5971136934662
 20
-0.3994303217889761
 30
0.0
 11
-0.1290248947933272
 21
0.05210467522533591
 31
0.0
210
0.0
220
0.0
230
1.0
 40
0.2113091308703497
 41
0.1044564972216264
 42
2.744134720775068
  0
ELLIPSE
  5
FD
330
8D
100
AcDbEntity
  8
AM_4
100
AcDbEllipse
 10
-2.535437808724881
 20
-0.2467045921760271
 30
0.0
 11
-0.1303939210192082
 21
0.05265753494274148
 31
0.0
210
0.0
220
0.0
230
1.0
 40
0.2113091308702314
 41
-4.57124003756994
 42
-4.35304684536852
  0
LWPOLYLINE
  5
FE
330
8D
100
AcDbEntity
  8
AM_4
100
AcDbPolyline
 90
        4
 70
     0
 43
0.0
 10
-2.684442862103848
 20
-0.1791093260592887
 10
-2.669565744060773
 20
-0.1988355121406939
 10
-2.653136471818097
 20
-0.2156330920108724
 10
-2.647639453206755
 20
-0.2201680623457971
  0
LWPOLYLINE
  5
FF
330
8D
100
AcDbEntity
  8
AM_4
100
AcDbPolyline
 90
        3
 70
     0
 43
0.0
 10
-2.647639453206755
 20
-0.2201680623457971
 10
-2.634698931608127
 20
-0.2290462109660021
 10
-2.614823570665811
 20
-0.2389369657326275
  0
LINE
  5
100
330
8D
100
AcDbEntity
  8
AM_4
100
AcDbLine
 10
-2.604151653116782
 20
-0.1230967854582223
 30
0.0
 11
-2.619134923850224
 21
-0.1601993088245384
 31
0.0
  0
ELLIPSE
  5
101
330
8D
100
AcDbEntity
  8
AM_4
100
AcDbEllipse
 10
-2.517137901186336
 20
-0.2013892028241882
 30
0.0
 11
-0.101997022663888
 21
0.04118989399964981
 31
0.0
210
0.0
220
0.0
230
1.0
 40
0.2113091308703487
 41
0.0
 42
1.824131147103679
  0
LWPOLYLINE
  5
102
330
8D
100
AcDbEntity
  8
AM_4
100
AcDbPolyline
 90
        4
 70
     0
 43
0.0
 10
-2.673121288879971
 20
-0.1510741298357571
 10
-2.656505446892442
 20
-0.145877822676052
 10
-2.640450834237309
 20
-0.1427138007556462
 10
-2.628842287619675
 20
-0.141958509815605
  0
LWPOLYLINE
  5
103
330
8D
100
AcDbEntity
  8
AM_4
100
AcDbPolyline
 90
        6
 70
     0
 43
0.0
 10
-2.603136324446265
 20
-0.2099962668917053
 10
-2.613445460803594
 20
-0.1943573015029059
 10
-2.624789287637805
 20
-0.1805491420332303
 10
-2.637503262214612
 20
-0.1688997677199809
 10
-2.651399188404303
 20
-0.1598729403210871
 10
-2.673121288879971
 20
-0.151074129835757
  0
LINE
  5
104
330
8D
100
AcDbEntity
  8
AM_4
100
AcDbLine
 10
-2.627512434076845
 20
-0.1419585097669023
 30
0.0
 11
-2.628950910724999
 21
-0.1419585097669023
 31
0.0
  0
ELLIPSE
  5
105
330
8D
100
AcDbEntity
  8
AM_4
100
AcDbEllipse
 10
-2.517137901186352
 20
-0.201389202824168
 30
0.0
 11
-0.1303939210191527
 21
0.05265753494271642
 31
0.0
210
0.0
220
0.0
230
1.0
 40
0.2113091308703078
 41
5.610613825799284
 42
7.795870906981696
  0
ELLIPSE
  5
106
330
8D
100
AcDbEntity
  8
AM_4
100
AcDbEllipse
 10
-2.53543780872487
 20
-0.2467045921760202
 30
0.0
 11
-0.1303939210191754
 21
0.05265753494273366
 31
0.0
210
0.0
220
0.0
230
1.0
 40
0.2113091308703512
 41
0.6359965959176881
 42
1.512685599801939
  0
LWPOLYLINE
  5
107
330
8D
100
AcDbEntity
  8
AM_4
100
AcDbPolyline
 90
       18
 70
     0
 43
0.0
 10
-2.663021340440709
 20
-0.2049506584306843
 10
-2.662238403413116
 20
-0.2061614124433561
 10
-2.659912418581703
 20
-0.2102500449235706
 10
-2.657397261579569
 20
-0.2157419101496112
 10
-2.655003433227649
 20
-0.2227154750509519
 10
-2.653121870663837
 20
-0.2310964195362905
 10
-2.652153852407027
 20
-0.2405957563953094
 10
-2.652403974937686
 20
-0.2507870080860081
 10
-2.654034215679026
 20
-0.2612354805863744
 10
-2.657433825664604
 20
-0.2724894231611434
 10
-2.662273680035353
 20
-0.2828565447296655
 10
-2.668243553468773
 20
-0.2920563618391172
 10
-2.675010936349032
 20
-0.2999442258155682
 10
-2.682205396659068
 20
-0.3064369128985214
 10
-2.689401683225053
 20
-0.3115057419269608
 10
-2.696147110945537
 20
-0.3152062012391934
 10
-2.702051125410337
 20
-0.3177031380848481
 10
-2.703679671137947
 20
-0.3182743724497901
  0
ELLIPSE
  5
108
330
8D
100
AcDbEntity
  8
AM_4
100
AcDbEllipse
 10
-2.586438711988855
 20
-0.3729962569746642
 30
0.0
 11
-0.1235034625625957
 21
0.04987493162723568
 31
0.0
210
0.0
220
0.0
230
1.0
 40
0.2113091308703484
 41
6.040386646291131
 42
8.827962368723465
  0
ELLIPSE
  5
109
330
8D
100
AcDbEntity
  8
AM_4
100
AcDbEllipse
 10
-2.517137901186322
 20
-0.2013892028241687
 30
0.0
 11
-0.1303939210191354
 21
0.05265753494272683
 31
0.0
210
0.0
220
0.0
230
1.0
 40
0.2113091308705673
 41
-4.571240037569938
 42
-4.49592830563591
  0
LINE
  5
10A
330
8D
100
AcDbEntity
  8
AM_4
100
AcDbLine
 10
-2.499831562699676
 20
-0.2407483919466223
 30
0.0
 11
-2.509810349915235
 21
-0.2360765106845275
 31
0.0
  0
LINE
  5
10B
330
8D
100
AcDbEntity
  8
AM_4
100
AcDbLine
 10
-2.509810349915235
 20
-0.2360765106845275
 30
0.0
 11
-2.53581915894122
 21
-0.2258378743019627
 31
0.0
  0
LWPOLYLINE
  5
10C
330
8D
100
AcDbEntity
  8
AM_4
100
AcDbPolyline
 90
        4
 70
     0
 43
0.0
 10
-2.53581915894122
 20
-0.2258378743019627
 10
-2.55880919363346
 20
-0.2189176876709014
 10
-2.580815063494145
 20
-0.2138633349839127
 10
-2.603136324446265
 20
-0.2099962668917053
  0
LINE
  5
10D
330
8D
100
AcDbEntity
  8
AM_4
100
AcDbLine
 10
-2.603136324446265
 20
-0.2099962668917053
 30
0.0
 11
-2.61482357066581
 21
-0.2389369657326276
 31
0.0
  0
LWPOLYLINE
  5
10E
330
8D
100
AcDbEntity
  8
AM_4
100
AcDbPolyline
 90
        3
 70
     0
 43
0.0
 10
-2.61482357066581
 20
-0.2389369657326276
 10
-2.585143749432008
 20
-0.2560939713202353
 10
-2.554119066479752
 20
-0.2711532636537956
  0
LINE
  5
10F
330
8D
100
AcDbEntity
  8
AM_4
100
AcDbLine
 10
-2.554119066479752
 20
-0.2711532636537956
 30
0.0
 11
-2.52811025745377
 21
-0.2813919000363599
 31
0.0
  0
LINE
  5
110
330
8D
100
AcDbEntity
  8
AM_4
100
AcDbLine
 10
-2.52811025745377
 20
-0.2813919000363599
 30
0.0
 11
-2.5000337838145
 21
-0.2902031835049196
 31
0.0
  0
ARC
  5
111
330
8D
100
AcDbEntity
  8
AM_4
100
AcDbCircle
 10
-2.44652176569104
 20
0.0000000000000003
 30
0.0
 40
0.1999999999999994
100
AcDbArc
 50
105.509085150703
 51
219.6397363376032
  0
LWPOLYLINE
  5
112
330
8D
100
AcDbEntity
  8
AM_4
100
AcDbPolyline
 90
       10
 70
     0
 43
0.0
 10
-2.600724736745332
 20
-0.1273633910775155
 10
-2.599060816000368
 20
-0.1291842652280562
 10
-2.592783268732704
 20
-0.1344729790611519
 10
-2.583625669669984
 20
-0.1405186270901959
 10
-2.572329480507973
 20
-0.1468270783017121
 10
-2.558588329367223
 20
-0.1535654953592165
 10
-2.543526839627741
 20
-0.1601799433259583
 10
-2.526733416808081
 20
-0.1668493358980661
 10
-2.509334080654086
 20
-0.1731116383367606
 10
-2.500005961320114
 20
-0.1762216824476663
  0
ELLIPSE
  5
113
330
8D
100
AcDbEntity
  8
AM_4
100
AcDbEllipse
 10
-2.44652176569104
 20
-0.0000000000000001
 30
0.0
 11
1.224646799147352E-17
 21
0.1999999999999998
 31
0.0
210
0.0
220
0.0
230
1.0
 40
0.4999999999999987
 41
0.5642501408952318
 42
2.577342512694562
  0
ENDBLK
  5
90
330
8D
100
AcDbEntity
  8
0
100
AcDbBlockEnd
  0
BLOCK
  5
116
330
114
100
AcDbEntity
  8
0
100
AcDbBlockBegin
  2
3_389933_0_in_125548_4
 70
     2
 10
0.0
 20
0.0
 30
0.0
  3
3_389933_0_in_125548_4
  1

  0
ATTDEF
  5
118
330
114
100
AcDbEntity
  8
AM_6
100
AcDbText
 10
6.968059542428216
 20
0.981
 30
0.0
 40
0.5
  1
Set Screw Intermediate Duty Insert Inch Bore
100
AcDbAttributeDefinition
  3

  2
NN
 70
     8
280
     0
  0
ATTDEF
  5
119
330
114
100
AcDbEntity
  8
AM_6
100
AcDbText
 10
6.968059542428216
 20
0.481
 30
0.0
 40
0.5
  1
VSC Intermediate Duty Bearing Inserts
100
AcDbAttributeDefinition
  3

  2
NT
 70
     8
280
     0
  0
ATTDEF
  5
11A
330
114
100
AcDbEntity
  8
AM_6
100
AcDbText
 10
6.968059542428216
 20
-0.019
 30
0.0
 40
0.5
  1
389933
100
AcDbAttributeDefinition
  3

  2
NB
 70
     8
280
     0
  0
ATTDEF
  5
11B
330
114
100
AcDbEntity
  8
AM_6
100
AcDbText
 10
6.968059542428216
 20
-0.519
 30
0.0
 40
0.5
  1
$PN.
100
AcDbAttributeDefinition
  3

  2
NBSYN
 70
     8
280
     0
  0
ATTDEF
  5
11C
330
114
100
AcDbEntity
  8
AM_6
100
AcDbText
 10
6.968059542428216
 20
-1.019
 30
0.0
 40
0.5
  1
389933
100
AcDbAttributeDefinition
  3

  2
LINA
 70
     8
280
     0
  0
ATTDEF
  5
11D
330
114
100
AcDbEntity
  8
AM_6
100
AcDbText
 10
6.968059542428216
 20
-1.519
 30
0.0
 40
0.5
  1
211
100
AcDbAttributeDefinition
  3

  2
SERIES
 70
     8
280
     0
  0
ATTDEF
  5
11E
330
114
100
AcDbEntity
  8
AM_6
100
AcDbText
 10
6.968059542428216
 20
-2.019
 30
0.0
 40
0.5
  1
2-3/16
100
AcDbAttributeDefinition
  3

  2
SS
 70
     8
280
     0
  0
ATTDEF
  5
11F
330
114
100
AcDbEntity
  8
AM_6
100
AcDbText
 10
6.968059542428216
 20
-2.519
 30
0.0
 40
0.5
  1
389933
100
AcDbAttributeDefinition
  3

  2
PN
 70
     8
280
     0
  0
ATTDEF
  5
120
330
114
100
AcDbEntity
  8
AM_6
100
AcDbText
 10
6.968059542428216
 20
-3.019
 30
0.0
 40
0.5
  1
INS-VSC-203
100
AcDbAttributeDefinition
  3

  2
DESCRIPTION
 70
     8
280
     0
  0
ATTDEF
  5
121
330
114
100
AcDbEntity
  8
AM_6
100
AcDbText
 10
6.968059542428216
 20
-3.519
 30
0.0
 40
0.5
  1
1.95
100
AcDbAttributeDefinition
  3

  2
WEIGHT
 70
     8
280
     0
  0
ATTDEF
  5
122
330
114
100
AcDbEntity
  8
AM_6
100
AcDbText
 10
6.968059542428216
 20
-4.019
 30
0.0
 40
0.5
  1
2.22
100
AcDbAttributeDefinition
  3

  2
A
 70
     8
280
     0
  0
ATTDEF
  5
123
330
114
100
AcDbEntity
  8
AM_6
100
AcDbText
 10
6.968059542428216
 20
-4.519
 30
0.0
 40
0.5
  1
0.94
100
AcDbAttributeDefinition
  3

  2
C
 70
     8
280
     0
  0
ATTDEF
  5
124
330
114
100
AcDbEntity
  8
AM_6
100
AcDbText
 10
6.968059542428216
 20
-5.019
 30
0.0
 40
0.5
  1
3.9370
100
AcDbAttributeDefinition
  3

  2
D
 70
     8
280
     0
  0
ATTDEF
  5
125
330
114
100
AcDbEntity
  8
AM_6
100
AcDbText
 10
6.968059542428216
 20
-5.519
 30
0.0
 40
0.5
  1
0.250
100
AcDbAttributeDefinition
  3

  2
J
 70
     8
280
     0
  0
ATTDEF
  5
126
330
114
100
AcDbEntity
  8
AM_6
100
AcDbText
 10
6.968059542428216
 20
-6.019
 30
0.0
 40
0.5
  1
2.71
100
AcDbAttributeDefinition
  3

  2
L
 70
     8
280
     0
  0
ATTDEF
  5
127
330
114
100
AcDbEntity
  8
AM_6
100
AcDbText
 10
6.968059542428216
 20
-6.519
 30
0.0
 40
0.5
  1
3/8-24
100
AcDbAttributeDefinition
  3

  2
N
 70
     8
280
     0
  0
ATTDEF
  5
128
330
114
100
AcDbEntity
  8
AM_6
100
AcDbText
 10
6.968059542428216
 20
-7.019
 30
0.0
 40
0.5
  1
0.87
100
AcDbAttributeDefinition
  3

  2
W
 70
     8
280
     0
  0
ATTDEF
  5
129
330
114
100
AcDbEntity
  8
AM_6
100
AcDbText
 10
6.968059542428216
 20
-7.519
 30
0.0
 40
0.5
  1
1.35
100
AcDbAttributeDefinition
  3

  2
Y
 70
     8
280
     0
  0
ATTDEF
  5
12A
330
114
100
AcDbEntity
  8
AM_6
100
AcDbText
 10
6.968059542428216
 20
-8.019
 30
0.0
 40
0.5
  1
baldor
100
AcDbAttributeDefinition
  3

  2
COMPANY
 70
     8
280
     0
  0
LINE
  5
12B
330
114
100
AcDbEntity
  8
AM_9
100
AcDbLine
 10
-2.077875
 20
0.2895454545454537
 30
0.0
 11
-2.077875
 21
0.2104545454545463
 31
0.0
  0
ARC
  5
12C
330
114
100
AcDbEntity
  8
AM_9
100
AcDbCircle
 10
-1.992420454545454
 20
0.2104545454545455
 30
0.0
 40
0.0854545454545454
100
AcDbArc
 50
180.0
 51
270.0
  0
ARC
  5
12D
330
114
100
AcDbEntity
  8
AM_9
100
AcDbCircle
 10
-1.992420454545454
 20
0.2895454545454544
 30
0.0
 40
0.0854545454545455
100
AcDbArc
 50
90.0
 51
180.0
  0
LINE
  5
12E
330
114
100
AcDbEntity
  8
AM_9
100
AcDbLine
 10
-1.992420454545454
 20
0.3749999999999999
 30
0.0
 11
-1.992420454545454
 21
0.125
 31
0.0
  0
LINE
  5
12F
330
114
100
AcDbEntity
  8
AM_9
100
AcDbLine
 10
-1.992420454545454
 20
0.125
 30
0.0
 11
-1.96452723320393
 21
0.125
 31
0.0
  0
LINE
  5
130
330
114
100
AcDbEntity
  8
AM_9
100
AcDbLine
 10
-1.932490302211718
 20
0.3749999999999999
 30
0.0
 11
-1.992420454545454
 21
0.3749999999999999
 31
0.0
  0
LINE
  5
131
330
114
100
AcDbEntity
  8
AM_9
100
AcDbLine
 10
0.9911993901760414
 20
-1.13995
 30
0.0
 11
1.207609810836984
 21
-1.13995
 31
0.0
  0
LINE
  5
132
330
114
100
AcDbEntity
  8
AM_9
100
AcDbLine
 10
1.207609810836984
 20
-0.8100500000000002
 30
0.0
 11
0.9912616515536254
 21
-0.8100500000000002
 31
0.0
  0
LWPOLYLINE
  5
133
330
114
100
AcDbEntity
  8
AM_9
100
AcDbPolyline
 90
       21
 70
     0
 43
0.0
 10
0.9912682827482199
 20
-1.139949999417355
 10
0.9988291216235827
 20
-1.138942707308831
 10
1.009375096072
 20
-1.133750017443619
 10
1.019143534643255
 20
-1.123947470266436
 10
1.027455450645366
 20
-1.110297075313437
 10
1.034649060352696
 20
-1.092446920391286
 10
1.040335128798715
 20
-1.071646894580325
 10
1.044760582732843
 20
-1.04745017836327
 10
1.047694960934081
 20
-1.021861228762202
 10
1.049330004118772
 20
-0.9941401207412475
 10
1.049591133946397
 20
-0.9669259500206941
 10
1.048519832241389
 20
-0.9391548574055781
 10
1.046180743256505
 20
-0.9132972070637531
 10
1.042417055711441
 20
-0.8884622557282225
 10
1.037374014184316
 20
-0.8665316810736559
 10
1.030777623753196
 20
-0.8470697806316516
 10
1.022946476052967
 20
-0.8315661875361232
 10
1.013546680681573
 20
-0.8197569465825649
 10
1.003292956822956
 20
-0.8126694373440253
 10
0.9917680891822978
 20
-0.8100541503476778
 10
0.9912770748237753
 20
-0.810050000145975
  0
LWPOLYLINE
  5
134
330
114
100
AcDbEntity
  8
AM_9
100
AcDbPolyline
 90
       11
 70
     0
 43
0.0
 10
0.9912770748237753
 20
-0.810050000145975
 10
0.9800469496138455
 20
-0.8120972866640087
 10
0.9677018817239655
 20
-0.8188031491052259
 10
0.9558434845698512
 20
-0.8295940880903717
 10
0.9442348117030687
 20
-0.8447700579764696
 10
0.9338717099500788
 20
-0.8632693727528283
 10
0.9247315809240253
 20
-0.8854979363976404
 10
0.9176956038033754
 20
-0.9097449119748238
 10
0.912756343308656
 20
-0.9366177367928741
 10
0.9108713283396714
 20
-0.9555370445900117
 10
0.9102256102327587
 20
-0.9750000000000001
  0
ELLIPSE
  5
135
330
114
100
AcDbEntity
  8
AM_9
100
AcDbEllipse
 10
1.207609810836984
 20
-0.9750000000000004
 30
0.0
 11
-3.030082342790331E-17
 21
-0.1649499999999996
 31
0.0
210
0.0
220
0.0
230
1.0
 40
0.4226182617407018
 41
3.531368727802045
 42
5.894175190581226
  0
LINE
  5
136
330
114
100
AcDbEntity
  8
AM_9
100
AcDbLine
 10
1.175103092575817
 20
-1.120918500062369
 30
0.0
 11
1.189148379461475
 21
-1.138436997987122
 31
0.0
  0
LINE
  5
137
330
114
100
AcDbEntity
  8
AM_9
100
AcDbLine
 10
1.18890576029697
 20
-0.8118656176421988
 30
0.0
 11
1.175103092575817
 21
-0.8290814999376308
 31
0.0
  0
LWPOLYLINE
  5
138
330
114
100
AcDbEntity
  8
AM_9
100
AcDbPolyline
 90
       11
 70
     0
 43
0.0
 10
0.9102256102327587
 20
-0.9750000000000001
 10
0.9114827758200313
 20
-1.002123268012242
 10
0.9153357014338359
 20
-1.029246536024484
 10
0.921378189926834
 20
-1.054085374435055
 10
0.929658146235073
 20
-1.077372175774567
 10
0.9394220734478782
 20
-1.097325318030654
 10
0.9507369875462568
 20
-1.114345573302795
 10
0.9625719678827742
 20
-1.127066758104996
 10
0.9750895398623246
 20
-1.135756664535902
 10
0.9870416787650674
 20
-1.139651533511014
 10
0.9912682827482199
 20
-1.139949999417355
  0
LINE
  5
139
330
114
100
AcDbEntity
  8
AM_9
100
AcDbLine
 10
1.09375
 20
-1.2958
 30
0.0
 11
1.09375
 21
0.8564499999999998
 31
0.0
  0
LINE
  5
13A
330
114
100
AcDbEntity
  8
AM_9
100
AcDbLine
 10
-1.09375
 20
0.8564499999999998
 30
0.0
 11
-1.09375
 21
-1.2958
 31
0.0
  0
LINE
  5
13B
330
114
100
AcDbEntity
  8
AM_9
100
AcDbLine
 10
1.09375
 20
0.8564499999999998
 30
0.0
 11
1.1073
 21
0.87
 31
0.0
  0
LINE
  5
13C
330
114
100
AcDbEntity
  8
AM_9
100
AcDbLine
 10
-1.1073
 20
0.87
 30
0.0
 11
-1.09375
 21
0.8564499999999998
 31
0.0
  0
LINE
  5
13D
330
114
100
AcDbEntity
  8
AM_9
100
AcDbLine
 10
-1.09375
 20
-1.2958
 30
0.0
 11
-1.14795
 21
-1.35
 31
0.0
  0
LINE
  5
13E
330
114
100
AcDbEntity
  8
AM_9
100
AcDbLine
 10
1.14795
 20
-1.35
 30
0.0
 11
1.09375
 21
-1.2958
 31
0.0
  0
LINE
  5
13F
330
114
100
AcDbEntity
  8
AM_9
100
AcDbLine
 10
1.355
 20
0.47
 30
0.0
 11
1.355
 21
0.6260000000000001
 31
0.0
  0
LINE
  5
140
330
114
100
AcDbEntity
  8
AM_9
100
AcDbLine
 10
-1.355
 20
0.6260000000000001
 30
0.0
 11
-1.355
 21
0.47
 31
0.0
  0
LINE
  5
141
330
114
100
AcDbEntity
  8
AM_9
100
AcDbLine
 10
1.355
 20
-0.6259999999999998
 30
0.0
 11
1.355
 21
-0.4699999999999999
 31
0.0
  0
LINE
  5
142
330
114
100
AcDbEntity
  8
AM_9
100
AcDbLine
 10
-1.355
 20
-0.4699999999999999
 30
0.0
 11
-1.355
 21
-0.6259999999999998
 31
0.0
  0
LINE
  5
143
330
114
100
AcDbEntity
  8
AM_9
100
AcDbLine
 10
1.885166666666667
 20
-0.3000000000000001
 30
0.0
 11
1.885166666666667
 21
-0.2
 31
0.0
  0
LINE
  5
144
330
114
100
AcDbEntity
  8
AM_9
100
AcDbLine
 10
-1.885166666666667
 20
-0.2
 30
0.0
 11
-1.885166666666667
 21
-0.3000000000000001
 31
0.0
  0
LINE
  5
145
330
114
100
AcDbEntity
  8
AM_9
100
AcDbLine
 10
-1.87196213904021
 20
0.47
 30
0.0
 11
1.871962139039279
 21
0.47
 31
0.0
  0
ARC
  5
146
330
114
100
AcDbEntity
  8
AM_9
100
AcDbCircle
 10
1.87196213904021
 20
0.4199999999999994
 30
0.0
 40
0.0500000000000004
100
AcDbArc
 50
12.64566792865978
 51
90.0
  0
ARC
  5
147
330
114
100
AcDbEntity
  8
AM_9
100
AcDbCircle
 10
-1.87196213904021
 20
0.4199999999999994
 30
0.0
 40
0.0500000000000005
100
AcDbArc
 50
90.0
 51
167.3543320713402
  0
LINE
  5
148
330
114
100
AcDbEntity
  8
AM_9
100
AcDbLine
 10
-1.87196213904021
 20
-0.4699999999999999
 30
0.0
 11
1.871962139039279
 21
-0.4699999999999999
 31
0.0
  0
ARC
  5
149
330
114
100
AcDbEntity
  8
AM_9
100
AcDbCircle
 10
1.87196213904021
 20
-0.4199999999999999
 30
0.0
 40
0.0500000000000001
100
AcDbArc
 50
270.0
 51
347.3543320713407
  0
ARC
  5
14A
330
114
100
AcDbEntity
  8
AM_9
100
AcDbCircle
 10
-1.87196213904021
 20
-0.4199999999999999
 30
0.0
 40
0.0500000000000001
100
AcDbArc
 50
192.6456679286593
 51
270.0
  0
LINE
  5
14B
330
114
100
AcDbEntity
  8
AM_9
100
AcDbLine
 10
-1.920749268022233
 20
-0.4309460516028147
 30
0.0
 11
1.920749268022035
 21
-0.4309460516028147
 31
0.0
  0
LINE
  5
14C
330
114
100
AcDbEntity
  8
AM_9
100
AcDbLine
 10
-1.945505654065287
 20
-0.2999999999999999
 30
0.0
 11
1.945505654065089
 21
-0.2999999999999999
 31
0.0
  0
ARC
  5
14D
330
114
100
AcDbEntity
  8
AM_9
100
AcDbCircle
 10
-0.0000000003330491
 20
0.0000000000629289
 30
0.0
 40
1.968500000338554
100
AcDbArc
 50
347.3543320716745
 51
351.233946551791
  0
ARC
  5
14E
330
114
100
AcDbEntity
  8
AM_9
100
AcDbCircle
 10
0.0000000003330103
 20
0.0000000000629222
 30
0.0
 40
1.968500000338514
100
AcDbArc
 50
188.7660534482089
 51
192.6456679283256
  0
LINE
  5
14F
330
114
100
AcDbEntity
  8
AM_9
100
AcDbLine
 10
-1.958313624014294
 20
-0.1999999999999998
 30
0.0
 11
1.95831362401428
 21
-0.1999999999999998
 31
0.0
  0
LINE
  5
150
330
114
100
AcDbEntity
  8
AM_9
100
AcDbLine
 10
-1.920749268022233
 20
0.4309460516028147
 30
0.0
 11
1.920749268022219
 21
0.4309460516028146
 31
0.0
  0
ARC
  5
151
330
114
100
AcDbEntity
  8
AM_9
100
AcDbCircle
 10
-0.0000000000004896
 20
-0.0000000000000283
 30
0.0
 40
1.96850000000047
100
AcDbArc
 50
354.1686752533603
 51
12.64566792865699
  0
ARC
  5
152
330
114
100
AcDbEntity
  8
AM_9
100
AcDbCircle
 10
0.0000000000671891
 20
-0.0000000000135604
 30
0.0
 40
1.968500000068514
100
AcDbArc
 50
167.3543320713837
 51
169.0268268453841
  0
ARC
  5
153
330
114
100
AcDbEntity
  8
AM_9
100
AcDbCircle
 10
-0.0000000000016112
 20
-0.0000000000001164
 30
0.0
 40
1.968499999998371
100
AcDbArc
 50
176.3470574769104
 51
185.8313247466433
  0
LINE
  5
154
330
114
100
AcDbEntity
  8
AM_9
100
AcDbLine
 10
-1.932451098993705
 20
0.374999999995825
 30
0.0
 11
-1.964527233203648
 21
0.1250000000022214
 31
0.0
  0
LINE
  5
157
330
114
100
AcDbEntity
  8
AM_7
100
AcDbLine
 10
-0.1731975
 20
-0.975
 30
0.0
 11
0.1731975
 21
-0.975
 31
0.0
  0
LINE
  5
158
330
114
100
AcDbEntity
  8
AM_7
100
AcDbLine
 10
0.0
 20
-1.461
 30
0.0
 11
0.0
 21
0.981
 31
0.0
  0
LINE
  5
159
330
114
100
AcDbEntity
  8
AM_7
100
AcDbLine
 10
-2.11401875
 20
0.25
 30
0.0
 11
-1.31885625
 21
0.25
 31
0.0
  0
ELLIPSE
  5
15A
330
114
100
AcDbEntity
  8
AM_4
100
AcDbEllipse
 10
1.207609810836984
 20
-0.9750000000000001
 30
0.0
 11
-3.030082342790337E-17
 21
-0.1649499999999999
 31
0.0
210
0.0
220
0.0
230
1.0
 40
0.4226182617406994
 41
5.894175190581223
 42
9.814554034981635
  0
LWPOLYLINE
  5
15B
330
114
100
AcDbEntity
  8
AM_4
100
AcDbPolyline
 90
       15
 70
     0
 43
0.0
 10
1.189151519887494
 20
-1.138440914996165
 10
1.189104908287963
 20
-1.138382737348943
 10
1.177847671152172
 20
-1.12185362258813
 10
1.167707093448475
 20
-1.101903791804017
 10
1.158552328056517
 20
-1.077609424481321
 10
1.151332739057424
 20
-1.05080368779874
 10
1.146105656627616
 20
-1.020460161813843
 10
1.143516510606511
 20
-0.9889212445269635
 10
1.143759954044508
 20
-0.9559320712849693
 10
1.146916664242262
 20
-0.9234750545551464
 10
1.152952687685279
 20
-0.8922880517450591
 10
1.161563663589691
 20
-0.8635091660304434
 10
1.172180191870249
 20
-0.8386087351667907
 10
1.184489108458831
 20
-0.8177757954264533
 10
1.189133506620971
 20
-0.8115815587654702
  0
LWPOLYLINE
  5
15C
330
114
100
AcDbEntity
  8
AM_4
100
AcDbPolyline
 90
        9
 70
     0
 43
0.0
 10
1.189133506620971
 20
-0.8115815587654702
 10
1.197266787132109
 20
-0.8025982783701395
 10
1.210600240921377
 20
-0.7924246582131862
 10
1.223087869719477
 20
-0.7879321844023095
 10
1.235189368062639
 20
-0.7883931319046956
 10
1.246098182547132
 20
-0.7935640790923337
 10
1.256062239914536
 20
-0.8030971459992271
 10
1.262542247576108
 20
-0.8125119591389023
 10
1.268396877512762
 20
-0.8238580428904511
  0
LINE
  5
15D
330
114
100
AcDbEntity
  8
AM_4
100
AcDbLine
 10
-1.34145
 20
0.87
 30
0.0
 11
1.34145
 21
0.87
 31
0.0
  0
LINE
  5
15E
330
114
100
AcDbEntity
  8
AM_4
100
AcDbLine
 10
-1.34145
 20
0.87
 30
0.0
 11
-1.355
 21
0.85645
 31
0.0
  0
LINE
  5
15F
330
114
100
AcDbEntity
  8
AM_4
100
AcDbLine
 10
1.355
 20
0.85645
 30
0.0
 11
1.34145
 21
0.87
 31
0.0
  0
LINE
  5
160
330
114
100
AcDbEntity
  8
AM_4
100
AcDbLine
 10
-1.3008
 20
-1.35
 30
0.0
 11
1.3008
 21
-1.35
 31
0.0
  0
LINE
  5
161
330
114
100
AcDbEntity
  8
AM_4
100
AcDbLine
 10
1.3008
 20
-1.35
 30
0.0
 11
1.355
 21
-1.2958
 31
0.0
  0
LINE
  5
162
330
114
100
AcDbEntity
  8
AM_4
100
AcDbLine
 10
-1.355
 20
-1.2958
 30
0.0
 11
-1.3008
 21
-1.35
 31
0.0
  0
LINE
  5
163
330
114
100
AcDbEntity
  8
AM_4
100
AcDbLine
 10
-1.355
 20
0.85645
 30
0.0
 11
1.355
 21
0.85645
 31
0.0
  0
LINE
  5
164
330
114
100
AcDbEntity
  8
AM_4
100
AcDbLine
 10
1.355
 20
0.6260000000000001
 30
0.0
 11
1.355
 21
0.85645
 31
0.0
  0
LINE
  5
165
330
114
100
AcDbEntity
  8
AM_4
100
AcDbLine
 10
-1.355
 20
0.85645
 30
0.0
 11
-1.355
 21
0.6260000000000001
 31
0.0
  0
LINE
  5
166
330
114
100
AcDbEntity
  8
AM_4
100
AcDbLine
 10
-1.355
 20
-1.2958
 30
0.0
 11
1.355
 21
-1.2958
 31
0.0
  0
LWPOLYLINE
  5
167
330
114
100
AcDbEntity
  8
AM_4
100
AcDbPolyline
 90
       19
 70
     0
 43
0.0
 10
1.268396877512762
 20
-0.8238580428904511
 10
1.275346257421025
 20
-0.8421974358019797
 10
1.281067370400109
 20
-0.86330826340052
 10
1.286057473424227
 20
-0.8899030549765615
 10
1.289525915141454
 20
-0.918637332690596
 10
1.291558952137441
 20
-0.950298726706038
 10
1.291985755408416
 20
-0.9826239103620253
 10
1.290752272249859
 20
-1.01553060411455
 10
1.287819241683841
 20
-1.047288602157157
 10
1.283141987336347
 20
-1.076881931242763
 10
1.276685941591488
 20
-1.10347650635961
 10
1.268686051805973
 20
-1.125462874198244
 10
1.25901984567672
 20
-1.142967792616353
 10
1.248489678137133
 20
-1.154603299703845
 10
1.236786497516796
 20
-1.161152756889304
 10
1.22499119875372
 20
-1.162322904313522
 10
1.212765248235041
 20
-1.158704971773966
 10
1.200766987336685
 20
-1.150612886054212
 10
1.189151519887494
 20
-1.138440914996165
  0
LINE
  5
168
330
114
100
AcDbEntity
  8
AM_4
100
AcDbLine
 10
1.355
 20
-1.2958
 30
0.0
 11
1.355
 21
-0.6259999999999998
 31
0.0
  0
LINE
  5
169
330
114
100
AcDbEntity
  8
AM_4
100
AcDbLine
 10
-1.355
 20
-0.6259999999999998
 30
0.0
 11
-1.355
 21
-1.2958
 31
0.0
  0
LWPOLYLINE
  5
16A
330
114
100
AcDbEntity
  8
AM_4
100
AcDbPolyline
 90
       39
 70
     0
 43
0.0
 10
-0.1277226104911701
 20
-0.8460922713567913
 10
-0.108642040524016
 20
-0.8275676937707963
 10
-0.0864961106118245
 20
-0.8117640369082026
 10
-0.059805024343355
 20
-0.7986872417780723
 10
-0.0302599005834632
 20
-0.790300295426692
 10
-0.0023653814289806
 20
-0.7875169854241567
 10
0.0264566516425467
 20
-0.7896368539483807
 10
0.0528644240068566
 20
-0.7961821975534679
 10
0.0785285565446545
 20
-0.8072482354004634
 10
0.1019483213755292
 20
-0.8222345264573858
 10
0.1232275026002678
 20
-0.8412197701560222
 10
0.1417974237398672
 20
-0.864026282494023
 10
0.1569123534517156
 20
-0.8901511075210646
 10
0.1680500461451654
 20
-0.9193056046841862
 10
0.1745309356331886
 20
-0.9507124413215345
 10
0.175853689405592
 20
-0.9831030594805197
 10
0.1717079447328812
 20
-1.016177766066314
 10
0.1622837008235548
 20
-1.047511596577799
 10
0.1472330121663114
 20
-1.077637649857581
 10
0.1281311628611112
 20
-1.103446924866897
 10
0.1040230439429928
 20
-1.126168422068478
 10
0.0783962312062404
 20
-1.142822117085323
 10
0.0492376432213848
 20
-1.154992006307455
 10
0.0213147187423435
 20
-1.161115797845278
 10
-0.0081677232062406
 20
-1.162297377172351
 10
-0.0352498323886879
 20
-1.158689795156672
 10
-0.0620967653989348
 20
-1.150409257213472
 10
-0.0866651633263499
 20
-1.13813401596996
 10
-0.1095362699496227
 20
-1.121679015152518
 10
-0.1299583545759584
 20
-1.101347273257551
 10
-0.1473526635749677
 20
-1.077442877652923
 10
-0.161234467219607
 20
-1.05011486164404
 10
-0.1708280542905512
 20
-1.020128802097995
 10
-0.1755695333980721
 20
-0.9883642821578058
 10
-0.1750462891674479
 20
-0.9553503652156239
 10
-0.1691382117212063
 20
-0.923167072425705
 10
-0.1575749695871352
 20
-0.891553394059578
 10
-0.144450131089978
 20
-0.8679745711908115
 10
-0.1277226105057424
 20
-0.8460922713474491
  0
CIRCLE
  5
16B
330
114
100
AcDbEntity
  8
AM_4
100
AcDbCircle
 10
0.0
 20
-0.975
 30
0.0
 40
0.16495
  0
ARC
  5
16D
330
114
100
AcDbEntity
  8
AM_5
100
AcDbCircle
 10
0.0000000000000001
 20
-0.975
 30
0.0
 40
0.1875000000000001
100
AcDbArc
 50
165.0000000000001
 51
105.0
  0
ARC
  5
16E
330
114
100
AcDbEntity
  8
AM_5
100
AcDbCircle
 10
0.0
 20
-0.9749999999999999
 30
0.0
 40
0.1874999999999999
100
AcDbArc
 50
105.0
 51
14.99999999999997
  0
ENDBLK
  5
117
330
114
100
AcDbEntity
  8
0
100
AcDbBlockEnd
  0
BLOCK
  5
171
330
16F
100
AcDbEntity
  8
0
100
AcDbBlockBegin
  2
4_125548vsc_0_in_125548_4
 70
     2
 10
0.0
 20
0.0
 30
0.0
  3
4_125548vsc_0_in_125548_4
  1

  0
ATTDEF
  5
173
330
16F
100
AcDbEntity
  8
AM_6
100
AcDbText
 10
8.708075000000001
 20
0.9625
 30
0.0
 40
0.5
  1
NSTU-VSC - Body
100
AcDbAttributeDefinition
  3

  2
NN
 70
     8
280
     0
  0
ATTDEF
  5
174
330
16F
100
AcDbEntity
  8
AM_6
100
AcDbText
 10
8.708075000000001
 20
0.4625
 30
0.0
 40
0.5
  1
VSC Intermediate Duty Narrow Slot Take-Up Bearings
100
AcDbAttributeDefinition
  3

  2
NT
 70
     8
280
     0
  0
ATTDEF
  5
175
330
16F
100
AcDbEntity
  8
AM_6
100
AcDbText
 10
8.708075000000001
 20
-0.0375
 30
0.0
 40
0.5
  1
125548vsc
100
AcDbAttributeDefinition
  3

  2
NB
 70
     8
280
     0
  0
ATTDEF
  5
176
330
16F
100
AcDbEntity
  8
AM_6
100
AcDbText
 10
8.708075000000001
 20
-0.5375
 30
0.0
 40
0.5
  1
$PN.
100
AcDbAttributeDefinition
  3

  2
NBSYN
 70
     8
280
     0
  0
ATTDEF
  5
177
330
16F
100
AcDbEntity
  8
AM_6
100
AcDbText
 10
8.708075000000001
 20
-1.0375
 30
0.0
 40
0.5
  1
125548vsc
100
AcDbAttributeDefinition
  3

  2
LINA
 70
     8
280
     0
  0
ATTDEF
  5
178
330
16F
100
AcDbEntity
  8
AM_6
100
AcDbText
 10
8.708075000000001
 20
-1.5375
 30
0.0
 40
0.5
  1
2-3/16
100
AcDbAttributeDefinition
  3

  2
SS
 70
     8
280
     0
  0
ATTDEF
  5
179
330
16F
100
AcDbEntity
  8
AM_6
100
AcDbText
 10
8.708075000000001
 20
-2.0375
 30
0.0
 40
0.5
  1
2.187500
100
AcDbAttributeDefinition
  3

  2
SS1
 70
     8
280
     0
  0
ATTDEF
  5
17A
330
16F
100
AcDbEntity
  8
AM_6
100
AcDbText
 10
8.708075000000001
 20
-2.5375
 30
0.0
 40
0.5
  1
125548vsc
100
AcDbAttributeDefinition
  3

  2
PN
 70
     8
280
     0
  0
ATTDEF
  5
17B
330
16F
100
AcDbEntity
  8
AM_6
100
AcDbText
 10
8.708075000000001
 20
-3.0375
 30
0.0
 40
0.5
  1
211
100
AcDbAttributeDefinition
  3

  2
RS
 70
     8
280
     0
  0
ATTDEF
  5
17C
330
16F
100
AcDbEntity
  8
AM_6
100
AcDbText
 10
8.708075000000001
 20
-3.5375
 30
0.0
 40
0.5
  1
NSTU-VSC-203
100
AcDbAttributeDefinition
  3

  2
DESCRIPTION
 70
     8
280
     0
  0
ATTDEF
  5
17D
330
16F
100
AcDbEntity
  8
AM_6
100
AcDbText
 10
8.708075000000001
 20
-4.0375
 30
0.0
 40
0.5
  1
3.937000
100
AcDbAttributeDefinition
  3

  2
BOD
 70
     8
280
     0
  0
ATTDEF
  5
17E
330
16F
100
AcDbEntity
  8
AM_6
100
AcDbText
 10
8.708075000000001
 20
-4.5375
 30
0.0
 40
0.5
  1
2.22
100
AcDbAttributeDefinition
  3

  2
A
 70
     8
280
     0
  0
ATTDEF
  5
17F
330
16F
100
AcDbEntity
  8
AM_6
100
AcDbText
 10
8.708075000000001
 20
-5.0375
 30
0.0
 40
0.5
  1
2.220000
100
AcDbAttributeDefinition
  3

  2
A1
 70
     8
280
     0
  0
ATTDEF
  5
180
330
16F
100
AcDbEntity
  8
AM_6
100
AcDbText
 10
8.708075000000001
 20
-5.5375
 30
0.0
 40
0.5
  1
6.13
100
AcDbAttributeDefinition
  3

  2
B
 70
     8
280
     0
  0
ATTDEF
  5
181
330
16F
100
AcDbEntity
  8
AM_6
100
AcDbText
 10
8.708075000000001
 20
-6.0375
 30
0.0
 40
0.5
  1
6.130000
100
AcDbAttributeDefinition
  3

  2
B1
 70
     8
280
     0
  0
ATTDEF
  5
182
330
16F
100
AcDbEntity
  8
AM_6
100
AcDbText
 10
8.708075000000001
 20
-6.5375
 30
0.0
 40
0.5
  1
0.313
100
AcDbAttributeDefinition
  3

  2
C
 70
     8
280
     0
  0
ATTDEF
  5
183
330
16F
100
AcDbEntity
  8
AM_6
100
AcDbText
 10
8.708075000000001
 20
-7.0375
 30
0.0
 40
0.5
  1
0.313000
100
AcDbAttributeDefinition
  3

  2
C1
 70
     8
280
     0
  0
ATTDEF
  5
184
330
16F
100
AcDbEntity
  8
AM_6
100
AcDbText
 10
8.708075000000001
 20
-7.5375
 30
0.0
 40
0.5
  1
3.50
100
AcDbAttributeDefinition
  3

  2
D
 70
     8
280
     0
  0
ATTDEF
  5
185
330
16F
100
AcDbEntity
  8
AM_6
100
AcDbText
 10
8.708075000000001
 20
-8.0375
 30
0.0
 40
0.5
  1
3.500000
100
AcDbAttributeDefinition
  3

  2
D1
 70
     8
280
     0
  0
ATTDEF
  5
186
330
16F
100
AcDbEntity
  8
AM_6
100
AcDbText
 10
8.708075000000001
 20
-8.5375
 30
0.0
 40
0.5
  1
3.63
100
AcDbAttributeDefinition
  3

  2
E
 70
     8
280
     0
  0
ATTDEF
  5
187
330
16F
100
AcDbEntity
  8
AM_6
100
AcDbText
 10
8.708075000000001
 20
-9.0375
 30
0.0
 40
0.5
  1
3.630000
100
AcDbAttributeDefinition
  3

  2
E1
 70
     8
280
     0
  0
ATTDEF
  5
188
330
16F
100
AcDbEntity
  8
AM_6
100
AcDbText
 10
8.708075000000001
 20
-9.5375
 30
0.0
 40
0.5
  1
1
100
AcDbAttributeDefinition
  3

  2
F
 70
     8
280
     0
  0
ATTDEF
  5
189
330
16F
100
AcDbEntity
  8
AM_6
100
AcDbText
 10
8.708075000000001
 20
-10.0375
 30
0.0
 40
0.5
  1
1.000000
100
AcDbAttributeDefinition
  3

  2
F1
 70
     8
280
     0
  0
ATTDEF
  5
18A
330
16F
100
AcDbEntity
  8
AM_6
100
AcDbText
 10
8.708075000000001
 20
-10.5375
 30
0.0
 40
0.5
  1
0.69
100
AcDbAttributeDefinition
  3

  2
G
 70
     8
280
     0
  0
ATTDEF
  5
18B
330
16F
100
AcDbEntity
  8
AM_6
100
AcDbText
 10
8.708075000000001
 20
-11.0375
 30
0.0
 40
0.5
  1
0.690000
100
AcDbAttributeDefinition
  3

  2
G1
 70
     8
280
     0
  0
ATTDEF
  5
18C
330
16F
100
AcDbEntity
  8
AM_6
100
AcDbText
 10
8.708075000000001
 20
-11.5375
 30
0.0
 40
0.5
  1
1.28
100
AcDbAttributeDefinition
  3

  2
H
 70
     8
280
     0
  0
ATTDEF
  5
18D
330
16F
100
AcDbEntity
  8
AM_6
100
AcDbText
 10
8.708075000000001
 20
-12.0375
 30
0.0
 40
0.5
  1
1.280000
100
AcDbAttributeDefinition
  3

  2
H1
 70
     8
280
     0
  0
ATTDEF
  5
18E
330
16F
100
AcDbEntity
  8
AM_6
100
AcDbText
 10
8.708075000000001
 20
-12.5375
 30
0.0
 40
0.5
  1
1.75
100
AcDbAttributeDefinition
  3

  2
J
 70
     8
280
     0
  0
ATTDEF
  5
18F
330
16F
100
AcDbEntity
  8
AM_6
100
AcDbText
 10
8.708075000000001
 20
-13.0375
 30
0.0
 40
0.5
  1
1.750000
100
AcDbAttributeDefinition
  3

  2
J1
 70
     8
280
     0
  0
ATTDEF
  5
190
330
16F
100
AcDbEntity
  8
AM_6
100
AcDbText
 10
8.708075000000001
 20
-13.5375
 30
0.0
 40
0.5
  1
2.71
100
AcDbAttributeDefinition
  3

  2
L
 70
     8
280
     0
  0
ATTDEF
  5
191
330
16F
100
AcDbEntity
  8
AM_6
100
AcDbText
 10
8.708075000000001
 20
-14.0375
 30
0.0
 40
0.5
  1
2.710000
100
AcDbAttributeDefinition
  3

  2
L1
 70
     8
280
     0
  0
ATTDEF
  5
192
330
16F
100
AcDbEntity
  8
AM_6
100
AcDbText
 10
8.708075000000001
 20
-14.5375
 30
0.0
 40
0.5
  1
4.448/4.418
100
AcDbAttributeDefinition
  3

  2
M
 70
     8
280
     0
  0
ATTDEF
  5
193
330
16F
100
AcDbEntity
  8
AM_6
100
AcDbText
 10
8.708075000000001
 20
-15.0375
 30
0.0
 40
0.5
  1
4.418000
100
AcDbAttributeDefinition
  3

  2
M1
 70
     8
280
     0
  0
ATTDEF
  5
194
330
16F
100
AcDbEntity
  8
AM_6
100
AcDbText
 10
8.708075000000001
 20
-15.5375
 30
0.0
 40
0.5
  1
5.38
100
AcDbAttributeDefinition
  3

  2
N
 70
     8
280
     0
  0
ATTDEF
  5
195
330
16F
100
AcDbEntity
  8
AM_6
100
AcDbText
 10
8.708075000000001
 20
-16.0375
 30
0.0
 40
0.5
  1
5.380000
100
AcDbAttributeDefinition
  3

  2
N1
 70
     8
280
     0
  0
ATTDEF
  5
196
330
16F
100
AcDbEntity
  8
AM_6
100
AcDbText
 10
8.708075000000001
 20
-16.5375
 30
0.0
 40
0.5
  1
0.44
100
AcDbAttributeDefinition
  3

  2
P
 70
     8
280
     0
  0
ATTDEF
  5
197
330
16F
100
AcDbEntity
  8
AM_6
100
AcDbText
 10
8.708075000000001
 20
-17.0375
 30
0.0
 40
0.5
  1
0.440000
100
AcDbAttributeDefinition
  3

  2
P1
 70
     8
280
     0
  0
ATTDEF
  5
198
330
16F
100
AcDbEntity
  8
AM_6
100
AcDbText
 10
8.708075000000001
 20
-17.5375
 30
0.0
 40
0.5
  1
0.87
100
AcDbAttributeDefinition
  3

  2
R
 70
     8
280
     0
  0
ATTDEF
  5
199
330
16F
100
AcDbEntity
  8
AM_6
100
AcDbText
 10
8.708075000000001
 20
-18.0375
 30
0.0
 40
0.5
  1
0.870000
100
AcDbAttributeDefinition
  3

  2
R1
 70
     8
280
     0
  0
ATTDEF
  5
19A
330
16F
100
AcDbEntity
  8
AM_6
100
AcDbText
 10
8.708075000000001
 20
-18.5375
 30
0.0
 40
0.5
  1
1.35
100
AcDbAttributeDefinition
  3

  2
S
 70
     8
280
     0
  0
ATTDEF
  5
19B
330
16F
100
AcDbEntity
  8
AM_6
100
AcDbText
 10
8.708075000000001
 20
-19.0375
 30
0.0
 40
0.5
  1
1.350000
100
AcDbAttributeDefinition
  3

  2
S1
 70
     8
280
     0
  0
ATTDEF
  5
19C
330
16F
100
AcDbEntity
  8
AM_6
100
AcDbText
 10
8.708075000000001
 20
-19.5375
 30
0.0
 40
0.5
  1
5630
100
AcDbAttributeDefinition
  3

  2
CS
 70
     8
280
     0
  0
ATTDEF
  5
19D
330
16F
100
AcDbEntity
  8
AM_6
100
AcDbText
 10
8.708075000000001
 20
-20.0375
 30
0.0
 40
0.5
  1
9975
100
AcDbAttributeDefinition
  3

  2
CD
 70
     8
280
     0
  0
ATTDEF
  5
19E
330
16F
100
AcDbEntity
  8
AM_6
100
AcDbText
 10
8.708075000000001
 20
-20.5375
 30
0.0
 40
0.5
  1
10
100
AcDbAttributeDefinition
  3

  2
BN
 70
     8
280
     0
  0
ATTDEF
  5
19F
330
16F
100
AcDbEntity
  8
AM_6
100
AcDbText
 10
8.708075000000001
 20
-21.0375
 30
0.0
 40
0.5
  1
9/16
100
AcDbAttributeDefinition
  3

  2
BD
 70
     8
280
     0
  0
ATTDEF
  5
1A0
330
16F
100
AcDbEntity
  8
AM_6
100
AcDbText
 10
8.708075000000001
 20
-21.5375
 30
0.0
 40
0.5
  1
9-17
100
AcDbAttributeDefinition
  3

  2
IC
 70
     8
280
     0
  0
ATTDEF
  5
1A1
330
16F
100
AcDbEntity
  8
AM_6
100
AcDbText
 10
8.708075000000001
 20
-22.0375
 30
0.0
 40
0.5
  1
3/8-24
100
AcDbAttributeDefinition
  3

  2
SES
 70
     8
280
     0
  0
ATTDEF
  5
1A2
330
16F
100
AcDbEntity
  8
AM_6
100
AcDbText
 10
8.708075000000001
 20
-22.5375
 30
0.0
 40
0.5
  1
228-275
100
AcDbAttributeDefinition
  3

  2
TS
 70
     8
280
     0
  0
ATTDEF
  5
1A3
330
16F
100
AcDbEntity
  8
AM_6
100
AcDbText
 10
8.708075000000001
 20
-23.0375
 30
0.0
 40
0.5
  1
C.I.
100
AcDbAttributeDefinition
  3

  2
MH
 70
     8
280
     0
  0
ATTDEF
  5
1A4
330
16F
100
AcDbEntity
  8
AM_6
100
AcDbText
 10
8.708075000000001
 20
-23.5375
 30
0.0
 40
0.5
  1
4118
100
AcDbAttributeDefinition
  3

  2
MIR
 70
     8
280
     0
  0
ATTDEF
  5
1A5
330
16F
100
AcDbEntity
  8
AM_6
100
AcDbText
 10
8.708075000000001
 20
-24.0375
 30
0.0
 40
0.5
  1
52100
100
AcDbAttributeDefinition
  3

  2
MOR
 70
     8
280
     0
  0
ATTDEF
  5
1A6
330
16F
100
AcDbEntity
  8
AM_6
100
AcDbText
 10
8.708075000000001
 20
-24.5375
 30
0.0
 40
0.5
  1
NYLON 6-6
100
AcDbAttributeDefinition
  3

  2
MR
 70
     8
280
     0
  0
ATTDEF
  5
1A7
330
16F
100
AcDbEntity
  8
AM_6
100
AcDbText
 10
8.708075000000001
 20
-25.0375
 30
0.0
 40
0.5
  1
52100
100
AcDbAttributeDefinition
  3

  2
MB
 70
     8
280
     0
  0
ATTDEF
  5
1A8
330
16F
100
AcDbEntity
  8
AM_6
100
AcDbText
 10
8.708075000000001
 20
-25.5375
 30
0.0
 40
0.5
  1
±2
100
AcDbAttributeDefinition
  3

  2
SM
 70
     8
280
     0
  0
ATTDEF
  5
1A9
330
16F
100
AcDbEntity
  8
AM_6
100
AcDbText
 10
8.708075000000001
 20
-26.0375
 30
0.0
 40
0.5
  1
baldor
100
AcDbAttributeDefinition
  3

  2
COMPANY
 70
     8
280
     0
  0
LINE
  5
1AA
330
16F
100
AcDbEntity
  8
AM_9
100
AcDbLine
 10
3.16
 20
0.5
 30
0.0
 11
3.16
 21
0.875
 31
0.0
  0
LINE
  5
1AB
330
16F
100
AcDbEntity
  8
AM_9
100
AcDbLine
 10
2.72
 20
0.875
 30
0.0
 11
2.72
 21
0.5
 31
0.0
  0
LINE
  5
1AC
330
16F
100
AcDbEntity
  8
AM_9
100
AcDbLine
 10
3.16
 20
-0.875
 30
0.0
 11
3.16
 21
-0.5
 31
0.0
  0
LINE
  5
1AD
330
16F
100
AcDbEntity
  8
AM_9
100
AcDbLine
 10
2.72
 20
-0.5
 30
0.0
 11
2.72
 21
-0.8750000000000001
 31
0.0
  0
LINE
  5
1AE
330
16F
100
AcDbEntity
  8
AM_9
100
AcDbLine
 10
3.152080227588451
 20
-0.4965662321724762
 30
0.0
 11
3.159999999949195
 21
-0.4999999999776461
 31
0.0
  0
LINE
  5
1AF
330
16F
100
AcDbEntity
  8
AM_9
100
AcDbLine
 10
2.35
 20
0.5
 30
0.0
 11
2.35
 21
-0.5
 31
0.0
  0
LWPOLYLINE
  5
1B0
330
16F
100
AcDbEntity
  8
AM_9
100
AcDbPolyline
 90
       24
 70
     0
 43
0.0
 10
2.72
 20
0.5
 10
2.72272970016552
 20
0.4988049550577507
 10
2.731132738897022
 20
0.4952025169167249
 10
2.744380958274196
 20
0.4897619926920848
 10
2.762747484609873
 20
0.4827198506505891
 10
2.78602198548466
 20
0.4746674930454856
 10
2.814051252515842
 20
0.4663293760774975
 10
2.846574576573651
 20
0.4586156448949298
 10
2.864605682960427
 20
0.4552861534316472
 10
2.883318518706641
 20
0.4525624711811723
 10
2.918899929414744
 20
0.4494943970492877
 10
2.937661944983529
 20
0.4490069123946187
 10
2.95644492649041
 20
0.4492999394694762
 10
2.989205783782012
 20
0.4516870699473277
 10
3.021499952914004
 20
0.4563356684776951
 10
3.051531985394708
 20
0.4626439060077258
 10
3.079450272027064
 20
0.470155695880016
 10
3.10551746356294
 20
0.4785352972815164
 10
3.127664109240115
 20
0.4866393098557553
 10
3.144465290588009
 20
0.493361991903753
 10
3.150867688651512
 20
0.4960491029916277
 10
3.155622449142821
 20
0.4980893901443278
 10
3.159838410768053
 20
0.4999289217969125
 10
3.159999999949195
 20
0.4999999999776461
  0
LINE
  5
1B1
330
16F
100
AcDbEntity
  8
AM_9
100
AcDbLine
 10
2.35
 20
-0.5
 30
0.0
 11
2.72
 21
-0.5
 31
0.0
  0
LINE
  5
1B2
330
16F
100
AcDbEntity
  8
AM_9
100
AcDbLine
 10
3.16
 20
-0.5
 30
0.0
 11
3.63
 21
-0.5
 31
0.0
  0
LINE
  5
1B3
330
16F
100
AcDbEntity
  8
AM_9
100
AcDbLine
 10
3.63
 20
0.5
 30
0.0
 11
3.16
 21
0.5
 31
0.0
  0
LINE
  5
1B4
330
16F
100
AcDbEntity
  8
AM_9
100
AcDbLine
 10
2.72
 20
0.5
 30
0.0
 11
2.35
 21
0.5
 31
0.0
  0
LWPOLYLINE
  5
1B5
330
16F
100
AcDbEntity
  8
AM_9
100
AcDbPolyline
 90
       24
 70
     0
 43
0.0
 10
3.159999999949195
 20
-0.4999999999776461
 10
3.158182315115309
 20
-0.4992028872403241
 10
3.151374347754806
 20
-0.496265165903038
 10
3.139381389450143
 20
-0.491276845026376
 10
3.122626877141932
 20
-0.484719069415073
 10
3.101048304058856
 20
-0.4770079205214876
 10
3.074083746030009
 20
-0.4685919877136612
 10
3.042426062211899
 20
-0.4605334930493501
 10
3.007821959430177
 20
-0.4540923013892094
 10
2.988948892391051
 20
-0.4516609766334895
 10
2.969613176038114
 20
-0.4499743772650442
 10
2.934759333214186
 20
-0.449029469621271
 10
2.898941957117756
 20
-0.4508722245662513
 10
2.867286993978371
 20
-0.4548485256046252
 10
2.836731956733244
 20
-0.4607214871917138
 10
2.807737682319401
 20
-0.4680740546946002
 10
2.781467238409352
 20
-0.4761645057094837
 10
2.758065335706945
 20
-0.484458689747048
 10
2.74796323268781
 20
-0.488341969979359
 10
2.739293271715901
 20
-0.4918162164655684
 10
2.727007441759854
 20
-0.4969565673835913
 10
2.722999523155252
 20
-0.4986869507707917
 10
2.720655684973017
 20
-0.4997118455016413
 10
2.72
 20
-0.5
  0
LINE
  5
1B6
330
16F
100
AcDbEntity
  8
AM_9
100
AcDbLine
 10
3.159999999949195
 20
0.4999999999776461
 30
0.0
 11
3.152116473947093
 21
0.4965817138394724
 31
0.0
  0
LINE
  5
1B7
330
16F
100
AcDbEntity
  8
AM_9
100
AcDbLine
 10
0.7291666666666665
 20
-0.1878
 30
0.0
 11
0.7291666666666665
 21
0.6260000000000001
 31
0.0
  0
LINE
  5
1B8
330
16F
100
AcDbEntity
  8
AM_9
100
AcDbLine
 10
-0.7291666666666665
 20
-0.1878
 30
0.0
 11
-0.7291666666666665
 21
0.6260000000000001
 31
0.0
  0
LINE
  5
1B9
330
16F
100
AcDbEntity
  8
AM_9
100
AcDbLine
 10
1.9685
 20
-0.626
 30
0.0
 11
1.9685
 21
0.626
 31
0.0
  0
LINE
  5
1BA
330
16F
100
AcDbEntity
  8
AM_9
100
AcDbLine
 10
-1.9685
 20
0.626
 30
0.0
 11
-1.9685
 21
-0.626
 31
0.0
  0
LINE
  5
1BB
330
16F
100
AcDbEntity
  8
AM_9
100
AcDbLine
 10
0.7291666666666665
 20
-0.1878
 30
0.0
 11
-0.7291666666666665
 21
-0.1878
 31
0.0
  0
LINE
  5
1BC
330
16F
100
AcDbEntity
  8
AM_7
100
AcDbLine
 10
1.990424999999996
 20
0.0
 30
0.0
 11
3.708075
 21
0.0
 31
0.0
  0
LINE
  5
1BD
330
16F
100
AcDbEntity
  8
AM_7
100
AcDbLine
 10
2.94
 20
0.9625
 30
0.0
 11
2.94
 21
-0.9625
 31
0.0
  0
LINE
  5
1BE
330
16F
100
AcDbEntity
  8
AM_4
100
AcDbLine
 10
2.068499999999998
 20
-0.626
 30
0.0
 11
2.068499999999996
 21
-0.7706666666666666
 31
0.0
  0
ARC
  5
1BF
330
16F
100
AcDbEntity
  8
AM_4
100
AcDbCircle
 10
2.172833333333329
 20
-0.7706666666666676
 30
0.0
 40
0.1043333333333325
100
AcDbArc
 50
179.9999991462263
 51
270.0
  0
LINE
  5
1C0
330
16F
100
AcDbEntity
  8
AM_4
100
AcDbLine
 10
2.068499999999996
 20
0.7706666666666666
 30
0.0
 11
2.068499999999998
 21
0.626
 31
0.0
  0
ARC
  5
1C1
330
16F
100
AcDbEntity
  8
AM_4
100
AcDbCircle
 10
2.172833333333329
 20
0.7706666666666676
 30
0.0
 40
0.1043333333333327
100
AcDbArc
 50
90.0
 51
179.9999991462263
  0
LINE
  5
1C2
330
16F
100
AcDbEntity
  8
AM_4
100
AcDbLine
 10
3.629999999999996
 20
0.7706666666666744
 30
0.0
 11
3.629999999999996
 21
-0.7706666666666744
 31
0.0
  0
ARC
  5
1C3
330
16F
100
AcDbEntity
  8
AM_4
100
AcDbCircle
 10
3.525666666666665
 20
-0.770666666666675
 30
0.0
 40
0.1043333333333316
100
AcDbArc
 50
270.0
 51
0.0000008537736463
  0
ARC
  5
1C4
330
16F
100
AcDbEntity
  8
AM_4
100
AcDbCircle
 10
3.525666666666665
 20
0.770666666666675
 30
0.0
 40
0.1043333333333316
100
AcDbArc
 50
0.0000008537736463
 51
90.0
  0
LINE
  5
1C5
330
16F
100
AcDbEntity
  8
AM_4
100
AcDbLine
 10
3.525666666666663
 20
0.8750000000000036
 30
0.0
 11
3.525666666666663
 21
-0.8750000000000036
 31
0.0
  0
LINE
  5
1C6
330
16F
100
AcDbEntity
  8
AM_4
100
AcDbLine
 10
2.172833333333331
 20
-0.626
 30
0.0
 11
2.172833333333328
 21
-0.8750000000000036
 31
0.0
  0
LWPOLYLINE
  5
1C7
330
16F
100
AcDbEntity
  8
AM_4
100
AcDbPolyline
 90
       20
 70
     0
 43
0.0
 10
2.72
 20
0.8750000000000036
 10
2.722928067335707
 20
0.8742683935443492
 10
2.731959389054819
 20
0.8720698915812022
 10
2.746290935831828
 20
0.8687624540349995
 10
2.766296605864039
 20
0.8645217574673052
 10
2.790844665878788
 20
0.8599257605728622
 10
2.820317134359086
 20
0.8553063710320564
 10
2.852825504236414
 20
0.8513661919007826
 10
2.88896681217674
 20
0.8484275963565828
 10
2.924840643536342
 20
0.8470270397622478
 10
2.962259034817679
 20
0.8471838434667054
 10
2.997095705471403
 20
0.8488138309330744
 10
3.0312976706375
 20
0.851798253498936
 10
3.062412102214636
 20
0.8556925398579861
 10
3.090982890508321
 20
0.8602446356858334
 10
3.11540155140846
 20
0.8648645583191045
 10
3.135486079169588
 20
0.8691604035787086
 10
3.149575380224018
 20
0.8724372986043449
 10
3.157967823761437
 20
0.874491264790737
 10
3.159999999995445
 20
0.8749999999988584
  0
LINE
  5
1C8
330
16F
100
AcDbEntity
  8
AM_4
100
AcDbLine
 10
2.172833333333328
 20
-0.8750000000000036
 30
0.0
 11
2.72
 21
-0.8750000000000036
 31
0.0
  0
LINE
  5
1C9
330
16F
100
AcDbEntity
  8
AM_4
100
AcDbLine
 10
3.16
 20
-0.8750000000000036
 30
0.0
 11
3.525666666666663
 21
-0.8750000000000036
 31
0.0
  0
LINE
  5
1CA
330
16F
100
AcDbEntity
  8
AM_4
100
AcDbLine
 10
3.525666666666663
 20
0.8750000000000036
 30
0.0
 11
3.16
 21
0.8750000000000036
 31
0.0
  0
LINE
  5
1CB
330
16F
100
AcDbEntity
  8
AM_4
100
AcDbLine
 10
2.72
 20
0.8750000000000036
 30
0.0
 11
2.172833333333328
 21
0.8750000000000036
 31
0.0
  0
LINE
  5
1CC
330
16F
100
AcDbEntity
  8
AM_4
100
AcDbLine
 10
2.172833333333328
 20
0.8750000000000036
 30
0.0
 11
2.172833333333332
 21
0.626
 31
0.0
  0
LWPOLYLINE
  5
1CD
330
16F
100
AcDbEntity
  8
AM_4
100
AcDbPolyline
 90
       21
 70
     0
 43
0.0
 10
3.159999999995445
 20
-0.8749999999988584
 10
3.159915086550907
 20
-0.8749786541926031
 10
3.155768156142177
 20
-0.8739455916731892
 10
3.146081592539178
 20
-0.871604625265085
 10
3.130604077139695
 20
-0.8680754081427949
 10
3.110204063246505
 20
-0.8638254587274129
 10
3.084555190235121
 20
-0.8591398041203289
 10
3.054941149932765
 20
-0.8546557599103108
 10
3.021043483315485
 20
-0.8507602753936692
 10
2.985950786362195
 20
-0.8481370613098503
 10
2.948374690317221
 20
-0.8469327809442222
 10
2.912701831669974
 20
-0.8473312162278567
 10
2.876783982850176
 20
-0.8492474697190986
 10
2.843813815643594
 20
-0.852336073424708
 10
2.812607564683121
 20
-0.8564191920875956
 10
2.78493539298917
 20
-0.8609704015513124
 10
2.760863810666515
 20
-0.865629698155584
 10
2.742055482309746
 20
-0.8697166389598584
 10
2.728469152411576
 20
-0.8729091014999687
 10
2.72217384779347
 20
-0.8744559637769692
 10
2.72
 20
-0.8750000000000036
  0
LINE
  5
1CE
330
16F
100
AcDbEntity
  8
AM_4
100
AcDbLine
 10
-2.5
 20
0.3923736194461882
 30
0.0
 11
-2.5
 21
-0.3923736194461882
 31
0.0
  0
LWPOLYLINE
  5
1CF
330
16F
100
AcDbEntity
  8
AM_4
100
AcDbPolyline
 90
       14
 70
     0
 43
0.0
 10
2.374517226140358
 20
0.3923736194461883
 10
2.366960210816771
 20
0.3436885253284649
 10
2.360208194620752
 20
0.2936115153650348
 10
2.352519375692195
 20
0.2235039548626401
 10
2.346779510968786
 20
0.1516544529609887
 10
2.344074571690561
 20
0.1014407408174727
 10
2.342429381481714
 20
0.0507932685515215
 10
2.341874249399399
 20
0.0000000000000001
 10
2.342927272972551
 20
-0.0701040195224914
 10
2.346037243755911
 20
-0.1396987798437731
 10
2.35130484198601
 20
-0.2103379210627584
 10
2.358482138231992
 20
-0.2793975596875463
 10
2.365944675029234
 20
-0.3366291807006458
 10
2.374517226140358
 20
-0.3923736194461881
  0
LWPOLYLINE
  5
1D0
330
16F
100
AcDbEntity
  8
AM_4
100
AcDbPolyline
 90
        5
 70
     0
 43
0.0
 10
2.35948506246596
 20
0.626
 10
2.360694329379481
 20
0.5740514177042827
 10
2.363377572542391
 20
0.5178989180231761
 10
2.367903822823767
 20
0.4569337817011188
 10
2.374517226140358
 20
0.3923736194461883
  0
LINE
  5
1D1
330
16F
100
AcDbEntity
  8
AM_4
100
AcDbLine
 10
1.75
 20
0.3923736194461884
 30
0.0
 11
2.374517226140358
 21
0.3923736194461883
 31
0.0
  0
LINE
  5
1D2
330
16F
100
AcDbEntity
  8
AM_4
100
AcDbLine
 10
-2.4374
 20
0.626
 30
0.0
 11
-2.5
 21
0.3923736194461882
 31
0.0
  0
LINE
  5
1D3
330
16F
100
AcDbEntity
  8
AM_4
100
AcDbLine
 10
-2.4374
 20
0.626
 30
0.0
 11
2.35948506246596
 21
0.626
 31
0.0
  0
LINE
  5
1D4
330
16F
100
AcDbEntity
  8
AM_4
100
AcDbLine
 10
-2.5
 20
0.3923736194461882
 30
0.0
 11
-1.75
 21
0.3923736194461884
 31
0.0
  0
LWPOLYLINE
  5
1D5
330
16F
100
AcDbEntity
  8
AM_4
100
AcDbPolyline
 90
        5
 70
     0
 43
0.0
 10
2.374517226140358
 20
-0.3923736194461881
 10
2.368110296395182
 20
-0.4546005879924991
 10
2.363593813470922
 20
-0.5143706245310081
 10
2.360767428560492
 20
-0.5719941084916583
 10
2.35948506246596
 20
-0.626
  0
LINE
  5
1D6
330
16F
100
AcDbEntity
  8
AM_4
100
AcDbLine
 10
1.75
 20
-0.3923736194461881
 30
0.0
 11
2.374517226140358
 21
-0.3923736194461881
 31
0.0
  0
LINE
  5
1D7
330
16F
100
AcDbEntity
  8
AM_4
100
AcDbLine
 10
-2.5
 20
-0.3923736194461882
 30
0.0
 11
-2.4374
 21
-0.626
 31
0.0
  0
LINE
  5
1D8
330
16F
100
AcDbEntity
  8
AM_4
100
AcDbLine
 10
-2.5
 20
-0.3923736194461882
 30
0.0
 11
-1.75
 21
-0.3923736194461881
 31
0.0
  0
LINE
  5
1D9
330
16F
100
AcDbEntity
  8
AM_4
100
AcDbLine
 10
-2.4374
 20
-0.626
 30
0.0
 11
2.35948506246596
 21
-0.626
 31
0.0
  0
LINE
  5
1DA
330
16F
100
AcDbEntity
  8
AM_4
100
AcDbLine
 10
1.687399999999999
 20
0.1565000000000001
 30
0.0
 11
1.687399999999999
 21
0.4068999999999989
 31
0.0
  0
LINE
  5
1DB
330
16F
100
AcDbEntity
  8
AM_4
100
AcDbLine
 10
1.75
 20
0.1565000000000001
 30
0.0
 11
-1.75
 21
0.1565000000000001
 31
0.0
  0
LINE
  5
1DC
330
16F
100
AcDbEntity
  8
AM_4
100
AcDbLine
 10
-1.6874
 20
0.1565000000000001
 30
0.0
 11
-1.687400000000001
 21
0.4068999999999989
 31
0.0
  0
LINE
  5
1DD
330
16F
100
AcDbEntity
  8
AM_4
100
AcDbLine
 10
-1.75
 20
0.4695000000000001
 30
0.0
 11
-1.75
 21
-0.4694999999999999
 31
0.0
  0
LINE
  5
1DE
330
16F
100
AcDbEntity
  8
AM_4
100
AcDbLine
 10
-1.75
 20
-0.1564999999999998
 30
0.0
 11
1.75
 21
-0.1564999999999998
 31
0.0
  0
LINE
  5
1DF
330
16F
100
AcDbEntity
  8
AM_4
100
AcDbLine
 10
1.75
 20
0.4695000000000001
 30
0.0
 11
1.75
 21
-0.4694999999999999
 31
0.0
  0
LINE
  5
1E0
330
16F
100
AcDbEntity
  8
AM_4
100
AcDbLine
 10
-1.687400000000001
 20
-0.4068999999999998
 30
0.0
 11
-1.6874
 21
-0.1564999999999998
 31
0.0
  0
LINE
  5
1E1
330
16F
100
AcDbEntity
  8
AM_4
100
AcDbLine
 10
1.687399999999999
 20
-0.4068999999999998
 30
0.0
 11
1.687399999999999
 21
-0.1564999999999998
 31
0.0
  0
LINE
  5
1E2
330
16F
100
AcDbEntity
  8
AM_4
100
AcDbLine
 10
1.687399999999999
 20
-0.4068999999999998
 30
0.0
 11
-1.687400000000001
 21
-0.4068999999999998
 31
0.0
  0
LINE
  5
1E3
330
16F
100
AcDbEntity
  8
AM_4
100
AcDbLine
 10
-1.6874
 20
-0.4069000000000003
 30
0.0
 11
-1.75
 21
-0.4694999999999999
 31
0.0
  0
LINE
  5
1E4
330
16F
100
AcDbEntity
  8
AM_4
100
AcDbLine
 10
1.75
 20
-0.4694999999999999
 30
0.0
 11
-1.75
 21
-0.4694999999999999
 31
0.0
  0
LINE
  5
1E5
330
16F
100
AcDbEntity
  8
AM_4
100
AcDbLine
 10
1.749999999999999
 20
-0.4695
 30
0.0
 11
1.687399999999999
 21
-0.4068999999999997
 31
0.0
  0
LINE
  5
1E6
330
16F
100
AcDbEntity
  8
AM_4
100
AcDbLine
 10
1.75
 20
0.4695000000000001
 30
0.0
 11
-1.75
 21
0.4695000000000001
 31
0.0
  0
LINE
  5
1E7
330
16F
100
AcDbEntity
  8
AM_4
100
AcDbLine
 10
-1.75
 20
0.4694999999999996
 30
0.0
 11
-1.6874
 21
0.4068999999999995
 31
0.0
  0
LINE
  5
1E8
330
16F
100
AcDbEntity
  8
AM_4
100
AcDbLine
 10
1.687399999999999
 20
0.4068999999999989
 30
0.0
 11
-1.687400000000001
 21
0.4068999999999989
 31
0.0
  0
LINE
  5
1E9
330
16F
100
AcDbEntity
  8
AM_4
100
AcDbLine
 10
1.687399999999999
 20
0.4068999999999989
 30
0.0
 11
1.75
 21
0.4694999999999999
 31
0.0
  0
ENDBLK
  5
172
330
16F
100
AcDbEntity
  8
0
100
AcDbBlockEnd
  0
ENDSEC
  0
SECTION
  2
ENTITIES
  0
INSERT
  5
6F
330
1F
100
AcDbEntity
  8
0
100
AcDbBlockReference
  2
1_125548_4
 10
0.0
 20
0.0
 30
0.0
  0
POINT
  5
1EB
330
1F
100
AcDbEntity
  8
ConnectionPoints
100
AcDbPoint
 10
0.0
 20
-1.35
 30
0.0000000000000002
  0
POINT
  5
1EC
330
1F
100
AcDbEntity
  8
ConnectionPoints
100
AcDbPoint
 10
-2.165063509461097
 20
-0.0000000000000001
 30
-1.25
  0
POINT
  5
1ED
330
1F
100
AcDbEntity
  8
ConnectionPoints
100
AcDbPoint
 10
0.0
 20
-1.35
 30
0.0000000000000001
  0
ENDSEC
  0
SECTION
  2
OBJECTS
  0
DICTIONARY
  5
C
330
0
100
AcDbDictionary
281
     1
  3
ACAD_DETAILVIEWSTYLE
350
1F5
  3
ACAD_GROUP
350
D
  3
ACAD_LAYOUT
350
1A
  3
ACAD_MATERIAL
350
43
  3
ACAD_MLEADERSTYLE
350
6B
  3
ACAD_MLINESTYLE
350
17
  3
ACAD_PLOTSETTINGS
350
19
  3
ACAD_PLOTSTYLENAME
350
E
  3
ACAD_SCALELIST
350
47
  3
ACAD_SECTIONVIEWSTYLE
350
1F6
  3
ACAD_TABLESTYLE
350
69
  3
ACAD_VISUALSTYLE
350
2A
  3
ACDB_RECOMPOSE_DATA
350
1F2
  3
AcDbVariableDictionary
350
1EE
  0
SUN
  5
6D
330
29
100
AcDbSun
 90
        1
290
     0
 63
     7
421
 16777215
 40
1.0
291
     1
 91
  2455826
 92
 54000000
292
     0
 70
     2
 71
   256
280
     1
  0
DICTIONARY
  5
1F5
102
{ACAD_REACTORS
330
C
102
}
330
C
100
AcDbDictionary
281
     1
  0
DICTIONARY
  5
D
102
{ACAD_REACTORS
330
C
102
}
330
C
100
AcDbDictionary
281
     1
  0
DICTIONARY
  5
1A
102
{ACAD_REACTORS
330
C
102
}
330
C
100
AcDbDictionary
281
     1
  3
Layout1
350
1E
  3
Layout2
350
26
  3
Model
350
22
  0
DICTIONARY
  5
43
102
{ACAD_REACTORS
330
C
102
}
330
C
100
AcDbDictionary
281
     1
  3
ByBlock
350
45
  3
ByLayer
350
44
  3
Global
350
46
  0
DICTIONARY
  5
6B
102
{ACAD_REACTORS
330
C
102
}
330
C
100
AcDbDictionary
281
     1
  3
Standard
350
6C
  0
DICTIONARY
  5
17
102
{ACAD_REACTORS
330
C
102
}
330
C
100
AcDbDictionary
281
     1
  3
Standard
350
18
  0
DICTIONARY
  5
19
102
{ACAD_REACTORS
330
C
102
}
330
C
100
AcDbDictionary
281
     1
  0
ACDBDICTIONARYWDFLT
  5
E
102
{ACAD_REACTORS
330
C
102
}
330
C
100
AcDbDictionary
281
     1
  3
Normal
350
F
100
AcDbDictionaryWithDefault
340
F
  0
DICTIONARY
  5
47
102
{ACAD_REACTORS
330
C
102
}
330
C
100
AcDbDictionary
281
     1
  3
A0
350
48
  3
A1
350
49
  3
A2
350
4A
  3
A3
350
4B
  3
A4
350
4C
  3
A5
350
4D
  3
A6
350
4E
  3
A7
350
4F
  3
A8
350
50
  3
A9
350
51
  3
B0
350
52
  3
B1
350
53
  3
B2
350
54
  3
B3
350
55
  3
B4
350
56
  3
B5
350
57
  3
B6
350
58
  3
B7
350
59
  3
B8
350
5A
  3
B9
350
5B
  3
C0
350
5C
  3
C1
350
5D
  3
C2
350
5E
  3
C3
350
5F
  3
C4
350
60
  3
C5
350
61
  3
C6
350
62
  3
C7
350
63
  3
C8
350
64
  3
C9
350
65
  3
D0
350
66
  3
D1
350
67
  3
D2
350
68
  0
DICTIONARY
  5
1F6
102
{ACAD_REACTORS
330
C
102
}
330
C
100
AcDbDictionary
281
     1
  0
DICTIONARY
  5
69
102
{ACAD_REACTORS
330
C
102
}
330
C
100
AcDbDictionary
281
     1
  3
Standard
350
6A
  0
DICTIONARY
  5
2A
102
{ACAD_REACTORS
330
C
102
}
330
C
100
AcDbDictionary
281
     1
  3
2dWireframe
350
2F
  3
Basic
350
32
  3
Brighten
350
36
  3
ColorChange
350
3A
  3
Conceptual
350
34
  3
Dim
350
35
  3
EdgeColorOff
350
3D
  3
Facepattern
350
39
  3
Flat
350
2B
  3
FlatWithEdges
350
2C
  3
Gouraud
350
2D
  3
GouraudWithEdges
350
2E
  3
Hidden
350
31
  3
JitterOff
350
3B
  3
Linepattern
350
38
  3
OverhangOff
350
3C
  3
Realistic
350
33
  3
Shaded
350
42
  3
Shaded with edges
350
41
  3
Shades of Gray
350
3E
  3
Sketchy
350
3F
  3
Thicken
350
37
  3
Wireframe
350
30
  3
X-Ray
350
40
  0
XRECORD
  5
1F2
102
{ACAD_REACTORS
330
C
102
}
330
C
100
AcDbXrecord
280
     1
 90
        1
330
6A
  0
DICTIONARY
  5
1EE
102
{ACAD_REACTORS
330
C
102
}
330
C
100
AcDbDictionary
281
     1
  3
CANNOSCALE
350
1EF
  3
CMLEADERSTYLE
350
1F4
  3
CTABLESTYLE
350
1F3
  0
LAYOUT
  5
1E
102
{ACAD_REACTORS
330
1A
102
}
330
1A
100
AcDbPlotSettings
  1

  2
none_device
  4

  6

 40
0.0
 41
0.0
 42
0.0
 43
0.0
 44
0.0
 45
0.0
 46
0.0
 47
0.0
 48
0.0
 49
0.0
140
0.0
141
0.0
142
1.0
143
1.0
 70
   688
 72
     0
 73
     0
 74
     5
  7

 75
    16
 76
     0
 77
     2
 78
   300
147
1.0
148
0.0
149
0.0
100
AcDbLayout
  1
Layout1
 70
     1
 71
     1
 10
0.0
 20
0.0
 11
12.0
 21
9.0
 12
0.0
 22
0.0
 32
0.0
 14
1.000000000000000E+20
 24
1.000000000000000E+20
 34
1.000000000000000E+20
 15
-1.000000000000000E+20
 25
-1.000000000000000E+20
 35
-1.000000000000000E+20
146
0.0
 13
0.0
 23
0.0
 33
0.0
 16
1.0
 26
0.0
 36
0.0
 17
0.0
 27
1.0
 37
0.0
 76
     0
330
1B
  0
LAYOUT
  5
26
102
{ACAD_REACTORS
330
1A
102
}
330
1A
100
AcDbPlotSettings
  1

  2
none_device
  4

  6

 40
0.0
 41
0.0
 42
0.0
 43
0.0
 44
0.0
 45
0.0
 46
0.0
 47
0.0
 48
0.0
 49
0.0
140
0.0
141
0.0
142
1.0
143
1.0
 70
   688
 72
     0
 73
     0
 74
     5
  7

 75
    16
 76
     0
 77
     2
 78
   300
147
1.0
148
0.0
149
0.0
100
AcDbLayout
  1
Layout2
 70
     1
 71
     2
 10
0.0
 20
0.0
 11
0.0
 21
0.0
 12
0.0
 22
0.0
 32
0.0
 14
0.0
 24
0.0
 34
0.0
 15
0.0
 25
0.0
 35
0.0
146
0.0
 13
0.0
 23
0.0
 33
0.0
 16
1.0
 26
0.0
 36
0.0
 17
0.0
 27
1.0
 37
0.0
 76
     0
330
23
  0
LAYOUT
  5
22
102
{ACAD_REACTORS
330
1A
102
}
330
1A
100
AcDbPlotSettings
  1

  2
none_device
  4
Letter_(8.50_x_11.00_Inches)
  6

 40
6.35
 41
6.35
 42
6.35000508
 43
6.35000508
 44
215.9
 45
279.4
 46
0.0
 47
0.0
 48
0.0
 49
0.0
140
0.0
141
0.0
142
1.0
143
1.0
 70
  1712
 72
     0
 73
     0
 74
     0
  7

 75
     0
 76
     0
 77
     2
 78
   300
147
1.0
148
0.0
149
0.0
100
AcDbLayout
  1
Model
 70
     1
 71
     0
 10
0.0
 20
0.0
 11
12.0
 21
9.0
 12
0.0
 22
0.0
 32
0.0
 14
1.000000000000000E+20
 24
1.000000000000000E+20
 34
1.000000000000000E+20
 15
-1.000000000000000E+20
 25
-1.000000000000000E+20
 35
-1.000000000000000E+20
146
0.0
 13
0.0
 23
0.0
 33
0.0
 16
1.0
 26
0.0
 36
0.0
 17
0.0
 27
1.0
 37
0.0
 76
     0
330
1F
331
29
  0
MATERIAL
  5
45
102
{ACAD_REACTORS
330
43
102
}
330
43
100
AcDbMaterial
  1
ByBlock
 72
     1
 94
      127
  0
MATERIAL
  5
44
102
{ACAD_REACTORS
330
43
102
}
330
43
100
AcDbMaterial
  1
ByLayer
 72
     1
 94
      127
  0
MATERIAL
  5
46
102
{ACAD_REACTORS
330
43
102
}
330
43
100
AcDbMaterial
  1
Global
 72
     1
 94
      127
  0
MLEADERSTYLE
  5
6C
102
{ACAD_REACTORS
330
6B
102
}
330
6B
100
AcDbMLeaderStyle
179
     2
170
     2
171
     1
172
     0
 90
        2
 40
0.0
 41
0.0
173
     1
 91
-1056964608
340
14
 92
       -2
290
     1
 42
0.09
291
     1
 43
0.36
  3
Standard
341
0
 44
0.18
300

342
11
174
     1
178
     6
175
     1
176
     0
 93
-1056964608
 45
0.18
292
     0
297
     0
 46
0.18
343
0
 94
-1056964608
 47
1.0
 49
1.0
140
1.0
293
     1
141
0.0
294
     1
177
     0
142
1.0
295
     0
296
     0
143
0.125
271
     0
272
     9
273
     9
298
     0
  0
MLINESTYLE
  5
18
102
{ACAD_REACTORS
330
17
102
}
330
17
100
AcDbMlineStyle
  2
Standard
 70
     0
  3

 62
   256
 51
90.0
 52
90.0
 71
     2
 49
0.5
 62
   256
  6
BYLAYER
 49
-0.5
 62
   256
  6
BYLAYER
  0
ACDBPLACEHOLDER
  5
F
102
{ACAD_REACTORS
330
E
102
}
330
E
  0
SCALE
  5
48
102
{ACAD_REACTORS
330
47
102
}
330
47
100
AcDbScale
 70
     0
300
1:1
140
1.0
141
1.0
290
     1
  0
SCALE
  5
49
102
{ACAD_REACTORS
330
47
102
}
330
47
100
AcDbScale
 70
     0
300
1:2
140
1.0
141
2.0
290
     0
  0
SCALE
  5
4A
102
{ACAD_REACTORS
330
47
102
}
330
47
100
AcDbScale
 70
     0
300
1:4
140
1.0
141
4.0
290
     0
  0
SCALE
  5
4B
102
{ACAD_REACTORS
330
47
102
}
330
47
100
AcDbScale
 70
     0
300
1:5
140
1.0
141
5.0
290
     0
  0
SCALE
  5
4C
102
{ACAD_REACTORS
330
47
102
}
330
47
100
AcDbScale
 70
     0
300
1:8
140
1.0
141
8.0
290
     0
  0
SCALE
  5
4D
102
{ACAD_REACTORS
330
47
102
}
330
47
100
AcDbScale
 70
     0
300
1:10
140
1.0
141
10.0
290
     0
  0
SCALE
  5
4E
102
{ACAD_REACTORS
330
47
102
}
330
47
100
AcDbScale
 70
     0
300
1:16
140
1.0
141
16.0
290
     0
  0
SCALE
  5
4F
102
{ACAD_REACTORS
330
47
102
}
330
47
100
AcDbScale
 70
     0
300
1:20
140
1.0
141
20.0
290
     0
  0
SCALE
  5
50
102
{ACAD_REACTORS
330
47
102
}
330
47
100
AcDbScale
 70
     0
300
1:30
140
1.0
141
30.0
290
     0
  0
SCALE
  5
51
102
{ACAD_REACTORS
330
47
102
}
330
47
100
AcDbScale
 70
     0
300
1:40
140
1.0
141
40.0
290
     0
  0
SCALE
  5
52
102
{ACAD_REACTORS
330
47
102
}
330
47
100
AcDbScale
 70
     0
300
1:50
140
1.0
141
50.0
290
     0
  0
SCALE
  5
53
102
{ACAD_REACTORS
330
47
102
}
330
47
100
AcDbScale
 70
     0
300
1:100
140
1.0
141
100.0
290
     0
  0
SCALE
  5
54
102
{ACAD_REACTORS
330
47
102
}
330
47
100
AcDbScale
 70
     0
300
2:1
140
2.0
141
1.0
290
     0
  0
SCALE
  5
55
102
{ACAD_REACTORS
330
47
102
}
330
47
100
AcDbScale
 70
     0
300
4:1
140
4.0
141
1.0
290
     0
  0
SCALE
  5
56
102
{ACAD_REACTORS
330
47
102
}
330
47
100
AcDbScale
 70
     0
300
8:1
140
8.0
141
1.0
290
     0
  0
SCALE
  5
57
102
{ACAD_REACTORS
330
47
102
}
330
47
100
AcDbScale
 70
     0
300
10:1
140
10.0
141
1.0
290
     0
  0
SCALE
  5
58
102
{ACAD_REACTORS
330
47
102
}
330
47
100
AcDbScale
 70
     0
300
100:1
140
100.0
141
1.0
290
     0
  0
SCALE
  5
59
102
{ACAD_REACTORS
330
47
102
}
330
47
100
AcDbScale
 70
     0
300
1/128" = 1'-0"
140
0.0078125
141
12.0
290
     0
  0
SCALE
  5
5A
102
{ACAD_REACTORS
330
47
102
}
330
47
100
AcDbScale
 70
     0
300
1/64" = 1'-0"
140
0.015625
141
12.0
290
     0
  0
SCALE
  5
5B
102
{ACAD_REACTORS
330
47
102
}
330
47
100
AcDbScale
 70
     0
300
1/32" = 1'-0"
140
0.03125
141
12.0
290
     0
  0
SCALE
  5
5C
102
{ACAD_REACTORS
330
47
102
}
330
47
100
AcDbScale
 70
     0
300
1/16" = 1'-0"
140
0.0625
141
12.0
290
     0
  0
SCALE
  5
5D
102
{ACAD_REACTORS
330
47
102
}
330
47
100
AcDbScale
 70
     0
300
3/32" = 1'-0"
140
0.09375
141
12.0
290
     0
  0
SCALE
  5
5E
102
{ACAD_REACTORS
330
47
102
}
330
47
100
AcDbScale
 70
     0
300
1/8" = 1'-0"
140
0.125
141
12.0
290
     0
  0
SCALE
  5
5F
102
{ACAD_REACTORS
330
47
102
}
330
47
100
AcDbScale
 70
     0
300
3/16" = 1'-0"
140
0.1875
141
12.0
290
     0
  0
SCALE
  5
60
102
{ACAD_REACTORS
330
47
102
}
330
47
100
AcDbScale
 70
     0
300
1/4" = 1'-0"
140
0.25
141
12.0
290
     0
  0
SCALE
  5
61
102
{ACAD_REACTORS
330
47
102
}
330
47
100
AcDbScale
 70
     0
300
3/8" = 1'-0"
140
0.375
141
12.0
290
     0
  0
SCALE
  5
62
102
{ACAD_REACTORS
330
47
102
}
330
47
100
AcDbScale
 70
     0
300
1/2" = 1'-0"
140
0.5
141
12.0
290
     0
  0
SCALE
  5
63
102
{ACAD_REACTORS
330
47
102
}
330
47
100
AcDbScale
 70
     0
300
3/4" = 1'-0"
140
0.75
141
12.0
290
     0
  0
SCALE
  5
64
102
{ACAD_REACTORS
330
47
102
}
330
47
100
AcDbScale
 70
     0
300
1" = 1'-0"
140
1.0
141
12.0
290
     0
  0
SCALE
  5
65
102
{ACAD_REACTORS
330
47
102
}
330
47
100
AcDbScale
 70
     0
300
1-1/2" = 1'-0"
140
1.5
141
12.0
290
     0
  0
SCALE
  5
66
102
{ACAD_REACTORS
330
47
102
}
330
47
100
AcDbScale
 70
     0
300
3" = 1'-0"
140
3.0
141
12.0
290
     0
  0
SCALE
  5
67
102
{ACAD_REACTORS
330
47
102
}
330
47
100
AcDbScale
 70
     0
300
6" = 1'-0"
140
6.0
141
12.0
290
     0
  0
SCALE
  5
68
102
{ACAD_REACTORS
330
47
102
}
330
47
100
AcDbScale
 70
     0
300
1'-0" = 1'-0"
140
12.0
141
12.0
290
     0
  0
TABLESTYLE
  5
6A
102
{ACAD_REACTORS
330
69
102
}
102
{ACAD_XDICTIONARY
360
1F0
102
}
330
69
100
AcDbTableStyle
  3
Standard
 70
     0
 71
     0
 40
0.06
 41
0.06
280
     0
281
     0
  7
Standard
140
0.18
170
     2
 62
     0
 63
   257
283
     0
 90
        4
 91
        0
  1

274
    -2
284
     1
 64
     0
275
    -2
285
     1
 65
     0
276
    -2
286
     1
 66
     0
277
    -2
287
     1
 67
     0
278
    -2
288
     1
 68
     0
279
    -2
289
     1
 69
     0
  7
Standard
140
0.25
170
     5
 62
     0
 63
   257
283
     0
 90
        4
 91
        0
  1

274
    -2
284
     1
 64
     0
275
    -2
285
     1
 65
     0
276
    -2
286
     1
 66
     0
277
    -2
287
     1
 67
     0
278
    -2
288
     1
 68
     0
279
    -2
289
     1
 69
     0
  7
Standard
140
0.18
170
     5
 62
     0
 63
   257
283
     0
 90
        4
 91
        0
  1

274
    -2
284
     1
 64
     0
275
    -2
285
     1
 65
     0
276
    -2
286
     1
 66
     0
277
    -2
287
     1
 67
     0
278
    -2
288
     1
 68
     0
279
    -2
289
     1
 69
     0
  0
VISUALSTYLE
  5
2F
102
{ACAD_REACTORS
330
2A
102
}
330
2A
100
AcDbVisualStyle
  2
2dWireframe
 70
     4
177
     3
291
     0
 70
    58
 90
        0
176
     1
 90
        2
176
     1
 90
        0
176
     1
 90
        0
176
     1
 40
0.6
176
     1
 40
30.0
176
     1
 62
     7
420
 16777215
176
     1
 90
        1
176
     1
 90
        4
176
     1
 62
     7
176
     1
 62
   257
176
     1
 90
        1
176
     1
 90
        1
176
     1
 40
1.0
176
     1
 90
        0
176
     1
 62
   257
176
     1
 40
1.0
176
     1
 90
        1
176
     1
 90
        6
176
     1
 90
        2
176
     1
 62
     7
176
     1
 90
        5
176
     1
 90
        0
176
     1
 90
        0
176
     1
290
     0
176
     1
 90
        1
176
     1
 40
0.0
176
     1
 90
        0
176
     1
290
     1
176
     1
290
     1
176
     1
290
     0
176
     1
290
     0
176
     1
290
     0
176
     1
290
     0
176
     1
290
     0
176
     1
290
     0
176
     1
290
     0
176
     1
 90
       50
176
     1
 40
0.0
176
     1
 40
1.0
176
     1
 90
        0
176
     1
 62
    18
420
        0
176
     1
 90
       50
176
     1
 90
        3
176
     1
 62
     5
420
      255
176
     1
290
     0
176
     1
 90
       50
176
     1
 90
       50
176
     1
 90
       50
176
     1
290
     0
176
     1
 90
       50
176
     1
 62
   256
176
     0
 40
1.0
176
     0
 90
        2
176
     1
  1
strokes_ogs.tif
176
     1
290
     0
176
     1
 40
1.0
176
     1
 40
1.0
176
     1
  0
VISUALSTYLE
  5
32
102
{ACAD_REACTORS
330
2A
102
}
330
2A
100
AcDbVisualStyle
  2
Basic
 70
     7
177
     3
291
     1
 70
    58
 90
        1
176
     1
 90
        0
176
     1
 90
        1
176
     1
 90
        0
176
     1
 40
0.6
176
     1
 40
30.0
176
     1
 62
     7
420
 16777215
176
     1
 90
        0
176
     1
 90
        4
176
     1
 62
     7
176
     1
 62
   257
176
     1
 90
        1
176
     1
 90
        1
176
     1
 40
1.0
176
     1
 90
        8
176
     1
 62
     7
176
     1
 40
1.0
176
     1
 90
        1
176
     1
 90
        6
176
     1
 90
        2
176
     1
 62
     7
176
     1
 90
        5
176
     1
 90
        0
176
     1
 90
        0
176
     1
290
     0
176
     1
 90
        1
176
     1
 40
0.0
176
     1
 90
        0
176
     1
290
     0
176
     1
290
     1
176
     1
290
     1
176
     1
290
     0
176
     1
290
     0
176
     1
290
     0
176
     1
290
     0
176
     1
290
     0
176
     1
290
     0
176
     1
 90
       50
176
     1
 40
0.0
176
     1
 40
1.0
176
     1
 90
        0
176
     1
 62
    18
420
        0
176
     1
 90
       50
176
     1
 90
        3
176
     1
 62
     5
420
      255
176
     1
290
     0
176
     1
 90
       50
176
     1
 90
       50
176
     1
 90
       50
176
     1
290
     0
176
     1
 90
       50
176
     1
 62
   256
176
     0
 40
1.0
176
     0
 90
        2
176
     1
  1
strokes_ogs.tif
176
     1
290
     0
176
     1
 40
1.0
176
     1
 40
1.0
176
     1
  0
VISUALSTYLE
  5
36
102
{ACAD_REACTORS
330
2A
102
}
330
2A
100
AcDbVisualStyle
  2
Brighten
 70
    12
177
     3
291
     1
 70
    58
 90
        2
176
     1
 90
        2
176
     1
 90
        0
176
     1
 90
        0
176
     1
 40
0.6
176
     1
 40
30.0
176
     1
 62
     7
420
 16777215
176
     1
 90
        1
176
     1
 90
        4
176
     1
 62
     7
176
     1
 62
   257
176
     1
 90
        1
176
     1
 90
        1
176
     1
 40
1.0
176
     1
 90
        8
176
     1
 62
     7
176
     1
 40
1.0
176
     1
 90
        1
176
     1
 90
        6
176
     1
 90
        2
176
     1
 62
     7
176
     1
 90
        5
176
     1
 90
        0
176
     1
 90
        0
176
     1
290
     0
176
     1
 90
        1
176
     1
 40
50.0
176
     1
 90
        0
176
     1
290
     0
176
     1
290
     1
176
     1
290
     1
176
     1
290
     0
176
     1
290
     0
176
     1
290
     0
176
     1
290
     0
176
     1
290
     0
176
     1
290
     0
176
     1
 90
       50
176
     1
 40
0.0
176
     1
 40
1.0
176
     1
 90
        0
176
     1
 62
    18
420
        0
176
     1
 90
       50
176
     1
 90
        3
176
     1
 62
     5
420
      255
176
     1
290
     0
176
     1
 90
       50
176
     1
 90
       50
176
     1
 90
       50
176
     1
290
     0
176
     1
 90
       50
176
     1
 62
   256
176
     0
 40
1.0
176
     0
 90
        2
176
     1
  1
strokes_ogs.tif
176
     1
290
     0
176
     1
 40
1.0
176
     1
 40
1.0
176
     1
  0
VISUALSTYLE
  5
3A
102
{ACAD_REACTORS
330
2A
102
}
330
2A
100
AcDbVisualStyle
  2
ColorChange
 70
    16
177
     3
291
     1
 70
    58
 90
        2
176
     1
 90
        2
176
     1
 90
        3
176
     1
 90
        0
176
     1
 40
0.6
176
     1
 40
30.0
176
     1
 62
     8
420
  8421504
176
     1
 90
        1
176
     1
 90
        4
176
     1
 62
     7
176
     1
 62
   257
176
     1
 90
        1
176
     1
 90
        1
176
     1
 40
1.0
176
     1
 90
        8
176
     1
 62
     8
420
  8421504
176
     1
 40
1.0
176
     1
 90
        1
176
     1
 90
        6
176
     1
 90
        2
176
     1
 62
     7
176
     1
 90
        5
176
     1
 90
        0
176
     1
 90
        0
176
     1
290
     0
176
     1
 90
        1
176
     1
 40
0.0
176
     1
 90
        0
176
     1
290
     0
176
     1
290
     1
176
     1
290
     1
176
     1
290
     0
176
     1
290
     0
176
     1
290
     0
176
     1
290
     0
176
     1
290
     0
176
     1
290
     0
176
     1
 90
       50
176
     1
 40
0.0
176
     1
 40
1.0
176
     1
 90
        0
176
     1
 62
    18
420
        0
176
     1
 90
       50
176
     1
 90
        3
176
     1
 62
     5
420
      255
176
     1
290
     0
176
     1
 90
       50
176
     1
 90
       50
176
     1
 90
       50
176
     1
290
     0
176
     1
 90
       50
176
     1
 62
   256
176
     0
 40
1.0
176
     0
 90
        2
176
     1
  1
strokes_ogs.tif
176
     1
290
     0
176
     1
 40
1.0
176
     1
 40
1.0
176
     1
  0
VISUALSTYLE
  5
34
102
{ACAD_REACTORS
330
2A
102
}
330
2A
100
AcDbVisualStyle
  2
Conceptual
 70
     9
177
     3
291
     0
 70
    58
 90
        3
176
     1
 90
        2
176
     1
 90
        0
176
     1
 90
        0
176
     1
 40
0.6
176
     1
 40
30.0
176
     1
 62
     7
420
 16777215
176
     1
 90
        2
176
     1
 90
        2
176
     1
 62
     7
176
     1
 62
   257
176
     1
 90
        1
176
     1
 90
        1
176
     1
 40
179.0
176
     1
 90
        8
176
     1
 62
     7
176
     1
 40
1.0
176
     1
 90
        1
176
     1
 90
        6
176
     1
 90
        2
176
     1
 62
     7
176
     1
 90
        3
176
     1
 90
        0
176
     1
 90
        0
176
     1
290
     0
176
     1
 90
        1
176
     1
 40
0.0
176
     1
 90
        0
176
     1
290
     0
176
     1
290
     1
176
     1
290
     1
176
     1
290
     0
176
     1
290
     0
176
     1
290
     0
176
     1
290
     0
176
     1
290
     0
176
     1
290
     0
176
     1
 90
       50
176
     1
 40
0.0
176
     1
 40
1.0
176
     1
 90
        0
176
     1
 62
    18
420
        0
176
     1
 90
       50
176
     1
 90
        3
176
     1
 62
     5
420
      255
176
     1
290
     0
176
     1
 90
       50
176
     1
 90
       50
176
     1
 90
       50
176
     1
290
     0
176
     1
 90
       50
176
     1
 62
   256
176
     0
 40
1.0
176
     0
 90
        2
176
     1
  1
strokes_ogs.tif
176
     1
290
     0
176
     1
 40
1.0
176
     1
 40
1.0
176
     1
  0
VISUALSTYLE
  5
35
102
{ACAD_REACTORS
330
2A
102
}
330
2A
100
AcDbVisualStyle
  2
Dim
 70
    11
177
     3
291
     1
 70
    58
 90
        2
176
     1
 90
        2
176
     1
 90
        0
176
     1
 90
        0
176
     1
 40
0.6
176
     1
 40
30.0
176
     1
 62
     7
420
 16777215
176
     1
 90
        1
176
     1
 90
        4
176
     1
 62
     7
176
     1
 62
   257
176
     1
 90
        1
176
     1
 90
        1
176
     1
 40
1.0
176
     1
 90
        8
176
     1
 62
     7
176
     1
 40
1.0
176
     1
 90
        1
176
     1
 90
        6
176
     1
 90
        2
176
     1
 62
     7
176
     1
 90
        5
176
     1
 90
        0
176
     1
 90
        0
176
     1
290
     0
176
     1
 90
        1
176
     1
 40
-50.0
176
     1
 90
        0
176
     1
290
     0
176
     1
290
     1
176
     1
290
     1
176
     1
290
     0
176
     1
290
     0
176
     1
290
     0
176
     1
290
     0
176
     1
290
     0
176
     1
290
     0
176
     1
 90
       50
176
     1
 40
0.0
176
     1
 40
1.0
176
     1
 90
        0
176
     1
 62
    18
420
        0
176
     1
 90
       50
176
     1
 90
        3
176
     1
 62
     5
420
      255
176
     1
290
     0
176
     1
 90
       50
176
     1
 90
       50
176
     1
 90
       50
176
     1
290
     0
176
     1
 90
       50
176
     1
 62
   256
176
     0
 40
1.0
176
     0
 90
        2
176
     1
  1
strokes_ogs.tif
176
     1
290
     0
176
     1
 40
1.0
176
     1
 40
1.0
176
     1
  0
VISUALSTYLE
  5
3D
102
{ACAD_REACTORS
330
2A
102
}
330
2A
100
AcDbVisualStyle
  2
EdgeColorOff
 70
    22
177
     3
291
     1
 70
    58
 90
        2
176
     0
 90
        2
176
     0
 90
        0
176
     0
 90
        0
176
     0
 40
0.6
176
     0
 40
30.0
176
     0
 62
     7
420
 16777215
176
     0
 90
        1
176
     0
 90
        4
176
     0
 62
     7
176
     0
 62
   257
176
     0
 90
        1
176
     0
 90
        1
176
     0
 40
1.0
176
     0
 90
        8
176
     2
 62
     7
176
     0
 40
1.0
176
     0
 90
        1
176
     0
 90
        6
176
     0
 90
        2
176
     0
 62
     7
176
     0
 90
        5
176
     0
 90
        0
176
     0
 90
        0
176
     0
290
     0
176
     0
 90
        1
176
     0
 40
0.0
176
     0
 90
        0
176
     0
290
     0
176
     0
290
     1
176
     0
290
     1
176
     0
290
     0
176
     0
290
     0
176
     0
290
     0
176
     0
290
     0
176
     0
290
     0
176
     0
290
     0
176
     0
 90
       50
176
     0
 40
0.0
176
     0
 40
1.0
176
     0
 90
        0
176
     0
 62
    18
420
        0
176
     0
 90
       50
176
     0
 90
        3
176
     0
 62
     5
420
      255
176
     0
290
     0
176
     0
 90
       50
176
     0
 90
       50
176
     0
 90
       50
176
     0
290
     0
176
     0
 90
       50
176
     0
 62
   256
176
     0
 40
1.0
176
     0
 90
        2
176
     0
  1
strokes_ogs.tif
176
     0
290
     0
176
     0
 40
1.0
176
     0
 40
1.0
176
     0
  0
VISUALSTYLE
  5
39
102
{ACAD_REACTORS
330
2A
102
}
330
2A
100
AcDbVisualStyle
  2
Facepattern
 70
    15
177
     3
291
     1
 70
    58
 90
        2
176
     1
 90
        2
176
     1
 90
        0
176
     1
 90
        0
176
     1
 40
0.6
176
     1
 40
30.0
176
     1
 62
     7
420
 16777215
176
     1
 90
        1
176
     1
 90
        4
176
     1
 62
     7
176
     1
 62
   257
176
     1
 90
        1
176
     1
 90
        1
176
     1
 40
1.0
176
     1
 90
        8
176
     1
 62
     7
176
     1
 40
1.0
176
     1
 90
        1
176
     1
 90
        6
176
     1
 90
        2
176
     1
 62
     7
176
     1
 90
        5
176
     1
 90
        0
176
     1
 90
        0
176
     1
290
     0
176
     1
 90
        1
176
     1
 40
0.0
176
     1
 90
        0
176
     1
290
     0
176
     1
290
     1
176
     1
290
     1
176
     1
290
     0
176
     1
290
     0
176
     1
290
     0
176
     1
290
     0
176
     1
290
     0
176
     1
290
     0
176
     1
 90
       50
176
     1
 40
0.0
176
     1
 40
1.0
176
     1
 90
        0
176
     1
 62
    18
420
        0
176
     1
 90
       50
176
     1
 90
        3
176
     1
 62
     5
420
      255
176
     1
290
     0
176
     1
 90
       50
176
     1
 90
       50
176
     1
 90
       50
176
     1
290
     0
176
     1
 90
       50
176
     1
 62
   256
176
     0
 40
1.0
176
     0
 90
        2
176
     1
  1
strokes_ogs.tif
176
     1
290
     0
176
     1
 40
1.0
176
     1
 40
1.0
176
     1
  0
VISUALSTYLE
  5
2B
102
{ACAD_REACTORS
330
2A
102
}
330
2A
100
AcDbVisualStyle
  2
Flat
 70
     0
177
     3
291
     1
 70
    58
 90
        2
176
     1
 90
        1
176
     1
 90
        1
176
     1
 90
        2
176
     1
 40
0.6
176
     1
 40
30.0
176
     1
 62
     7
420
 16777215
176
     1
 90
        0
176
     1
 90
        0
176
     1
 62
     7
176
     1
 62
   257
176
     1
 90
        1
176
     1
 90
        1
176
     1
 40
1.0
176
     1
 90
        8
176
     1
 62
     7
176
     1
 40
1.0
176
     1
 90
        1
176
     1
 90
        6
176
     1
 90
        2
176
     1
 62
     7
176
     1
 90
        5
176
     1
 90
        0
176
     1
 90
        0
176
     1
290
     0
176
     1
 90
       13
176
     1
 40
0.0
176
     1
 90
        0
176
     1
290
     0
176
     1
290
     1
176
     1
290
     1
176
     1
290
     0
176
     1
290
     0
176
     1
290
     0
176
     1
290
     0
176
     1
290
     0
176
     1
290
     0
176
     1
 90
       50
176
     1
 40
0.0
176
     1
 40
1.0
176
     1
 90
        0
176
     1
 62
    18
420
        0
176
     1
 90
       50
176
     1
 90
        3
176
     1
 62
     5
420
      255
176
     1
290
     0
176
     1
 90
       50
176
     1
 90
       50
176
     1
 90
       50
176
     1
290
     0
176
     1
 90
       50
176
     1
 62
   256
176
     0
 40
1.0
176
     0
 90
        2
176
     1
  1
strokes_ogs.tif
176
     1
290
     0
176
     1
 40
1.0
176
     1
 40
1.0
176
     1
  0
VISUALSTYLE
  5
2C
102
{ACAD_REACTORS
330
2A
102
}
330
2A
100
AcDbVisualStyle
  2
FlatWithEdges
 70
     1
177
     3
291
     1
 70
    58
 90
        2
176
     1
 90
        1
176
     1
 90
        1
176
     1
 90
        2
176
     1
 40
0.6
176
     1
 40
30.0
176
     1
 62
     7
420
 16777215
176
     1
 90
        1
176
     1
 90
        0
176
     1
 62
     7
176
     1
 62
   257
176
     1
 90
        1
176
     1
 90
        1
176
     1
 40
1.0
176
     1
 90
        0
176
     1
 62
   257
176
     1
 40
1.0
176
     1
 90
        1
176
     1
 90
        6
176
     1
 90
        2
176
     1
 62
     7
176
     1
 90
        5
176
     1
 90
        0
176
     1
 90
        0
176
     1
290
     0
176
     1
 90
       13
176
     1
 40
0.0
176
     1
 90
        0
176
     1
290
     0
176
     1
290
     1
176
     1
290
     1
176
     1
290
     0
176
     1
290
     0
176
     1
290
     0
176
     1
290
     0
176
     1
290
     0
176
     1
290
     0
176
     1
 90
       50
176
     1
 40
0.0
176
     1
 40
1.0
176
     1
 90
        0
176
     1
 62
    18
420
        0
176
     1
 90
       50
176
     1
 90
        3
176
     1
 62
     5
420
      255
176
     1
290
     0
176
     1
 90
       50
176
     1
 90
       50
176
     1
 90
       50
176
     1
290
     0
176
     1
 90
       50
176
     1
 62
   256
176
     0
 40
1.0
176
     0
 90
        2
176
     1
  1
strokes_ogs.tif
176
     1
290
     0
176
     1
 40
1.0
176
     1
 40
1.0
176
     1
  0
VISUALSTYLE
  5
2D
102
{ACAD_REACTORS
330
2A
102
}
330
2A
100
AcDbVisualStyle
  2
Gouraud
 70
     2
177
     3
291
     1
 70
    58
 90
        2
176
     1
 90
        2
176
     1
 90
        1
176
     1
 90
        2
176
     1
 40
0.6
176
     1
 40
30.0
176
     1
 62
     7
420
 16777215
176
     1
 90
        0
176
     1
 90
        0
176
     1
 62
     7
176
     1
 62
   257
176
     1
 90
        1
176
     1
 90
        1
176
     1
 40
1.0
176
     1
 90
        0
176
     1
 62
     7
176
     1
 40
1.0
176
     1
 90
        1
176
     1
 90
        6
176
     1
 90
        2
176
     1
 62
     7
176
     1
 90
        5
176
     1
 90
        0
176
     1
 90
        0
176
     1
290
     0
176
     1
 90
       13
176
     1
 40
0.0
176
     1
 90
        0
176
     1
290
     0
176
     1
290
     1
176
     1
290
     1
176
     1
290
     0
176
     1
290
     0
176
     1
290
     0
176
     1
290
     0
176
     1
290
     0
176
     1
290
     0
176
     1
 90
       50
176
     1
 40
0.0
176
     1
 40
1.0
176
     1
 90
        0
176
     1
 62
    18
420
        0
176
     1
 90
       50
176
     1
 90
        3
176
     1
 62
     5
420
      255
176
     1
290
     0
176
     1
 90
       50
176
     1
 90
       50
176
     1
 90
       50
176
     1
290
     0
176
     1
 90
       50
176
     1
 62
   256
176
     0
 40
1.0
176
     0
 90
        2
176
     1
  1
strokes_ogs.tif
176
     1
290
     0
176
     1
 40
1.0
176
     1
 40
1.0
176
     1
  0
VISUALSTYLE
  5
2E
102
{ACAD_REACTORS
330
2A
102
}
330
2A
100
AcDbVisualStyle
  2
GouraudWithEdges
 70
     3
177
     3
291
     1
 70
    58
 90
        2
176
     1
 90
        2
176
     1
 90
        1
176
     1
 90
        2
176
     1
 40
0.6
176
     1
 40
30.0
176
     1
 62
     7
420
 16777215
176
     1
 90
        1
176
     1
 90
        0
176
     1
 62
     7
176
     1
 62
   257
176
     1
 90
        1
176
     1
 90
        1
176
     1
 40
1.0
176
     1
 90
        0
176
     1
 62
   257
176
     1
 40
1.0
176
     1
 90
        1
176
     1
 90
        6
176
     1
 90
        2
176
     1
 62
     7
176
     1
 90
        5
176
     1
 90
        0
176
     1
 90
        0
176
     1
290
     0
176
     1
 90
       13
176
     1
 40
0.0
176
     1
 90
        0
176
     1
290
     0
176
     1
290
     1
176
     1
290
     1
176
     1
290
     0
176
     1
290
     0
176
     1
290
     0
176
     1
290
     0
176
     1
290
     0
176
     1
290
     0
176
     1
 90
       50
176
     1
 40
0.0
176
     1
 40
1.0
176
     1
 90
        0
176
     1
 62
    18
420
        0
176
     1
 90
       50
176
     1
 90
        3
176
     1
 62
     5
420
      255
176
     1
290
     0
176
     1
 90
       50
176
     1
 90
       50
176
     1
 90
       50
176
     1
290
     0
176
     1
 90
       50
176
     1
 62
   256
176
     0
 40
1.0
176
     0
 90
        2
176
     1
  1
strokes_ogs.tif
176
     1
290
     0
176
     1
 40
1.0
176
     1
 40
1.0
176
     1
  0
VISUALSTYLE
  5
31
102
{ACAD_REACTORS
330
2A
102
}
330
2A
100
AcDbVisualStyle
  2
Hidden
 70
     6
177
     3
291
     0
 70
    58
 90
        1
176
     1
 90
        2
176
     1
 90
        2
176
     1
 90
        0
176
     1
 40
0.6
176
     1
 40
30.0
176
     1
 62
     7
420
 16777215
176
     1
 90
        2
176
     1
 90
        2
176
     1
 62
     7
176
     1
 62
   257
176
     1
 90
        2
176
     1
 90
        1
176
     1
 40
40.0
176
     1
 90
        0
176
     1
 62
   257
176
     1
 40
1.0
176
     1
 90
        1
176
     1
 90
        6
176
     1
 90
        2
176
     1
 62
     7
176
     1
 90
        3
176
     1
 90
        0
176
     1
 90
        0
176
     1
290
     0
176
     1
 90
        1
176
     1
 40
0.0
176
     1
 90
        0
176
     1
290
     0
176
     1
290
     1
176
     1
290
     1
176
     1
290
     0
176
     1
290
     0
176
     1
290
     0
176
     1
290
     0
176
     1
290
     0
176
     1
290
     0
176
     1
 90
       50
176
     1
 40
0.0
176
     1
 40
1.0
176
     1
 90
        0
176
     1
 62
    18
420
        0
176
     1
 90
       50
176
     1
 90
        3
176
     1
 62
     5
420
      255
176
     1
290
     0
176
     1
 90
       50
176
     1
 90
       50
176
     1
 90
       50
176
     1
290
     0
176
     1
 90
       50
176
     1
 62
   256
176
     0
 40
1.0
176
     0
 90
        2
176
     1
  1
strokes_ogs.tif
176
     1
290
     0
176
     1
 40
1.0
176
     1
 40
1.0
176
     1
  0
VISUALSTYLE
  5
3B
102
{ACAD_REACTORS
330
2A
102
}
330
2A
100
AcDbVisualStyle
  2
JitterOff
 70
    20
177
     3
291
     1
 70
    58
 90
        2
176
     0
 90
        2
176
     0
 90
        0
176
     0
 90
        0
176
     0
 40
0.6
176
     0
 40
30.0
176
     0
 62
     7
420
 16777215
176
     0
 90
        1
176
     0
 90
        4
176
     0
 62
     7
176
     0
 62
   257
176
     0
 90
        1
176
     0
 90
        1
176
     0
 40
1.0
176
     0
 90
       10
176
     2
 62
     7
176
     0
 40
1.0
176
     0
 90
        1
176
     0
 90
        6
176
     0
 90
        2
176
     0
 62
     7
176
     0
 90
        5
176
     0
 90
        0
176
     0
 90
        0
176
     0
290
     0
176
     0
 90
        1
176
     0
 40
0.0
176
     0
 90
        0
176
     0
290
     0
176
     0
290
     1
176
     0
290
     1
176
     0
290
     0
176
     0
290
     0
176
     0
290
     0
176
     0
290
     0
176
     0
290
     0
176
     0
290
     0
176
     0
 90
       50
176
     0
 40
0.0
176
     0
 40
1.0
176
     0
 90
        0
176
     0
 62
    18
420
        0
176
     0
 90
       50
176
     0
 90
        3
176
     0
 62
     5
420
      255
176
     0
290
     0
176
     0
 90
       50
176
     0
 90
       50
176
     0
 90
       50
176
     0
290
     0
176
     0
 90
       50
176
     0
 62
   256
176
     0
 40
1.0
176
     0
 90
        2
176
     0
  1
strokes_ogs.tif
176
     0
290
     0
176
     0
 40
1.0
176
     0
 40
1.0
176
     0
  0
VISUALSTYLE
  5
38
102
{ACAD_REACTORS
330
2A
102
}
330
2A
100
AcDbVisualStyle
  2
Linepattern
 70
    14
177
     3
291
     1
 70
    58
 90
        2
176
     1
 90
        2
176
     1
 90
        0
176
     1
 90
        0
176
     1
 40
0.6
176
     1
 40
30.0
176
     1
 62
     7
420
 16777215
176
     1
 90
        1
176
     1
 90
        4
176
     1
 62
     7
176
     1
 62
   257
176
     1
 90
        7
176
     1
 90
        7
176
     1
 40
1.0
176
     1
 90
        8
176
     1
 62
     7
176
     1
 40
1.0
176
     1
 90
        1
176
     1
 90
        6
176
     1
 90
        2
176
     1
 62
     7
176
     1
 90
        5
176
     1
 90
        0
176
     1
 90
        0
176
     1
290
     0
176
     1
 90
        1
176
     1
 40
0.0
176
     1
 90
        0
176
     1
290
     0
176
     1
290
     1
176
     1
290
     1
176
     1
290
     0
176
     1
290
     0
176
     1
290
     0
176
     1
290
     0
176
     1
290
     0
176
     1
290
     0
176
     1
 90
       50
176
     1
 40
0.0
176
     1
 40
1.0
176
     1
 90
        0
176
     1
 62
    18
420
        0
176
     1
 90
       50
176
     1
 90
        3
176
     1
 62
     5
420
      255
176
     1
290
     0
176
     1
 90
       50
176
     1
 90
       50
176
     1
 90
       50
176
     1
290
     0
176
     1
 90
       50
176
     1
 62
   256
176
     0
 40
1.0
176
     0
 90
        2
176
     1
  1
strokes_ogs.tif
176
     1
290
     0
176
     1
 40
1.0
176
     1
 40
1.0
176
     1
  0
VISUALSTYLE
  5
3C
102
{ACAD_REACTORS
330
2A
102
}
330
2A
100
AcDbVisualStyle
  2
OverhangOff
 70
    21
177
     3
291
     1
 70
    58
 90
        2
176
     0
 90
        2
176
     0
 90
        0
176
     0
 90
        0
176
     0
 40
0.6
176
     0
 40
30.0
176
     0
 62
     7
420
 16777215
176
     0
 90
        1
176
     0
 90
        4
176
     0
 62
     7
176
     0
 62
   257
176
     0
 90
        1
176
     0
 90
        1
176
     0
 40
1.0
176
     0
 90
        9
176
     2
 62
     7
176
     0
 40
1.0
176
     0
 90
        1
176
     0
 90
        6
176
     0
 90
        2
176
     0
 62
     7
176
     0
 90
        5
176
     0
 90
        0
176
     0
 90
        0
176
     0
290
     0
176
     0
 90
        1
176
     0
 40
0.0
176
     0
 90
        0
176
     0
290
     0
176
     0
290
     1
176
     0
290
     1
176
     0
290
     0
176
     0
290
     0
176
     0
290
     0
176
     0
290
     0
176
     0
290
     0
176
     0
290
     0
176
     0
 90
       50
176
     0
 40
0.0
176
     0
 40
1.0
176
     0
 90
        0
176
     0
 62
    18
420
        0
176
     0
 90
       50
176
     0
 90
        3
176
     0
 62
     5
420
      255
176
     0
290
     0
176
     0
 90
       50
176
     0
 90
       50
176
     0
 90
       50
176
     0
290
     0
176
     0
 90
       50
176
     0
 62
   256
176
     0
 40
1.0
176
     0
 90
        2
176
     0
  1
strokes_ogs.tif
176
     0
290
     0
176
     0
 40
1.0
176
     0
 40
1.0
176
     0
  0
VISUALSTYLE
  5
33
102
{ACAD_REACTORS
330
2A
102
}
330
2A
100
AcDbVisualStyle
  2
Realistic
 70
     8
177
     3
291
     0
 70
    58
 90
        2
176
     1
 90
        3
176
     1
 90
        0
176
     1
 90
        2
176
     1
 40
0.6
176
     1
 40
30.0
176
     1
 62
     7
420
 16777215
176
     1
 90
        0
176
     1
 90
        0
176
     1
 62
     7
176
     1
 62
   257
176
     1
 90
        1
176
     1
 90
        1
176
     1
 40
1.0
176
     1
 90
        8
176
     1
 62
   257
176
     1
 40
1.0
176
     1
 90
        1
176
     1
 90
        6
176
     1
 90
        2
176
     1
 62
     7
176
     1
 90
        3
176
     1
 90
        0
176
     1
 90
        0
176
     1
290
     0
176
     1
 90
       13
176
     1
 40
0.0
176
     1
 90
        0
176
     1
290
     0
176
     1
290
     1
176
     1
290
     1
176
     1
290
     0
176
     1
290
     0
176
     1
290
     0
176
     1
290
     0
176
     1
290
     0
176
     1
290
     0
176
     1
 90
       50
176
     1
 40
0.0
176
     1
 40
1.0
176
     1
 90
        0
176
     1
 62
    18
420
        0
176
     1
 90
       50
176
     1
 90
        3
176
     1
 62
     5
420
      255
176
     1
290
     0
176
     1
 90
       50
176
     1
 90
       50
176
     1
 90
       50
176
     1
290
     0
176
     1
 90
       50
176
     1
 62
   256
176
     0
 40
1.0
176
     0
 90
        2
176
     1
  1
strokes_ogs.tif
176
     1
290
     0
176
     1
 40
1.0
176
     1
 40
1.0
176
     1
  0
VISUALSTYLE
  5
42
102
{ACAD_REACTORS
330
2A
102
}
330
2A
100
AcDbVisualStyle
  2
Shaded
 70
    27
177
     3
291
     0
 70
    58
 90
        2
176
     1
 90
        2
176
     1
 90
        1
176
     1
 90
        2
176
     1
 40
0.6
176
     1
 40
30.0
176
     1
 62
     7
420
 16777215
176
     1
 90
        0
176
     1
 90
        4
176
     1
 62
     7
176
     1
 62
   257
176
     1
 90
        1
176
     1
 90
        1
176
     1
 40
1.0
176
     1
 90
        8
176
     1
 62
   257
176
     1
 40
1.0
176
     1
 90
        1
176
     1
 90
        6
176
     1
 90
        2
176
     1
 62
     8
420
  7895160
176
     1
 90
        3
176
     1
 90
        0
176
     1
 90
        0
176
     1
290
     0
176
     1
 90
        5
176
     1
 40
0.0
176
     1
 90
        0
176
     1
290
     0
176
     1
290
     1
176
     1
290
     1
176
     1
290
     0
176
     1
290
     0
176
     1
290
     0
176
     1
290
     0
176
     1
290
     0
176
     1
290
     0
176
     1
 90
       50
176
     1
 40
0.0
176
     1
 40
1.0
176
     1
 90
        0
176
     1
 62
    18
420
        0
176
     1
 90
       50
176
     1
 90
        3
176
     1
 62
     5
420
      255
176
     1
290
     0
176
     1
 90
       50
176
     1
 90
       50
176
     1
 90
       50
176
     1
290
     0
176
     1
 90
       50
176
     1
 62
   256
176
     0
 40
1.0
176
     0
 90
        2
176
     1
  1
strokes_ogs.tif
176
     1
290
     0
176
     1
 40
1.0
176
     1
 40
1.0
176
     1
  0
VISUALSTYLE
  5
41
102
{ACAD_REACTORS
330
2A
102
}
330
2A
100
AcDbVisualStyle
  2
Shaded with edges
 70
    26
177
     3
291
     0
 70
    58
 90
        2
176
     1
 90
        2
176
     1
 90
        1
176
     1
 90
        2
176
     1
 40
0.6
176
     1
 40
30.0
176
     1
 62
     7
420
 16777215
176
     1
 90
        1
176
     1
 90
       10
176
     1
 62
     7
176
     1
 62
   257
176
     1
 90
        2
176
     1
 90
        1
176
     1
 40
1.0
176
     1
 90
        8
176
     1
 62
   257
176
     1
 40
1.0
176
     1
 90
        1
176
     1
 90
        6
176
     1
 90
        2
176
     1
 62
     7
176
     1
 90
        3
176
     1
 90
        0
176
     1
 90
        0
176
     1
290
     0
176
     1
 90
        5
176
     1
 40
0.0
176
     1
 90
        0
176
     1
290
     0
176
     1
290
     1
176
     1
290
     1
176
     1
290
     0
176
     1
290
     0
176
     1
290
     0
176
     1
290
     0
176
     1
290
     0
176
     1
290
     0
176
     1
 90
       50
176
     1
 40
0.0
176
     1
 40
1.0
176
     1
 90
        0
176
     1
 62
    18
420
        0
176
     1
 90
       50
176
     1
 90
        3
176
     1
 62
     5
420
      255
176
     1
290
     0
176
     1
 90
       50
176
     1
 90
       50
176
     1
 90
       50
176
     1
290
     0
176
     1
 90
       50
176
     1
 62
   256
176
     0
 40
1.0
176
     0
 90
        2
176
     1
  1
strokes_ogs.tif
176
     1
290
     0
176
     1
 40
1.0
176
     1
 40
1.0
176
     1
  0
VISUALSTYLE
  5
3E
102
{ACAD_REACTORS
330
2A
102
}
330
2A
100
AcDbVisualStyle
  2
Shades of Gray
 70
    23
177
     3
291
     0
 70
    58
 90
        2
176
     1
 90
        2
176
     1
 90
        3
176
     1
 90
        0
176
     1
 40
0.6
176
     1
 40
30.0
176
     1
 62
     7
420
 16777215
176
     1
 90
        2
176
     1
 90
        2
176
     1
 62
     7
176
     1
 62
     7
176
     1
 90
        1
176
     1
 90
        1
176
     1
 40
40.0
176
     1
 90
        8
176
     1
 62
     7
176
     1
 40
1.0
176
     1
 90
        1
176
     1
 90
        6
176
     1
 90
        2
176
     1
 62
     7
176
     1
 90
        3
176
     1
 90
        0
176
     1
 90
        0
176
     1
290
     0
176
     1
 90
        1
176
     1
 40
0.0
176
     1
 90
        0
176
     1
290
     0
176
     1
290
     1
176
     1
290
     1
176
     1
290
     0
176
     1
290
     0
176
     1
290
     0
176
     1
290
     0
176
     1
290
     0
176
     1
290
     0
176
     1
 90
       50
176
     1
 40
0.0
176
     1
 40
1.0
176
     1
 90
        0
176
     1
 62
    18
420
        0
176
     1
 90
       50
176
     1
 90
        3
176
     1
 62
     5
420
      255
176
     1
290
     0
176
     1
 90
       50
176
     1
 90
       50
176
     1
 90
       50
176
     1
290
     0
176
     1
 90
       50
176
     1
 62
   256
176
     0
 40
1.0
176
     0
 90
        2
176
     1
  1
strokes_ogs.tif
176
     1
290
     0
176
     1
 40
1.0
176
     1
 40
1.0
176
     1
  0
VISUALSTYLE
  5
3F
102
{ACAD_REACTORS
330
2A
102
}
330
2A
100
AcDbVisualStyle
  2
Sketchy
 70
    24
177
     3
291
     0
 70
    58
 90
        1
176
     1
 90
        2
176
     1
 90
        2
176
     1
 90
        0
176
     1
 40
0.6
176
     1
 40
30.0
176
     1
 62
     7
420
 16777215
176
     1
 90
        2
176
     1
 90
        2
176
     1
 62
     7
176
     1
 62
     7
176
     1
 90
        1
176
     1
 90
        1
176
     1
 40
40.0
176
     1
 90
       11
176
     1
 62
     7
176
     1
 40
1.0
176
     1
 90
        1
176
     1
 90
        6
176
     1
 90
        2
176
     1
 62
     7
176
     1
 90
        6
176
     1
 90
        0
176
     1
 90
        0
176
     1
290
     0
176
     1
 90
        1
176
     1
 40
0.0
176
     1
 90
        0
176
     1
290
     0
176
     1
290
     1
176
     1
290
     1
176
     1
290
     0
176
     1
290
     0
176
     1
290
     0
176
     1
290
     0
176
     1
290
     0
176
     1
290
     0
176
     1
 90
       50
176
     1
 40
0.0
176
     1
 40
1.0
176
     1
 90
        0
176
     1
 62
    18
420
        0
176
     1
 90
       50
176
     1
 90
        3
176
     1
 62
     5
420
      255
176
     1
290
     0
176
     1
 90
       50
176
     1
 90
       50
176
     1
 90
       50
176
     1
290
     0
176
     1
 90
       50
176
     1
 62
   256
176
     0
 40
1.0
176
     0
 90
        2
176
     1
  1
strokes_ogs.tif
176
     1
290
     0
176
     1
 40
1.0
176
     1
 40
1.0
176
     1
  0
VISUALSTYLE
  5
37
102
{ACAD_REACTORS
330
2A
102
}
330
2A
100
AcDbVisualStyle
  2
Thicken
 70
    13
177
     3
291
     1
 70
    58
 90
        2
176
     1
 90
        2
176
     1
 90
        0
176
     1
 90
        0
176
     1
 40
0.6
176
     1
 40
30.0
176
     1
 62
     7
420
 16777215
176
     1
 90
        1
176
     1
 90
        4
176
     1
 62
     7
176
     1
 62
   257
176
     1
 90
        1
176
     1
 90
        1
176
     1
 40
1.0
176
     1
 90
       12
176
     1
 62
     7
176
     1
 40
1.0
176
     1
 90
        1
176
     1
 90
        6
176
     1
 90
        2
176
     1
 62
     7
176
     1
 90
        5
176
     1
 90
        0
176
     1
 90
        0
176
     1
290
     0
176
     1
 90
        1
176
     1
 40
0.0
176
     1
 90
        0
176
     1
290
     0
176
     1
290
     1
176
     1
290
     1
176
     1
290
     0
176
     1
290
     0
176
     1
290
     0
176
     1
290
     0
176
     1
290
     0
176
     1
290
     0
176
     1
 90
       50
176
     1
 40
0.0
176
     1
 40
1.0
176
     1
 90
        0
176
     1
 62
    18
420
        0
176
     1
 90
       50
176
     1
 90
        3
176
     1
 62
     5
420
      255
176
     1
290
     0
176
     1
 90
       50
176
     1
 90
       50
176
     1
 90
       50
176
     1
290
     0
176
     1
 90
       50
176
     1
 62
   256
176
     0
 40
1.0
176
     0
 90
        2
176
     1
  1
strokes_ogs.tif
176
     1
290
     0
176
     1
 40
1.0
176
     1
 40
1.0
176
     1
  0
VISUALSTYLE
  5
30
102
{ACAD_REACTORS
330
2A
102
}
330
2A
100
AcDbVisualStyle
  2
Wireframe
 70
     5
177
     3
291
     0
 70
    58
 90
        0
176
     1
 90
        2
176
     1
 90
        0
176
     1
 90
        0
176
     1
 40
0.6
176
     1
 40
30.0
176
     1
 62
     7
420
 16777215
176
     1
 90
        1
176
     1
 90
        4
176
     1
 62
     7
176
     1
 62
   257
176
     1
 90
        1
176
     1
 90
        1
176
     1
 40
1.0
176
     1
 90
        0
176
     1
 62
   257
176
     1
 40
1.0
176
     1
 90
        1
176
     1
 90
        6
176
     1
 90
        2
176
     1
 62
     7
176
     1
 90
        3
176
     1
 90
        0
176
     1
 90
        0
176
     1
290
     0
176
     1
 90
        1
176
     1
 40
0.0
176
     1
 90
        0
176
     1
290
     0
176
     1
290
     1
176
     1
290
     1
176
     1
290
     0
176
     1
290
     0
176
     1
290
     0
176
     1
290
     0
176
     1
290
     0
176
     1
290
     0
176
     1
 90
       50
176
     1
 40
0.0
176
     1
 40
1.0
176
     1
 90
        0
176
     1
 62
    18
420
        0
176
     1
 90
       50
176
     1
 90
        3
176
     1
 62
     5
420
      255
176
     1
290
     0
176
     1
 90
       50
176
     1
 90
       50
176
     1
 90
       50
176
     1
290
     0
176
     1
 90
       50
176
     1
 62
   256
176
     0
 40
1.0
176
     0
 90
        2
176
     1
  1
strokes_ogs.tif
176
     1
290
     0
176
     1
 40
1.0
176
     1
 40
1.0
176
     1
  0
VISUALSTYLE
  5
40
102
{ACAD_REACTORS
330
2A
102
}
330
2A
100
AcDbVisualStyle
  2
X-Ray
 70
    25
177
     3
291
     0
 70
    58
 90
        2
176
     1
 90
        2
176
     1
 90
        1
176
     1
 90
        1
176
     1
 40
0.5
176
     1
 40
30.0
176
     1
 62
     7
420
 16777215
176
     1
 90
        1
176
     1
 90
        0
176
     1
 62
     7
176
     1
 62
   257
176
     1
 90
        1
176
     1
 90
        1
176
     1
 40
1.0
176
     1
 90
        8
176
     1
 62
     7
176
     1
 40
1.0
176
     1
 90
        1
176
     1
 90
        6
176
     1
 90
        2
176
     1
 62
     7
176
     1
 90
        3
176
     1
 90
        0
176
     1
 90
        0
176
     1
290
     0
176
     1
 90
       13
176
     1
 40
0.0
176
     1
 90
        0
176
     1
290
     0
176
     1
290
     1
176
     1
290
     1
176
     1
290
     0
176
     1
290
     0
176
     1
290
     0
176
     1
290
     0
176
     1
290
     0
176
     1
290
     0
176
     1
 90
       50
176
     1
 40
0.0
176
     1
 40
1.0
176
     1
 90
        0
176
     1
 62
    18
420
        0
176
     1
 90
       50
176
     1
 90
        3
176
     1
 62
     5
420
      255
176
     1
290
     0
176
     1
 90
       50
176
     1
 90
       50
176
     1
 90
       50
176
     1
290
     0
176
     1
 90
       50
176
     1
 62
   256
176
     0
 40
1.0
176
     0
 90
        2
176
     1
  1
strokes_ogs.tif
176
     1
290
     0
176
     1
 40
1.0
176
     1
 40
1.0
176
     1
  0
DICTIONARYVAR
  5
1EF
102
{ACAD_REACTORS
330
1EE
102
}
330
1EE
100
DictionaryVariables
280
     0
  1
1:1
  0
DICTIONARYVAR
  5
1F4
102
{ACAD_REACTORS
330
1EE
102
}
330
1EE
100
DictionaryVariables
280
     0
  1
Standard
  0
DICTIONARYVAR
  5
1F3
102
{ACAD_REACTORS
330
1EE
102
}
330
1EE
100
DictionaryVariables
280
     0
  1
Standard
  0
DICTIONARY
  5
1F0
330
6A
100
AcDbDictionary
280
     1
281
     1
  3
ACAD_ROUNDTRIP_2008_TABLESTYLE_CELLSTYLEMAP
360
1F1
  0
CELLSTYLEMAP
  5
1F1
102
{ACAD_REACTORS
330
1F0
102
}
330
1F0
100
AcDbCellStyleMap
 90
        3
300
CELLSTYLE
  1
TABLEFORMAT_BEGIN
 90
        5
170
     1
 91
        0
 92
    32768
 62
   257
 93
        1
300
CONTENTFORMAT
  1
CONTENTFORMAT_BEGIN
 90
        0
 91
        0
 92
        4
 93
        0
300

 40
0.0
140
1.0
 94
        5
 62
     0
340
11
144
0.25
309
CONTENTFORMAT_END
171
     1
301
MARGIN
  1
CELLMARGIN_BEGIN
 40
0.06
 40
0.06
 40
0.06
 40
0.06
 40
0.06
 40
0.06
309
CELLMARGIN_END
 94
        6
 95
        1
302
GRIDFORMAT
  1
GRIDFORMAT_BEGIN
 90
        0
 91
        1
 62
     0
 92
       -2
340
14
 93
        0
 40
0.045
309
GRIDFORMAT_END
 95
        2
302
GRIDFORMAT
  1
GRIDFORMAT_BEGIN
 90
        0
 91
        1
 62
     0
 92
       -2
340
14
 93
        0
 40
0.045
309
GRIDFORMAT_END
 95
        4
302
GRIDFORMAT
  1
GRIDFORMAT_BEGIN
 90
        0
 91
        1
 62
     0
 92
       -2
340
14
 93
        0
 40
0.045
309
GRIDFORMAT_END
 95
        8
302
GRIDFORMAT
  1
GRIDFORMAT_BEGIN
 90
        0
 91
        1
 62
     0
 92
       -2
340
14
 93
        0
 40
0.045
309
GRIDFORMAT_END
 95
       16
302
GRIDFORMAT
  1
GRIDFORMAT_BEGIN
 90
        0
 91
        1
 62
     0
 92
       -2
340
14
 93
        0
 40
0.045
309
GRIDFORMAT_END
 95
       32
302
GRIDFORMAT
  1
GRIDFORMAT_BEGIN
 90
        0
 91
        1
 62
     0
 92
       -2
340
14
 93
        0
 40
0.045
309
GRIDFORMAT_END
309
TABLEFORMAT_END
  1
CELLSTYLE_BEGIN
 90
        1
 91
        1
300
_TITLE
309
CELLSTYLE_END
300
CELLSTYLE
  1
TABLEFORMAT_BEGIN
 90
        5
170
     1
 91
        0
 92
        0
 62
   257
 93
        1
300
CONTENTFORMAT
  1
CONTENTFORMAT_BEGIN
 90
        0
 91
        0
 92
        4
 93
        0
300

 40
0.0
140
1.0
 94
        5
 62
     0
340
11
144
0.18
309
CONTENTFORMAT_END
171
     1
301
MARGIN
  1
CELLMARGIN_BEGIN
 40
0.06
 40
0.06
 40
0.06
 40
0.06
 40
0.06
 40
0.06
309
CELLMARGIN_END
 94
        6
 95
        1
302
GRIDFORMAT
  1
GRIDFORMAT_BEGIN
 90
        0
 91
        1
 62
     0
 92
       -2
340
14
 93
        0
 40
0.045
309
GRIDFORMAT_END
 95
        2
302
GRIDFORMAT
  1
GRIDFORMAT_BEGIN
 90
        0
 91
        1
 62
     0
 92
       -2
340
14
 93
        0
 40
0.045
309
GRIDFORMAT_END
 95
        4
302
GRIDFORMAT
  1
GRIDFORMAT_BEGIN
 90
        0
 91
        1
 62
     0
 92
       -2
340
14
 93
        0
 40
0.045
309
GRIDFORMAT_END
 95
        8
302
GRIDFORMAT
  1
GRIDFORMAT_BEGIN
 90
        0
 91
        1
 62
     0
 92
       -2
340
14
 93
        0
 40
0.045
309
GRIDFORMAT_END
 95
       16
302
GRIDFORMAT
  1
GRIDFORMAT_BEGIN
 90
        0
 91
        1
 62
     0
 92
       -2
340
14
 93
        0
 40
0.045
309
GRIDFORMAT_END
 95
       32
302
GRIDFORMAT
  1
GRIDFORMAT_BEGIN
 90
        0
 91
        1
 62
     0
 92
       -2
340
14
 93
        0
 40
0.045
309
GRIDFORMAT_END
309
TABLEFORMAT_END
  1
CELLSTYLE_BEGIN
 90
        2
 91
        1
300
_HEADER
309
CELLSTYLE_END
300
CELLSTYLE
  1
TABLEFORMAT_BEGIN
 90
        5
170
     1
 91
        0
 92
        0
 62
   257
 93
        1
300
CONTENTFORMAT
  1
CONTENTFORMAT_BEGIN
 90
        0
 91
        0
 92
        4
 93
        0
300

 40
0.0
140
1.0
 94
        2
 62
     0
340
11
144
0.18
309
CONTENTFORMAT_END
171
     1
301
MARGIN
  1
CELLMARGIN_BEGIN
 40
0.06
 40
0.06
 40
0.06
 40
0.06
 40
0.06
 40
0.06
309
CELLMARGIN_END
 94
        6
 95
        1
302
GRIDFORMAT
  1
GRIDFORMAT_BEGIN
 90
        0
 91
        1
 62
     0
 92
       -2
340
14
 93
        0
 40
0.045
309
GRIDFORMAT_END
 95
        2
302
GRIDFORMAT
  1
GRIDFORMAT_BEGIN
 90
        0
 91
        1
 62
     0
 92
       -2
340
14
 93
        0
 40
0.045
309
GRIDFORMAT_END
 95
        4
302
GRIDFORMAT
  1
GRIDFORMAT_BEGIN
 90
        0
 91
        1
 62
     0
 92
       -2
340
14
 93
        0
 40
0.045
309
GRIDFORMAT_END
 95
        8
302
GRIDFORMAT
  1
GRIDFORMAT_BEGIN
 90
        0
 91
        1
 62
     0
 92
       -2
340
14
 93
        0
 40
0.045
309
GRIDFORMAT_END
 95
       16
302
GRIDFORMAT
  1
GRIDFORMAT_BEGIN
 90
        0
 91
        1
 62
     0
 92
       -2
340
14
 93
        0
 40
0.045
309
GRIDFORMAT_END
 95
       32
302
GRIDFORMAT
  1
GRIDFORMAT_BEGIN
 90
        0
 91
        1
 62
     0
 92
       -2
340
14
 93
        0
 40
0.045
309
GRIDFORMAT_END
309
TABLEFORMAT_END
  1
CELLSTYLE_BEGIN
 90
        3
 91
        2
300
_DATA
309
CELLSTYLE_END
  0
ENDSEC
  0
EOF