0
SECTION
  2
HEADER
  9
$ACADVER
  1
AC1027
  9
$ACADMAINTVER
 70
     8
  9
$DWGCODEPAGE
  3
ANSI_1252
  9
$REQUIREDVERSIONS
160
                 0
  9
$COMMENTS
  1
File was created by Cadenas
  9
$CUSTOMPROPERTYTAG
  1
NN
  9
$CUSTOMPROPERTY
  1
Set Screw Intermediate Duty Narrow Slot Take Up
  9
$CUSTOMPROPERTYTAG
  1
NT
  9
$CUSTOMPROPERTY
  1
VSC Intermediate Duty Narrow Slot Take-Up Bearings
  9
$CUSTOMPROPERTYTAG
  1
NB
  9
$CUSTOMPROPERTY
  1
125533
  9
$CUSTOMPROPERTYTAG
  1
NBSYN
  9
$CUSTOMPROPERTY
  1
$PN.
  9
$CUSTOMPROPERTYTAG
  1
LINA
  9
$CUSTOMPROPERTY
  1
125533
  9
$CUSTOMPROPERTYTAG
  1
RS
  9
$CUSTOMPROPERTY
  1
204
  9
$CUSTOMPROPERTYTAG
  1
SS
  9
$CUSTOMPROPERTY
  1
3/4
  9
$CUSTOMPROPERTYTAG
  1
PN
  9
$CUSTOMPROPERTY
  1
125533
  9
$CUSTOMPROPERTYTAG
  1
DESCRIPTION
  9
$CUSTOMPROPERTY
  1
NSTU-VSC-012
  9
$CUSTOMPROPERTYTAG
  1
WEIGHT
  9
$CUSTOMPROPERTY
  1
1.25
  9
$CUSTOMPROPERTYTAG
  1
A
  9
$CUSTOMPROPERTY
  1
1.23
  9
$CUSTOMPROPERTYTAG
  1
B
  9
$CUSTOMPROPERTY
  1
3.50
  9
$CUSTOMPROPERTYTAG
  1
C
  9
$CUSTOMPROPERTY
  1
0.250
  9
$CUSTOMPROPERTYTAG
  1
D
  9
$CUSTOMPROPERTY
  1
1.50
  9
$CUSTOMPROPERTYTAG
  1
E
  9
$CUSTOMPROPERTY
  1
2.00
  9
$CUSTOMPROPERTYTAG
  1
F
  9
$CUSTOMPROPERTY
  1
3/4
  9
$CUSTOMPROPERTYTAG
  1
G
  9
$CUSTOMPROPERTY
  1
0.44
  9
$CUSTOMPROPERTYTAG
  1
H
  9
$CUSTOMPROPERTY
  1
0.88
  9
$CUSTOMPROPERTYTAG
  1
J
  9
$CUSTOMPROPERTY
  1
1.38
  9
$CUSTOMPROPERTYTAG
  1
L
  9
$CUSTOMPROPERTY
  1
1.12
  9
$CUSTOMPROPERTYTAG
  1
M
  9
$CUSTOMPROPERTY
  1
2.635/2.605
  9
$CUSTOMPROPERTYTAG
  1
N
  9
$CUSTOMPROPERTY
  1
3.13
  9
$CUSTOMPROPERTYTAG
  1
P
  9
$CUSTOMPROPERTY
  1
0.32
  9
$CUSTOMPROPERTYTAG
  1
R
  9
$CUSTOMPROPERTY
  1
0.50
  9
$CUSTOMPROPERTYTAG
  1
S
  9
$CUSTOMPROPERTY
  1
0.73
  9
$CUSTOMPROPERTYTAG
  1
COMPANY
  9
$CUSTOMPROPERTY
  1
baldor
  9
$INSBASE
 10
0.0
 20
0.0
 30
0.0
  9
$EXTMIN
 10
1.000000000000000E+20
 20
1.000000000000000E+20
 30
1.000000000000000E+20
  9
$EXTMAX
 10
-1.000000000000000E+20
 20
-1.000000000000000E+20
 30
-1.000000000000000E+20
  9
$LIMMIN
 10
0.0
 20
0.0
  9
$LIMMAX
 10
12.0
 20
9.0
  9
$ORTHOMODE
 70
     0
  9
$REGENMODE
 70
     1
  9
$FILLMODE
 70
     1
  9
$QTEXTMODE
 70
     0
  9
$MIRRTEXT
 70
     1
  9
$LTSCALE
 40
1.0
  9
$ATTMODE
 70
     1
  9
$TEXTSIZE
 40
0.2
  9
$TRACEWID
 40
0.05
  9
$TEXTSTYLE
  7
Standard
  9
$CLAYER
  8
0
  9
$CELTYPE
  6
ByLayer
  9
$CECOLOR
 62
   256
  9
$CELTSCALE
 40
1.0
  9
$DISPSILH
 70
     0
  9
$DIMSCALE
 40
1.0
  9
$DIMASZ
 40
0.18
  9
$DIMEXO
 40
0.0625
  9
$DIMDLI
 40
0.38
  9
$DIMRND
 40
0.0
  9
$DIMDLE
 40
0.0
  9
$DIMEXE
 40
0.18
  9
$DIMTP
 40
0.0
  9
$DIMTM
 40
0.0
  9
$DIMTXT
 40
0.18
  9
$DIMCEN
 40
0.09
  9
$DIMTSZ
 40
0.0
  9
$DIMTOL
 70
     0
  9
$DIMLIM
 70
     0
  9
$DIMTIH
 70
     1
  9
$DIMTOH
 70
     1
  9
$DIMSE1
 70
     0
  9
$DIMSE2
 70
     0
  9
$DIMTAD
 70
     0
  9
$DIMZIN
 70
     0
  9
$DIMBLK
  1

  9
$DIMASO
 70
     1
  9
$DIMSHO
 70
     1
  9
$DIMPOST
  1

  9
$DIMAPOST
  1

  9
$DIMALT
 70
     0
  9
$DIMALTD
 70
     2
  9
$DIMALTF
 40
25.4
  9
$DIMLFAC
 40
1.0
  9
$DIMTOFL
 70
     0
  9
$DIMTVP
 40
0.0
  9
$DIMTIX
 70
     0
  9
$DIMSOXD
 70
     0
  9
$DIMSAH
 70
     0
  9
$DIMBLK1
  1

  9
$DIMBLK2
  1

  9
$DIMSTYLE
  2
Standard
  9
$DIMCLRD
 70
     0
  9
$DIMCLRE
 70
     0
  9
$DIMCLRT
 70
     0
  9
$DIMTFAC
 40
1.0
  9
$DIMGAP
 40
0.09
  9
$DIMJUST
 70
     0
  9
$DIMSD1
 70
     0
  9
$DIMSD2
 70
     0
  9
$DIMTOLJ
 70
     1
  9
$DIMTZIN
 70
     0
  9
$DIMALTZ
 70
     0
  9
$DIMALTTZ
 70
     0
  9
$DIMUPT
 70
     0
  9
$DIMDEC
 70
     4
  9
$DIMTDEC
 70
     4
  9
$DIMALTU
 70
     2
  9
$DIMALTTD
 70
     2
  9
$DIMTXSTY
  7
Standard
  9
$DIMAUNIT
 70
     0
  9
$DIMADEC
 70
     0
  9
$DIMALTRND
 40
0.0
  9
$DIMAZIN
 70
     0
  9
$DIMDSEP
 70
    46
  9
$DIMATFIT
 70
     3
  9
$DIMFRAC
 70
     0
  9
$DIMLDRBLK
  1

  9
$DIMLUNIT
 70
     2
  9
$DIMLWD
 70
    -2
  9
$DIMLWE
 70
    -2
  9
$DIMTMOVE
 70
     0
  9
$DIMFXL
 40
1.0
  9
$DIMFXLON
 70
     0
  9
$DIMJOGANG
 40
0.7853981633974483
  9
$DIMTFILL
 70
     0
  9
$DIMTFILLCLR
 70
     0
  9
$DIMARCSYM
 70
     0
  9
$DIMLTYPE
  6

  9
$DIMLTEX1
  6

  9
$DIMLTEX2
  6

  9
$DIMTXTDIRECTION
 70
     0
  9
$LUNITS
 70
     2
  9
$LUPREC
 70
     4
  9
$SKETCHINC
 40
0.1
  9
$FILLETRAD
 40
0.5
  9
$AUNITS
 70
     0
  9
$AUPREC
 70
     0
  9
$MENU
  1
.
  9
$ELEVATION
 40
0.0
  9
$PELEVATION
 40
0.0
  9
$THICKNESS
 40
0.0
  9
$LIMCHECK
 70
     0
  9
$CHAMFERA
 40
0.0
  9
$CHAMFERB
 40
0.0
  9
$CHAMFERC
 40
0.0
  9
$CHAMFERD
 40
0.0
  9
$SKPOLY
 70
     0
  9
$TDCREATE
 40
2458168.965772176
  9
$TDUCREATE
 40
2458168.924105509
  9
$TDUPDATE
 40
2458168.965772176
  9
$TDUUPDATE
 40
2458168.924105509
  9
$TDINDWG
 40
0.0000000116
  9
$TDUSRTIMER
 40
0.0000000116
  9
$USRTIMER
 70
     1
  9
$ANGBASE
 50
0.0
  9
$ANGDIR
 70
     0
  9
$PDMODE
 70
     0
  9
$PDSIZE
 40
0.0
  9
$PLINEWID
 40
0.0
  9
$SPLFRAME
 70
     0
  9
$SPLINETYPE
 70
     6
  9
$SPLINESEGS
 70
     8
  9
$HANDSEED
  5
206
  9
$SURFTAB1
 70
     6
  9
$SURFTAB2
 70
     6
  9
$SURFTYPE
 70
     6
  9
$SURFU
 70
     6
  9
$SURFV
 70
     6
  9
$UCSBASE
  2

  9
$UCSNAME
  2

  9
$UCSORG
 10
0.0
 20
0.0
 30
0.0
  9
$UCSXDIR
 10
1.0
 20
0.0
 30
0.0
  9
$UCSYDIR
 10
0.0
 20
1.0
 30
0.0
  9
$UCSORTHOREF
  2

  9
$UCSORTHOVIEW
 70
     0
  9
$UCSORGTOP
 10
0.0
 20
0.0
 30
0.0
  9
$UCSORGBOTTOM
 10
0.0
 20
0.0
 30
0.0
  9
$UCSORGLEFT
 10
0.0
 20
0.0
 30
0.0
  9
$UCSORGRIGHT
 10
0.0
 20
0.0
 30
0.0
  9
$UCSORGFRONT
 10
0.0
 20
0.0
 30
0.0
  9
$UCSORGBACK
 10
0.0
 20
0.0
 30
0.0
  9
$PUCSBASE
  2

  9
$PUCSNAME
  2

  9
$PUCSORG
 10
0.0
 20
0.0
 30
0.0
  9
$PUCSXDIR
 10
1.0
 20
0.0
 30
0.0
  9
$PUCSYDIR
 10
0.0
 20
1.0
 30
0.0
  9
$PUCSORTHOREF
  2

  9
$PUCSORTHOVIEW
 70
     0
  9
$PUCSORGTOP
 10
0.0
 20
0.0
 30
0.0
  9
$PUCSORGBOTTOM
 10
0.0
 20
0.0
 30
0.0
  9
$PUCSORGLEFT
 10
0.0
 20
0.0
 30
0.0
  9
$PUCSORGRIGHT
 10
0.0
 20
0.0
 30
0.0
  9
$PUCSORGFRONT
 10
0.0
 20
0.0
 30
0.0
  9
$PUCSORGBACK
 10
0.0
 20
0.0
 30
0.0
  9
$USERI1
 70
     0
  9
$USERI2
 70
     0
  9
$USERI3
 70
     0
  9
$USERI4
 70
     0
  9
$USERI5
 70
     0
  9
$USERR1
 40
0.0
  9
$USERR2
 40
0.0
  9
$USERR3
 40
0.0
  9
$USERR4
 40
0.0
  9
$USERR5
 40
0.0
  9
$WORLDVIEW
 70
     1
  9
$SHADEDGE
 70
     3
  9
$SHADEDIF
 70
    70
  9
$TILEMODE
 70
     1
  9
$MAXACTVP
 70
    64
  9
$PINSBASE
 10
0.0
 20
0.0
 30
0.0
  9
$PLIMCHECK
 70
     0
  9
$PEXTMIN
 10
1.000000000000000E+20
 20
1.000000000000000E+20
 30
1.000000000000000E+20
  9
$PEXTMAX
 10
-1.000000000000000E+20
 20
-1.000000000000000E+20
 30
-1.000000000000000E+20
  9
$PLIMMIN
 10
0.0
 20
0.0
  9
$PLIMMAX
 10
12.0
 20
9.0
  9
$UNITMODE
 70
     0
  9
$VISRETAIN
 70
     1
  9
$PLINEGEN
 70
     0
  9
$PSLTSCALE
 70
     1
  9
$TREEDEPTH
 70
  3020
  9
$CMLSTYLE
  2
Standard
  9
$CMLJUST
 70
     0
  9
$CMLSCALE
 40
1.0
  9
$PROXYGRAPHICS
 70
     1
  9
$MEASUREMENT
 70
     0
  9
$CELWEIGHT
370
    -1
  9
$ENDCAPS
280
     0
  9
$JOINSTYLE
280
     0
  9
$LWDISPLAY
290
     0
  9
$INSUNITS
 70
     1
  9
$HYPERLINKBASE
  1

  9
$STYLESHEET
  1

  9
$XEDIT
290
     1
  9
$CEPSNTYPE
380
     0
  9
$PSTYLEMODE
290
     1
  9
$FINGERPRINTGUID
  2
{0AE208FF-6220-4D2C-82E2-24B141B9F38B}
  9
$VERSIONGUID
  2
{FAEB1C32-E019-11D5-929B-00C0DF256EC4}
  9
$EXTNAMES
290
     1
  9
$PSVPSCALE
 40
0.0
  9
$OLESTARTUP
290
     0
  9
$SORTENTS
280
   127
  9
$INDEXCTL
280
     0
  9
$HIDETEXT
280
     1
  9
$XCLIPFRAME
280
     2
  9
$HALOGAP
280
     0
  9
$OBSCOLOR
 70
   257
  9
$OBSLTYPE
280
     0
  9
$INTERSECTIONDISPLAY
280
     0
  9
$INTERSECTIONCOLOR
 70
   257
  9
$DIMASSOC
280
     2
  9
$PROJECTNAME
  1

  9
$CAMERADISPLAY
290
     0
  9
$LENSLENGTH
 40
50.0
  9
$CAMERAHEIGHT
 40
0.0
  9
$STEPSPERSEC
 40
2.0
  9
$STEPSIZE
 40
6.0
  9
$3DDWFPREC
 40
2.0
  9
$PSOLWIDTH
 40
0.25
  9
$PSOLHEIGHT
 40
4.0
  9
$LOFTANG1
 40
1.570796326794897
  9
$LOFTANG2
 40
1.570796326794897
  9
$LOFTMAG1
 40
0.0
  9
$LOFTMAG2
 40
0.0
  9
$LOFTPARAM
 70
     7
  9
$LOFTNORMALS
280
     1
  9
$LATITUDE
 40
37.795
  9
$LONGITUDE
 40
-122.394
  9
$NORTHDIRECTION
 40
0.0
  9
$TIMEZONE
 70
 -8000
  9
$LIGHTGLYPHDISPLAY
280
     1
  9
$TILEMODELIGHTSYNCH
280
     1
  9
$CMATERIAL
347
44
  9
$SOLIDHIST
280
     0
  9
$SHOWHIST
280
     1
  9
$DWFFRAME
280
     2
  9
$DGNFRAME
280
     2
  9
$REALWORLDSCALE
290
     1
  9
$INTERFERECOLOR
 62
   256
  9
$CSHADOW
280
     0
  9
$SHADOWPLANELOCATION
 40
0.0
  0
ENDSEC
  0
SECTION
  2
CLASSES
  0
CLASS
  1
ACDBDICTIONARYWDFLT
  2
AcDbDictionaryWithDefault
  3
ObjectDBX Classes
 90
        0
 91
        4
280
     0
281
     0
  0
CLASS
  1
VISUALSTYLE
  2
AcDbVisualStyle
  3
ObjectDBX Classes
 90
     4095
 91
        4
280
     0
281
     0
  0
CLASS
  1
MATERIAL
  2
AcDbMaterial
  3
ObjectDBX Classes
 90
     1153
 91
        4
280
     0
281
     0
  0
CLASS
  1
SCALE
  2
AcDbScale
  3
ObjectDBX Classes
 90
     1153
 91
        4
280
     0
281
     0
  0
CLASS
  1
TABLESTYLE
  2
AcDbTableStyle
  3
ObjectDBX Classes
 90
     4095
 91
        4
280
     0
281
     0
  0
CLASS
  1
MLEADERSTYLE
  2
AcDbMLeaderStyle
  3
ACDB_MLEADERSTYLE_CLASS
 90
     4095
 91
        4
280
     0
281
     0
  0
CLASS
  1
SUN
  2
AcDbSun
  3
SCENEOE
 90
     1153
 91
        4
280
     0
281
     0
  0
CLASS
  1
DICTIONARYVAR
  2
AcDbDictionaryVar
  3
ObjectDBX Classes
 90
        0
 91
        4
280
     0
281
     0
  0
CLASS
  1
CELLSTYLEMAP
  2
AcDbCellStyleMap
  3
ObjectDBX Classes
 90
     1152
 91
        4
280
     0
281
     0
  0
ENDSEC
  0
SECTION
  2
TABLES
  0
TABLE
  2
VPORT
  5
8
330
0
100
AcDbSymbolTable
 70
     1
  0
VPORT
  5
29
330
8
100
AcDbSymbolTableRecord
100
AcDbViewportTableRecord
  2
*Active
 70
     0
 10
0.0
 20
0.0
 11
1.0
 21
1.0
 12
0.2760778629999727
 22
-0.0162500000000003
 13
0.0
 23
0.0
 14
0.5
 24
0.5
 15
0.5
 25
0.5
 16
0.0
 26
0.0
 36
1.0
 17
0.0
 27
0.0
 37
0.0
 40
1.58151
 41
2.543904723637578
 42
50.0
 43
0.0
 44
0.0
 50
0.0
 51
0.0
 71
     0
 72
   100
 73
     1
 74
     3
 75
     0
 76
     0
 77
     0
 78
     0
281
     0
 65
     1
110
0.0
120
0.0
130
0.0
111
1.0
121
0.0
131
0.0
112
0.0
122
1.0
132
0.0
 79
     0
146
0.0
348
2F
 60
     3
 61
     5
292
     1
282
     1
141
0.0
142
0.0
 63
   250
361
6D
  0
ENDTAB
  0
TABLE
  2
LTYPE
  5
5
330
0
100
AcDbSymbolTable
 70
     3
  0
LTYPE
  5
14
330
5
100
AcDbSymbolTableRecord
100
AcDbLinetypeTableRecord
  2
ByBlock
 70
     0
  3

 72
    65
 73
     0
 40
0.0
  0
LTYPE
  5
15
330
5
100
AcDbSymbolTableRecord
100
AcDbLinetypeTableRecord
  2
ByLayer
 70
     0
  3

 72
    65
 73
     0
 40
0.0
  0
LTYPE
  5
16
330
5
100
AcDbSymbolTableRecord
100
AcDbLinetypeTableRecord
  2
Continuous
 70
     0
  3
Solid line
 72
    65
 73
     0
 40
0.0
  0
LTYPE
  5
9E
330
5
100
AcDbSymbolTableRecord
100
AcDbLinetypeTableRecord
  2
Dashed
 70
     0
  3

 72
    65
 73
     2
 40
2.0
 49
1.0
 74
     0
 49
-1.0
 74
     0
  0
LTYPE
  5
16C
330
5
100
AcDbSymbolTableRecord
100
AcDbLinetypeTableRecord
  2
Center
 70
     0
  3

 72
    65
 73
     4
 40
1.5
 49
0.45
 74
     0
 49
-0.5
 74
     0
 49
0.05
 74
     0
 49
-0.5
 74
     0
  0
ENDTAB
  0
TABLE
  2
LAYER
  5
2
330
0
100
AcDbSymbolTable
 70
     7
  0
LAYER
  5
10
330
2
100
AcDbSymbolTableRecord
100
AcDbLayerTableRecord
  2
0
 70
     0
 62
     7
  6
Continuous
370
    -3
390
F
347
46
348
0
  0
LAYER
  5
72
330
2
100
AcDbSymbolTableRecord
100
AcDbLayerTableRecord
  2
AM_6
 70
     0
 62
    -2
  6
Continuous
370
    35
390
F
347
46
348
0
  0
LAYER
  5
9F
330
2
100
AcDbSymbolTableRecord
100
AcDbLayerTableRecord
  2
AM_9
 70
     0
 62
     6
  6
Dashed
370
    25
390
F
347
46
348
0
  0
LAYER
  5
DC
330
2
100
AcDbSymbolTableRecord
100
AcDbLayerTableRecord
  2
AM_4
 70
     0
 62
     7
  6
Continuous
370
    50
390
F
347
46
348
0
  0
LAYER
  5
16D
330
2
100
AcDbSymbolTableRecord
100
AcDbLayerTableRecord
  2
AM_7
 70
     0
 62
     7
  6
Center
370
    25
390
F
347
46
348
0
  0
LAYER
  5
17C
330
2
100
AcDbSymbolTableRecord
100
AcDbLayerTableRecord
  2
AM_5
 70
     0
 62
     3
  6
Continuous
370
    25
390
F
347
46
348
0
  0
LAYER
  5
1F9
330
2
100
AcDbSymbolTableRecord
100
AcDbLayerTableRecord
  2
ConnectionPoints
 70
     0
 62
     7
  6
Continuous
370
    50
390
F
347
46
348
0
  0
ENDTAB
  0
TABLE
  2
STYLE
  5
3
330
0
100
AcDbSymbolTable
 70
     1
  0
STYLE
  5
11
330
3
100
AcDbSymbolTableRecord
100
AcDbTextStyleTableRecord
  2
Standard
 70
     0
 40
0.0
 41
1.0
 50
0.0
 71
     0
 42
0.2
  3
txt
  4

  0
ENDTAB
  0
TABLE
  2
VIEW
  5
6
330
0
100
AcDbSymbolTable
 70
     0
  0
ENDTAB
  0
TABLE
  2
UCS
  5
7
330
0
100
AcDbSymbolTable
 70
     0
  0
ENDTAB
  0
TABLE
  2
APPID
  5
9
330
0
100
AcDbSymbolTable
 70
     1
  0
APPID
  5
12
330
9
100
AcDbSymbolTableRecord
100
AcDbRegAppTableRecord
  2
ACAD
 70
     0
  0
ENDTAB
  0
TABLE
  2
DIMSTYLE
  5
A
330
0
100
AcDbSymbolTable
 70
     1
100
AcDbDimStyleTable
  0
DIMSTYLE
105
27
330
A
100
AcDbSymbolTableRecord
100
AcDbDimStyleTableRecord
  2
Standard
 70
     0
178
     0
340
11
  0
ENDTAB
  0
TABLE
  2
BLOCK_RECORD
  5
1
330
0
100
AcDbSymbolTable
 70
     5
  0
BLOCK_RECORD
  5
1F
330
1
100
AcDbSymbolTableRecord
100
AcDbBlockTableRecord
  2
*Model_Space
340
22
 70
     0
280
     1
281
     0
  0
BLOCK_RECORD
  5
1B
330
1
100
AcDbSymbolTableRecord
100
AcDbBlockTableRecord
  2
*Paper_Space
340
1E
 70
     0
280
     1
281
     0
  0
BLOCK_RECORD
  5
23
330
1
100
AcDbSymbolTableRecord
100
AcDbBlockTableRecord
  2
*Paper_Space0
340
26
 70
     0
280
     1
281
     0
  0
BLOCK_RECORD
  5
6E
330
1
100
AcDbSymbolTableRecord
100
AcDbBlockTableRecord
  2
1_125533_4
340
0
102
{BLKREFS
331
6F
102
}
 70
     0
280
     1
281
     0
  0
BLOCK_RECORD
  5
8D
330
1
100
AcDbSymbolTableRecord
100
AcDbBlockTableRecord
  2
2_405016_Inch_0_in_125533_4
340
0
102
{BLKREFS
331
8E
102
}
 70
     0
280
     1
281
     0
  0
BLOCK_RECORD
  5
115
330
1
100
AcDbSymbolTableRecord
100
AcDbBlockTableRecord
  2
3_389925_0_in_125533_4
340
0
102
{BLKREFS
331
116
102
}
 70
     0
280
     1
281
     0
  0
BLOCK_RECORD
  5
17E
330
1
100
AcDbSymbolTableRecord
100
AcDbBlockTableRecord
  2
4_125533vsc_0_in_125533_4
340
0
102
{BLKREFS
331
17F
102
}
 70
     0
280
     1
281
     0
  0
ENDTAB
  0
ENDSEC
  0
SECTION
  2
BLOCKS
  0
BLOCK
  5
20
330
1F
100
AcDbEntity
  8
0
100
AcDbBlockBegin
  2
*Model_Space
 70
     0
 10
0.0
 20
0.0
 30
0.0
  3
*Model_Space
  1

  0
ENDBLK
  5
21
330
1F
100
AcDbEntity
  8
0
100
AcDbBlockEnd
  0
BLOCK
  5
1C
330
1B
100
AcDbEntity
 67
     1
  8
0
100
AcDbBlockBegin
  2
*Paper_Space
 70
     0
 10
0.0
 20
0.0
 30
0.0
  3
*Paper_Space
  1

  0
ENDBLK
  5
1D
330
1B
100
AcDbEntity
 67
     1
  8
0
100
AcDbBlockEnd
  0
BLOCK
  5
24
330
23
100
AcDbEntity
  8
0
100
AcDbBlockBegin
  2
*Paper_Space0
 70
     0
 10
0.0
 20
0.0
 30
0.0
  3
*Paper_Space0
  1

  0
ENDBLK
  5
25
330
23
100
AcDbEntity
  8
0
100
AcDbBlockEnd
  0
BLOCK
  5
70
330
6E
100
AcDbEntity
  8
0
100
AcDbBlockBegin
  2
1_125533_4
 70
     2
 10
0.0
 20
0.0
 30
0.0
  3
1_125533_4
  1

  0
ATTDEF
  5
73
330
6E
100
AcDbEntity
  8
AM_6
100
AcDbText
 10
7.248240000000004
 20
0.7589999999999998
 30
0.0
 40
0.5
  1
Set Screw Intermediate Duty Narrow Slot Take Up
100
AcDbAttributeDefinition
  3

  2
NN
 70
     8
280
     0
  0
ATTDEF
  5
74
330
6E
100
AcDbEntity
  8
AM_6
100
AcDbText
 10
7.248240000000004
 20
0.2589999999999998
 30
0.0
 40
0.5
  1
VSC Intermediate Duty Narrow Slot Take-Up Bearings
100
AcDbAttributeDefinition
  3

  2
NT
 70
     8
280
     0
  0
ATTDEF
  5
75
330
6E
100
AcDbEntity
  8
AM_6
100
AcDbText
 10
7.248240000000004
 20
-0.2410000000000002
 30
0.0
 40
0.5
  1
125533
100
AcDbAttributeDefinition
  3

  2
NB
 70
     8
280
     0
  0
ATTDEF
  5
76
330
6E
100
AcDbEntity
  8
AM_6
100
AcDbText
 10
7.248240000000004
 20
-0.7410000000000002
 30
0.0
 40
0.5
  1
$PN.
100
AcDbAttributeDefinition
  3

  2
NBSYN
 70
     8
280
     0
  0
ATTDEF
  5
77
330
6E
100
AcDbEntity
  8
AM_6
100
AcDbText
 10
7.248240000000004
 20
-1.241
 30
0.0
 40
0.5
  1
125533
100
AcDbAttributeDefinition
  3

  2
LINA
 70
     8
280
     0
  0
ATTDEF
  5
78
330
6E
100
AcDbEntity
  8
AM_6
100
AcDbText
 10
7.248240000000004
 20
-1.741
 30
0.0
 40
0.5
  1
204
100
AcDbAttributeDefinition
  3

  2
RS
 70
     8
280
     0
  0
ATTDEF
  5
79
330
6E
100
AcDbEntity
  8
AM_6
100
AcDbText
 10
7.248240000000004
 20
-2.241
 30
0.0
 40
0.5
  1
3/4
100
AcDbAttributeDefinition
  3

  2
SS
 70
     8
280
     0
  0
ATTDEF
  5
7A
330
6E
100
AcDbEntity
  8
AM_6
100
AcDbText
 10
7.248240000000004
 20
-2.741
 30
0.0
 40
0.5
  1
125533
100
AcDbAttributeDefinition
  3

  2
PN
 70
     8
280
     0
  0
ATTDEF
  5
7B
330
6E
100
AcDbEntity
  8
AM_6
100
AcDbText
 10
7.248240000000004
 20
-3.241
 30
0.0
 40
0.5
  1
NSTU-VSC-012
100
AcDbAttributeDefinition
  3

  2
DESCRIPTION
 70
     8
280
     0
  0
ATTDEF
  5
7C
330
6E
100
AcDbEntity
  8
AM_6
100
AcDbText
 10
7.248240000000004
 20
-3.741
 30
0.0
 40
0.5
  1
1.25
100
AcDbAttributeDefinition
  3

  2
WEIGHT
 70
     8
280
     0
  0
ATTDEF
  5
7D
330
6E
100
AcDbEntity
  8
AM_6
100
AcDbText
 10
7.248240000000004
 20
-4.241
 30
0.0
 40
0.5
  1
1.23
100
AcDbAttributeDefinition
  3

  2
A
 70
     8
280
     0
  0
ATTDEF
  5
7E
330
6E
100
AcDbEntity
  8
AM_6
100
AcDbText
 10
7.248240000000004
 20
-4.741
 30
0.0
 40
0.5
  1
3.50
100
AcDbAttributeDefinition
  3

  2
B
 70
     8
280
     0
  0
ATTDEF
  5
7F
330
6E
100
AcDbEntity
  8
AM_6
100
AcDbText
 10
7.248240000000004
 20
-5.241
 30
0.0
 40
0.5
  1
0.250
100
AcDbAttributeDefinition
  3

  2
C
 70
     8
280
     0
  0
ATTDEF
  5
80
330
6E
100
AcDbEntity
  8
AM_6
100
AcDbText
 10
7.248240000000004
 20
-5.741
 30
0.0
 40
0.5
  1
1.50
100
AcDbAttributeDefinition
  3

  2
D
 70
     8
280
     0
  0
ATTDEF
  5
81
330
6E
100
AcDbEntity
  8
AM_6
100
AcDbText
 10
7.248240000000004
 20
-6.241
 30
0.0
 40
0.5
  1
2.00
100
AcDbAttributeDefinition
  3

  2
E
 70
     8
280
     0
  0
ATTDEF
  5
82
330
6E
100
AcDbEntity
  8
AM_6
100
AcDbText
 10
7.248240000000004
 20
-6.741
 30
0.0
 40
0.5
  1
3/4
100
AcDbAttributeDefinition
  3

  2
F
 70
     8
280
     0
  0
ATTDEF
  5
83
330
6E
100
AcDbEntity
  8
AM_6
100
AcDbText
 10
7.248240000000004
 20
-7.241
 30
0.0
 40
0.5
  1
0.44
100
AcDbAttributeDefinition
  3

  2
G
 70
     8
280
     0
  0
ATTDEF
  5
84
330
6E
100
AcDbEntity
  8
AM_6
100
AcDbText
 10
7.248240000000004
 20
-7.741
 30
0.0
 40
0.5
  1
0.88
100
AcDbAttributeDefinition
  3

  2
H
 70
     8
280
     0
  0
ATTDEF
  5
85
330
6E
100
AcDbEntity
  8
AM_6
100
AcDbText
 10
7.248240000000004
 20
-8.241
 30
0.0
 40
0.5
  1
1.38
100
AcDbAttributeDefinition
  3

  2
J
 70
     8
280
     0
  0
ATTDEF
  5
86
330
6E
100
AcDbEntity
  8
AM_6
100
AcDbText
 10
7.248240000000004
 20
-8.741
 30
0.0
 40
0.5
  1
1.12
100
AcDbAttributeDefinition
  3

  2
L
 70
     8
280
     0
  0
ATTDEF
  5
87
330
6E
100
AcDbEntity
  8
AM_6
100
AcDbText
 10
7.248240000000004
 20
-9.241
 30
0.0
 40
0.5
  1
2.635/2.605
100
AcDbAttributeDefinition
  3

  2
M
 70
     8
280
     0
  0
ATTDEF
  5
88
330
6E
100
AcDbEntity
  8
AM_6
100
AcDbText
 10
7.248240000000004
 20
-9.741
 30
0.0
 40
0.5
  1
3.13
100
AcDbAttributeDefinition
  3

  2
N
 70
     8
280
     0
  0
ATTDEF
  5
89
330
6E
100
AcDbEntity
  8
AM_6
100
AcDbText
 10
7.248240000000004
 20
-10.241
 30
0.0
 40
0.5
  1
0.32
100
AcDbAttributeDefinition
  3

  2
P
 70
     8
280
     0
  0
ATTDEF
  5
8A
330
6E
100
AcDbEntity
  8
AM_6
100
AcDbText
 10
7.248240000000004
 20
-10.741
 30
0.0
 40
0.5
  1
0.50
100
AcDbAttributeDefinition
  3

  2
R
 70
     8
280
     0
  0
ATTDEF
  5
8B
330
6E
100
AcDbEntity
  8
AM_6
100
AcDbText
 10
7.248240000000004
 20
-11.241
 30
0.0
 40
0.5
  1
0.73
100
AcDbAttributeDefinition
  3

  2
S
 70
     8
280
     0
  0
ATTDEF
  5
8C
330
6E
100
AcDbEntity
  8
AM_6
100
AcDbText
 10
7.248240000000004
 20
-11.741
 30
0.0
 40
0.5
  1
baldor
100
AcDbAttributeDefinition
  3

  2
COMPANY
 70
     8
280
     0
  0
INSERT
  5
8E
330
6E
100
AcDbEntity
  8
0
100
AcDbBlockReference
  2
2_405016_Inch_0_in_125533_4
 10
0.0
 20
0.0
 30
0.0
  0
INSERT
  5
116
330
6E
100
AcDbEntity
  8
0
100
AcDbBlockReference
  2
3_389925_0_in_125533_4
 10
0.0
 20
0.0
 30
0.0
  0
INSERT
  5
17F
330
6E
100
AcDbEntity
  8
0
100
AcDbBlockReference
  2
4_125533vsc_0_in_125533_4
 10
0.0
 20
0.0
 30
0.0
  0
ENDBLK
  5
71
330
6E
100
AcDbEntity
  8
0
100
AcDbBlockEnd
  0
BLOCK
  5
8F
330
8D
100
AcDbEntity
  8
0
100
AcDbBlockBegin
  2
2_405016_Inch_0_in_125533_4
 70
     2
 10
0.0
 20
0.0
 30
0.0
  3
2_405016_Inch_0_in_125533_4
  1

  0
ATTDEF
  5
91
330
8D
100
AcDbEntity
  8
AM_6
100
AcDbText
 10
4.135781641058843
 20
0.2187500000000006
 30
0.0
 40
0.5
  1
405016 -Inch
100
AcDbAttributeDefinition
  3

  2
NN
 70
     8
280
     0
  0
ATTDEF
  5
92
330
8D
100
AcDbEntity
  8
AM_6
100
AcDbText
 10
4.135781641058843
 20
-0.2812499999999994
 30
0.0
 40
0.5
  1
Grease Fitting
100
AcDbAttributeDefinition
  3

  2
NT
 70
     8
280
     0
  0
ATTDEF
  5
93
330
8D
100
AcDbEntity
  8
AM_6
100
AcDbText
 10
4.135781641058843
 20
-0.7812499999999994
 30
0.0
 40
0.5
  1
405016-Inch
100
AcDbAttributeDefinition
  3

  2
NB
 70
     8
280
     0
  0
ATTDEF
  5
94
330
8D
100
AcDbEntity
  8
AM_6
100
AcDbText
 10
4.135781641058843
 20
-1.28125
 30
0.0
 40
0.5
  1
$MN.-Inch
100
AcDbAttributeDefinition
  3

  2
NBSYN
 70
     8
280
     0
  0
ATTDEF
  5
95
330
8D
100
AcDbEntity
  8
AM_6
100
AcDbText
 10
4.135781641058843
 20
-1.78125
 30
0.0
 40
0.5
  1
405016
100
AcDbAttributeDefinition
  3

  2
LINA
 70
     8
280
     0
  0
ATTDEF
  5
96
330
8D
100
AcDbEntity
  8
AM_6
100
AcDbText
 10
4.135781641058843
 20
-2.28125
 30
0.0
 40
0.5
  1
405016
100
AcDbAttributeDefinition
  3

  2
MN
 70
     8
280
     0
  0
ATTDEF
  5
97
330
8D
100
AcDbEntity
  8
AM_6
100
AcDbText
 10
4.135781641058843
 20
-2.78125
 30
0.0
 40
0.5
  1
7/16 HEX
100
AcDbAttributeDefinition
  3

  2
H
 70
     8
280
     0
  0
ATTDEF
  5
98
330
8D
100
AcDbEntity
  8
AM_6
100
AcDbText
 10
4.135781641058843
 20
-3.28125
 30
0.0
 40
0.5
  1
0.383
100
AcDbAttributeDefinition
  3

  2
NDR
 70
     8
280
     0
  0
ATTDEF
  5
99
330
8D
100
AcDbEntity
  8
AM_6
100
AcDbText
 10
4.135781641058843
 20
-3.78125
 30
0.0
 40
0.5
  1
0.337
100
AcDbAttributeDefinition
  3

  2
KDR
 70
     8
280
     0
  0
ATTDEF
  5
9A
330
8D
100
AcDbEntity
  8
AM_6
100
AcDbText
 10
4.135781641058843
 20
-4.28125
 30
0.0
 40
0.5
  1
0.1575
100
AcDbAttributeDefinition
  3

  2
BZE
 70
     8
280
     0
  0
ATTDEF
  5
9B
330
8D
100
AcDbEntity
  8
AM_6
100
AcDbText
 10
4.135781641058843
 20
-4.78125
 30
0.0
 40
0.5
  1
0.4375
100
AcDbAttributeDefinition
  3

  2
HEX
 70
     8
280
     0
  0
ATTDEF
  5
9C
330
8D
100
AcDbEntity
  8
AM_6
100
AcDbText
 10
4.135781641058843
 20
-5.28125
 30
0.0
 40
0.5
  1
0.281250
100
AcDbAttributeDefinition
  3

  2
HEX2
 70
     8
280
     0
  0
ATTDEF
  5
9D
330
8D
100
AcDbEntity
  8
AM_6
100
AcDbText
 10
4.135781641058843
 20
-5.78125
 30
0.0
 40
0.5
  1
baldor
100
AcDbAttributeDefinition
  3

  2
COMPANY
 70
     8
280
     0
  0
LINE
  5
A0
330
8D
100
AcDbEntity
  8
AM_9
100
AcDbLine
 10
-1.561361176771698
 20
-0.151074129835757
 30
0.0
 11
-1.572682749995575
 21
-0.1791093260592887
 31
0.0
  0
LINE
  5
A1
330
8D
100
AcDbEntity
  8
AM_9
100
AcDbLine
 10
-1.410186330733201
 20
-0.2099962668917053
 30
0.0
 11
-1.421873576952746
 21
-0.2389369657326276
 31
0.0
  0
LWPOLYLINE
  5
A2
330
8D
100
AcDbEntity
  8
AM_9
100
AcDbPolyline
 90
        4
 70
     0
 43
0.0
 10
-1.154605910932871
 20
-0.0000000000000001
 10
-1.176083581850494
 20
-0.0544416102741496
 10
-1.185560290062325
 20
-0.0818700010907651
 10
-1.194032525467795
 20
-0.109375
  0
LWPOLYLINE
  5
A3
330
8D
100
AcDbEntity
  8
AM_9
100
AcDbPolyline
 90
        4
 70
     0
 43
0.0
 10
-1.194032525467795
 20
0.1093749999999999
 10
-1.185613028798141
 20
0.0820312499999999
 10
-1.176172875483872
 20
0.0546874999999999
 10
-1.154605910932871
 20
-0.0000000000000001
  0
LWPOLYLINE
  5
A4
330
8D
100
AcDbEntity
  8
AM_9
100
AcDbPolyline
 90
        3
 70
     0
 43
0.0
 10
-1.35225548231111
 20
-0.2987675689889718
 10
-1.368142766874207
 20
-0.2912216284034024
 10
-1.383352768572221
 20
-0.2813919000363599
  0
LWPOLYLINE
  5
A5
330
8D
100
AcDbEntity
  8
AM_9
100
AcDbPolyline
 90
        4
 70
     0
 43
0.0
 10
-1.107429985089351
 20
-0.109375
 10
-1.100062560335852
 20
-0.0820312500000001
 10
-1.093715792226967
 20
-0.0546875000000001
 10
-1.08370891393166
 20
-0.0000000000000001
  0
LWPOLYLINE
  5
A6
330
8D
100
AcDbEntity
  8
AM_9
100
AcDbPolyline
 90
        4
 70
     0
 43
0.0
 10
-1.08370891393166
 20
-0.0000000000000001
 10
-1.093663121360934
 20
0.0544416102741495
 10
-1.100022201970514
 20
0.081870001090765
 10
-1.107429985089351
 20
0.1093749999999999
  0
LWPOLYLINE
  5
A7
330
8D
100
AcDbEntity
  8
AM_9
100
AcDbPolyline
 90
        4
 70
     0
 43
0.0
 10
-1.217753596625486
 20
0.2187499999999999
 10
-1.207799389196212
 20
0.1643083897258504
 10
-1.201440308586632
 20
0.1368799989092348
 10
-1.194032525467795
 20
0.1093749999999999
  0
LINE
  5
A8
330
8D
100
AcDbEntity
  8
AM_9
100
AcDbLine
 10
-1.154605910932871
 20
-0.0000000000000001
 30
0.0
 11
-1.08370891393166
 21
-0.0000000000000001
 31
0.0
  0
LWPOLYLINE
  5
A9
330
8D
100
AcDbEntity
  8
AM_9
100
AcDbPolyline
 90
        4
 70
     0
 43
0.0
 10
-1.194032525467795
 20
-0.109375
 10
-1.201399950221294
 20
-0.13671875
 10
-1.207746718330179
 20
-0.1640625
 10
-1.217753596625486
 20
-0.21875
  0
ELLIPSE
  5
AA
330
8D
100
AcDbEntity
  8
AM_9
100
AcDbEllipse
 10
-1.594537125160201
 20
-0.4687500000000001
 30
0.0
 11
-0.0959538295573179
 21
0.03874944547499717
 31
0.0
210
0.0
220
0.0
230
1.0
 40
0.2113091308703511
 41
3.040609649696544
 42
6.384168311072838
  0
ELLIPSE
  5
AB
330
8D
100
AcDbEntity
  8
AM_9
100
AcDbEllipse
 10
-1.566543462962718
 20
-0.399430321788976
 30
0.0
 11
-0.129024894793327
 21
0.0521046752253359
 31
0.0
210
0.0
220
0.0
230
1.0
 40
0.2113091308703468
 41
3.038090258737823
 42
5.801105639492178
  0
ELLIPSE
  5
AC
330
8D
100
AcDbEntity
  8
AM_9
100
AcDbEllipse
 10
-1.555868481485386
 20
-0.3729962569746598
 30
0.0
 11
-0.1235034625625813
 21
0.04987493162723189
 31
0.0
210
0.0
220
0.0
230
1.0
 40
0.2113091308703555
 41
3.384411265844875
 42
6.032767151572568
  0
LWPOLYLINE
  5
AD
330
8D
100
AcDbEntity
  8
AM_9
100
AcDbPolyline
 90
        5
 70
     0
 43
0.0
 10
-1.572682749995575
 20
-0.1791093260592887
 10
-1.5945451384942
 20
-0.1842540823997054
 10
-1.615441225424194
 20
-0.1862220679364951
 10
-1.635358844979103
 20
-0.1844124966919381
 10
-1.653872631600366
 20
-0.1791093260592887
  0
LWPOLYLINE
  5
AE
330
8D
100
AcDbEntity
  8
AM_9
100
AcDbPolyline
 90
        5
 70
     0
 43
0.0
 10
-1.421873576952746
 20
-0.2389369657326276
 10
-1.460714865640174
 20
-0.2295338871417796
 10
-1.498849912352093
 20
-0.216687117104632
 10
-1.536468706713277
 20
-0.1996402057054678
 10
-1.572682749995575
 20
-0.1791093260592887
  0
LWPOLYLINE
  5
AF
330
8D
100
AcDbEntity
  8
AM_9
100
AcDbPolyline
 90
        3
 70
     0
 43
0.0
 10
-1.395374298754028
 20
-0.2711532636537956
 10
-1.409109476518601
 20
-0.256181552758992
 10
-1.421873576952746
 20
-0.2389369657326276
  0
ELLIPSE
  5
B0
330
8D
100
AcDbEntity
  8
AM_9
100
AcDbEllipse
 10
-1.504867578221377
 20
-0.2467045921760254
 30
0.0
 11
-0.130393921019186
 21
0.0526575349427402
 31
0.0
210
0.0
220
0.0
230
1.0
 40
0.2113091308703427
 41
3.806340372002941
 42
6.91918190309726
  0
LINE
  5
B1
330
8D
100
AcDbEntity
  8
AM_9
100
AcDbLine
 10
-1.13911708161759
 20
0.2000413016192557
 30
0.0
 11
-1.146856599624275
 21
0.2187499999999999
 31
0.0
  0
LWPOLYLINE
  5
B2
330
8D
100
AcDbEntity
  8
AM_9
100
AcDbPolyline
 90
        4
 70
     0
 43
0.0
 10
-1.107429985089351
 20
0.1093749999999999
 10
-1.115849481759006
 20
0.1367187499999999
 10
-1.125289635073274
 20
0.1640624999999999
 10
-1.13911708161759
 20
0.2000413016192557
  0
LWPOLYLINE
  5
B3
330
8D
100
AcDbEntity
  8
AM_9
100
AcDbPolyline
 90
        4
 70
     0
 43
0.0
 10
-1.139116959535625
 20
-0.2000409996967265
 10
-1.125378928706652
 20
-0.1643083897258504
 10
-1.115902220494821
 20
-0.1368799989092349
 10
-1.107429985089351
 20
-0.109375
  0
LINE
  5
B4
330
8D
100
AcDbEntity
  8
AM_9
100
AcDbLine
 10
-1.146856599624275
 20
-0.21875
 30
0.0
 11
-1.139116959535625
 21
-0.2000409996967265
 31
0.0
  0
LINE
  5
B5
330
8D
100
AcDbEntity
  8
AM_9
100
AcDbLine
 10
-1.572495977623588
 20
-0.1204089378707286
 30
0.0
 11
-1.5735814226133
 21
-0.1230967854582223
 31
0.0
  0
LINE
  5
B6
330
8D
100
AcDbEntity
  8
AM_9
100
AcDbLine
 10
-1.367375749197713
 20
-0.2
 30
0.0
 11
-1.364707269853009
 21
-0.1933921425434559
 31
0.0
  0
ELLIPSE
  5
B7
330
8D
100
AcDbEntity
  8
AM_9
100
AcDbEllipse
 10
-1.486567670682849
 20
-0.2013892028241931
 30
0.0
 11
-0.1019970226638931
 21
0.0411898939996544
 31
0.0
210
0.0
220
0.0
230
1.0
 40
0.211309130870354
 41
3.141592653589793
 42
6.283185307179586
  0
LWPOLYLINE
  5
B8
330
8D
100
AcDbEntity
  8
AM_9
100
AcDbPolyline
 90
        4
 70
     0
 43
0.0
 10
-1.572500707278607
 20
-0.1204206514110938
 10
-1.572639873263136
 20
-0.1208367673933812
 10
-1.57206228930601
 20
-0.1245107513506022
 10
-1.57015481456306
 20
-0.1273630188747719
  0
LWPOLYLINE
  5
B9
330
8D
100
AcDbEntity
  8
AM_9
100
AcDbPolyline
 90
        5
 70
     0
 43
0.0
 10
-1.364706325651521
 20
-0.1933898041312625
 10
-1.364799661782673
 20
-0.1936098952159723
 10
-1.368015198735311
 20
-0.1971856748420371
 10
-1.374033561978093
 20
-0.1994144431868154
 10
-1.380897532558536
 20
-0.1999999999699528
  0
LWPOLYLINE
  5
BA
330
8D
100
AcDbEntity
  8
AM_9
100
AcDbPolyline
 90
        4
 70
     0
 43
0.0
 10
-1.474194663770974
 20
-0.1745741884610188
 10
-1.446805588397543
 20
-0.1876759562813857
 10
-1.428224152303415
 20
-0.1983452719285273
 10
-1.410186330733201
 20
-0.2099962668917053
  0
LWPOLYLINE
  5
BB
330
8D
100
AcDbEntity
  8
AM_9
100
AcDbPolyline
 90
        3
 70
     0
 43
0.0
 10
-1.561361176771698
 20
-0.151074129835757
 10
-1.532156569272174
 20
-0.1564222384464442
 10
-1.50348607032988
 20
-0.1639312493177431
  0
LWPOLYLINE
  5
BC
330
8D
100
AcDbEntity
  8
AM_9
100
AcDbPolyline
 90
        3
 70
     0
 43
0.0
 10
-1.410186330733201
 20
-0.2099962668917053
 10
-1.393212648399678
 20
-0.2163479371246912
 10
-1.377074391215495
 20
-0.2258378743019628
  0
LWPOLYLINE
  5
BD
330
8D
100
AcDbEntity
  8
AM_9
100
AcDbPolyline
 90
        5
 70
     0
 43
0.0
 10
-1.598272057116193
 20
-0.141958509815605
 10
-1.594396937670144
 20
-0.1420496512545706
 10
-1.579908022555393
 20
-0.1441228263802214
 10
-1.570390148256801
 20
-0.1470795994472237
 10
-1.561361176771698
 20
-0.151074129835757
  0
ELLIPSE
  5
BE
330
8D
100
AcDbEntity
  8
AM_9
100
AcDbEllipse
 10
-1.486567670682855
 20
-0.201389202824188
 30
0.0
 11
-0.1303939210191754
 21
0.05265753494273426
 31
0.0
210
0.0
220
0.0
230
1.0
 40
0.2113091308703498
 41
3.814164134970078
 42
4.688462071289508
  0
ELLIPSE
  5
BF
330
8D
100
AcDbEntity
  8
AM_9
100
AcDbEllipse
 10
-1.486567670682855
 20
-0.2013892028241893
 30
0.0
 11
-0.1303939210191745
 21
0.05265753494273471
 31
0.0
210
0.0
220
0.0
230
1.0
 40
0.2113091308703568
 41
-1.278738418975467
 42
-0.6725714813802766
  0
LINE
  5
C0
330
8D
100
AcDbEntity
  8
AM_9
100
AcDbLine
 10
-1.383352768572221
 20
-0.2813919000363599
 30
0.0
 11
-1.395374298754028
 21
-0.2711532636537956
 31
0.0
  0
ELLIPSE
  5
C1
330
8D
100
AcDbEntity
  8
AM_9
100
AcDbEllipse
 10
-1.504867578221391
 20
-0.2467045921760196
 30
0.0
 11
-0.1303939210191775
 21
0.05265753494273488
 31
0.0
210
0.0
220
0.0
230
1.0
 40
0.2113091308703508
 41
2.800469246484381
 42
3.607080702195121
  0
ELLIPSE
  5
C2
330
8D
100
AcDbEntity
  8
AM_9
100
AcDbEllipse
 10
-1.504867578224681
 20
-0.2467045921755643
 30
0.0
 11
-0.1303939210232929
 21
0.05265753494320211
 31
0.0
210
0.0
220
0.0
230
1.0
 40
0.2113091308648848
 41
-3.777589249509007
 42
-3.764628581861086
  0
LINE
  5
C3
330
8D
100
AcDbEntity
  8
AM_9
100
AcDbLine
 10
-1.632508729612649
 20
-0.2048645646587478
 30
0.0
 11
-1.631482304759323
 21
-0.2064602789415148
 31
0.0
  0
LWPOLYLINE
  5
C4
330
8D
100
AcDbEntity
  8
AM_9
100
AcDbPolyline
 90
       17
 70
     0
 43
0.0
 10
-1.371382435003597
 20
-0.1790373738501778
 10
-1.37934990007979
 20
-0.1733931390117467
 10
-1.390105973513972
 20
-0.167072978024251
 10
-1.402749025036415
 20
-0.1606047421316795
 10
-1.417639448182256
 20
-0.1538031670974776
 10
-1.433541324989137
 20
-0.1472336073736393
 10
-1.450902294810856
 20
-0.1407130262602576
 10
-1.4682577719411
 20
-0.1347930597680667
 10
-1.486115483525389
 20
-0.1293028157827817
 10
-1.502945245025463
 20
-0.1247141396218192
 10
-1.519261988926168
 20
-0.1208880884981781
 10
-1.533661039786002
 20
-0.1181545989145989
 10
-1.546593392651749
 20
-0.1164278875396128
 10
-1.556953120811449
 20
-0.1158549073091554
 10
-1.565063295628147
 20
-0.1164156227038167
 10
-1.570239936818988
 20
-0.1180609686233501
 10
-1.572500707278607
 20
-0.1204206514110938
  0
LWPOLYLINE
  5
C5
330
8D
100
AcDbEntity
  8
AM_9
100
AcDbPolyline
 90
        4
 70
     0
 43
0.0
 10
-1.371382435003597
 20
-0.1790373738501783
 10
-1.366427774531529
 20
-0.1842628795203941
 10
-1.364319890064787
 20
-0.1891729979031393
 10
-1.364706325651521
 20
-0.1933898041312625
  0
LINE
  5
C6
330
8D
100
AcDbEntity
  8
AM_9
100
AcDbLine
 10
-1.288754054006718
 20
0.2
 30
0.0
 11
-1.351443355856774
 21
0.2
 31
0.0
  0
LINE
  5
C7
330
8D
100
AcDbEntity
  8
AM_9
100
AcDbLine
 10
-1.35144599994415
 20
-0.2
 30
0.0
 11
-1.288754054006718
 21
-0.2
 31
0.0
  0
ELLIPSE
  5
C8
330
8D
100
AcDbEntity
  8
AM_9
100
AcDbEllipse
 10
-1.202151513628274
 20
-0.0000000000000002
 30
0.0
 11
1.339457436567416E-17
 21
0.2187499999999998
 31
0.0
210
0.0
220
0.0
230
1.0
 40
0.5000000000000004
 41
1.738064269306706
 42
7.686713691462671
  0
LINE
  5
C9
330
8D
100
AcDbEntity
  8
AM_9
100
AcDbLine
 10
-1.134493278957615
 20
0.1999999999999999
 30
0.0
 11
-1.202151513628274
 21
0.1999999999999999
 31
0.0
  0
LINE
  5
CA
330
8D
100
AcDbEntity
  8
AM_9
100
AcDbLine
 10
-1.202151513628274
 20
-0.2
 30
0.0
 11
-1.134493278957615
 21
-0.2
 31
0.0
  0
LINE
  5
CB
330
8D
100
AcDbEntity
  8
AM_9
100
AcDbLine
 10
-1.31
 20
0.2187499999999999
 30
0.0
 11
-1.146856599624275
 21
0.2187499999999999
 31
0.0
  0
LWPOLYLINE
  5
CC
330
8D
100
AcDbEntity
  8
AM_9
100
AcDbPolyline
 90
        3
 70
     0
 43
0.0
 10
-1.296873042167197
 20
0.109375
 10
-1.305292538836851
 20
0.08203125
 10
-1.309879107630909
 20
0.0683889525817626
  0
LWPOLYLINE
  5
CD
330
8D
100
AcDbEntity
  8
AM_9
100
AcDbPolyline
 90
        4
 70
     0
 43
0.0
 10
-1.273151971009506
 20
0.2187499999999999
 10
-1.28310617843878
 20
0.1643083897258504
 10
-1.28946525904836
 20
0.1368799989092349
 10
-1.296873042167197
 20
0.109375
  0
LINE
  5
CE
330
8D
100
AcDbEntity
  8
AM_9
100
AcDbLine
 10
-1.31
 20
-0.21875
 30
0.0
 11
-1.146856599624275
 21
-0.21875
 31
0.0
  0
LWPOLYLINE
  5
CF
330
8D
100
AcDbEntity
  8
AM_9
100
AcDbPolyline
 90
        4
 70
     0
 43
0.0
 10
-1.296873042167197
 20
-0.109375
 10
-1.289505617413698
 20
-0.13671875
 10
-1.283158849304813
 20
-0.1640625
 10
-1.273151971009506
 20
-0.21875
  0
LWPOLYLINE
  5
D0
330
8D
100
AcDbEntity
  8
AM_9
100
AcDbPolyline
 90
        3
 70
     0
 43
0.0
 10
-1.309878449218869
 20
-0.0683908591774622
 10
-1.305345277572667
 20
-0.0818700010907651
 10
-1.296873042167197
 20
-0.109375
  0
LINE
  5
D1
330
8D
100
AcDbEntity
  8
AM_9
100
AcDbLine
 10
-0.9639486613352118
 20
0.1853871066562612
 30
0.0
 11
-1.132761605549291
 21
0.1914799153487177
 31
0.0
  0
LINE
  5
D2
330
8D
100
AcDbEntity
  8
AM_9
100
AcDbLine
 10
-1.132761605549291
 20
-0.1914799153487177
 30
0.0
 11
-0.9639486613352118
 21
-0.1853871066562613
 31
0.0
  0
LINE
  5
D3
330
8D
100
AcDbEntity
  8
AM_9
100
AcDbLine
 10
-0.8983819240530619
 20
0.1319978794387896
 30
0.0
 11
-0.9120960511121302
 21
0.1513925839218324
 31
0.0
  0
LINE
  5
D4
330
8D
100
AcDbEntity
  8
AM_9
100
AcDbLine
 10
-0.9120960511121302
 20
-0.1513925839218324
 30
0.0
 11
-0.8983819240530617
 21
-0.1319978794387897
 31
0.0
  0
ELLIPSE
  5
D5
330
8D
100
AcDbEntity
  8
AM_9
100
AcDbEllipse
 10
-1.288754054006718
 20
0.0
 30
0.0
 11
1.339457436567421E-17
 21
0.2187500000000005
 31
0.0
210
0.0
220
0.0
230
1.0
 40
0.4999999999999968
 41
0.0
 42
6.283185307179586
  0
ELLIPSE
  5
D6
330
8D
100
AcDbEntity
  8
AM_9
100
AcDbEllipse
 10
-1.288754054006717
 20
-0.0000000000000002
 30
0.0
 11
1.224646799147352E-17
 21
0.1999999999999998
 31
0.0
210
0.0
220
0.0
230
1.0
 40
0.4999999999999987
 41
0.0
 42
6.283185307179586
  0
ELLIPSE
  5
D7
330
8D
100
AcDbEntity
  8
AM_9
100
AcDbEllipse
 10
-1.202151513628274
 20
-0.0000000000000001
 30
0.0
 11
1.224646799147353E-17
 21
0.2
 31
0.0
210
0.0
220
0.0
230
1.0
 40
0.5000000000000006
 41
0.0
 42
6.283185307179586
  0
ELLIPSE
  5
D8
330
8D
100
AcDbEntity
  8
AM_9
100
AcDbEllipse
 10
-1.134493278957615
 20
-0.0000000000000002
 30
0.0
 11
1.224646799147355E-17
 21
0.2000000000000004
 31
0.0
210
0.0
220
0.0
230
1.0
 40
0.4999999999999996
 41
0.0
 42
6.283185307179586
  0
ELLIPSE
  5
D9
330
8D
100
AcDbEntity
  8
AM_9
100
AcDbEllipse
 10
-1.134493278957178
 20
0.0000000000000708
 30
0.0
 11
1.172668097676785E-17
 21
0.1915112338501586
 31
0.0
210
0.0
220
0.0
230
1.0
 40
0.4999999999999719
 41
0.0
 42
6.283185307179586
  0
ELLIPSE
  5
DA
330
8D
100
AcDbEntity
  8
AM_9
100
AcDbEllipse
 10
-0.9656214124683706
 20
-0.0000000000000004
 30
0.0
 11
1.135353457964636E-17
 21
0.1854172907249851
 31
0.0
210
0.0
220
0.0
230
1.0
 40
0.4999999999999965
 41
0.0
 42
6.283185307179586
  0
ELLIPSE
  5
DB
330
8D
100
AcDbEntity
  8
AM_9
100
AcDbEllipse
 10
-0.9450502218797691
 20
-0.0000000000000002
 30
0.0
 11
9.899048221688872E-18
 21
0.1616637258772239
 31
0.0
210
0.0
220
0.0
230
1.0
 40
0.5000000000000002
 41
0.0
 42
6.283185307179586
  0
LWPOLYLINE
  5
DD
330
8D
100
AcDbEntity
  8
AM_4
100
AcDbPolyline
 90
        4
 70
     0
 43
0.0
 10
-1.365052861033688
 20
-0.2360765106845276
 10
-1.35588787445713
 20
-0.2462091938631851
 10
-1.347796603678143
 20
-0.2570505402207574
 10
-1.340199833000132
 20
-0.2689146070947222
  0
LWPOLYLINE
  5
DE
330
8D
100
AcDbEntity
  8
AM_4
100
AcDbPolyline
 90
        3
 70
     0
 43
0.0
 10
-1.340199833000132
 20
-0.2689146070947222
 10
-1.353195720849743
 20
-0.2634308483997528
 10
-1.367409620963984
 20
-0.2602304684431305
  0
LWPOLYLINE
  5
DF
330
8D
100
AcDbEntity
  8
AM_4
100
AcDbPolyline
 90
        3
 70
     0
 43
0.0
 10
-1.385709528502517
 20
-0.3055458577949631
 10
-1.36932757388354
 20
-0.3030753670497808
 10
-1.35225548231111
 20
-0.2987675689889718
  0
LINE
  5
E0
330
8D
100
AcDbEntity
  8
AM_4
100
AcDbLine
 10
-1.340199833000132
 20
-0.2689146070947222
 30
0.0
 11
-1.35225548231111
 21
-0.2987675689889718
 31
0.0
  0
LINE
  5
E1
330
8D
100
AcDbEntity
  8
AM_4
100
AcDbLine
 10
-1.499897583288855
 20
-0.5093460834378319
 30
0.0
 11
-1.439285833021591
 21
-0.4540180898723598
 31
0.0
  0
LINE
  5
E2
330
8D
100
AcDbEntity
  8
AM_4
100
AcDbLine
 10
-1.696021000321466
 20
-0.3503396289636352
 30
0.0
 11
-1.690827578030736
 21
-0.4322420068738781
 31
0.0
  0
ELLIPSE
  5
E3
330
8D
100
AcDbEntity
  8
AM_4
100
AcDbEllipse
 10
-1.594537125160201
 20
-0.4687500000000001
 30
0.0
 11
-0.09595382955731768
 21
0.03874944547499708
 31
0.0
210
0.0
220
0.0
230
1.0
 40
0.2113091308703473
 41
0.1009830038932478
 42
3.040609649696542
  0
LINE
  5
E4
330
8D
100
AcDbEntity
  8
AM_4
100
AcDbLine
 10
-1.642551058376489
 20
-0.151074129835757
 30
0.0
 11
-1.653872631600366
 21
-0.1791093260592887
 31
0.0
  0
LWPOLYLINE
  5
E5
330
8D
100
AcDbEntity
  8
AM_4
100
AcDbPolyline
 90
       10
 70
     0
 43
0.0
 10
-1.672565411081901
 20
-0.3180986223357366
 10
-1.676353287882679
 20
-0.319501665025359
 10
-1.680943003174884
 20
-0.3218603666758809
 10
-1.685105719043757
 20
-0.3248482340688454
 10
-1.688774785891887
 20
-0.328487075367711
 10
-1.691820960978808
 20
-0.3327336890431363
 10
-1.694275166606978
 20
-0.337924083264026
 10
-1.695667712398037
 20
-0.3432564221531307
 10
-1.696084274000059
 20
-0.3485034277536356
 10
-1.695992579702635
 20
-0.3507467465935887
  0
LWPOLYLINE
  5
E6
330
8D
100
AcDbEntity
  8
AM_4
100
AcDbPolyline
 90
       10
 70
     0
 43
0.0
 10
-1.439528761541238
 20
-0.4542375751399284
 10
-1.437893692026804
 20
-0.4526672097687591
 10
-1.434596493096178
 20
-0.4486397825984063
 10
-1.431778175924469
 20
-0.4435491471945024
 10
-1.430035732609963
 20
-0.43823252792984
 10
-1.429307249350761
 20
-0.432938165914421
 10
-1.429467969627906
 20
-0.4278207609644348
 10
-1.430387739488409
 20
-0.4229455437731943
 10
-1.431968998199507
 20
-0.4183008765666233
 10
-1.433580758225548
 20
-0.4148924524743983
  0
ELLIPSE
  5
E7
330
8D
100
AcDbEntity
  8
AM_4
100
AcDbEllipse
 10
-1.566543462962718
 20
-0.399430321788976
 30
0.0
 11
-0.129024894793327
 21
0.05210467522533588
 31
0.0
210
0.0
220
0.0
230
1.0
 40
0.2113091308703548
 41
0.104155259485549
 42
3.038090258737825
  0
LWPOLYLINE
  5
E8
330
8D
100
AcDbEntity
  8
AM_4
100
AcDbPolyline
 90
        3
 70
     0
 43
0.0
 10
-1.433445363915902
 20
-0.2987675689889718
 10
-1.419912098415512
 20
-0.3030606061861223
 10
-1.406352813790527
 20
-0.305456396233367
  0
ELLIPSE
  5
E9
330
8D
100
AcDbEntity
  8
AM_4
100
AcDbEllipse
 10
-1.504867578221389
 20
-0.2467045921760195
 30
0.0
 11
-0.1303939210191758
 21
0.05265753494273485
 31
0.0
210
0.0
220
0.0
230
1.0
 40
0.2113091308703526
 41
1.711945269609641
 42
2.505596057672105
  0
LWPOLYLINE
  5
EA
330
8D
100
AcDbEntity
  8
AM_4
100
AcDbPolyline
 90
        4
 70
     0
 43
0.0
 10
-1.653872631600366
 20
-0.1791093260592887
 10
-1.63899551355729
 20
-0.1988355121406938
 10
-1.622566241314616
 20
-0.2156330920108724
 10
-1.617069222703273
 20
-0.2201680623457971
  0
LWPOLYLINE
  5
EB
330
8D
100
AcDbEntity
  8
AM_4
100
AcDbPolyline
 90
        3
 70
     0
 43
0.0
 10
-1.617069222703273
 20
-0.2201680623457971
 10
-1.604128701104645
 20
-0.229046210966002
 10
-1.584253340162329
 20
-0.2389369657326275
  0
LWPOLYLINE
  5
EC
330
8D
100
AcDbEntity
  8
AM_4
100
AcDbPolyline
 90
        4
 70
     0
 43
0.0
 10
-1.387166020917252
 20
-0.2602304684431209
 10
-1.396414656331146
 20
-0.2616913382589203
 10
-1.40871217378078
 20
-0.2647402074337706
 10
-1.421389714604923
 20
-0.2689146070947222
  0
LINE
  5
ED
330
8D
100
AcDbEntity
  8
AM_4
100
AcDbLine
 10
-1.5735814226133
 20
-0.1230967854582223
 30
0.0
 11
-1.588564693346742
 21
-0.1601993088245384
 31
0.0
  0
LINE
  5
EE
330
8D
100
AcDbEntity
  8
AM_4
100
AcDbLine
 10
-1.384570648018967
 20
-0.2425790968238376
 30
0.0
 11
-1.367375749197713
 21
-0.2
 31
0.0
  0
ELLIPSE
  5
EF
330
8D
100
AcDbEntity
  8
AM_4
100
AcDbEllipse
 10
-1.486567670682854
 20
-0.201389202824188
 30
0.0
 11
-0.1019970226638878
 21
0.04118989399964961
 31
0.0
210
0.0
220
0.0
230
1.0
 40
0.2113091308703488
 41
0.0
 42
3.141592653589793
  0
LWPOLYLINE
  5
F0
330
8D
100
AcDbEntity
  8
AM_4
100
AcDbPolyline
 90
        4
 70
     0
 43
0.0
 10
-1.642551058376489
 20
-0.151074129835757
 10
-1.62593521638896
 20
-0.145877822676052
 10
-1.609880603733827
 20
-0.1427138007556462
 10
-1.598272057116193
 20
-0.141958509815605
  0
LWPOLYLINE
  5
F1
330
8D
100
AcDbEntity
  8
AM_4
100
AcDbPolyline
 90
        7
 70
     0
 43
0.0
 10
-1.572566093942783
 20
-0.2099962668917053
 10
-1.582875230300112
 20
-0.1943573015029058
 10
-1.594219057134322
 20
-0.1805491420332303
 10
-1.606933031711129
 20
-0.1688997677199809
 10
-1.620828957900821
 20
-0.159872940321087
 10
-1.631502297541465
 20
-0.1549033058439655
 10
-1.642551058376489
 20
-0.151074129835757
  0
LINE
  5
F2
330
8D
100
AcDbEntity
  8
AM_4
100
AcDbLine
 10
-1.596942203573363
 20
-0.1419585097669023
 30
0.0
 11
-1.598380680221517
 21
-0.1419585097669023
 31
0.0
  0
ELLIPSE
  5
F3
330
8D
100
AcDbEntity
  8
AM_4
100
AcDbEllipse
 10
-1.486567670682835
 20
-0.2013892028242243
 30
0.0
 11
-0.1303939210192031
 21
0.05265753494276568
 31
0.0
210
0.0
220
0.0
230
1.0
 40
0.2113091308704361
 41
5.610613825799352
 42
7.795870906981244
  0
ELLIPSE
  5
F4
330
8D
100
AcDbEntity
  8
AM_4
100
AcDbEllipse
 10
-1.504867578221388
 20
-0.2467045921760204
 30
0.0
 11
-0.1303939210191747
 21
0.05265753494273372
 31
0.0
210
0.0
220
0.0
230
1.0
 40
0.2113091308703522
 41
0.6359965959176845
 42
1.512685599801936
  0
LWPOLYLINE
  5
F5
330
8D
100
AcDbEntity
  8
AM_4
100
AcDbPolyline
 90
        3
 70
     0
 43
0.0
 10
-1.405465928455787
 20
-0.3055458577949631
 10
-1.396015729569478
 20
-0.3064767622622301
 10
-1.385709528502517
 20
-0.3055458577949631
  0
LWPOLYLINE
  5
F6
330
8D
100
AcDbEntity
  8
AM_4
100
AcDbPolyline
 90
       21
 70
     0
 43
0.0
 10
-1.433484867843526
 20
-0.4150742648783175
 10
-1.43531562307551
 20
-0.4112525583720446
 10
-1.437312958323037
 20
-0.4061534091330783
 10
-1.439115239662385
 20
-0.4001065566141822
 10
-1.440510158582335
 20
-0.3931951006392185
 10
-1.441295072406183
 20
-0.3855909930536032
 10
-1.441313337697543
 20
-0.3775177973692007
 10
-1.440317685114935
 20
-0.368261910024468
 10
-1.438238136203422
 20
-0.359114394945021
 10
-1.435154537168049
 20
-0.3503689386989891
 10
-1.431186527165134
 20
-0.3422040107320051
 10
-1.426477142762578
 20
-0.33474588262717
 10
-1.42118810392762
 20
-0.3280864056351192
 10
-1.415503662663094
 20
-0.3222934032733019
 10
-1.409637660425853
 20
-0.3174128960305754
 10
-1.403831528298515
 20
-0.3134599264212069
 10
-1.398333466570057
 20
-0.3104040956607483
 10
-1.39335880235101
 20
-0.3081613230087545
 10
-1.389056013849898
 20
-0.3066049304819944
 10
-1.385504863815977
 20
-0.3055921929225981
 10
-1.383788549299285
 20
-0.3051965232730532
  0
LWPOLYLINE
  5
F7
330
8D
100
AcDbEntity
  8
AM_4
100
AcDbPolyline
 90
       21
 70
     0
 43
0.0
 10
-1.631482304759323
 20
-0.2064602789415148
 10
-1.631009908342623
 20
-0.2072403677781943
 10
-1.629097428330951
 20
-0.2107288387429136
 10
-1.627078422656797
 20
-0.2151277293695265
 10
-1.625112866680275
 20
-0.2204794840513337
 10
-1.623397011389657
 20
-0.2267662359227197
 10
-1.622144569046145
 20
-0.2338799653018068
 10
-1.621548966567049
 20
-0.2416303320221178
 10
-1.621751193092689
 20
-0.2497885226092983
 10
-1.623004062692354
 20
-0.2590417972429566
 10
-1.625328713839093
 20
-0.2681147131090956
 10
-1.628631905467582
 20
-0.2767371655949061
 10
-1.632788043685357
 20
-0.2847463246853882
 10
-1.637648915426317
 20
-0.2920238267271814
 10
-1.643048508680178
 20
-0.2984849479760992
 10
-1.648796022071386
 20
-0.3040666089356061
 10
-1.654670420346604
 20
-0.3087289523427039
 10
-1.660425945751584
 20
-0.3124662938713036
 10
-1.66581820896087
 20
-0.315321480047644
 10
-1.670645471697049
 20
-0.3173904120342935
 10
-1.673058623444999
 20
-0.3182573174250194
  0
ELLIPSE
  5
F8
330
8D
100
AcDbEntity
  8
AM_4
100
AcDbEllipse
 10
-1.555868481485373
 20
-0.3729962569746643
 30
0.0
 11
-0.1235034625625955
 21
0.04987493162723571
 31
0.0
210
0.0
220
0.0
230
1.0
 40
0.2113091308703502
 41
6.040950556528992
 42
9.667596573024404
  0
ELLIPSE
  5
F9
330
8D
100
AcDbEntity
  8
AM_4
100
AcDbEllipse
 10
-1.486567670682855
 20
-0.2013892028241867
 30
0.0
 11
-0.1303939210191824
 21
0.05265753494272157
 31
0.0
210
0.0
220
0.0
230
1.0
 40
0.211309130870368
 41
1.711945269609617
 42
2.518556725320339
  0
LINE
  5
FA
330
8D
100
AcDbEntity
  8
AM_4
100
AcDbLine
 10
-1.367409620963984
 20
-0.2602304684431305
 30
0.0
 11
-1.387166020917252
 21
-0.2602304684431209
 31
0.0
  0
ELLIPSE
  5
FB
330
8D
100
AcDbEntity
  8
AM_4
100
AcDbEllipse
 10
-1.486567670682854
 20
-0.2013892028241879
 30
0.0
 11
-0.1303939210191738
 21
0.05265753494273431
 31
0.0
210
0.0
220
0.0
230
1.0
 40
0.2113091308703491
 41
2.800469246484372
 42
3.60708070219513
  0
LINE
  5
FC
330
8D
100
AcDbEntity
  8
AM_4
100
AcDbLine
 10
-1.377074391215495
 20
-0.2258378743019628
 30
0.0
 11
-1.365052861033688
 21
-0.2360765106845276
 31
0.0
  0
LWPOLYLINE
  5
FD
330
8D
100
AcDbEntity
  8
AM_4
100
AcDbPolyline
 90
        3
 70
     0
 43
0.0
 10
-1.421389714604923
 20
-0.2689146070947222
 10
-1.449452014573767
 20
-0.251275593729576
 10
-1.479240119411754
 20
-0.2360765106845274
  0
LINE
  5
FE
330
8D
100
AcDbEntity
  8
AM_4
100
AcDbLine
 10
-1.479240119411754
 20
-0.2360765106845274
 30
0.0
 11
-1.505248928437738
 21
-0.2258378743019626
 31
0.0
  0
LWPOLYLINE
  5
FF
330
8D
100
AcDbEntity
  8
AM_4
100
AcDbPolyline
 90
        4
 70
     0
 43
0.0
 10
-1.505248928437738
 20
-0.2258378743019626
 10
-1.528238963129978
 20
-0.2189176876709014
 10
-1.550244832990663
 20
-0.2138633349839127
 10
-1.572566093942783
 20
-0.2099962668917053
  0
LINE
  5
100
330
8D
100
AcDbEntity
  8
AM_4
100
AcDbLine
 10
-1.572566093942783
 20
-0.2099962668917053
 30
0.0
 11
-1.584253340162328
 21
-0.2389369657326276
 31
0.0
  0
LWPOLYLINE
  5
101
330
8D
100
AcDbEntity
  8
AM_4
100
AcDbPolyline
 90
        3
 70
     0
 43
0.0
 10
-1.584253340162328
 20
-0.2389369657326276
 10
-1.554573518928526
 20
-0.2560939713202353
 10
-1.52354883597627
 20
-0.2711532636537956
  0
LINE
  5
102
330
8D
100
AcDbEntity
  8
AM_4
100
AcDbLine
 10
-1.52354883597627
 20
-0.2711532636537956
 30
0.0
 11
-1.497540026950287
 21
-0.2813919000363599
 31
0.0
  0
LWPOLYLINE
  5
103
330
8D
100
AcDbEntity
  8
AM_4
100
AcDbPolyline
 90
        3
 70
     0
 43
0.0
 10
-1.497540026950287
 20
-0.2813919000363599
 10
-1.465889476096263
 20
-0.2911775952746242
 10
-1.433445363915902
 20
-0.2987675689889718
  0
LINE
  5
104
330
8D
100
AcDbEntity
  8
AM_4
100
AcDbLine
 10
-1.421389714604923
 20
-0.2689146070947222
 30
0.0
 11
-1.433445363915902
 21
-0.2987675689889718
 31
0.0
  0
ARC
  5
105
330
8D
100
AcDbEntity
  8
AM_4
100
AcDbCircle
 10
-1.415951535187558
 20
0.0000000000000004
 30
0.0
 40
0.1999999999999996
100
AcDbArc
 50
90.0
 51
219.6389926049312
  0
LWPOLYLINE
  5
106
330
8D
100
AcDbEntity
  8
AM_4
100
AcDbPolyline
 90
       10
 70
     0
 43
0.0
 10
-1.57015481456306
 20
-0.1273630188747719
 10
-1.568490585496886
 20
-0.1291842652280562
 10
-1.562213038229223
 20
-0.1344729790611519
 10
-1.553055439166502
 20
-0.1405186270901959
 10
-1.541759250004491
 20
-0.146827078301712
 10
-1.52801809886374
 20
-0.1535654953592165
 10
-1.512956609124259
 20
-0.1601799433259583
 10
-1.496163186304599
 20
-0.1668493358980661
 10
-1.478763850150603
 20
-0.1731116383367605
 10
-1.4605206353715
 20
-0.1790373738502115
  0
ELLIPSE
  5
107
330
8D
100
AcDbEntity
  8
AM_4
100
AcDbEllipse
 10
-1.415951535187557
 20
0.0
 30
0.0
 11
1.224646799147353E-17
 21
0.2
 31
0.0
210
0.0
220
0.0
230
1.0
 40
0.4999999999999994
 41
0.0
 42
2.679646633022829
  0
LINE
  5
108
330
8D
100
AcDbEntity
  8
AM_4
100
AcDbLine
 10
-1.351443355856774
 20
0.2
 30
0.0
 11
-1.415951535187557
 21
0.2
 31
0.0
  0
LINE
  5
109
330
8D
100
AcDbEntity
  8
AM_4
100
AcDbLine
 10
-1.381045316785444
 20
-0.2
 30
0.0
 11
-1.35144599994415
 21
-0.2
 31
0.0
  0
LWPOLYLINE
  5
10A
330
8D
100
AcDbEntity
  8
AM_4
100
AcDbPolyline
 90
        8
 70
     0
 43
0.0
 10
-1.380897532558536
 20
-0.1999999999699528
 10
-1.38238464979784
 20
-0.1999786710855127
 10
-1.393258250274589
 20
-0.1988321115509052
 10
-1.405656571988571
 20
-0.1961649429984259
 10
-1.420080002354563
 20
-0.1920694300574957
 10
-1.435592982215381
 20
-0.1870948030566195
 10
-1.452686386002352
 20
-0.181500594761393
 10
-1.460520635371517
 20
-0.1790373738501784
  0
ELLIPSE
  5
10B
330
8D
100
AcDbEntity
  8
AM_4
100
AcDbEllipse
 10
-1.202151513628274
 20
-0.0000000000000003
 30
0.0
 11
1.339457436567426E-17
 21
0.2187500000000013
 31
0.0
210
0.0
220
0.0
230
1.0
 40
0.4999999999999979
 41
1.403528384283086
 42
1.738064269306705
  0
LINE
  5
10C
330
8D
100
AcDbEntity
  8
AM_4
100
AcDbLine
 10
-1.344048968010717
 20
0.2187499999999999
 30
0.0
 11
-1.31
 21
0.2187499999999999
 31
0.0
  0
LWPOLYLINE
  5
10D
330
8D
100
AcDbEntity
  8
AM_4
100
AcDbPolyline
 90
        4
 70
     0
 43
0.0
 10
-1.383475582545641
 20
0.109375
 10
-1.375056085875986
 20
0.1367187499999999
 10
-1.365615932561718
 20
0.1640624999999999
 10
-1.344048968010717
 20
0.2187499999999999
  0
LWPOLYLINE
  5
10E
330
8D
100
AcDbEntity
  8
AM_4
100
AcDbPolyline
 90
        4
 70
     0
 43
0.0
 10
-1.407196653703332
 20
0.0
 10
-1.397242446274058
 20
0.0544416102741495
 10
-1.390883365664477
 20
0.0818700010907651
 10
-1.383475582545641
 20
0.109375
  0
LWPOLYLINE
  5
10F
330
8D
100
AcDbEntity
  8
AM_4
100
AcDbPolyline
 90
        3
 70
     0
 43
0.0
 10
-1.309879107630909
 20
0.0683889525817626
 10
-1.31473269215112
 20
0.0546875
 10
-1.336299656702121
 20
0.0
  0
LINE
  5
110
330
8D
100
AcDbEntity
  8
AM_4
100
AcDbLine
 10
-1.407196653703332
 20
0.0
 30
0.0
 11
-1.336299656702121
 21
0.0
 31
0.0
  0
LWPOLYLINE
  5
111
330
8D
100
AcDbEntity
  8
AM_4
100
AcDbPolyline
 90
        4
 70
     0
 43
0.0
 10
-1.383475582545641
 20
-0.1093749999999999
 10
-1.39084300729914
 20
-0.0820312499999999
 10
-1.397189775408025
 20
-0.0546875
 10
-1.407196653703332
 20
0.0
  0
LWPOLYLINE
  5
112
330
8D
100
AcDbEntity
  8
AM_4
100
AcDbPolyline
 90
        4
 70
     0
 43
0.0
 10
-1.344048968010717
 20
-0.21875
 10
-1.36552663892834
 20
-0.1643083897258504
 10
-1.375003347140171
 20
-0.1368799989092348
 10
-1.383475582545641
 20
-0.1093749999999999
  0
LINE
  5
113
330
8D
100
AcDbEntity
  8
AM_4
100
AcDbLine
 10
-1.344048968010717
 20
-0.21875
 30
0.0
 11
-1.31
 21
-0.21875
 31
0.0
  0
LWPOLYLINE
  5
114
330
8D
100
AcDbEntity
  8
AM_4
100
AcDbPolyline
 90
        3
 70
     0
 43
0.0
 10
-1.336299656702121
 20
0.0
 10
-1.314821985784498
 20
-0.0544416102741496
 10
-1.309878449218869
 20
-0.0683908591774622
  0
ENDBLK
  5
90
330
8D
100
AcDbEntity
  8
0
100
AcDbBlockEnd
  0
BLOCK
  5
117
330
115
100
AcDbEntity
  8
0
100
AcDbBlockBegin
  2
3_389925_0_in_125533_4
 70
     2
 10
0.0
 20
0.0
 30
0.0
  3
3_389925_0_in_125533_4
  1

  0
ATTDEF
  5
119
330
115
100
AcDbEntity
  8
AM_6
100
AcDbText
 10
5.924466108268558
 20
0.5614999999999997
 30
0.0
 40
0.5
  1
Set Screw Intermediate Duty Insert Inch Bore
100
AcDbAttributeDefinition
  3

  2
NN
 70
     8
280
     0
  0
ATTDEF
  5
11A
330
115
100
AcDbEntity
  8
AM_6
100
AcDbText
 10
5.924466108268558
 20
0.0614999999999997
 30
0.0
 40
0.5
  1
VSC Intermediate Duty Bearing Inserts
100
AcDbAttributeDefinition
  3

  2
NT
 70
     8
280
     0
  0
ATTDEF
  5
11B
330
115
100
AcDbEntity
  8
AM_6
100
AcDbText
 10
5.924466108268558
 20
-0.4385000000000003
 30
0.0
 40
0.5
  1
389925
100
AcDbAttributeDefinition
  3

  2
NB
 70
     8
280
     0
  0
ATTDEF
  5
11C
330
115
100
AcDbEntity
  8
AM_6
100
AcDbText
 10
5.924466108268558
 20
-0.9385000000000003
 30
0.0
 40
0.5
  1
$PN.
100
AcDbAttributeDefinition
  3

  2
NBSYN
 70
     8
280
     0
  0
ATTDEF
  5
11D
330
115
100
AcDbEntity
  8
AM_6
100
AcDbText
 10
5.924466108268558
 20
-1.4385
 30
0.0
 40
0.5
  1
389925
100
AcDbAttributeDefinition
  3

  2
LINA
 70
     8
280
     0
  0
ATTDEF
  5
11E
330
115
100
AcDbEntity
  8
AM_6
100
AcDbText
 10
5.924466108268558
 20
-1.9385
 30
0.0
 40
0.5
  1
204
100
AcDbAttributeDefinition
  3

  2
SERIES
 70
     8
280
     0
  0
ATTDEF
  5
11F
330
115
100
AcDbEntity
  8
AM_6
100
AcDbText
 10
5.924466108268558
 20
-2.4385
 30
0.0
 40
0.5
  1
3/4
100
AcDbAttributeDefinition
  3

  2
SS
 70
     8
280
     0
  0
ATTDEF
  5
120
330
115
100
AcDbEntity
  8
AM_6
100
AcDbText
 10
5.924466108268558
 20
-2.9385
 30
0.0
 40
0.5
  1
389925
100
AcDbAttributeDefinition
  3

  2
PN
 70
     8
280
     0
  0
ATTDEF
  5
121
330
115
100
AcDbEntity
  8
AM_6
100
AcDbText
 10
5.924466108268558
 20
-3.4385
 30
0.0
 40
0.5
  1
INS-VSC-012
100
AcDbAttributeDefinition
  3

  2
DESCRIPTION
 70
     8
280
     0
  0
ATTDEF
  5
122
330
115
100
AcDbEntity
  8
AM_6
100
AcDbText
 10
5.924466108268558
 20
-3.9385
 30
0.0
 40
0.5
  1
0.25
100
AcDbAttributeDefinition
  3

  2
WEIGHT
 70
     8
280
     0
  0
ATTDEF
  5
123
330
115
100
AcDbEntity
  8
AM_6
100
AcDbText
 10
5.924466108268558
 20
-4.4385
 30
0.0
 40
0.5
  1
1.23
100
AcDbAttributeDefinition
  3

  2
A
 70
     8
280
     0
  0
ATTDEF
  5
124
330
115
100
AcDbEntity
  8
AM_6
100
AcDbText
 10
5.924466108268558
 20
-4.9385
 30
0.0
 40
0.5
  1
0.58
100
AcDbAttributeDefinition
  3

  2
C
 70
     8
280
     0
  0
ATTDEF
  5
125
330
115
100
AcDbEntity
  8
AM_6
100
AcDbText
 10
5.924466108268558
 20
-5.4385
 30
0.0
 40
0.5
  1
1.8504
100
AcDbAttributeDefinition
  3

  2
D
 70
     8
280
     0
  0
ATTDEF
  5
126
330
115
100
AcDbEntity
  8
AM_6
100
AcDbText
 10
5.924466108268558
 20
-5.9385
 30
0.0
 40
0.5
  1
0.150
100
AcDbAttributeDefinition
  3

  2
J
 70
     8
280
     0
  0
ATTDEF
  5
127
330
115
100
AcDbEntity
  8
AM_6
100
AcDbText
 10
5.924466108268558
 20
-6.4385
 30
0.0
 40
0.5
  1
1.12
100
AcDbAttributeDefinition
  3

  2
L
 70
     8
280
     0
  0
ATTDEF
  5
128
330
115
100
AcDbEntity
  8
AM_6
100
AcDbText
 10
5.924466108268558
 20
-6.9385
 30
0.0
 40
0.5
  1
1/4-28
100
AcDbAttributeDefinition
  3

  2
N
 70
     8
280
     0
  0
ATTDEF
  5
129
330
115
100
AcDbEntity
  8
AM_6
100
AcDbText
 10
5.924466108268558
 20
-7.4385
 30
0.0
 40
0.5
  1
0.50
100
AcDbAttributeDefinition
  3

  2
W
 70
     8
280
     0
  0
ATTDEF
  5
12A
330
115
100
AcDbEntity
  8
AM_6
100
AcDbText
 10
5.924466108268558
 20
-7.9385
 30
0.0
 40
0.5
  1
0.73
100
AcDbAttributeDefinition
  3

  2
Y
 70
     8
280
     0
  0
ATTDEF
  5
12B
330
115
100
AcDbEntity
  8
AM_6
100
AcDbText
 10
5.924466108268558
 20
-8.438500000000001
 30
0.0
 40
0.5
  1
baldor
100
AcDbAttributeDefinition
  3

  2
COMPANY
 70
     8
280
     0
  0
LINE
  5
12C
330
115
100
AcDbEntity
  8
AM_9
100
AcDbLine
 10
-0.8953420836771642
 20
0.2333333333333381
 30
0.0
 11
-0.9099727272727274
 21
0.2333333333333381
 31
0.0
  0
LINE
  5
12D
330
115
100
AcDbEntity
  8
AM_9
100
AcDbLine
 10
-0.9627
 20
0.1806060606060618
 30
0.0
 11
-0.9627
 21
0.1193939393939382
 31
0.0
  0
ARC
  5
12E
330
115
100
AcDbEntity
  8
AM_9
100
AcDbCircle
 10
-0.9099727272727509
 20
0.119393939393916
 30
0.0
 40
0.0527272727272491
100
AcDbArc
 50
180.0
 51
256.0451821237066
  0
ARC
  5
12F
330
115
100
AcDbEntity
  8
AM_9
100
AcDbCircle
 10
-0.9099727272727273
 20
0.1806060606060654
 30
0.0
 40
0.0527272727272727
100
AcDbArc
 50
90.0
 51
180.0
  0
LINE
  5
130
330
115
100
AcDbEntity
  8
AM_9
100
AcDbLine
 10
-0.9099727272727274
 20
0.2333333333333381
 30
0.0
 11
-0.9099727272727275
 21
0.145000770584603
 31
0.0
  0
ELLIPSE
  5
131
330
115
100
AcDbEntity
  8
AM_9
100
AcDbEllipse
 10
0.3265056194416533
 20
-0.48
 30
0.0
 11
-1.940759014948779E-17
 21
-0.1056500000000006
 31
0.0
210
0.0
220
0.0
230
1.0
 40
0.4226182617406967
 41
4.541303994515996
 42
4.883473966253383
  0
ELLIPSE
  5
132
330
115
100
AcDbEntity
  8
AM_9
100
AcDbEllipse
 10
0.3265056194416523
 20
-0.48
 30
0.0
 11
-1.940759014948760E-17
 21
-0.1056499999999996
 31
0.0
210
0.0
220
0.0
230
1.0
 40
0.4226182617407112
 41
1.399711340926205
 42
1.741881312663588
  0
LINE
  5
133
330
115
100
AcDbEntity
  8
AM_9
100
AcDbLine
 10
0.3397874576044789
 20
-0.5856499999999999
 30
0.0
 11
0.4899953050613648
 21
-0.5856499999999999
 31
0.0
  0
LINE
  5
134
330
115
100
AcDbEntity
  8
AM_9
100
AcDbLine
 10
0.4899953050613648
 20
-0.3743500000000001
 30
0.0
 11
0.3397874576044788
 21
-0.3743500000000001
 31
0.0
  0
LWPOLYLINE
  5
135
330
115
100
AcDbEntity
  8
AM_9
100
AcDbPolyline
 90
        9
 70
     0
 43
0.0
 10
0.3348039495259546
 20
-0.3749878822403471
 10
0.3267409717846803
 20
-0.3783220330798525
 10
0.3186401210250929
 20
-0.3841941355482082
 10
0.310374647976921
 20
-0.3927453859154442
 10
0.3025117658082545
 20
-0.4036275555295989
 10
0.2952488170827334
 20
-0.4169315677190557
 10
0.2892145689492012
 20
-0.4319922202787901
 10
0.2846282967446025
 20
-0.4489706043022074
 10
0.2825078565638841
 20
-0.4620129190071141
  0
LWPOLYLINE
  5
136
330
115
100
AcDbEntity
  8
AM_9
100
AcDbPolyline
 90
        3
 70
     0
 43
0.0
 10
0.3398689967141619
 20
-0.3743500003389613
 10
0.3348700248454075
 20
-0.3749717940373388
 10
0.3348039495259546
 20
-0.3749878822403471
  0
LINE
  5
137
330
115
100
AcDbEntity
  8
AM_9
100
AcDbLine
 10
0.3704433667953232
 20
-0.5000226361533072
 30
0.0
 11
0.3705033823194229
 21
-0.4979870809928856
 31
0.0
  0
LWPOLYLINE
  5
138
330
115
100
AcDbEntity
  8
AM_9
100
AcDbPolyline
 90
       10
 70
     0
 43
0.0
 10
0.3398618433902267
 20
-0.5856499996610387
 10
0.3445441418863451
 20
-0.5850282059626611
 10
0.3509966614737129
 20
-0.5816779669201474
 10
0.3562807615193561
 20
-0.5758058644517917
 10
0.3607251742850297
 20
-0.5672546140845557
 10
0.3642150290785909
 20
-0.5563724444704009
 10
0.3668912530345775
 20
-0.543068432280944
 10
0.3687619493282777
 20
-0.5280077797212095
 10
0.3699892312462147
 20
-0.5110293956977923
 10
0.3704433667953232
 20
-0.5000226361533072
  0
ELLIPSE
  5
139
330
115
100
AcDbEntity
  8
AM_9
100
AcDbEllipse
 10
0.4899953050613647
 20
-0.4800000000000003
 30
0.0
 11
-1.940759014948761E-17
 21
-0.1056499999999996
 31
0.0
210
0.0
220
0.0
230
1.0
 40
0.4226182617406999
 41
1.380342732885181
 42
5.934030347652679
  0
LINE
  5
13A
330
115
100
AcDbEntity
  8
AM_9
100
AcDbLine
 10
0.4691748456233997
 20
-0.5734603790942063
 30
0.0
 11
0.4807324064768904
 21
-0.5878759697101453
 31
0.0
  0
LINE
  5
13B
330
115
100
AcDbEntity
  8
AM_9
100
AcDbLine
 10
0.4807167502379596
 20
-0.3721435581066554
 30
0.0
 11
0.4691748456233997
 21
-0.3865396209057937
 31
0.0
  0
LINE
  5
13C
330
115
100
AcDbEntity
  8
AM_9
100
AcDbLine
 10
0.4788367563654559
 20
-0.374588098183083
 30
0.0
 11
0.4808311465515782
 21
-0.3720008752620371
 31
0.0
  0
LWPOLYLINE
  5
13D
330
115
100
AcDbEntity
  8
AM_9
100
AcDbPolyline
 90
        8
 70
     0
 43
0.0
 10
0.4499923988665569
 20
-0.5000395106356417
 10
0.4491045742616133
 20
-0.4822284890514217
 10
0.4500147533837414
 20
-0.4598204778906074
 10
0.4531065228024725
 20
-0.4379800453564197
 10
0.4582833609184686
 20
-0.4173001194249277
 10
0.4652595569645151
 20
-0.3984720814313567
 10
0.4734389508799019
 20
-0.3826670263227689
 10
0.4788367563654559
 20
-0.374588098183083
  0
LWPOLYLINE
  5
13E
330
115
100
AcDbEntity
  8
AM_9
100
AcDbPolyline
 90
        3
 70
     0
 43
0.0
 10
0.5303974980088361
 20
-0.3749600804090689
 10
0.530620562128208
 20
-0.3754604143309858
 10
0.5338127692355247
 20
-0.383752148102367
  0
LWPOLYLINE
  5
13F
330
115
100
AcDbEntity
  8
AM_9
100
AcDbPolyline
 90
        9
 70
     0
 43
0.0
 10
0.4808311465515782
 20
-0.3720008752620371
 10
0.4826105622103858
 20
-0.369857171201223
 10
0.4914895814990637
 20
-0.3613532227031329
 10
0.500429458042943
 20
-0.3563063440110562
 10
0.5081453280439354
 20
-0.3550252804089242
 10
0.5153407099515209
 20
-0.3568129028160679
 10
0.5215220574686592
 20
-0.3613426351905088
 10
0.526954683933607
 20
-0.3683948464069867
 10
0.5303974980088361
 20
-0.3749600804090689
  0
LWPOLYLINE
  5
140
330
115
100
AcDbEntity
  8
AM_9
100
AcDbPolyline
 90
        5
 70
     0
 43
0.0
 10
-0.1041075761765462
 20
-0.4620129190071141
 10
-0.1053519282317373
 20
-0.4681890258663416
 10
-0.1062800366122504
 20
-0.4810174599789096
 10
-0.1049255088749991
 20
-0.4942398484237812
 10
-0.1041075761765462
 20
-0.4979870809928859
  0
LWPOLYLINE
  5
141
330
115
100
AcDbEntity
  8
AM_9
100
AcDbPolyline
 90
        5
 70
     0
 43
0.0
 10
0.1041075761765462
 20
-0.4979870809928859
 10
0.1053519282317373
 20
-0.4918109741336582
 10
0.1062800366122504
 20
-0.4789825400210901
 10
0.104925508874999
 20
-0.4657601515762186
 10
0.1041075761765462
 20
-0.4620129190071141
  0
LWPOLYLINE
  5
142
330
115
100
AcDbEntity
  8
AM_9
100
AcDbPolyline
 90
        5
 70
     0
 43
0.0
 10
0.2825078565638841
 20
-0.4620129190071141
 10
0.2814115125514544
 20
-0.4706684808282366
 10
0.2810601241585012
 20
-0.4833118997225639
 10
0.2822323941163636
 20
-0.4962563472797456
 10
0.2825078565638841
 20
-0.4979870809928859
  0
LWPOLYLINE
  5
143
330
115
100
AcDbEntity
  8
AM_9
100
AcDbPolyline
 90
       10
 70
     0
 43
0.0
 10
0.2825078565638841
 20
-0.4979870809928859
 10
0.2854709884038013
 20
-0.514837588988128
 10
0.2903079874303672
 20
-0.5311468203574323
 10
0.2964455579189041
 20
-0.5455425212471114
 10
0.3038791655502048
 20
-0.5584890126187653
 10
0.3120227025573683
 20
-0.5691768323363469
 10
0.3207752674565954
 20
-0.577590042822618
 10
0.3291775244012284
 20
-0.5829610683663006
 10
0.3374433377702442
 20
-0.5854993411484918
 10
0.3398618433902267
 20
-0.5856499996610387
  0
LWPOLYLINE
  5
144
330
115
100
AcDbEntity
  8
AM_9
100
AcDbPolyline
 90
        4
 70
     0
 43
0.0
 10
0.3705033823194228
 20
-0.4979870809928855
 10
0.370846752862808
 20
-0.4806220573941661
 10
0.3707688367054849
 20
-0.4713227848077606
 10
0.3705033823194228
 20
-0.4620129190071145
  0
LWPOLYLINE
  5
145
330
115
100
AcDbEntity
  8
AM_9
100
AcDbPolyline
 90
        3
 70
     0
 43
0.0
 10
0.34365650489177
 20
-0.3747524864287691
 10
0.3422106154233087
 20
-0.3745006588515082
 10
0.3398689967141619
 20
-0.3743500003389613
  0
LWPOLYLINE
  5
146
330
115
100
AcDbEntity
  8
AM_9
100
AcDbPolyline
 90
        9
 70
     0
 43
0.0
 10
0.3705033823194228
 20
-0.4620129190071144
 10
0.369775715223554
 20
-0.4451624110118723
 10
0.3684451794989488
 20
-0.4288531796425681
 10
0.3664834924840841
 20
-0.4144574787528889
 10
0.3636547645767978
 20
-0.401510987381235
 10
0.3599067882279574
 20
-0.3908231676636533
 10
0.3549849670988527
 20
-0.3824099571773821
 10
0.3491962676197399
 20
-0.3770389316336995
 10
0.34365650489177
 20
-0.3747524864287691
  0
LINE
  5
147
330
115
100
AcDbEntity
  8
AM_9
100
AcDbLine
 10
0.3749999999999999
 20
-0.7076
 30
0.0
 11
0.3749999999999999
 21
0.4943999999999999
 31
0.0
  0
LINE
  5
148
330
115
100
AcDbEntity
  8
AM_9
100
AcDbLine
 10
-0.3749999999999999
 20
0.4943999999999999
 30
0.0
 11
-0.3749999999999999
 21
-0.7076
 31
0.0
  0
LINE
  5
149
330
115
100
AcDbEntity
  8
AM_9
100
AcDbLine
 10
0.3749999999999999
 20
0.4943999999999999
 30
0.0
 11
0.3805999999999999
 21
0.5
 31
0.0
  0
LINE
  5
14A
330
115
100
AcDbEntity
  8
AM_9
100
AcDbLine
 10
-0.3805999999999999
 20
0.5
 30
0.0
 11
-0.3749999999999999
 21
0.4943999999999999
 31
0.0
  0
LINE
  5
14B
330
115
100
AcDbEntity
  8
AM_9
100
AcDbLine
 10
-0.3749999999999999
 20
-0.7076
 30
0.0
 11
-0.3974
 21
-0.73
 31
0.0
  0
LINE
  5
14C
330
115
100
AcDbEntity
  8
AM_9
100
AcDbLine
 10
0.3974
 20
-0.73
 30
0.0
 11
0.3749999999999999
 21
-0.7076
 31
0.0
  0
LINE
  5
14D
330
115
100
AcDbEntity
  8
AM_9
100
AcDbLine
 10
0.56
 20
0.29
 30
0.0
 11
0.56
 21
0.4944
 31
0.0
  0
LINE
  5
14E
330
115
100
AcDbEntity
  8
AM_9
100
AcDbLine
 10
-0.56
 20
0.4944
 30
0.0
 11
-0.56
 21
0.29
 31
0.0
  0
LINE
  5
14F
330
115
100
AcDbEntity
  8
AM_9
100
AcDbLine
 10
-0.56
 20
0.4944
 30
0.0
 11
0.56
 21
0.4944
 31
0.0
  0
LINE
  5
150
330
115
100
AcDbEntity
  8
AM_9
100
AcDbLine
 10
-0.5544
 20
0.5
 30
0.0
 11
-0.56
 21
0.4944
 31
0.0
  0
LINE
  5
151
330
115
100
AcDbEntity
  8
AM_9
100
AcDbLine
 10
0.56
 20
0.4944
 30
0.0
 11
0.5544
 21
0.5
 31
0.0
  0
ARC
  5
152
330
115
100
AcDbEntity
  8
AM_9
100
AcDbCircle
 10
0.0
 20
-0.48
 30
0.0
 40
0.10565
100
AcDbArc
 50
349.0878128758746
 51
190.9121871241254
  0
LWPOLYLINE
  5
153
330
115
100
AcDbEntity
  8
AM_9
100
AcDbPolyline
 90
        7
 70
     0
 43
0.0
 10
-0.1119216654726854
 20
-0.5000403172867981
 10
-0.1124620231308743
 20
-0.4959765990653882
 10
-0.1132578349338151
 20
-0.4737993397596679
 10
-0.1104537176002848
 20
-0.4517907162304093
 10
-0.103858824563319
 20
-0.4299607533631121
 10
-0.0950424257663891
 20
-0.4119786936214411
 10
-0.0832036207187752
 20
-0.3952244712610467
  0
LWPOLYLINE
  5
154
330
115
100
AcDbEntity
  8
AM_9
100
AcDbPolyline
 90
        9
 70
     0
 43
0.0
 10
0.061275363561506
 20
-0.3749237593784302
 10
0.0623405328797075
 20
-0.3756899706422768
 10
0.0758047034486601
 20
-0.3871742691540825
 10
0.0881117118947991
 20
-0.4014751146454608
 10
0.0983285297852578
 20
-0.4178940405657829
 10
0.1064150125483664
 20
-0.4369417927892746
 10
0.1115464772358181
 20
-0.457576008665126
 10
0.1133970666430819
 20
-0.4793962901665567
 10
0.111924477567032
 20
-0.5000213486295751
  0
LWPOLYLINE
  5
155
330
115
100
AcDbEntity
  8
AM_9
100
AcDbPolyline
 90
        9
 70
     0
 43
0.0
 10
-0.0610641186050399
 20
-0.3747740157725916
 10
-0.0569796133500695
 20
-0.372017683964144
 10
-0.0397079896224591
 20
-0.3629620936937088
 10
-0.0203695379093481
 20
-0.3570464601473121
 10
-0.0027903323810416
 20
-0.3550381012211928
 10
0.0154462643290195
 20
-0.3561727326609385
 10
0.0317471957741022
 20
-0.3600301228628717
 10
0.0476187948355901
 20
-0.3666223279697636
 10
0.061275363561506
 20
-0.3749237593784302
  0
LWPOLYLINE
  5
156
330
115
100
AcDbEntity
  8
AM_9
100
AcDbPolyline
 90
        3
 70
     0
 43
0.0
 10
-0.0832036207187752
 20
-0.3952244712610467
 10
-0.0711158555262118
 20
-0.3827652078022306
 10
-0.0610641186050399
 20
-0.3747740157725916
  0
LWPOLYLINE
  5
157
330
115
100
AcDbEntity
  8
AM_9
100
AcDbPolyline
 90
        8
 70
     0
 43
0.0
 10
0.5338127692355247
 20
-0.383752148102367
 10
0.5374045600335985
 20
-0.3966849076373765
 10
0.540220215762597
 20
-0.4112495472648284
 10
0.5426012297446388
 20
-0.4297828783841166
 10
0.5441230958182615
 20
-0.4495510307966065
 10
0.5448779570464151
 20
-0.4713670033337098
 10
0.5447864701259468
 20
-0.4934163443812151
 10
0.544592049269657
 20
-0.5000602055256633
  0
LINE
  5
158
330
115
100
AcDbEntity
  8
AM_9
100
AcDbLine
 10
0.5600000000000003
 20
-0.5
 30
0.0
 11
0.5600000000000003
 21
-0.29
 31
0.0
  0
LINE
  5
159
330
115
100
AcDbEntity
  8
AM_9
100
AcDbLine
 10
-0.5600000000000003
 20
-0.29
 30
0.0
 11
-0.5600000000000003
 21
-0.5
 31
0.0
  0
LINE
  5
15A
330
115
100
AcDbEntity
  8
AM_9
100
AcDbLine
 10
0.8752
 20
-0.1799999999999999
 30
0.0
 11
0.8752
 21
-0.12
 31
0.0
  0
LINE
  5
15B
330
115
100
AcDbEntity
  8
AM_9
100
AcDbLine
 10
-0.8752
 20
-0.12
 30
0.0
 11
-0.8752
 21
-0.1799999999999999
 31
0.0
  0
LINE
  5
15C
330
115
100
AcDbEntity
  8
AM_9
100
AcDbLine
 10
-0.8566113709062414
 20
-0.29
 30
0.0
 11
0.856611370903085
 21
-0.29
 31
0.0
  0
ARC
  5
15D
330
115
100
AcDbEntity
  8
AM_9
100
AcDbCircle
 10
0.8566113704592067
 20
-0.2599999999999999
 30
0.0
 40
0.0300000000000001
100
AcDbArc
 50
270.0
 51
343.1158262695214
  0
ARC
  5
15E
330
115
100
AcDbEntity
  8
AM_9
100
AcDbCircle
 10
-0.8566113704592067
 20
-0.2599999999999999
 30
0.0
 40
0.03
100
AcDbArc
 50
196.8841737304786
 51
270.0
  0
LINE
  5
15F
330
115
100
AcDbEntity
  8
AM_9
100
AcDbLine
 10
-0.8566113704592067
 20
0.29
 30
0.0
 11
0.8566113704560502
 21
0.29
 31
0.0
  0
ARC
  5
160
330
115
100
AcDbEntity
  8
AM_9
100
AcDbCircle
 10
0.8566113704592069
 20
0.2600000000000003
 30
0.0
 40
0.0299999999999997
100
AcDbArc
 50
16.88416970378539
 51
90.0
  0
ARC
  5
161
330
115
100
AcDbEntity
  8
AM_9
100
AcDbCircle
 10
-0.8566113704592069
 20
0.2600000000000003
 30
0.0
 40
0.0299999999999997
100
AcDbArc
 50
90.0
 51
163.1158302962146
  0
LINE
  5
162
330
115
100
AcDbEntity
  8
AM_9
100
AcDbLine
 10
-0.885318185823121
 20
-0.2687131367292226
 30
0.0
 11
0.8853181858231396
 21
-0.2687131367292226
 31
0.0
  0
LINE
  5
163
330
115
100
AcDbEntity
  8
AM_9
100
AcDbLine
 10
-0.907521371649175
 20
-0.18
 30
0.0
 11
0.9075213716491937
 21
-0.18
 31
0.0
  0
ARC
  5
164
330
115
100
AcDbEntity
  8
AM_9
100
AcDbCircle
 10
0.0000000000143271
 20
-0.000000000003581
 30
0.0
 40
0.9251999999852683
100
AcDbArc
 50
343.1158262694767
 51
348.7814152155348
  0
ARC
  5
165
330
115
100
AcDbEntity
  8
AM_9
100
AcDbCircle
 10
-0.0000000000143695
 20
-0.0000000000035916
 30
0.0
 40
0.9251999999852246
100
AcDbArc
 50
191.2185847844651
 51
196.8841737305234
  0
LINE
  5
166
330
115
100
AcDbEntity
  8
AM_9
100
AcDbLine
 10
-0.917384891961929
 20
-0.12
 30
0.0
 11
0.9173848919619264
 21
-0.12
 31
0.0
  0
LINE
  5
167
330
115
100
AcDbEntity
  8
AM_9
100
AcDbLine
 10
-0.8853181864354719
 20
0.2687131347117351
 30
0.0
 11
0.8853181864354693
 21
0.2687131347117351
 31
0.0
  0
ARC
  5
168
330
115
100
AcDbEntity
  8
AM_9
100
AcDbCircle
 10
-0.0000000000000486
 20
-0.0000000000000038
 30
0.0
 40
0.9252000000000452
100
AcDbArc
 50
352.5476457553009
 51
16.88417359991036
  0
ARC
  5
169
330
115
100
AcDbEntity
  8
AM_9
100
AcDbCircle
 10
0.000000000006269
 20
-0.0000000000017061
 30
0.0
 40
0.9252000000064918
100
AcDbArc
 50
163.1158264001007
 51
165.4105834918878
  0
ARC
  5
16A
330
115
100
AcDbEntity
  8
AM_9
100
AcDbCircle
 10
-0.0000000000001514
 20
-0.0000000000000163
 30
0.0
 40
0.9251999999998453
100
AcDbArc
 50
175.7654304922945
 51
187.4523542446998
  0
LINE
  5
16B
330
115
100
AcDbEntity
  8
AM_9
100
AcDbLine
 10
-0.9226813731329171
 20
0.0682211379736625
 30
0.0
 11
-0.8952935806520954
 21
0.2333333333289853
 31
0.0
  0
LINE
  5
16E
330
115
100
AcDbEntity
  8
AM_7
100
AcDbLine
 10
0.0
 20
-0.7915
 30
0.0
 11
0.0
 21
0.5614999999999997
 31
0.0
  0
LINE
  5
16F
330
115
100
AcDbEntity
  8
AM_7
100
AcDbLine
 10
-0.982835
 20
0.15
 30
0.0
 11
-0.539865
 21
0.15
 31
0.0
  0
LINE
  5
170
330
115
100
AcDbEntity
  8
AM_7
100
AcDbLine
 10
-0.1109325
 20
-0.48
 30
0.0
 11
0.1109325000000001
 21
-0.48
 31
0.0
  0
ELLIPSE
  5
171
330
115
100
AcDbEntity
  8
AM_4
100
AcDbEllipse
 10
0.4899953050613649
 20
-0.4800000000000001
 30
0.0
 11
-1.940759014948764E-17
 21
-0.1056499999999998
 31
0.0
210
0.0
220
0.0
230
1.0
 40
0.4226182617406993
 41
5.934030347652675
 42
7.663528040064765
  0
LWPOLYLINE
  5
172
330
115
100
AcDbEntity
  8
AM_4
100
AcDbPolyline
 90
        8
 70
     0
 43
0.0
 10
0.4808276837413214
 20
-0.5879948037422363
 10
0.4786550220960035
 20
-0.5851661634686349
 10
0.4712237383760007
 20
-0.5735368984229126
 10
0.4645639028372187
 20
-0.5599252774713024
 10
0.4583973418000495
 20
-0.543079411798909
 10
0.4536582412162933
 20
-0.5247531167090373
 10
0.4503723978662087
 20
-0.5038032238504394
 10
0.4499923988665569
 20
-0.5000395106356417
  0
LINE
  5
173
330
115
100
AcDbEntity
  8
AM_4
100
AcDbLine
 10
-0.5376000000000001
 20
-0.73
 30
0.0
 11
0.5376000000000001
 21
-0.73
 31
0.0
  0
LINE
  5
174
330
115
100
AcDbEntity
  8
AM_4
100
AcDbLine
 10
0.5376000000000001
 20
-0.73
 30
0.0
 11
0.56
 21
-0.7076
 31
0.0
  0
LINE
  5
175
330
115
100
AcDbEntity
  8
AM_4
100
AcDbLine
 10
-0.56
 20
-0.7076
 30
0.0
 11
-0.5376000000000001
 21
-0.73
 31
0.0
  0
ARC
  5
176
330
115
100
AcDbEntity
  8
AM_4
100
AcDbCircle
 10
0.0
 20
-0.48
 30
0.0
 40
0.10565
100
AcDbArc
 50
190.9121871241253
 51
349.0878128758748
  0
LINE
  5
177
330
115
100
AcDbEntity
  8
AM_4
100
AcDbLine
 10
-0.56
 20
-0.7076
 30
0.0
 11
0.5600000000000003
 21
-0.7076
 31
0.0
  0
LWPOLYLINE
  5
178
330
115
100
AcDbEntity
  8
AM_4
100
AcDbPolyline
 90
       19
 70
     0
 43
0.0
 10
0.111924477567032
 20
-0.5000213486295751
 10
0.1116420940900888
 20
-0.5018419448917703
 10
0.1063007045508107
 20
-0.523398175555723
 10
0.0971483385110164
 20
-0.5443160346714869
 10
0.0850842378866688
 20
-0.5624777832305131
 10
0.0694636460153879
 20
-0.5786776489954986
 10
0.0528070750521224
 20
-0.5905386686795365
 10
0.03352014993438
 20
-0.5993791400028164
 10
0.0156981757023133
 20
-0.6037885196500891
 10
-0.0032732868870879
 20
-0.6049475652236949
 10
-0.0200723473224726
 20
-0.6030132863473496
 10
-0.0367763039379823
 20
-0.5982021240491617
 10
-0.0520968738971051
 20
-0.5909489735815412
 10
-0.0664410482231168
 20
-0.5811799392482297
 10
-0.0797544467241622
 20
-0.5687114699713943
 10
-0.0912776332697692
 20
-0.5540082856785368
 10
-0.1010901122836563
 20
-0.5364841620804297
 10
-0.108243548771575
 20
-0.5171435559051619
 10
-0.1119216654726854
 20
-0.5000403172867981
  0
LWPOLYLINE
  5
179
330
115
100
AcDbEntity
  8
AM_4
100
AcDbPolyline
 90
       13
 70
     0
 43
0.0
 10
0.544592049269657
 20
-0.5000602055256633
 10
0.5438119709258074
 20
-0.5155785500981214
 10
0.5418886324208909
 20
-0.5367230174932409
 10
0.5389343286061564
 20
-0.5560506126053004
 10
0.5348172296864094
 20
-0.5730909486916286
 10
0.5296960782976067
 20
-0.5865128891867717
 10
0.5233521108666976
 20
-0.5966670704252712
 10
0.5165963666996598
 20
-0.6024978927198319
 10
0.5089927519062479
 20
-0.6049407743763593
 10
0.5015301136741086
 20
-0.6040479496961182
 10
0.4937772863723301
 20
-0.600290938099593
 10
0.4861055800537188
 20
-0.5939126992076563
 10
0.4808276837413214
 20
-0.5879948037422363
  0
LINE
  5
17A
330
115
100
AcDbEntity
  8
AM_4
100
AcDbLine
 10
0.5600000000000003
 20
-0.7076
 30
0.0
 11
0.5600000000000003
 21
-0.5
 31
0.0
  0
LINE
  5
17B
330
115
100
AcDbEntity
  8
AM_4
100
AcDbLine
 10
-0.5600000000000003
 20
-0.5
 30
0.0
 11
-0.5600000000000003
 21
-0.7076
 31
0.0
  0
CIRCLE
  5
17D
330
115
100
AcDbEntity
  8
AM_5
100
AcDbCircle
 10
0.0000000000000001
 20
-0.4800000000000001
 30
0.0
 40
0.1250000000000001
  0
ENDBLK
  5
118
330
115
100
AcDbEntity
  8
0
100
AcDbBlockEnd
  0
BLOCK
  5
180
330
17E
100
AcDbEntity
  8
0
100
AcDbBlockBegin
  2
4_125533vsc_0_in_125533_4
 70
     2
 10
0.0
 20
0.0
 30
0.0
  3
4_125533vsc_0_in_125533_4
  1

  0
ATTDEF
  5
182
330
17E
100
AcDbEntity
  8
AM_6
100
AcDbText
 10
7.248240000000004
 20
0.7589999999999998
 30
0.0
 40
0.5
  1
NSTU-VSC - Body
100
AcDbAttributeDefinition
  3

  2
NN
 70
     8
280
     0
  0
ATTDEF
  5
183
330
17E
100
AcDbEntity
  8
AM_6
100
AcDbText
 10
7.248240000000004
 20
0.2589999999999998
 30
0.0
 40
0.5
  1
VSC Intermediate Duty Narrow Slot Take-Up Bearings
100
AcDbAttributeDefinition
  3

  2
NT
 70
     8
280
     0
  0
ATTDEF
  5
184
330
17E
100
AcDbEntity
  8
AM_6
100
AcDbText
 10
7.248240000000004
 20
-0.2410000000000002
 30
0.0
 40
0.5
  1
125533vsc
100
AcDbAttributeDefinition
  3

  2
NB
 70
     8
280
     0
  0
ATTDEF
  5
185
330
17E
100
AcDbEntity
  8
AM_6
100
AcDbText
 10
7.248240000000004
 20
-0.7410000000000002
 30
0.0
 40
0.5
  1
$PN.
100
AcDbAttributeDefinition
  3

  2
NBSYN
 70
     8
280
     0
  0
ATTDEF
  5
186
330
17E
100
AcDbEntity
  8
AM_6
100
AcDbText
 10
7.248240000000004
 20
-1.241
 30
0.0
 40
0.5
  1
125533vsc
100
AcDbAttributeDefinition
  3

  2
LINA
 70
     8
280
     0
  0
ATTDEF
  5
187
330
17E
100
AcDbEntity
  8
AM_6
100
AcDbText
 10
7.248240000000004
 20
-1.741
 30
0.0
 40
0.5
  1
3/4
100
AcDbAttributeDefinition
  3

  2
SS
 70
     8
280
     0
  0
ATTDEF
  5
188
330
17E
100
AcDbEntity
  8
AM_6
100
AcDbText
 10
7.248240000000004
 20
-2.241
 30
0.0
 40
0.5
  1
0.750000
100
AcDbAttributeDefinition
  3

  2
SS1
 70
     8
280
     0
  0
ATTDEF
  5
189
330
17E
100
AcDbEntity
  8
AM_6
100
AcDbText
 10
7.248240000000004
 20
-2.741
 30
0.0
 40
0.5
  1
125533vsc
100
AcDbAttributeDefinition
  3

  2
PN
 70
     8
280
     0
  0
ATTDEF
  5
18A
330
17E
100
AcDbEntity
  8
AM_6
100
AcDbText
 10
7.248240000000004
 20
-3.241
 30
0.0
 40
0.5
  1
204
100
AcDbAttributeDefinition
  3

  2
RS
 70
     8
280
     0
  0
ATTDEF
  5
18B
330
17E
100
AcDbEntity
  8
AM_6
100
AcDbText
 10
7.248240000000004
 20
-3.741
 30
0.0
 40
0.5
  1
NSTU-VSC-012
100
AcDbAttributeDefinition
  3

  2
DESCRIPTION
 70
     8
280
     0
  0
ATTDEF
  5
18C
330
17E
100
AcDbEntity
  8
AM_6
100
AcDbText
 10
7.248240000000004
 20
-4.241
 30
0.0
 40
0.5
  1
1.850400
100
AcDbAttributeDefinition
  3

  2
BOD
 70
     8
280
     0
  0
ATTDEF
  5
18D
330
17E
100
AcDbEntity
  8
AM_6
100
AcDbText
 10
7.248240000000004
 20
-4.741
 30
0.0
 40
0.5
  1
1.23
100
AcDbAttributeDefinition
  3

  2
A
 70
     8
280
     0
  0
ATTDEF
  5
18E
330
17E
100
AcDbEntity
  8
AM_6
100
AcDbText
 10
7.248240000000004
 20
-5.241
 30
0.0
 40
0.5
  1
1.230000
100
AcDbAttributeDefinition
  3

  2
A1
 70
     8
280
     0
  0
ATTDEF
  5
18F
330
17E
100
AcDbEntity
  8
AM_6
100
AcDbText
 10
7.248240000000004
 20
-5.741
 30
0.0
 40
0.5
  1
3.50
100
AcDbAttributeDefinition
  3

  2
B
 70
     8
280
     0
  0
ATTDEF
  5
190
330
17E
100
AcDbEntity
  8
AM_6
100
AcDbText
 10
7.248240000000004
 20
-6.241
 30
0.0
 40
0.5
  1
3.500000
100
AcDbAttributeDefinition
  3

  2
B1
 70
     8
280
     0
  0
ATTDEF
  5
191
330
17E
100
AcDbEntity
  8
AM_6
100
AcDbText
 10
7.248240000000004
 20
-6.741
 30
0.0
 40
0.5
  1
0.250
100
AcDbAttributeDefinition
  3

  2
C
 70
     8
280
     0
  0
ATTDEF
  5
192
330
17E
100
AcDbEntity
  8
AM_6
100
AcDbText
 10
7.248240000000004
 20
-7.241
 30
0.0
 40
0.5
  1
0.250000
100
AcDbAttributeDefinition
  3

  2
C1
 70
     8
280
     0
  0
ATTDEF
  5
193
330
17E
100
AcDbEntity
  8
AM_6
100
AcDbText
 10
7.248240000000004
 20
-7.741
 30
0.0
 40
0.5
  1
1.50
100
AcDbAttributeDefinition
  3

  2
D
 70
     8
280
     0
  0
ATTDEF
  5
194
330
17E
100
AcDbEntity
  8
AM_6
100
AcDbText
 10
7.248240000000004
 20
-8.241
 30
0.0
 40
0.5
  1
1.500000
100
AcDbAttributeDefinition
  3

  2
D1
 70
     8
280
     0
  0
ATTDEF
  5
195
330
17E
100
AcDbEntity
  8
AM_6
100
AcDbText
 10
7.248240000000004
 20
-8.741
 30
0.0
 40
0.5
  1
2.19
100
AcDbAttributeDefinition
  3

  2
E
 70
     8
280
     0
  0
ATTDEF
  5
196
330
17E
100
AcDbEntity
  8
AM_6
100
AcDbText
 10
7.248240000000004
 20
-9.241
 30
0.0
 40
0.5
  1
2.190000
100
AcDbAttributeDefinition
  3

  2
E1
 70
     8
280
     0
  0
ATTDEF
  5
197
330
17E
100
AcDbEntity
  8
AM_6
100
AcDbText
 10
7.248240000000004
 20
-9.741
 30
0.0
 40
0.5
  1
3/4
100
AcDbAttributeDefinition
  3

  2
F
 70
     8
280
     0
  0
ATTDEF
  5
198
330
17E
100
AcDbEntity
  8
AM_6
100
AcDbText
 10
7.248240000000004
 20
-10.241
 30
0.0
 40
0.5
  1
0.750000
100
AcDbAttributeDefinition
  3

  2
F1
 70
     8
280
     0
  0
ATTDEF
  5
199
330
17E
100
AcDbEntity
  8
AM_6
100
AcDbText
 10
7.248240000000004
 20
-10.741
 30
0.0
 40
0.5
  1
0.44
100
AcDbAttributeDefinition
  3

  2
G
 70
     8
280
     0
  0
ATTDEF
  5
19A
330
17E
100
AcDbEntity
  8
AM_6
100
AcDbText
 10
7.248240000000004
 20
-11.241
 30
0.0
 40
0.5
  1
0.440000
100
AcDbAttributeDefinition
  3

  2
G1
 70
     8
280
     0
  0
ATTDEF
  5
19B
330
17E
100
AcDbEntity
  8
AM_6
100
AcDbText
 10
7.248240000000004
 20
-11.741
 30
0.0
 40
0.5
  1
0.88
100
AcDbAttributeDefinition
  3

  2
H
 70
     8
280
     0
  0
ATTDEF
  5
19C
330
17E
100
AcDbEntity
  8
AM_6
100
AcDbText
 10
7.248240000000004
 20
-12.241
 30
0.0
 40
0.5
  1
0.880000
100
AcDbAttributeDefinition
  3

  2
H1
 70
     8
280
     0
  0
ATTDEF
  5
19D
330
17E
100
AcDbEntity
  8
AM_6
100
AcDbText
 10
7.248240000000004
 20
-12.741
 30
0.0
 40
0.5
  1
1.38
100
AcDbAttributeDefinition
  3

  2
J
 70
     8
280
     0
  0
ATTDEF
  5
19E
330
17E
100
AcDbEntity
  8
AM_6
100
AcDbText
 10
7.248240000000004
 20
-13.241
 30
0.0
 40
0.5
  1
1.380000
100
AcDbAttributeDefinition
  3

  2
J1
 70
     8
280
     0
  0
ATTDEF
  5
19F
330
17E
100
AcDbEntity
  8
AM_6
100
AcDbText
 10
7.248240000000004
 20
-13.741
 30
0.0
 40
0.5
  1
1.12
100
AcDbAttributeDefinition
  3

  2
L
 70
     8
280
     0
  0
ATTDEF
  5
1A0
330
17E
100
AcDbEntity
  8
AM_6
100
AcDbText
 10
7.248240000000004
 20
-14.241
 30
0.0
 40
0.5
  1
1.120000
100
AcDbAttributeDefinition
  3

  2
L1
 70
     8
280
     0
  0
ATTDEF
  5
1A1
330
17E
100
AcDbEntity
  8
AM_6
100
AcDbText
 10
7.248240000000004
 20
-14.741
 30
0.0
 40
0.5
  1
2.635/2.605
100
AcDbAttributeDefinition
  3

  2
M
 70
     8
280
     0
  0
ATTDEF
  5
1A2
330
17E
100
AcDbEntity
  8
AM_6
100
AcDbText
 10
7.248240000000004
 20
-15.241
 30
0.0
 40
0.5
  1
2.605000
100
AcDbAttributeDefinition
  3

  2
M1
 70
     8
280
     0
  0
ATTDEF
  5
1A3
330
17E
100
AcDbEntity
  8
AM_6
100
AcDbText
 10
7.248240000000004
 20
-15.741
 30
0.0
 40
0.5
  1
3.13
100
AcDbAttributeDefinition
  3

  2
N
 70
     8
280
     0
  0
ATTDEF
  5
1A4
330
17E
100
AcDbEntity
  8
AM_6
100
AcDbText
 10
7.248240000000004
 20
-16.241
 30
0.0
 40
0.5
  1
3.130000
100
AcDbAttributeDefinition
  3

  2
N1
 70
     8
280
     0
  0
ATTDEF
  5
1A5
330
17E
100
AcDbEntity
  8
AM_6
100
AcDbText
 10
7.248240000000004
 20
-16.741
 30
0.0
 40
0.5
  1
0.32
100
AcDbAttributeDefinition
  3

  2
P
 70
     8
280
     0
  0
ATTDEF
  5
1A6
330
17E
100
AcDbEntity
  8
AM_6
100
AcDbText
 10
7.248240000000004
 20
-17.241
 30
0.0
 40
0.5
  1
0.320000
100
AcDbAttributeDefinition
  3

  2
P1
 70
     8
280
     0
  0
ATTDEF
  5
1A7
330
17E
100
AcDbEntity
  8
AM_6
100
AcDbText
 10
7.248240000000004
 20
-17.741
 30
0.0
 40
0.5
  1
0.50
100
AcDbAttributeDefinition
  3

  2
R
 70
     8
280
     0
  0
ATTDEF
  5
1A8
330
17E
100
AcDbEntity
  8
AM_6
100
AcDbText
 10
7.248240000000004
 20
-18.241
 30
0.0
 40
0.5
  1
0.500000
100
AcDbAttributeDefinition
  3

  2
R1
 70
     8
280
     0
  0
ATTDEF
  5
1A9
330
17E
100
AcDbEntity
  8
AM_6
100
AcDbText
 10
7.248240000000004
 20
-18.741
 30
0.0
 40
0.5
  1
0.73
100
AcDbAttributeDefinition
  3

  2
S
 70
     8
280
     0
  0
ATTDEF
  5
1AA
330
17E
100
AcDbEntity
  8
AM_6
100
AcDbText
 10
7.248240000000004
 20
-19.241
 30
0.0
 40
0.5
  1
0.730000
100
AcDbAttributeDefinition
  3

  2
S1
 70
     8
280
     0
  0
ATTDEF
  5
1AB
330
17E
100
AcDbEntity
  8
AM_6
100
AcDbText
 10
7.248240000000004
 20
-19.741
 30
0.0
 40
0.5
  1
1390
100
AcDbAttributeDefinition
  3

  2
CS
 70
     8
280
     0
  0
ATTDEF
  5
1AC
330
17E
100
AcDbEntity
  8
AM_6
100
AcDbText
 10
7.248240000000004
 20
-20.241
 30
0.0
 40
0.5
  1
2899
100
AcDbAttributeDefinition
  3

  2
CD
 70
     8
280
     0
  0
ATTDEF
  5
1AD
330
17E
100
AcDbEntity
  8
AM_6
100
AcDbText
 10
7.248240000000004
 20
-20.741
 30
0.0
 40
0.5
  1
8
100
AcDbAttributeDefinition
  3

  2
BN
 70
     8
280
     0
  0
ATTDEF
  5
1AE
330
17E
100
AcDbEntity
  8
AM_6
100
AcDbText
 10
7.248240000000004
 20
-21.241
 30
0.0
 40
0.5
  1
5/16
100
AcDbAttributeDefinition
  3

  2
BD
 70
     8
280
     0
  0
ATTDEF
  5
1AF
330
17E
100
AcDbEntity
  8
AM_6
100
AcDbText
 10
7.248240000000004
 20
-21.741
 30
0.0
 40
0.5
  1
5-11
100
AcDbAttributeDefinition
  3

  2
IC
 70
     8
280
     0
  0
ATTDEF
  5
1B0
330
17E
100
AcDbEntity
  8
AM_6
100
AcDbText
 10
7.248240000000004
 20
-22.241
 30
0.0
 40
0.5
  1
1/4-28
100
AcDbAttributeDefinition
  3

  2
SES
 70
     8
280
     0
  0
ATTDEF
  5
1B1
330
17E
100
AcDbEntity
  8
AM_6
100
AcDbText
 10
7.248240000000004
 20
-22.741
 30
0.0
 40
0.5
  1
66-80
100
AcDbAttributeDefinition
  3

  2
TS
 70
     8
280
     0
  0
ATTDEF
  5
1B2
330
17E
100
AcDbEntity
  8
AM_6
100
AcDbText
 10
7.248240000000004
 20
-23.241
 30
0.0
 40
0.5
  1
C.I.
100
AcDbAttributeDefinition
  3

  2
MH
 70
     8
280
     0
  0
ATTDEF
  5
1B3
330
17E
100
AcDbEntity
  8
AM_6
100
AcDbText
 10
7.248240000000004
 20
-23.741
 30
0.0
 40
0.5
  1
4118
100
AcDbAttributeDefinition
  3

  2
MIR
 70
     8
280
     0
  0
ATTDEF
  5
1B4
330
17E
100
AcDbEntity
  8
AM_6
100
AcDbText
 10
7.248240000000004
 20
-24.241
 30
0.0
 40
0.5
  1
52100
100
AcDbAttributeDefinition
  3

  2
MOR
 70
     8
280
     0
  0
ATTDEF
  5
1B5
330
17E
100
AcDbEntity
  8
AM_6
100
AcDbText
 10
7.248240000000004
 20
-24.741
 30
0.0
 40
0.5
  1
NYLON 6-6
100
AcDbAttributeDefinition
  3

  2
MR
 70
     8
280
     0
  0
ATTDEF
  5
1B6
330
17E
100
AcDbEntity
  8
AM_6
100
AcDbText
 10
7.248240000000004
 20
-25.241
 30
0.0
 40
0.5
  1
52100
100
AcDbAttributeDefinition
  3

  2
MB
 70
     8
280
     0
  0
ATTDEF
  5
1B7
330
17E
100
AcDbEntity
  8
AM_6
100
AcDbText
 10
7.248240000000004
 20
-25.741
 30
0.0
 40
0.5
  1
±2
100
AcDbAttributeDefinition
  3

  2
SM
 70
     8
280
     0
  0
ATTDEF
  5
1B8
330
17E
100
AcDbEntity
  8
AM_6
100
AcDbText
 10
7.248240000000004
 20
-26.241
 30
0.0
 40
0.5
  1
baldor
100
AcDbAttributeDefinition
  3

  2
COMPANY
 70
     8
280
     0
  0
LINE
  5
1B9
330
17E
100
AcDbEntity
  8
AM_9
100
AcDbLine
 10
1.91
 20
0.3749999999999999
 30
0.0
 11
1.91
 21
0.6899999999999963
 31
0.0
  0
LINE
  5
1BA
330
17E
100
AcDbEntity
  8
AM_9
100
AcDbLine
 10
1.59
 20
0.6899999999999963
 30
0.0
 11
1.59
 21
0.3749999999999998
 31
0.0
  0
LINE
  5
1BB
330
17E
100
AcDbEntity
  8
AM_9
100
AcDbLine
 10
1.91
 20
-0.6899999999999963
 30
0.0
 11
1.91
 21
-0.3749999999999999
 31
0.0
  0
LINE
  5
1BC
330
17E
100
AcDbEntity
  8
AM_9
100
AcDbLine
 10
1.59
 20
-0.3749999999999999
 30
0.0
 11
1.59
 21
-0.6899999999999965
 31
0.0
  0
LINE
  5
1BD
330
17E
100
AcDbEntity
  8
AM_9
100
AcDbLine
 10
1.31
 20
0.3749999999999999
 30
0.0
 11
1.31
 21
-0.3749999999999999
 31
0.0
  0
LINE
  5
1BE
330
17E
100
AcDbEntity
  8
AM_9
100
AcDbLine
 10
1.90351416345829
 20
-0.3722789255145915
 30
0.0
 11
1.909999999999838
 21
-0.3749999999999311
 31
0.0
  0
LWPOLYLINE
  5
1BF
330
17E
100
AcDbEntity
  8
AM_9
100
AcDbPolyline
 90
       30
 70
     0
 43
0.0
 10
1.59
 20
0.3749999999999999
 10
1.591997302716337
 20
0.3741521780625
 10
1.594566057696336
 20
0.3730744187682131
 10
1.59814675046068
 20
0.3715971062799747
 10
1.607847339836107
 20
0.3677395529334196
 10
1.621303694897208
 20
0.3627502432075143
 10
1.638316092112752
 20
0.3570690343350532
 10
1.658801894212291
 20
0.3512009318029581
 10
1.670320343423407
 20
0.3483878963074087
 10
1.682458004417134
 20
0.3458134195882453
 10
1.695558913146996
 20
0.3434959376175933
 10
1.709146153092783
 20
0.341605088965487
 10
1.721973781999233
 20
0.3403103687329567
 10
1.735026893722942
 20
0.3394837167105133
 10
1.74865923041244
 20
0.3391573339968932
 10
1.762303401167014
 20
0.3393764483288085
 10
1.786264691059636
 20
0.3410866866613981
 10
1.809876996401682
 20
0.3443983953186876
 10
1.831806646858942
 20
0.3488801047212404
 10
1.852173194557665
 20
0.354209488419097
 10
1.871040615752141
 20
0.3601053049618367
 10
1.879492667371132
 20
0.3630334616060772
 10
1.88702794679631
 20
0.3657890897815468
 10
1.893556751367147
 20
0.3682844045657949
 10
1.899066055755283
 20
0.3704668527391314
 10
1.903628137484356
 20
0.3723256007841406
 10
1.906995108612056
 20
0.3737277941605512
 10
1.908971285427142
 20
0.3745619528159198
 10
1.909915232500955
 20
0.3749638403710875
 10
1.909999999999838
 20
0.3749999999999311
  0
LINE
  5
1C0
330
17E
100
AcDbEntity
  8
AM_9
100
AcDbLine
 10
1.31
 20
-0.3749999999999999
 30
0.0
 11
1.59
 21
-0.3749999999999999
 31
0.0
  0
LINE
  5
1C1
330
17E
100
AcDbEntity
  8
AM_9
100
AcDbLine
 10
1.91
 20
-0.3750000000000001
 30
0.0
 11
2.19
 21
-0.3749999999999999
 31
0.0
  0
LINE
  5
1C2
330
17E
100
AcDbEntity
  8
AM_9
100
AcDbLine
 10
2.19
 20
0.3749999999999999
 30
0.0
 11
1.91
 21
0.3749999999999999
 31
0.0
  0
LINE
  5
1C3
330
17E
100
AcDbEntity
  8
AM_9
100
AcDbLine
 10
1.59
 20
0.3749999999999999
 30
0.0
 11
1.31
 21
0.3749999999999999
 31
0.0
  0
LWPOLYLINE
  5
1C4
330
17E
100
AcDbEntity
  8
AM_9
100
AcDbPolyline
 90
       30
 70
     0
 43
0.0
 10
1.909999999999838
 20
-0.3749999999999311
 10
1.909791031844761
 20
-0.374910553229746
 10
1.90855716354838
 20
-0.3743866639084619
 10
1.903437731240092
 20
-0.3722474141859237
 10
1.894514866612369
 20
-0.3686591198817559
 10
1.882103194651517
 20
-0.363972875414002
 10
1.866150676689222
 20
-0.358491254698583
 10
1.846341326701011
 20
-0.352571483858963
 10
1.835063660531432
 20
-0.3496584921532261
 10
1.823127369711886
 20
-0.3469475640510808
 10
1.810773405403725
 20
-0.3445560512271155
 10
1.797926259976097
 20
-0.3425228844840829
 10
1.784212346590341
 20
-0.3408758561502758
 10
1.770180233674187
 20
-0.3397532072418813
 10
1.744813423645203
 20
-0.33919301374628
 10
1.731732500385785
 20
-0.3396460265737412
 10
1.718799019351194
 20
-0.3405855269876381
 10
1.695671685337975
 20
-0.3434771692180079
 10
1.673381571482429
 20
-0.3477001345822317
 10
1.652316745298556
 20
-0.3529405307542152
 10
1.633287630616721
 20
-0.3586736360078045
 10
1.624471221516436
 20
-0.3616385479601839
 10
1.616533015818854
 20
-0.364470075405938
 10
1.609337067970987
 20
-0.3671660757127287
 10
1.603192978009165
 20
-0.3695636639414343
 10
1.59837174892374
 20
-0.3715049659114002
 10
1.594606770532534
 20
-0.3730577110372181
 10
1.591871743738536
 20
-0.3742048378039797
 10
1.590341538009763
 20
-0.3748544043826721
 10
1.59
 20
-0.3749999999999999
  0
LINE
  5
1C5
330
17E
100
AcDbEntity
  8
AM_9
100
AcDbLine
 10
1.909999999999838
 20
0.3749999999999311
 30
0.0
 11
1.9088261093694
 21
0.3745006448825161
 31
0.0
  0
LINE
  5
1C6
330
17E
100
AcDbEntity
  8
AM_9
100
AcDbLine
 10
0.9252
 20
-0.5
 30
0.0
 11
0.9252
 21
0.5
 31
0.0
  0
LINE
  5
1C7
330
17E
100
AcDbEntity
  8
AM_9
100
AcDbLine
 10
-0.9252
 20
0.5
 30
0.0
 11
-0.9252
 21
-0.5
 31
0.0
  0
LINE
  5
1C8
330
17E
100
AcDbEntity
  8
AM_9
100
AcDbLine
 10
-0.25
 20
-0.15
 30
0.0
 11
-0.25
 21
0.5000000000000001
 31
0.0
  0
LINE
  5
1C9
330
17E
100
AcDbEntity
  8
AM_9
100
AcDbLine
 10
0.25
 20
-0.15
 30
0.0
 11
0.25
 21
0.5000000000000001
 31
0.0
  0
LINE
  5
1CA
330
17E
100
AcDbEntity
  8
AM_9
100
AcDbLine
 10
0.25
 20
-0.15
 30
0.0
 11
-0.25
 21
-0.15
 31
0.0
  0
LINE
  5
1CB
330
17E
100
AcDbEntity
  8
AM_7
100
AcDbLine
 10
0.9669599999999999
 20
0.0
 30
0.0
 11
2.248240000000004
 21
0.0
 31
0.0
  0
LINE
  5
1CC
330
17E
100
AcDbEntity
  8
AM_7
100
AcDbLine
 10
1.75
 20
0.7589999999999998
 30
0.0
 11
1.75
 21
-0.7589999999999998
 31
0.0
  0
LINE
  5
1CD
330
17E
100
AcDbEntity
  8
AM_4
100
AcDbLine
 10
1.025200000000002
 20
-0.5
 30
0.0
 11
1.025200000000004
 21
-0.6066666666666665
 31
0.0
  0
ARC
  5
1CE
330
17E
100
AcDbEntity
  8
AM_4
100
AcDbCircle
 10
1.108533333333338
 20
-0.6066666666666654
 30
0.0
 40
0.0833333333333341
100
AcDbArc
 50
180.0
 51
270.0
  0
LINE
  5
1CF
330
17E
100
AcDbEntity
  8
AM_4
100
AcDbLine
 10
1.025200000000004
 20
0.6066666666666665
 30
0.0
 11
1.025200000000002
 21
0.5
 31
0.0
  0
ARC
  5
1D0
330
17E
100
AcDbEntity
  8
AM_4
100
AcDbCircle
 10
1.108533333333338
 20
0.6066666666666654
 30
0.0
 40
0.0833333333333341
100
AcDbArc
 50
90.0
 51
180.0
  0
LINE
  5
1D1
330
17E
100
AcDbEntity
  8
AM_4
100
AcDbLine
 10
2.190000000000003
 20
0.6066666679084237
 30
0.0
 11
2.190000000000003
 21
-0.6066666679084237
 31
0.0
  0
ARC
  5
1D2
330
17E
100
AcDbEntity
  8
AM_4
100
AcDbCircle
 10
2.106666666666672
 20
-0.6066666666666611
 30
0.0
 40
0.083333333333332
100
AcDbArc
 50
270.0
 51
0.0
  0
ARC
  5
1D3
330
17E
100
AcDbEntity
  8
AM_4
100
AcDbCircle
 10
2.106666666666672
 20
0.6066666666666611
 30
0.0
 40
0.0833333333333317
100
AcDbArc
 50
0.0
 51
90.0
  0
LINE
  5
1D4
330
17E
100
AcDbEntity
  8
AM_4
100
AcDbLine
 10
2.10666666666667
 20
0.6899999999999963
 30
0.0
 11
2.10666666666667
 21
-0.6899999999999963
 31
0.0
  0
LINE
  5
1D5
330
17E
100
AcDbEntity
  8
AM_4
100
AcDbLine
 10
1.108533333333335
 20
-0.5
 30
0.0
 11
1.108533333333338
 21
-0.6899999999999963
 31
0.0
  0
LWPOLYLINE
  5
1D6
330
17E
100
AcDbEntity
  8
AM_4
100
AcDbPolyline
 90
       30
 70
     0
 43
0.0
 10
1.59
 20
0.6899999999999963
 10
1.592140695186947
 20
0.6895067513201416
 10
1.594895808054488
 20
0.6888810216858675
 10
1.598744453112481
 20
0.6880248836083167
 10
1.609228912398577
 20
0.6857962518886226
 10
1.616085168736213
 20
0.684421753245814
 10
1.623871820805277
 20
0.6829409327218363
 10
1.641788263482066
 20
0.6798601179067815
 10
1.652183840246378
 20
0.6782833099375548
 10
1.663290384396643
 20
0.6767706830515622
 10
1.674840926812281
 20
0.6753882421669256
 10
1.68692998885057
 20
0.6741497061531551
 10
1.699861173217183
 20
0.6730635309246622
 10
1.713181233050641
 20
0.6722020690236437
 10
1.739300636844821
 20
0.6712782406513135
 10
1.75292420632818
 20
0.6711998802997741
 10
1.76652543720858
 20
0.6713963732959325
 10
1.791968581129403
 20
0.6725038005855518
 10
1.804649561969926
 20
0.6734144902145206
 10
1.816939965558996
 20
0.6745227638775699
 10
1.839607367282522
 20
0.677148049005017
 10
1.860400415249584
 20
0.6802119167489473
 10
1.878058731664017
 20
0.6833001088507104
 10
1.885796543295567
 20
0.6847924017087804
 10
1.892545545830738
 20
0.6861626867122539
 10
1.898114706875321
 20
0.687341104731443
 10
1.90265563967751
 20
0.6883340354256391
 10
1.906217613734263
 20
0.6891325377172253
 10
1.908620003712707
 20
0.6896813072556152
 10
1.90999999999742
 20
0.6899999999993982
  0
LINE
  5
1D7
330
17E
100
AcDbEntity
  8
AM_4
100
AcDbLine
 10
1.108533333333338
 20
-0.6899999999999963
 30
0.0
 11
1.59
 21
-0.6899999999999963
 31
0.0
  0
LINE
  5
1D8
330
17E
100
AcDbEntity
  8
AM_4
100
AcDbLine
 10
1.91
 20
-0.6899999999999963
 30
0.0
 11
2.10666666666667
 21
-0.6899999999999963
 31
0.0
  0
LINE
  5
1D9
330
17E
100
AcDbEntity
  8
AM_4
100
AcDbLine
 10
2.10666666666667
 20
0.6899999999999963
 30
0.0
 11
1.91
 21
0.6899999999999963
 31
0.0
  0
LINE
  5
1DA
330
17E
100
AcDbEntity
  8
AM_4
100
AcDbLine
 10
1.59
 20
0.6899999999999963
 30
0.0
 11
1.108533333333338
 21
0.6899999999999963
 31
0.0
  0
LINE
  5
1DB
330
17E
100
AcDbEntity
  8
AM_4
100
AcDbLine
 10
1.108533333333338
 20
0.6899999999999963
 30
0.0
 11
1.108533333333334
 21
0.5
 31
0.0
  0
LWPOLYLINE
  5
1DC
330
17E
100
AcDbEntity
  8
AM_4
100
AcDbPolyline
 90
       30
 70
     0
 43
0.0
 10
1.90999999999742
 20
-0.6899999999993982
 10
1.9099145453997
 20
-0.6899801894477754
 10
1.908901509003787
 20
-0.6897458918130577
 10
1.90675802693369
 20
-0.6892554526502773
 10
1.899543043560536
 20
-0.6876504358155705
 10
1.888078204457363
 20
-0.6852485611412585
 10
1.873045938683022
 20
-0.6823784162958131
 10
1.86401619644258
 20
-0.6808082019117042
 10
1.854181942129107
 20
-0.6792303564077423
 10
1.832533212320225
 20
-0.6762482762535456
 10
1.820437466325448
 20
-0.6748791810299837
 10
1.807806266272367
 20
-0.6736776413243565
 10
1.795192158348749
 20
-0.6727130781755982
 10
1.782251654225126
 20
-0.671967387006433
 10
1.768669970962508
 20
-0.671453127669934
 10
1.754943172524084
 20
-0.6712111701652462
 10
1.728929179778923
 20
-0.6715236253958494
 10
1.715724428444707
 20
-0.6720680236733226
 10
1.702771120070543
 20
-0.6728525597033777
 10
1.678752490926386
 20
-0.6749638564761752
 10
1.65605748722644
 20
-0.6777353434093626
 10
1.636063058469616
 20
-0.680794849161841
 10
1.626958322904284
 20
-0.6823776808217534
 10
1.618733146158331
 20
-0.6839086100624013
 10
1.61154328615579
 20
-0.6853248695531828
 10
1.605316239328239
 20
-0.6866100717307596
 10
1.599961246183335
 20
-0.6877582495989852
 10
1.595719718082652
 20
-0.6886961633321994
 10
1.5914649330141
 20
-0.6896617775868253
 10
1.59
 20
-0.6899999999999963
  0
LWPOLYLINE
  5
1DD
330
17E
100
AcDbEntity
  8
AM_4
100
AcDbPolyline
 90
       20
 70
     0
 43
0.0
 10
1.156813713480805
 20
0.3133974596215561
 10
1.148626647188337
 20
0.2816726537919038
 10
1.14106797676449
 20
0.249062887353683
 10
1.1342486694272
 20
0.2156850576590086
 10
1.128105857993234
 20
0.1805948391848471
 10
1.122934153387473
 20
0.1448193586319589
 10
1.118829627808985
 20
0.108534492504402
 10
1.116547656802657
 20
0.0817181497845832
 10
1.11489705189561
 20
0.0547305794370781
 10
1.113890213813232
 20
0.0273950285083547
 10
1.113552872566006
 20
0.0
 10
1.114110182020998
 20
-0.0350982168561003
 10
1.115761618028032
 20
-0.0701029250255162
 10
1.118476442050192
 20
-0.1048310613380053
 10
1.122360205366392
 20
-0.1403016825504694
 10
1.127270178578227
 20
-0.1753006151530287
 10
1.133118795927865
 20
-0.2096621226760106
 10
1.140218003945531
 20
-0.2451370522139155
 10
1.148160139925319
 20
-0.2797622901223462
 10
1.156813713480805
 20
-0.313397459621556
  0
LINE
  5
1DE
330
17E
100
AcDbEntity
  8
AM_4
100
AcDbLine
 10
-1.31
 20
0.313397459621556
 30
0.0
 11
-1.31
 21
-0.3133974596215561
 31
0.0
  0
LWPOLYLINE
  5
1DF
330
17E
100
AcDbEntity
  8
AM_4
100
AcDbPolyline
 90
        9
 70
     0
 43
0.0
 10
1.156813713480805
 20
-0.313397459621556
 10
1.156288060419418
 20
-0.3386634784119473
 10
1.156345246868825
 20
-0.3633494471122189
 10
1.156951926193841
 20
-0.3876039513541168
 10
1.158062040106783
 20
-0.4111665215508095
 10
1.159671343479025
 20
-0.4345612088724566
 10
1.161700732960369
 20
-0.4571369176157866
 10
1.164113145867092
 20
-0.4790239398858152
 10
1.166833321430274
 20
-0.5
  0
LINE
  5
1E0
330
17E
100
AcDbEntity
  8
AM_4
100
AcDbLine
 10
0.7499999999999999
 20
-0.3133974596215559
 30
0.0
 11
1.156813713480805
 21
-0.313397459621556
 31
0.0
  0
LINE
  5
1E1
330
17E
100
AcDbEntity
  8
AM_4
100
AcDbLine
 10
-1.31
 20
-0.3133974596215561
 30
0.0
 11
-1.26
 21
-0.5
 31
0.0
  0
LINE
  5
1E2
330
17E
100
AcDbEntity
  8
AM_4
100
AcDbLine
 10
-1.31
 20
-0.3133974596215561
 30
0.0
 11
-0.7499999999999999
 21
-0.3133974596215559
 31
0.0
  0
LINE
  5
1E3
330
17E
100
AcDbEntity
  8
AM_4
100
AcDbLine
 10
-1.26
 20
-0.5
 30
0.0
 11
1.166833321430274
 21
-0.5
 31
0.0
  0
LWPOLYLINE
  5
1E4
330
17E
100
AcDbEntity
  8
AM_4
100
AcDbPolyline
 90
        9
 70
     0
 43
0.0
 10
1.166833321430274
 20
0.5
 10
1.164215800289652
 20
0.4798754888206104
 10
1.161879856619441
 20
0.458909623417011
 10
1.159865573361459
 20
0.436969695280059
 10
1.158245077857427
 20
0.4142466708607863
 10
1.157048988531126
 20
0.3901965727724697
 10
1.156375665322849
 20
0.3654149851362052
 10
1.156278983883938
 20
0.3397225717755089
 10
1.156813713480805
 20
0.3133974596215561
  0
LINE
  5
1E5
330
17E
100
AcDbEntity
  8
AM_4
100
AcDbLine
 10
0.7499999999999999
 20
0.3133974596215562
 30
0.0
 11
1.156813713480805
 21
0.3133974596215561
 31
0.0
  0
LINE
  5
1E6
330
17E
100
AcDbEntity
  8
AM_4
100
AcDbLine
 10
-1.26
 20
0.5
 30
0.0
 11
-1.31
 21
0.313397459621556
 31
0.0
  0
LINE
  5
1E7
330
17E
100
AcDbEntity
  8
AM_4
100
AcDbLine
 10
-1.26
 20
0.5
 30
0.0
 11
1.166833321430274
 21
0.5
 31
0.0
  0
LINE
  5
1E8
330
17E
100
AcDbEntity
  8
AM_4
100
AcDbLine
 10
-1.31
 20
0.313397459621556
 30
0.0
 11
-0.7499999999999999
 21
0.3133974596215562
 31
0.0
  0
LINE
  5
1E9
330
17E
100
AcDbEntity
  8
AM_4
100
AcDbLine
 10
0.7499999999999999
 20
-0.3749999999999999
 30
0.0
 11
-0.7499999999999998
 21
-0.3749999999999999
 31
0.0
  0
LINE
  5
1EA
330
17E
100
AcDbEntity
  8
AM_4
100
AcDbLine
 10
0.7499999999999999
 20
0.3750000000000001
 30
0.0
 11
-0.7499999999999999
 21
0.3750000000000001
 31
0.0
  0
LINE
  5
1EB
330
17E
100
AcDbEntity
  8
AM_4
100
AcDbLine
 10
0.7000000000000001
 20
0.3250000000000002
 30
0.0
 11
-0.7
 21
0.3250000000000002
 31
0.0
  0
LINE
  5
1EC
330
17E
100
AcDbEntity
  8
AM_4
100
AcDbLine
 10
0.7499999999999999
 20
0.1250000000000001
 30
0.0
 11
-0.7499999999999999
 21
0.1250000000000001
 31
0.0
  0
LINE
  5
1ED
330
17E
100
AcDbEntity
  8
AM_4
100
AcDbLine
 10
-0.7000000000000001
 20
0.1250000000000001
 30
0.0
 11
-0.7
 21
0.3250000000000002
 31
0.0
  0
LINE
  5
1EE
330
17E
100
AcDbEntity
  8
AM_4
100
AcDbLine
 10
-0.7499999999999999
 20
0.3749999999999999
 30
0.0
 11
-0.7000000000000003
 21
0.3250000000000003
 31
0.0
  0
LINE
  5
1EF
330
17E
100
AcDbEntity
  8
AM_4
100
AcDbLine
 10
-0.7499999999999999
 20
0.3750000000000001
 30
0.0
 11
-0.7499999999999998
 21
-0.3749999999999999
 31
0.0
  0
LINE
  5
1F0
330
17E
100
AcDbEntity
  8
AM_4
100
AcDbLine
 10
-0.7000000000000001
 20
-0.3249999999999999
 30
0.0
 11
-0.7499999999999999
 21
-0.3749999999999997
 31
0.0
  0
LINE
  5
1F1
330
17E
100
AcDbEntity
  8
AM_4
100
AcDbLine
 10
0.7000000000000001
 20
0.3250000000000002
 30
0.0
 11
0.7499999999999999
 21
0.3749999999999999
 31
0.0
  0
LINE
  5
1F2
330
17E
100
AcDbEntity
  8
AM_4
100
AcDbLine
 10
0.7000000000000001
 20
0.1250000000000001
 30
0.0
 11
0.7000000000000001
 21
0.3250000000000002
 31
0.0
  0
LINE
  5
1F3
330
17E
100
AcDbEntity
  8
AM_4
100
AcDbLine
 10
-0.7499999999999999
 20
-0.1249999999999999
 30
0.0
 11
0.7499999999999999
 21
-0.1249999999999999
 31
0.0
  0
LINE
  5
1F4
330
17E
100
AcDbEntity
  8
AM_4
100
AcDbLine
 10
0.7499999999999998
 20
-0.3749999999999998
 30
0.0
 11
0.7000000000000002
 21
-0.325
 31
0.0
  0
LINE
  5
1F5
330
17E
100
AcDbEntity
  8
AM_4
100
AcDbLine
 10
0.7499999999999999
 20
0.3750000000000001
 30
0.0
 11
0.7499999999999999
 21
-0.3749999999999999
 31
0.0
  0
LINE
  5
1F6
330
17E
100
AcDbEntity
  8
AM_4
100
AcDbLine
 10
-0.7
 20
-0.3250000000000001
 30
0.0
 11
-0.7000000000000001
 21
-0.1249999999999999
 31
0.0
  0
LINE
  5
1F7
330
17E
100
AcDbEntity
  8
AM_4
100
AcDbLine
 10
0.7000000000000001
 20
-0.3250000000000001
 30
0.0
 11
-0.7
 21
-0.3250000000000001
 31
0.0
  0
LINE
  5
1F8
330
17E
100
AcDbEntity
  8
AM_4
100
AcDbLine
 10
0.7000000000000001
 20
-0.3250000000000001
 30
0.0
 11
0.7000000000000001
 21
-0.1249999999999999
 31
0.0
  0
ENDBLK
  5
181
330
17E
100
AcDbEntity
  8
0
100
AcDbBlockEnd
  0
ENDSEC
  0
SECTION
  2
ENTITIES
  0
INSERT
  5
6F
330
1F
100
AcDbEntity
  8
0
100
AcDbBlockReference
  2
1_125533_4
 10
0.0
 20
0.0
 30
0.0
  0
POINT
  5
1FA
330
1F
100
AcDbEntity
  8
ConnectionPoints
100
AcDbPoint
 10
0.0
 20
-0.73
 30
0.0000000000000001
  0
POINT
  5
1FB
330
1F
100
AcDbEntity
  8
ConnectionPoints
100
AcDbPoint
 10
-1.134493278957615
 20
0.0
 30
-0.6549999999999999
  0
POINT
  5
1FC
330
1F
100
AcDbEntity
  8
ConnectionPoints
100
AcDbPoint
 10
0.0
 20
-0.73
 30
0.0
  0
ENDSEC
  0
SECTION
  2
OBJECTS
  0
DICTIONARY
  5
C
330
0
100
AcDbDictionary
281
     1
  3
ACAD_DETAILVIEWSTYLE
350
204
  3
ACAD_GROUP
350
D
  3
ACAD_LAYOUT
350
1A
  3
ACAD_MATERIAL
350
43
  3
ACAD_MLEADERSTYLE
350
6B
  3
ACAD_MLINESTYLE
350
17
  3
ACAD_PLOTSETTINGS
350
19
  3
ACAD_PLOTSTYLENAME
350
E
  3
ACAD_SCALELIST
350
47
  3
ACAD_SECTIONVIEWSTYLE
350
205
  3
ACAD_TABLESTYLE
350
69
  3
ACAD_VISUALSTYLE
350
2A
  3
ACDB_RECOMPOSE_DATA
350
201
  3
AcDbVariableDictionary
350
1FD
  0
SUN
  5
6D
330
29
100
AcDbSun
 90
        1
290
     0
 63
     7
421
 16777215
 40
1.0
291
     1
 91
  2455826
 92
 54000000
292
     0
 70
     2
 71
   256
280
     1
  0
DICTIONARY
  5
204
102
{ACAD_REACTORS
330
C
102
}
330
C
100
AcDbDictionary
281
     1
  0
DICTIONARY
  5
D
102
{ACAD_REACTORS
330
C
102
}
330
C
100
AcDbDictionary
281
     1
  0
DICTIONARY
  5
1A
102
{ACAD_REACTORS
330
C
102
}
330
C
100
AcDbDictionary
281
     1
  3
Layout1
350
1E
  3
Layout2
350
26
  3
Model
350
22
  0
DICTIONARY
  5
43
102
{ACAD_REACTORS
330
C
102
}
330
C
100
AcDbDictionary
281
     1
  3
ByBlock
350
45
  3
ByLayer
350
44
  3
Global
350
46
  0
DICTIONARY
  5
6B
102
{ACAD_REACTORS
330
C
102
}
330
C
100
AcDbDictionary
281
     1
  3
Standard
350
6C
  0
DICTIONARY
  5
17
102
{ACAD_REACTORS
330
C
102
}
330
C
100
AcDbDictionary
281
     1
  3
Standard
350
18
  0
DICTIONARY
  5
19
102
{ACAD_REACTORS
330
C
102
}
330
C
100
AcDbDictionary
281
     1
  0
ACDBDICTIONARYWDFLT
  5
E
102
{ACAD_REACTORS
330
C
102
}
330
C
100
AcDbDictionary
281
     1
  3
Normal
350
F
100
AcDbDictionaryWithDefault
340
F
  0
DICTIONARY
  5
47
102
{ACAD_REACTORS
330
C
102
}
330
C
100
AcDbDictionary
281
     1
  3
A0
350
48
  3
A1
350
49
  3
A2
350
4A
  3
A3
350
4B
  3
A4
350
4C
  3
A5
350
4D
  3
A6
350
4E
  3
A7
350
4F
  3
A8
350
50
  3
A9
350
51
  3
B0
350
52
  3
B1
350
53
  3
B2
350
54
  3
B3
350
55
  3
B4
350
56
  3
B5
350
57
  3
B6
350
58
  3
B7
350
59
  3
B8
350
5A
  3
B9
350
5B
  3
C0
350
5C
  3
C1
350
5D
  3
C2
350
5E
  3
C3
350
5F
  3
C4
350
60
  3
C5
350
61
  3
C6
350
62
  3
C7
350
63
  3
C8
350
64
  3
C9
350
65
  3
D0
350
66
  3
D1
350
67
  3
D2
350
68
  0
DICTIONARY
  5
205
102
{ACAD_REACTORS
330
C
102
}
330
C
100
AcDbDictionary
281
     1
  0
DICTIONARY
  5
69
102
{ACAD_REACTORS
330
C
102
}
330
C
100
AcDbDictionary
281
     1
  3
Standard
350
6A
  0
DICTIONARY
  5
2A
102
{ACAD_REACTORS
330
C
102
}
330
C
100
AcDbDictionary
281
     1
  3
2dWireframe
350
2F
  3
Basic
350
32
  3
Brighten
350
36
  3
ColorChange
350
3A
  3
Conceptual
350
34
  3
Dim
350
35
  3
EdgeColorOff
350
3D
  3
Facepattern
350
39
  3
Flat
350
2B
  3
FlatWithEdges
350
2C
  3
Gouraud
350
2D
  3
GouraudWithEdges
350
2E
  3
Hidden
350
31
  3
JitterOff
350
3B
  3
Linepattern
350
38
  3
OverhangOff
350
3C
  3
Realistic
350
33
  3
Shaded
350
42
  3
Shaded with edges
350
41
  3
Shades of Gray
350
3E
  3
Sketchy
350
3F
  3
Thicken
350
37
  3
Wireframe
350
30
  3
X-Ray
350
40
  0
XRECORD
  5
201
102
{ACAD_REACTORS
330
C
102
}
330
C
100
AcDbXrecord
280
     1
 90
        1
330
6A
  0
DICTIONARY
  5
1FD
102
{ACAD_REACTORS
330
C
102
}
330
C
100
AcDbDictionary
281
     1
  3
CANNOSCALE
350
1FE
  3
CMLEADERSTYLE
350
203
  3
CTABLESTYLE
350
202
  0
LAYOUT
  5
1E
102
{ACAD_REACTORS
330
1A
102
}
330
1A
100
AcDbPlotSettings
  1

  2
none_device
  4

  6

 40
0.0
 41
0.0
 42
0.0
 43
0.0
 44
0.0
 45
0.0
 46
0.0
 47
0.0
 48
0.0
 49
0.0
140
0.0
141
0.0
142
1.0
143
1.0
 70
   688
 72
     0
 73
     0
 74
     5
  7

 75
    16
 76
     0
 77
     2
 78
   300
147
1.0
148
0.0
149
0.0
100
AcDbLayout
  1
Layout1
 70
     1
 71
     1
 10
0.0
 20
0.0
 11
12.0
 21
9.0
 12
0.0
 22
0.0
 32
0.0
 14
1.000000000000000E+20
 24
1.000000000000000E+20
 34
1.000000000000000E+20
 15
-1.000000000000000E+20
 25
-1.000000000000000E+20
 35
-1.000000000000000E+20
146
0.0
 13
0.0
 23
0.0
 33
0.0
 16
1.0
 26
0.0
 36
0.0
 17
0.0
 27
1.0
 37
0.0
 76
     0
330
1B
  0
LAYOUT
  5
26
102
{ACAD_REACTORS
330
1A
102
}
330
1A
100
AcDbPlotSettings
  1

  2
none_device
  4

  6

 40
0.0
 41
0.0
 42
0.0
 43
0.0
 44
0.0
 45
0.0
 46
0.0
 47
0.0
 48
0.0
 49
0.0
140
0.0
141
0.0
142
1.0
143
1.0
 70
   688
 72
     0
 73
     0
 74
     5
  7

 75
    16
 76
     0
 77
     2
 78
   300
147
1.0
148
0.0
149
0.0
100
AcDbLayout
  1
Layout2
 70
     1
 71
     2
 10
0.0
 20
0.0
 11
0.0
 21
0.0
 12
0.0
 22
0.0
 32
0.0
 14
0.0
 24
0.0
 34
0.0
 15
0.0
 25
0.0
 35
0.0
146
0.0
 13
0.0
 23
0.0
 33
0.0
 16
1.0
 26
0.0
 36
0.0
 17
0.0
 27
1.0
 37
0.0
 76
     0
330
23
  0
LAYOUT
  5
22
102
{ACAD_REACTORS
330
1A
102
}
330
1A
100
AcDbPlotSettings
  1

  2
none_device
  4
Letter_(8.50_x_11.00_Inches)
  6

 40
6.35
 41
6.35
 42
6.35000508
 43
6.35000508
 44
215.9
 45
279.4
 46
0.0
 47
0.0
 48
0.0
 49
0.0
140
0.0
141
0.0
142
1.0
143
1.0
 70
  1712
 72
     0
 73
     0
 74
     0
  7

 75
     0
 76
     0
 77
     2
 78
   300
147
1.0
148
0.0
149
0.0
100
AcDbLayout
  1
Model
 70
     1
 71
     0
 10
0.0
 20
0.0
 11
12.0
 21
9.0
 12
0.0
 22
0.0
 32
0.0
 14
1.000000000000000E+20
 24
1.000000000000000E+20
 34
1.000000000000000E+20
 15
-1.000000000000000E+20
 25
-1.000000000000000E+20
 35
-1.000000000000000E+20
146
0.0
 13
0.0
 23
0.0
 33
0.0
 16
1.0
 26
0.0
 36
0.0
 17
0.0
 27
1.0
 37
0.0
 76
     0
330
1F
331
29
  0
MATERIAL
  5
45
102
{ACAD_REACTORS
330
43
102
}
330
43
100
AcDbMaterial
  1
ByBlock
 72
     1
 94
      127
  0
MATERIAL
  5
44
102
{ACAD_REACTORS
330
43
102
}
330
43
100
AcDbMaterial
  1
ByLayer
 72
     1
 94
      127
  0
MATERIAL
  5
46
102
{ACAD_REACTORS
330
43
102
}
330
43
100
AcDbMaterial
  1
Global
 72
     1
 94
      127
  0
MLEADERSTYLE
  5
6C
102
{ACAD_REACTORS
330
6B
102
}
330
6B
100
AcDbMLeaderStyle
179
     2
170
     2
171
     1
172
     0
 90
        2
 40
0.0
 41
0.0
173
     1
 91
-1056964608
340
14
 92
       -2
290
     1
 42
0.09
291
     1
 43
0.36
  3
Standard
341
0
 44
0.18
300

342
11
174
     1
178
     6
175
     1
176
     0
 93
-1056964608
 45
0.18
292
     0
297
     0
 46
0.18
343
0
 94
-1056964608
 47
1.0
 49
1.0
140
1.0
293
     1
141
0.0
294
     1
177
     0
142
1.0
295
     0
296
     0
143
0.125
271
     0
272
     9
273
     9
298
     0
  0
MLINESTYLE
  5
18
102
{ACAD_REACTORS
330
17
102
}
330
17
100
AcDbMlineStyle
  2
Standard
 70
     0
  3

 62
   256
 51
90.0
 52
90.0
 71
     2
 49
0.5
 62
   256
  6
BYLAYER
 49
-0.5
 62
   256
  6
BYLAYER
  0
ACDBPLACEHOLDER
  5
F
102
{ACAD_REACTORS
330
E
102
}
330
E
  0
SCALE
  5
48
102
{ACAD_REACTORS
330
47
102
}
330
47
100
AcDbScale
 70
     0
300
1:1
140
1.0
141
1.0
290
     1
  0
SCALE
  5
49
102
{ACAD_REACTORS
330
47
102
}
330
47
100
AcDbScale
 70
     0
300
1:2
140
1.0
141
2.0
290
     0
  0
SCALE
  5
4A
102
{ACAD_REACTORS
330
47
102
}
330
47
100
AcDbScale
 70
     0
300
1:4
140
1.0
141
4.0
290
     0
  0
SCALE
  5
4B
102
{ACAD_REACTORS
330
47
102
}
330
47
100
AcDbScale
 70
     0
300
1:5
140
1.0
141
5.0
290
     0
  0
SCALE
  5
4C
102
{ACAD_REACTORS
330
47
102
}
330
47
100
AcDbScale
 70
     0
300
1:8
140
1.0
141
8.0
290
     0
  0
SCALE
  5
4D
102
{ACAD_REACTORS
330
47
102
}
330
47
100
AcDbScale
 70
     0
300
1:10
140
1.0
141
10.0
290
     0
  0
SCALE
  5
4E
102
{ACAD_REACTORS
330
47
102
}
330
47
100
AcDbScale
 70
     0
300
1:16
140
1.0
141
16.0
290
     0
  0
SCALE
  5
4F
102
{ACAD_REACTORS
330
47
102
}
330
47
100
AcDbScale
 70
     0
300
1:20
140
1.0
141
20.0
290
     0
  0
SCALE
  5
50
102
{ACAD_REACTORS
330
47
102
}
330
47
100
AcDbScale
 70
     0
300
1:30
140
1.0
141
30.0
290
     0
  0
SCALE
  5
51
102
{ACAD_REACTORS
330
47
102
}
330
47
100
AcDbScale
 70
     0
300
1:40
140
1.0
141
40.0
290
     0
  0
SCALE
  5
52
102
{ACAD_REACTORS
330
47
102
}
330
47
100
AcDbScale
 70
     0
300
1:50
140
1.0
141
50.0
290
     0
  0
SCALE
  5
53
102
{ACAD_REACTORS
330
47
102
}
330
47
100
AcDbScale
 70
     0
300
1:100
140
1.0
141
100.0
290
     0
  0
SCALE
  5
54
102
{ACAD_REACTORS
330
47
102
}
330
47
100
AcDbScale
 70
     0
300
2:1
140
2.0
141
1.0
290
     0
  0
SCALE
  5
55
102
{ACAD_REACTORS
330
47
102
}
330
47
100
AcDbScale
 70
     0
300
4:1
140
4.0
141
1.0
290
     0
  0
SCALE
  5
56
102
{ACAD_REACTORS
330
47
102
}
330
47
100
AcDbScale
 70
     0
300
8:1
140
8.0
141
1.0
290
     0
  0
SCALE
  5
57
102
{ACAD_REACTORS
330
47
102
}
330
47
100
AcDbScale
 70
     0
300
10:1
140
10.0
141
1.0
290
     0
  0
SCALE
  5
58
102
{ACAD_REACTORS
330
47
102
}
330
47
100
AcDbScale
 70
     0
300
100:1
140
100.0
141
1.0
290
     0
  0
SCALE
  5
59
102
{ACAD_REACTORS
330
47
102
}
330
47
100
AcDbScale
 70
     0
300
1/128" = 1'-0"
140
0.0078125
141
12.0
290
     0
  0
SCALE
  5
5A
102
{ACAD_REACTORS
330
47
102
}
330
47
100
AcDbScale
 70
     0
300
1/64" = 1'-0"
140
0.015625
141
12.0
290
     0
  0
SCALE
  5
5B
102
{ACAD_REACTORS
330
47
102
}
330
47
100
AcDbScale
 70
     0
300
1/32" = 1'-0"
140
0.03125
141
12.0
290
     0
  0
SCALE
  5
5C
102
{ACAD_REACTORS
330
47
102
}
330
47
100
AcDbScale
 70
     0
300
1/16" = 1'-0"
140
0.0625
141
12.0
290
     0
  0
SCALE
  5
5D
102
{ACAD_REACTORS
330
47
102
}
330
47
100
AcDbScale
 70
     0
300
3/32" = 1'-0"
140
0.09375
141
12.0
290
     0
  0
SCALE
  5
5E
102
{ACAD_REACTORS
330
47
102
}
330
47
100
AcDbScale
 70
     0
300
1/8" = 1'-0"
140
0.125
141
12.0
290
     0
  0
SCALE
  5
5F
102
{ACAD_REACTORS
330
47
102
}
330
47
100
AcDbScale
 70
     0
300
3/16" = 1'-0"
140
0.1875
141
12.0
290
     0
  0
SCALE
  5
60
102
{ACAD_REACTORS
330
47
102
}
330
47
100
AcDbScale
 70
     0
300
1/4" = 1'-0"
140
0.25
141
12.0
290
     0
  0
SCALE
  5
61
102
{ACAD_REACTORS
330
47
102
}
330
47
100
AcDbScale
 70
     0
300
3/8" = 1'-0"
140
0.375
141
12.0
290
     0
  0
SCALE
  5
62
102
{ACAD_REACTORS
330
47
102
}
330
47
100
AcDbScale
 70
     0
300
1/2" = 1'-0"
140
0.5
141
12.0
290
     0
  0
SCALE
  5
63
102
{ACAD_REACTORS
330
47
102
}
330
47
100
AcDbScale
 70
     0
300
3/4" = 1'-0"
140
0.75
141
12.0
290
     0
  0
SCALE
  5
64
102
{ACAD_REACTORS
330
47
102
}
330
47
100
AcDbScale
 70
     0
300
1" = 1'-0"
140
1.0
141
12.0
290
     0
  0
SCALE
  5
65
102
{ACAD_REACTORS
330
47
102
}
330
47
100
AcDbScale
 70
     0
300
1-1/2" = 1'-0"
140
1.5
141
12.0
290
     0
  0
SCALE
  5
66
102
{ACAD_REACTORS
330
47
102
}
330
47
100
AcDbScale
 70
     0
300
3" = 1'-0"
140
3.0
141
12.0
290
     0
  0
SCALE
  5
67
102
{ACAD_REACTORS
330
47
102
}
330
47
100
AcDbScale
 70
     0
300
6" = 1'-0"
140
6.0
141
12.0
290
     0
  0
SCALE
  5
68
102
{ACAD_REACTORS
330
47
102
}
330
47
100
AcDbScale
 70
     0
300
1'-0" = 1'-0"
140
12.0
141
12.0
290
     0
  0
TABLESTYLE
  5
6A
102
{ACAD_REACTORS
330
69
102
}
102
{ACAD_XDICTIONARY
360
1FF
102
}
330
69
100
AcDbTableStyle
  3
Standard
 70
     0
 71
     0
 40
0.06
 41
0.06
280
     0
281
     0
  7
Standard
140
0.18
170
     2
 62
     0
 63
   257
283
     0
 90
        4
 91
        0
  1

274
    -2
284
     1
 64
     0
275
    -2
285
     1
 65
     0
276
    -2
286
     1
 66
     0
277
    -2
287
     1
 67
     0
278
    -2
288
     1
 68
     0
279
    -2
289
     1
 69
     0
  7
Standard
140
0.25
170
     5
 62
     0
 63
   257
283
     0
 90
        4
 91
        0
  1

274
    -2
284
     1
 64
     0
275
    -2
285
     1
 65
     0
276
    -2
286
     1
 66
     0
277
    -2
287
     1
 67
     0
278
    -2
288
     1
 68
     0
279
    -2
289
     1
 69
     0
  7
Standard
140
0.18
170
     5
 62
     0
 63
   257
283
     0
 90
        4
 91
        0
  1

274
    -2
284
     1
 64
     0
275
    -2
285
     1
 65
     0
276
    -2
286
     1
 66
     0
277
    -2
287
     1
 67
     0
278
    -2
288
     1
 68
     0
279
    -2
289
     1
 69
     0
  0
VISUALSTYLE
  5
2F
102
{ACAD_REACTORS
330
2A
102
}
330
2A
100
AcDbVisualStyle
  2
2dWireframe
 70
     4
177
     3
291
     0
 70
    58
 90
        0
176
     1
 90
        2
176
     1
 90
        0
176
     1
 90
        0
176
     1
 40
0.6
176
     1
 40
30.0
176
     1
 62
     7
420
 16777215
176
     1
 90
        1
176
     1
 90
        4
176
     1
 62
     7
176
     1
 62
   257
176
     1
 90
        1
176
     1
 90
        1
176
     1
 40
1.0
176
     1
 90
        0
176
     1
 62
   257
176
     1
 40
1.0
176
     1
 90
        1
176
     1
 90
        6
176
     1
 90
        2
176
     1
 62
     7
176
     1
 90
        5
176
     1
 90
        0
176
     1
 90
        0
176
     1
290
     0
176
     1
 90
        1
176
     1
 40
0.0
176
     1
 90
        0
176
     1
290
     1
176
     1
290
     1
176
     1
290
     0
176
     1
290
     0
176
     1
290
     0
176
     1
290
     0
176
     1
290
     0
176
     1
290
     0
176
     1
290
     0
176
     1
 90
       50
176
     1
 40
0.0
176
     1
 40
1.0
176
     1
 90
        0
176
     1
 62
    18
420
        0
176
     1
 90
       50
176
     1
 90
        3
176
     1
 62
     5
420
      255
176
     1
290
     0
176
     1
 90
       50
176
     1
 90
       50
176
     1
 90
       50
176
     1
290
     0
176
     1
 90
       50
176
     1
 62
   256
176
     0
 40
1.0
176
     0
 90
        2
176
     1
  1
strokes_ogs.tif
176
     1
290
     0
176
     1
 40
1.0
176
     1
 40
1.0
176
     1
  0
VISUALSTYLE
  5
32
102
{ACAD_REACTORS
330
2A
102
}
330
2A
100
AcDbVisualStyle
  2
Basic
 70
     7
177
     3
291
     1
 70
    58
 90
        1
176
     1
 90
        0
176
     1
 90
        1
176
     1
 90
        0
176
     1
 40
0.6
176
     1
 40
30.0
176
     1
 62
     7
420
 16777215
176
     1
 90
        0
176
     1
 90
        4
176
     1
 62
     7
176
     1
 62
   257
176
     1
 90
        1
176
     1
 90
        1
176
     1
 40
1.0
176
     1
 90
        8
176
     1
 62
     7
176
     1
 40
1.0
176
     1
 90
        1
176
     1
 90
        6
176
     1
 90
        2
176
     1
 62
     7
176
     1
 90
        5
176
     1
 90
        0
176
     1
 90
        0
176
     1
290
     0
176
     1
 90
        1
176
     1
 40
0.0
176
     1
 90
        0
176
     1
290
     0
176
     1
290
     1
176
     1
290
     1
176
     1
290
     0
176
     1
290
     0
176
     1
290
     0
176
     1
290
     0
176
     1
290
     0
176
     1
290
     0
176
     1
 90
       50
176
     1
 40
0.0
176
     1
 40
1.0
176
     1
 90
        0
176
     1
 62
    18
420
        0
176
     1
 90
       50
176
     1
 90
        3
176
     1
 62
     5
420
      255
176
     1
290
     0
176
     1
 90
       50
176
     1
 90
       50
176
     1
 90
       50
176
     1
290
     0
176
     1
 90
       50
176
     1
 62
   256
176
     0
 40
1.0
176
     0
 90
        2
176
     1
  1
strokes_ogs.tif
176
     1
290
     0
176
     1
 40
1.0
176
     1
 40
1.0
176
     1
  0
VISUALSTYLE
  5
36
102
{ACAD_REACTORS
330
2A
102
}
330
2A
100
AcDbVisualStyle
  2
Brighten
 70
    12
177
     3
291
     1
 70
    58
 90
        2
176
     1
 90
        2
176
     1
 90
        0
176
     1
 90
        0
176
     1
 40
0.6
176
     1
 40
30.0
176
     1
 62
     7
420
 16777215
176
     1
 90
        1
176
     1
 90
        4
176
     1
 62
     7
176
     1
 62
   257
176
     1
 90
        1
176
     1
 90
        1
176
     1
 40
1.0
176
     1
 90
        8
176
     1
 62
     7
176
     1
 40
1.0
176
     1
 90
        1
176
     1
 90
        6
176
     1
 90
        2
176
     1
 62
     7
176
     1
 90
        5
176
     1
 90
        0
176
     1
 90
        0
176
     1
290
     0
176
     1
 90
        1
176
     1
 40
50.0
176
     1
 90
        0
176
     1
290
     0
176
     1
290
     1
176
     1
290
     1
176
     1
290
     0
176
     1
290
     0
176
     1
290
     0
176
     1
290
     0
176
     1
290
     0
176
     1
290
     0
176
     1
 90
       50
176
     1
 40
0.0
176
     1
 40
1.0
176
     1
 90
        0
176
     1
 62
    18
420
        0
176
     1
 90
       50
176
     1
 90
        3
176
     1
 62
     5
420
      255
176
     1
290
     0
176
     1
 90
       50
176
     1
 90
       50
176
     1
 90
       50
176
     1
290
     0
176
     1
 90
       50
176
     1
 62
   256
176
     0
 40
1.0
176
     0
 90
        2
176
     1
  1
strokes_ogs.tif
176
     1
290
     0
176
     1
 40
1.0
176
     1
 40
1.0
176
     1
  0
VISUALSTYLE
  5
3A
102
{ACAD_REACTORS
330
2A
102
}
330
2A
100
AcDbVisualStyle
  2
ColorChange
 70
    16
177
     3
291
     1
 70
    58
 90
        2
176
     1
 90
        2
176
     1
 90
        3
176
     1
 90
        0
176
     1
 40
0.6
176
     1
 40
30.0
176
     1
 62
     8
420
  8421504
176
     1
 90
        1
176
     1
 90
        4
176
     1
 62
     7
176
     1
 62
   257
176
     1
 90
        1
176
     1
 90
        1
176
     1
 40
1.0
176
     1
 90
        8
176
     1
 62
     8
420
  8421504
176
     1
 40
1.0
176
     1
 90
        1
176
     1
 90
        6
176
     1
 90
        2
176
     1
 62
     7
176
     1
 90
        5
176
     1
 90
        0
176
     1
 90
        0
176
     1
290
     0
176
     1
 90
        1
176
     1
 40
0.0
176
     1
 90
        0
176
     1
290
     0
176
     1
290
     1
176
     1
290
     1
176
     1
290
     0
176
     1
290
     0
176
     1
290
     0
176
     1
290
     0
176
     1
290
     0
176
     1
290
     0
176
     1
 90
       50
176
     1
 40
0.0
176
     1
 40
1.0
176
     1
 90
        0
176
     1
 62
    18
420
        0
176
     1
 90
       50
176
     1
 90
        3
176
     1
 62
     5
420
      255
176
     1
290
     0
176
     1
 90
       50
176
     1
 90
       50
176
     1
 90
       50
176
     1
290
     0
176
     1
 90
       50
176
     1
 62
   256
176
     0
 40
1.0
176
     0
 90
        2
176
     1
  1
strokes_ogs.tif
176
     1
290
     0
176
     1
 40
1.0
176
     1
 40
1.0
176
     1
  0
VISUALSTYLE
  5
34
102
{ACAD_REACTORS
330
2A
102
}
330
2A
100
AcDbVisualStyle
  2
Conceptual
 70
     9
177
     3
291
     0
 70
    58
 90
        3
176
     1
 90
        2
176
     1
 90
        0
176
     1
 90
        0
176
     1
 40
0.6
176
     1
 40
30.0
176
     1
 62
     7
420
 16777215
176
     1
 90
        2
176
     1
 90
        2
176
     1
 62
     7
176
     1
 62
   257
176
     1
 90
        1
176
     1
 90
        1
176
     1
 40
179.0
176
     1
 90
        8
176
     1
 62
     7
176
     1
 40
1.0
176
     1
 90
        1
176
     1
 90
        6
176
     1
 90
        2
176
     1
 62
     7
176
     1
 90
        3
176
     1
 90
        0
176
     1
 90
        0
176
     1
290
     0
176
     1
 90
        1
176
     1
 40
0.0
176
     1
 90
        0
176
     1
290
     0
176
     1
290
     1
176
     1
290
     1
176
     1
290
     0
176
     1
290
     0
176
     1
290
     0
176
     1
290
     0
176
     1
290
     0
176
     1
290
     0
176
     1
 90
       50
176
     1
 40
0.0
176
     1
 40
1.0
176
     1
 90
        0
176
     1
 62
    18
420
        0
176
     1
 90
       50
176
     1
 90
        3
176
     1
 62
     5
420
      255
176
     1
290
     0
176
     1
 90
       50
176
     1
 90
       50
176
     1
 90
       50
176
     1
290
     0
176
     1
 90
       50
176
     1
 62
   256
176
     0
 40
1.0
176
     0
 90
        2
176
     1
  1
strokes_ogs.tif
176
     1
290
     0
176
     1
 40
1.0
176
     1
 40
1.0
176
     1
  0
VISUALSTYLE
  5
35
102
{ACAD_REACTORS
330
2A
102
}
330
2A
100
AcDbVisualStyle
  2
Dim
 70
    11
177
     3
291
     1
 70
    58
 90
        2
176
     1
 90
        2
176
     1
 90
        0
176
     1
 90
        0
176
     1
 40
0.6
176
     1
 40
30.0
176
     1
 62
     7
420
 16777215
176
     1
 90
        1
176
     1
 90
        4
176
     1
 62
     7
176
     1
 62
   257
176
     1
 90
        1
176
     1
 90
        1
176
     1
 40
1.0
176
     1
 90
        8
176
     1
 62
     7
176
     1
 40
1.0
176
     1
 90
        1
176
     1
 90
        6
176
     1
 90
        2
176
     1
 62
     7
176
     1
 90
        5
176
     1
 90
        0
176
     1
 90
        0
176
     1
290
     0
176
     1
 90
        1
176
     1
 40
-50.0
176
     1
 90
        0
176
     1
290
     0
176
     1
290
     1
176
     1
290
     1
176
     1
290
     0
176
     1
290
     0
176
     1
290
     0
176
     1
290
     0
176
     1
290
     0
176
     1
290
     0
176
     1
 90
       50
176
     1
 40
0.0
176
     1
 40
1.0
176
     1
 90
        0
176
     1
 62
    18
420
        0
176
     1
 90
       50
176
     1
 90
        3
176
     1
 62
     5
420
      255
176
     1
290
     0
176
     1
 90
       50
176
     1
 90
       50
176
     1
 90
       50
176
     1
290
     0
176
     1
 90
       50
176
     1
 62
   256
176
     0
 40
1.0
176
     0
 90
        2
176
     1
  1
strokes_ogs.tif
176
     1
290
     0
176
     1
 40
1.0
176
     1
 40
1.0
176
     1
  0
VISUALSTYLE
  5
3D
102
{ACAD_REACTORS
330
2A
102
}
330
2A
100
AcDbVisualStyle
  2
EdgeColorOff
 70
    22
177
     3
291
     1
 70
    58
 90
        2
176
     0
 90
        2
176
     0
 90
        0
176
     0
 90
        0
176
     0
 40
0.6
176
     0
 40
30.0
176
     0
 62
     7
420
 16777215
176
     0
 90
        1
176
     0
 90
        4
176
     0
 62
     7
176
     0
 62
   257
176
     0
 90
        1
176
     0
 90
        1
176
     0
 40
1.0
176
     0
 90
        8
176
     2
 62
     7
176
     0
 40
1.0
176
     0
 90
        1
176
     0
 90
        6
176
     0
 90
        2
176
     0
 62
     7
176
     0
 90
        5
176
     0
 90
        0
176
     0
 90
        0
176
     0
290
     0
176
     0
 90
        1
176
     0
 40
0.0
176
     0
 90
        0
176
     0
290
     0
176
     0
290
     1
176
     0
290
     1
176
     0
290
     0
176
     0
290
     0
176
     0
290
     0
176
     0
290
     0
176
     0
290
     0
176
     0
290
     0
176
     0
 90
       50
176
     0
 40
0.0
176
     0
 40
1.0
176
     0
 90
        0
176
     0
 62
    18
420
        0
176
     0
 90
       50
176
     0
 90
        3
176
     0
 62
     5
420
      255
176
     0
290
     0
176
     0
 90
       50
176
     0
 90
       50
176
     0
 90
       50
176
     0
290
     0
176
     0
 90
       50
176
     0
 62
   256
176
     0
 40
1.0
176
     0
 90
        2
176
     0
  1
strokes_ogs.tif
176
     0
290
     0
176
     0
 40
1.0
176
     0
 40
1.0
176
     0
  0
VISUALSTYLE
  5
39
102
{ACAD_REACTORS
330
2A
102
}
330
2A
100
AcDbVisualStyle
  2
Facepattern
 70
    15
177
     3
291
     1
 70
    58
 90
        2
176
     1
 90
        2
176
     1
 90
        0
176
     1
 90
        0
176
     1
 40
0.6
176
     1
 40
30.0
176
     1
 62
     7
420
 16777215
176
     1
 90
        1
176
     1
 90
        4
176
     1
 62
     7
176
     1
 62
   257
176
     1
 90
        1
176
     1
 90
        1
176
     1
 40
1.0
176
     1
 90
        8
176
     1
 62
     7
176
     1
 40
1.0
176
     1
 90
        1
176
     1
 90
        6
176
     1
 90
        2
176
     1
 62
     7
176
     1
 90
        5
176
     1
 90
        0
176
     1
 90
        0
176
     1
290
     0
176
     1
 90
        1
176
     1
 40
0.0
176
     1
 90
        0
176
     1
290
     0
176
     1
290
     1
176
     1
290
     1
176
     1
290
     0
176
     1
290
     0
176
     1
290
     0
176
     1
290
     0
176
     1
290
     0
176
     1
290
     0
176
     1
 90
       50
176
     1
 40
0.0
176
     1
 40
1.0
176
     1
 90
        0
176
     1
 62
    18
420
        0
176
     1
 90
       50
176
     1
 90
        3
176
     1
 62
     5
420
      255
176
     1
290
     0
176
     1
 90
       50
176
     1
 90
       50
176
     1
 90
       50
176
     1
290
     0
176
     1
 90
       50
176
     1
 62
   256
176
     0
 40
1.0
176
     0
 90
        2
176
     1
  1
strokes_ogs.tif
176
     1
290
     0
176
     1
 40
1.0
176
     1
 40
1.0
176
     1
  0
VISUALSTYLE
  5
2B
102
{ACAD_REACTORS
330
2A
102
}
330
2A
100
AcDbVisualStyle
  2
Flat
 70
     0
177
     3
291
     1
 70
    58
 90
        2
176
     1
 90
        1
176
     1
 90
        1
176
     1
 90
        2
176
     1
 40
0.6
176
     1
 40
30.0
176
     1
 62
     7
420
 16777215
176
     1
 90
        0
176
     1
 90
        0
176
     1
 62
     7
176
     1
 62
   257
176
     1
 90
        1
176
     1
 90
        1
176
     1
 40
1.0
176
     1
 90
        8
176
     1
 62
     7
176
     1
 40
1.0
176
     1
 90
        1
176
     1
 90
        6
176
     1
 90
        2
176
     1
 62
     7
176
     1
 90
        5
176
     1
 90
        0
176
     1
 90
        0
176
     1
290
     0
176
     1
 90
       13
176
     1
 40
0.0
176
     1
 90
        0
176
     1
290
     0
176
     1
290
     1
176
     1
290
     1
176
     1
290
     0
176
     1
290
     0
176
     1
290
     0
176
     1
290
     0
176
     1
290
     0
176
     1
290
     0
176
     1
 90
       50
176
     1
 40
0.0
176
     1
 40
1.0
176
     1
 90
        0
176
     1
 62
    18
420
        0
176
     1
 90
       50
176
     1
 90
        3
176
     1
 62
     5
420
      255
176
     1
290
     0
176
     1
 90
       50
176
     1
 90
       50
176
     1
 90
       50
176
     1
290
     0
176
     1
 90
       50
176
     1
 62
   256
176
     0
 40
1.0
176
     0
 90
        2
176
     1
  1
strokes_ogs.tif
176
     1
290
     0
176
     1
 40
1.0
176
     1
 40
1.0
176
     1
  0
VISUALSTYLE
  5
2C
102
{ACAD_REACTORS
330
2A
102
}
330
2A
100
AcDbVisualStyle
  2
FlatWithEdges
 70
     1
177
     3
291
     1
 70
    58
 90
        2
176
     1
 90
        1
176
     1
 90
        1
176
     1
 90
        2
176
     1
 40
0.6
176
     1
 40
30.0
176
     1
 62
     7
420
 16777215
176
     1
 90
        1
176
     1
 90
        0
176
     1
 62
     7
176
     1
 62
   257
176
     1
 90
        1
176
     1
 90
        1
176
     1
 40
1.0
176
     1
 90
        0
176
     1
 62
   257
176
     1
 40
1.0
176
     1
 90
        1
176
     1
 90
        6
176
     1
 90
        2
176
     1
 62
     7
176
     1
 90
        5
176
     1
 90
        0
176
     1
 90
        0
176
     1
290
     0
176
     1
 90
       13
176
     1
 40
0.0
176
     1
 90
        0
176
     1
290
     0
176
     1
290
     1
176
     1
290
     1
176
     1
290
     0
176
     1
290
     0
176
     1
290
     0
176
     1
290
     0
176
     1
290
     0
176
     1
290
     0
176
     1
 90
       50
176
     1
 40
0.0
176
     1
 40
1.0
176
     1
 90
        0
176
     1
 62
    18
420
        0
176
     1
 90
       50
176
     1
 90
        3
176
     1
 62
     5
420
      255
176
     1
290
     0
176
     1
 90
       50
176
     1
 90
       50
176
     1
 90
       50
176
     1
290
     0
176
     1
 90
       50
176
     1
 62
   256
176
     0
 40
1.0
176
     0
 90
        2
176
     1
  1
strokes_ogs.tif
176
     1
290
     0
176
     1
 40
1.0
176
     1
 40
1.0
176
     1
  0
VISUALSTYLE
  5
2D
102
{ACAD_REACTORS
330
2A
102
}
330
2A
100
AcDbVisualStyle
  2
Gouraud
 70
     2
177
     3
291
     1
 70
    58
 90
        2
176
     1
 90
        2
176
     1
 90
        1
176
     1
 90
        2
176
     1
 40
0.6
176
     1
 40
30.0
176
     1
 62
     7
420
 16777215
176
     1
 90
        0
176
     1
 90
        0
176
     1
 62
     7
176
     1
 62
   257
176
     1
 90
        1
176
     1
 90
        1
176
     1
 40
1.0
176
     1
 90
        0
176
     1
 62
     7
176
     1
 40
1.0
176
     1
 90
        1
176
     1
 90
        6
176
     1
 90
        2
176
     1
 62
     7
176
     1
 90
        5
176
     1
 90
        0
176
     1
 90
        0
176
     1
290
     0
176
     1
 90
       13
176
     1
 40
0.0
176
     1
 90
        0
176
     1
290
     0
176
     1
290
     1
176
     1
290
     1
176
     1
290
     0
176
     1
290
     0
176
     1
290
     0
176
     1
290
     0
176
     1
290
     0
176
     1
290
     0
176
     1
 90
       50
176
     1
 40
0.0
176
     1
 40
1.0
176
     1
 90
        0
176
     1
 62
    18
420
        0
176
     1
 90
       50
176
     1
 90
        3
176
     1
 62
     5
420
      255
176
     1
290
     0
176
     1
 90
       50
176
     1
 90
       50
176
     1
 90
       50
176
     1
290
     0
176
     1
 90
       50
176
     1
 62
   256
176
     0
 40
1.0
176
     0
 90
        2
176
     1
  1
strokes_ogs.tif
176
     1
290
     0
176
     1
 40
1.0
176
     1
 40
1.0
176
     1
  0
VISUALSTYLE
  5
2E
102
{ACAD_REACTORS
330
2A
102
}
330
2A
100
AcDbVisualStyle
  2
GouraudWithEdges
 70
     3
177
     3
291
     1
 70
    58
 90
        2
176
     1
 90
        2
176
     1
 90
        1
176
     1
 90
        2
176
     1
 40
0.6
176
     1
 40
30.0
176
     1
 62
     7
420
 16777215
176
     1
 90
        1
176
     1
 90
        0
176
     1
 62
     7
176
     1
 62
   257
176
     1
 90
        1
176
     1
 90
        1
176
     1
 40
1.0
176
     1
 90
        0
176
     1
 62
   257
176
     1
 40
1.0
176
     1
 90
        1
176
     1
 90
        6
176
     1
 90
        2
176
     1
 62
     7
176
     1
 90
        5
176
     1
 90
        0
176
     1
 90
        0
176
     1
290
     0
176
     1
 90
       13
176
     1
 40
0.0
176
     1
 90
        0
176
     1
290
     0
176
     1
290
     1
176
     1
290
     1
176
     1
290
     0
176
     1
290
     0
176
     1
290
     0
176
     1
290
     0
176
     1
290
     0
176
     1
290
     0
176
     1
 90
       50
176
     1
 40
0.0
176
     1
 40
1.0
176
     1
 90
        0
176
     1
 62
    18
420
        0
176
     1
 90
       50
176
     1
 90
        3
176
     1
 62
     5
420
      255
176
     1
290
     0
176
     1
 90
       50
176
     1
 90
       50
176
     1
 90
       50
176
     1
290
     0
176
     1
 90
       50
176
     1
 62
   256
176
     0
 40
1.0
176
     0
 90
        2
176
     1
  1
strokes_ogs.tif
176
     1
290
     0
176
     1
 40
1.0
176
     1
 40
1.0
176
     1
  0
VISUALSTYLE
  5
31
102
{ACAD_REACTORS
330
2A
102
}
330
2A
100
AcDbVisualStyle
  2
Hidden
 70
     6
177
     3
291
     0
 70
    58
 90
        1
176
     1
 90
        2
176
     1
 90
        2
176
     1
 90
        0
176
     1
 40
0.6
176
     1
 40
30.0
176
     1
 62
     7
420
 16777215
176
     1
 90
        2
176
     1
 90
        2
176
     1
 62
     7
176
     1
 62
   257
176
     1
 90
        2
176
     1
 90
        1
176
     1
 40
40.0
176
     1
 90
        0
176
     1
 62
   257
176
     1
 40
1.0
176
     1
 90
        1
176
     1
 90
        6
176
     1
 90
        2
176
     1
 62
     7
176
     1
 90
        3
176
     1
 90
        0
176
     1
 90
        0
176
     1
290
     0
176
     1
 90
        1
176
     1
 40
0.0
176
     1
 90
        0
176
     1
290
     0
176
     1
290
     1
176
     1
290
     1
176
     1
290
     0
176
     1
290
     0
176
     1
290
     0
176
     1
290
     0
176
     1
290
     0
176
     1
290
     0
176
     1
 90
       50
176
     1
 40
0.0
176
     1
 40
1.0
176
     1
 90
        0
176
     1
 62
    18
420
        0
176
     1
 90
       50
176
     1
 90
        3
176
     1
 62
     5
420
      255
176
     1
290
     0
176
     1
 90
       50
176
     1
 90
       50
176
     1
 90
       50
176
     1
290
     0
176
     1
 90
       50
176
     1
 62
   256
176
     0
 40
1.0
176
     0
 90
        2
176
     1
  1
strokes_ogs.tif
176
     1
290
     0
176
     1
 40
1.0
176
     1
 40
1.0
176
     1
  0
VISUALSTYLE
  5
3B
102
{ACAD_REACTORS
330
2A
102
}
330
2A
100
AcDbVisualStyle
  2
JitterOff
 70
    20
177
     3
291
     1
 70
    58
 90
        2
176
     0
 90
        2
176
     0
 90
        0
176
     0
 90
        0
176
     0
 40
0.6
176
     0
 40
30.0
176
     0
 62
     7
420
 16777215
176
     0
 90
        1
176
     0
 90
        4
176
     0
 62
     7
176
     0
 62
   257
176
     0
 90
        1
176
     0
 90
        1
176
     0
 40
1.0
176
     0
 90
       10
176
     2
 62
     7
176
     0
 40
1.0
176
     0
 90
        1
176
     0
 90
        6
176
     0
 90
        2
176
     0
 62
     7
176
     0
 90
        5
176
     0
 90
        0
176
     0
 90
        0
176
     0
290
     0
176
     0
 90
        1
176
     0
 40
0.0
176
     0
 90
        0
176
     0
290
     0
176
     0
290
     1
176
     0
290
     1
176
     0
290
     0
176
     0
290
     0
176
     0
290
     0
176
     0
290
     0
176
     0
290
     0
176
     0
290
     0
176
     0
 90
       50
176
     0
 40
0.0
176
     0
 40
1.0
176
     0
 90
        0
176
     0
 62
    18
420
        0
176
     0
 90
       50
176
     0
 90
        3
176
     0
 62
     5
420
      255
176
     0
290
     0
176
     0
 90
       50
176
     0
 90
       50
176
     0
 90
       50
176
     0
290
     0
176
     0
 90
       50
176
     0
 62
   256
176
     0
 40
1.0
176
     0
 90
        2
176
     0
  1
strokes_ogs.tif
176
     0
290
     0
176
     0
 40
1.0
176
     0
 40
1.0
176
     0
  0
VISUALSTYLE
  5
38
102
{ACAD_REACTORS
330
2A
102
}
330
2A
100
AcDbVisualStyle
  2
Linepattern
 70
    14
177
     3
291
     1
 70
    58
 90
        2
176
     1
 90
        2
176
     1
 90
        0
176
     1
 90
        0
176
     1
 40
0.6
176
     1
 40
30.0
176
     1
 62
     7
420
 16777215
176
     1
 90
        1
176
     1
 90
        4
176
     1
 62
     7
176
     1
 62
   257
176
     1
 90
        7
176
     1
 90
        7
176
     1
 40
1.0
176
     1
 90
        8
176
     1
 62
     7
176
     1
 40
1.0
176
     1
 90
        1
176
     1
 90
        6
176
     1
 90
        2
176
     1
 62
     7
176
     1
 90
        5
176
     1
 90
        0
176
     1
 90
        0
176
     1
290
     0
176
     1
 90
        1
176
     1
 40
0.0
176
     1
 90
        0
176
     1
290
     0
176
     1
290
     1
176
     1
290
     1
176
     1
290
     0
176
     1
290
     0
176
     1
290
     0
176
     1
290
     0
176
     1
290
     0
176
     1
290
     0
176
     1
 90
       50
176
     1
 40
0.0
176
     1
 40
1.0
176
     1
 90
        0
176
     1
 62
    18
420
        0
176
     1
 90
       50
176
     1
 90
        3
176
     1
 62
     5
420
      255
176
     1
290
     0
176
     1
 90
       50
176
     1
 90
       50
176
     1
 90
       50
176
     1
290
     0
176
     1
 90
       50
176
     1
 62
   256
176
     0
 40
1.0
176
     0
 90
        2
176
     1
  1
strokes_ogs.tif
176
     1
290
     0
176
     1
 40
1.0
176
     1
 40
1.0
176
     1
  0
VISUALSTYLE
  5
3C
102
{ACAD_REACTORS
330
2A
102
}
330
2A
100
AcDbVisualStyle
  2
OverhangOff
 70
    21
177
     3
291
     1
 70
    58
 90
        2
176
     0
 90
        2
176
     0
 90
        0
176
     0
 90
        0
176
     0
 40
0.6
176
     0
 40
30.0
176
     0
 62
     7
420
 16777215
176
     0
 90
        1
176
     0
 90
        4
176
     0
 62
     7
176
     0
 62
   257
176
     0
 90
        1
176
     0
 90
        1
176
     0
 40
1.0
176
     0
 90
        9
176
     2
 62
     7
176
     0
 40
1.0
176
     0
 90
        1
176
     0
 90
        6
176
     0
 90
        2
176
     0
 62
     7
176
     0
 90
        5
176
     0
 90
        0
176
     0
 90
        0
176
     0
290
     0
176
     0
 90
        1
176
     0
 40
0.0
176
     0
 90
        0
176
     0
290
     0
176
     0
290
     1
176
     0
290
     1
176
     0
290
     0
176
     0
290
     0
176
     0
290
     0
176
     0
290
     0
176
     0
290
     0
176
     0
290
     0
176
     0
 90
       50
176
     0
 40
0.0
176
     0
 40
1.0
176
     0
 90
        0
176
     0
 62
    18
420
        0
176
     0
 90
       50
176
     0
 90
        3
176
     0
 62
     5
420
      255
176
     0
290
     0
176
     0
 90
       50
176
     0
 90
       50
176
     0
 90
       50
176
     0
290
     0
176
     0
 90
       50
176
     0
 62
   256
176
     0
 40
1.0
176
     0
 90
        2
176
     0
  1
strokes_ogs.tif
176
     0
290
     0
176
     0
 40
1.0
176
     0
 40
1.0
176
     0
  0
VISUALSTYLE
  5
33
102
{ACAD_REACTORS
330
2A
102
}
330
2A
100
AcDbVisualStyle
  2
Realistic
 70
     8
177
     3
291
     0
 70
    58
 90
        2
176
     1
 90
        3
176
     1
 90
        0
176
     1
 90
        2
176
     1
 40
0.6
176
     1
 40
30.0
176
     1
 62
     7
420
 16777215
176
     1
 90
        0
176
     1
 90
        0
176
     1
 62
     7
176
     1
 62
   257
176
     1
 90
        1
176
     1
 90
        1
176
     1
 40
1.0
176
     1
 90
        8
176
     1
 62
   257
176
     1
 40
1.0
176
     1
 90
        1
176
     1
 90
        6
176
     1
 90
        2
176
     1
 62
     7
176
     1
 90
        3
176
     1
 90
        0
176
     1
 90
        0
176
     1
290
     0
176
     1
 90
       13
176
     1
 40
0.0
176
     1
 90
        0
176
     1
290
     0
176
     1
290
     1
176
     1
290
     1
176
     1
290
     0
176
     1
290
     0
176
     1
290
     0
176
     1
290
     0
176
     1
290
     0
176
     1
290
     0
176
     1
 90
       50
176
     1
 40
0.0
176
     1
 40
1.0
176
     1
 90
        0
176
     1
 62
    18
420
        0
176
     1
 90
       50
176
     1
 90
        3
176
     1
 62
     5
420
      255
176
     1
290
     0
176
     1
 90
       50
176
     1
 90
       50
176
     1
 90
       50
176
     1
290
     0
176
     1
 90
       50
176
     1
 62
   256
176
     0
 40
1.0
176
     0
 90
        2
176
     1
  1
strokes_ogs.tif
176
     1
290
     0
176
     1
 40
1.0
176
     1
 40
1.0
176
     1
  0
VISUALSTYLE
  5
42
102
{ACAD_REACTORS
330
2A
102
}
330
2A
100
AcDbVisualStyle
  2
Shaded
 70
    27
177
     3
291
     0
 70
    58
 90
        2
176
     1
 90
        2
176
     1
 90
        1
176
     1
 90
        2
176
     1
 40
0.6
176
     1
 40
30.0
176
     1
 62
     7
420
 16777215
176
     1
 90
        0
176
     1
 90
        4
176
     1
 62
     7
176
     1
 62
   257
176
     1
 90
        1
176
     1
 90
        1
176
     1
 40
1.0
176
     1
 90
        8
176
     1
 62
   257
176
     1
 40
1.0
176
     1
 90
        1
176
     1
 90
        6
176
     1
 90
        2
176
     1
 62
     8
420
  7895160
176
     1
 90
        3
176
     1
 90
        0
176
     1
 90
        0
176
     1
290
     0
176
     1
 90
        5
176
     1
 40
0.0
176
     1
 90
        0
176
     1
290
     0
176
     1
290
     1
176
     1
290
     1
176
     1
290
     0
176
     1
290
     0
176
     1
290
     0
176
     1
290
     0
176
     1
290
     0
176
     1
290
     0
176
     1
 90
       50
176
     1
 40
0.0
176
     1
 40
1.0
176
     1
 90
        0
176
     1
 62
    18
420
        0
176
     1
 90
       50
176
     1
 90
        3
176
     1
 62
     5
420
      255
176
     1
290
     0
176
     1
 90
       50
176
     1
 90
       50
176
     1
 90
       50
176
     1
290
     0
176
     1
 90
       50
176
     1
 62
   256
176
     0
 40
1.0
176
     0
 90
        2
176
     1
  1
strokes_ogs.tif
176
     1
290
     0
176
     1
 40
1.0
176
     1
 40
1.0
176
     1
  0
VISUALSTYLE
  5
41
102
{ACAD_REACTORS
330
2A
102
}
330
2A
100
AcDbVisualStyle
  2
Shaded with edges
 70
    26
177
     3
291
     0
 70
    58
 90
        2
176
     1
 90
        2
176
     1
 90
        1
176
     1
 90
        2
176
     1
 40
0.6
176
     1
 40
30.0
176
     1
 62
     7
420
 16777215
176
     1
 90
        1
176
     1
 90
       10
176
     1
 62
     7
176
     1
 62
   257
176
     1
 90
        2
176
     1
 90
        1
176
     1
 40
1.0
176
     1
 90
        8
176
     1
 62
   257
176
     1
 40
1.0
176
     1
 90
        1
176
     1
 90
        6
176
     1
 90
        2
176
     1
 62
     7
176
     1
 90
        3
176
     1
 90
        0
176
     1
 90
        0
176
     1
290
     0
176
     1
 90
        5
176
     1
 40
0.0
176
     1
 90
        0
176
     1
290
     0
176
     1
290
     1
176
     1
290
     1
176
     1
290
     0
176
     1
290
     0
176
     1
290
     0
176
     1
290
     0
176
     1
290
     0
176
     1
290
     0
176
     1
 90
       50
176
     1
 40
0.0
176
     1
 40
1.0
176
     1
 90
        0
176
     1
 62
    18
420
        0
176
     1
 90
       50
176
     1
 90
        3
176
     1
 62
     5
420
      255
176
     1
290
     0
176
     1
 90
       50
176
     1
 90
       50
176
     1
 90
       50
176
     1
290
     0
176
     1
 90
       50
176
     1
 62
   256
176
     0
 40
1.0
176
     0
 90
        2
176
     1
  1
strokes_ogs.tif
176
     1
290
     0
176
     1
 40
1.0
176
     1
 40
1.0
176
     1
  0
VISUALSTYLE
  5
3E
102
{ACAD_REACTORS
330
2A
102
}
330
2A
100
AcDbVisualStyle
  2
Shades of Gray
 70
    23
177
     3
291
     0
 70
    58
 90
        2
176
     1
 90
        2
176
     1
 90
        3
176
     1
 90
        0
176
     1
 40
0.6
176
     1
 40
30.0
176
     1
 62
     7
420
 16777215
176
     1
 90
        2
176
     1
 90
        2
176
     1
 62
     7
176
     1
 62
     7
176
     1
 90
        1
176
     1
 90
        1
176
     1
 40
40.0
176
     1
 90
        8
176
     1
 62
     7
176
     1
 40
1.0
176
     1
 90
        1
176
     1
 90
        6
176
     1
 90
        2
176
     1
 62
     7
176
     1
 90
        3
176
     1
 90
        0
176
     1
 90
        0
176
     1
290
     0
176
     1
 90
        1
176
     1
 40
0.0
176
     1
 90
        0
176
     1
290
     0
176
     1
290
     1
176
     1
290
     1
176
     1
290
     0
176
     1
290
     0
176
     1
290
     0
176
     1
290
     0
176
     1
290
     0
176
     1
290
     0
176
     1
 90
       50
176
     1
 40
0.0
176
     1
 40
1.0
176
     1
 90
        0
176
     1
 62
    18
420
        0
176
     1
 90
       50
176
     1
 90
        3
176
     1
 62
     5
420
      255
176
     1
290
     0
176
     1
 90
       50
176
     1
 90
       50
176
     1
 90
       50
176
     1
290
     0
176
     1
 90
       50
176
     1
 62
   256
176
     0
 40
1.0
176
     0
 90
        2
176
     1
  1
strokes_ogs.tif
176
     1
290
     0
176
     1
 40
1.0
176
     1
 40
1.0
176
     1
  0
VISUALSTYLE
  5
3F
102
{ACAD_REACTORS
330
2A
102
}
330
2A
100
AcDbVisualStyle
  2
Sketchy
 70
    24
177
     3
291
     0
 70
    58
 90
        1
176
     1
 90
        2
176
     1
 90
        2
176
     1
 90
        0
176
     1
 40
0.6
176
     1
 40
30.0
176
     1
 62
     7
420
 16777215
176
     1
 90
        2
176
     1
 90
        2
176
     1
 62
     7
176
     1
 62
     7
176
     1
 90
        1
176
     1
 90
        1
176
     1
 40
40.0
176
     1
 90
       11
176
     1
 62
     7
176
     1
 40
1.0
176
     1
 90
        1
176
     1
 90
        6
176
     1
 90
        2
176
     1
 62
     7
176
     1
 90
        6
176
     1
 90
        0
176
     1
 90
        0
176
     1
290
     0
176
     1
 90
        1
176
     1
 40
0.0
176
     1
 90
        0
176
     1
290
     0
176
     1
290
     1
176
     1
290
     1
176
     1
290
     0
176
     1
290
     0
176
     1
290
     0
176
     1
290
     0
176
     1
290
     0
176
     1
290
     0
176
     1
 90
       50
176
     1
 40
0.0
176
     1
 40
1.0
176
     1
 90
        0
176
     1
 62
    18
420
        0
176
     1
 90
       50
176
     1
 90
        3
176
     1
 62
     5
420
      255
176
     1
290
     0
176
     1
 90
       50
176
     1
 90
       50
176
     1
 90
       50
176
     1
290
     0
176
     1
 90
       50
176
     1
 62
   256
176
     0
 40
1.0
176
     0
 90
        2
176
     1
  1
strokes_ogs.tif
176
     1
290
     0
176
     1
 40
1.0
176
     1
 40
1.0
176
     1
  0
VISUALSTYLE
  5
37
102
{ACAD_REACTORS
330
2A
102
}
330
2A
100
AcDbVisualStyle
  2
Thicken
 70
    13
177
     3
291
     1
 70
    58
 90
        2
176
     1
 90
        2
176
     1
 90
        0
176
     1
 90
        0
176
     1
 40
0.6
176
     1
 40
30.0
176
     1
 62
     7
420
 16777215
176
     1
 90
        1
176
     1
 90
        4
176
     1
 62
     7
176
     1
 62
   257
176
     1
 90
        1
176
     1
 90
        1
176
     1
 40
1.0
176
     1
 90
       12
176
     1
 62
     7
176
     1
 40
1.0
176
     1
 90
        1
176
     1
 90
        6
176
     1
 90
        2
176
     1
 62
     7
176
     1
 90
        5
176
     1
 90
        0
176
     1
 90
        0
176
     1
290
     0
176
     1
 90
        1
176
     1
 40
0.0
176
     1
 90
        0
176
     1
290
     0
176
     1
290
     1
176
     1
290
     1
176
     1
290
     0
176
     1
290
     0
176
     1
290
     0
176
     1
290
     0
176
     1
290
     0
176
     1
290
     0
176
     1
 90
       50
176
     1
 40
0.0
176
     1
 40
1.0
176
     1
 90
        0
176
     1
 62
    18
420
        0
176
     1
 90
       50
176
     1
 90
        3
176
     1
 62
     5
420
      255
176
     1
290
     0
176
     1
 90
       50
176
     1
 90
       50
176
     1
 90
       50
176
     1
290
     0
176
     1
 90
       50
176
     1
 62
   256
176
     0
 40
1.0
176
     0
 90
        2
176
     1
  1
strokes_ogs.tif
176
     1
290
     0
176
     1
 40
1.0
176
     1
 40
1.0
176
     1
  0
VISUALSTYLE
  5
30
102
{ACAD_REACTORS
330
2A
102
}
330
2A
100
AcDbVisualStyle
  2
Wireframe
 70
     5
177
     3
291
     0
 70
    58
 90
        0
176
     1
 90
        2
176
     1
 90
        0
176
     1
 90
        0
176
     1
 40
0.6
176
     1
 40
30.0
176
     1
 62
     7
420
 16777215
176
     1
 90
        1
176
     1
 90
        4
176
     1
 62
     7
176
     1
 62
   257
176
     1
 90
        1
176
     1
 90
        1
176
     1
 40
1.0
176
     1
 90
        0
176
     1
 62
   257
176
     1
 40
1.0
176
     1
 90
        1
176
     1
 90
        6
176
     1
 90
        2
176
     1
 62
     7
176
     1
 90
        3
176
     1
 90
        0
176
     1
 90
        0
176
     1
290
     0
176
     1
 90
        1
176
     1
 40
0.0
176
     1
 90
        0
176
     1
290
     0
176
     1
290
     1
176
     1
290
     1
176
     1
290
     0
176
     1
290
     0
176
     1
290
     0
176
     1
290
     0
176
     1
290
     0
176
     1
290
     0
176
     1
 90
       50
176
     1
 40
0.0
176
     1
 40
1.0
176
     1
 90
        0
176
     1
 62
    18
420
        0
176
     1
 90
       50
176
     1
 90
        3
176
     1
 62
     5
420
      255
176
     1
290
     0
176
     1
 90
       50
176
     1
 90
       50
176
     1
 90
       50
176
     1
290
     0
176
     1
 90
       50
176
     1
 62
   256
176
     0
 40
1.0
176
     0
 90
        2
176
     1
  1
strokes_ogs.tif
176
     1
290
     0
176
     1
 40
1.0
176
     1
 40
1.0
176
     1
  0
VISUALSTYLE
  5
40
102
{ACAD_REACTORS
330
2A
102
}
330
2A
100
AcDbVisualStyle
  2
X-Ray
 70
    25
177
     3
291
     0
 70
    58
 90
        2
176
     1
 90
        2
176
     1
 90
        1
176
     1
 90
        1
176
     1
 40
0.5
176
     1
 40
30.0
176
     1
 62
     7
420
 16777215
176
     1
 90
        1
176
     1
 90
        0
176
     1
 62
     7
176
     1
 62
   257
176
     1
 90
        1
176
     1
 90
        1
176
     1
 40
1.0
176
     1
 90
        8
176
     1
 62
     7
176
     1
 40
1.0
176
     1
 90
        1
176
     1
 90
        6
176
     1
 90
        2
176
     1
 62
     7
176
     1
 90
        3
176
     1
 90
        0
176
     1
 90
        0
176
     1
290
     0
176
     1
 90
       13
176
     1
 40
0.0
176
     1
 90
        0
176
     1
290
     0
176
     1
290
     1
176
     1
290
     1
176
     1
290
     0
176
     1
290
     0
176
     1
290
     0
176
     1
290
     0
176
     1
290
     0
176
     1
290
     0
176
     1
 90
       50
176
     1
 40
0.0
176
     1
 40
1.0
176
     1
 90
        0
176
     1
 62
    18
420
        0
176
     1
 90
       50
176
     1
 90
        3
176
     1
 62
     5
420
      255
176
     1
290
     0
176
     1
 90
       50
176
     1
 90
       50
176
     1
 90
       50
176
     1
290
     0
176
     1
 90
       50
176
     1
 62
   256
176
     0
 40
1.0
176
     0
 90
        2
176
     1
  1
strokes_ogs.tif
176
     1
290
     0
176
     1
 40
1.0
176
     1
 40
1.0
176
     1
  0
DICTIONARYVAR
  5
1FE
102
{ACAD_REACTORS
330
1FD
102
}
330
1FD
100
DictionaryVariables
280
     0
  1
1:1
  0
DICTIONARYVAR
  5
203
102
{ACAD_REACTORS
330
1FD
102
}
330
1FD
100
DictionaryVariables
280
     0
  1
Standard
  0
DICTIONARYVAR
  5
202
102
{ACAD_REACTORS
330
1FD
102
}
330
1FD
100
DictionaryVariables
280
     0
  1
Standard
  0
DICTIONARY
  5
1FF
330
6A
100
AcDbDictionary
280
     1
281
     1
  3
ACAD_ROUNDTRIP_2008_TABLESTYLE_CELLSTYLEMAP
360
200
  0
CELLSTYLEMAP
  5
200
102
{ACAD_REACTORS
330
1FF
102
}
330
1FF
100
AcDbCellStyleMap
 90
        3
300
CELLSTYLE
  1
TABLEFORMAT_BEGIN
 90
        5
170
     1
 91
        0
 92
    32768
 62
   257
 93
        1
300
CONTENTFORMAT
  1
CONTENTFORMAT_BEGIN
 90
        0
 91
        0
 92
        4
 93
        0
300

 40
0.0
140
1.0
 94
        5
 62
     0
340
11
144
0.25
309
CONTENTFORMAT_END
171
     1
301
MARGIN
  1
CELLMARGIN_BEGIN
 40
0.06
 40
0.06
 40
0.06
 40
0.06
 40
0.06
 40
0.06
309
CELLMARGIN_END
 94
        6
 95
        1
302
GRIDFORMAT
  1
GRIDFORMAT_BEGIN
 90
        0
 91
        1
 62
     0
 92
       -2
340
14
 93
        0
 40
0.045
309
GRIDFORMAT_END
 95
        2
302
GRIDFORMAT
  1
GRIDFORMAT_BEGIN
 90
        0
 91
        1
 62
     0
 92
       -2
340
14
 93
        0
 40
0.045
309
GRIDFORMAT_END
 95
        4
302
GRIDFORMAT
  1
GRIDFORMAT_BEGIN
 90
        0
 91
        1
 62
     0
 92
       -2
340
14
 93
        0
 40
0.045
309
GRIDFORMAT_END
 95
        8
302
GRIDFORMAT
  1
GRIDFORMAT_BEGIN
 90
        0
 91
        1
 62
     0
 92
       -2
340
14
 93
        0
 40
0.045
309
GRIDFORMAT_END
 95
       16
302
GRIDFORMAT
  1
GRIDFORMAT_BEGIN
 90
        0
 91
        1
 62
     0
 92
       -2
340
14
 93
        0
 40
0.045
309
GRIDFORMAT_END
 95
       32
302
GRIDFORMAT
  1
GRIDFORMAT_BEGIN
 90
        0
 91
        1
 62
     0
 92
       -2
340
14
 93
        0
 40
0.045
309
GRIDFORMAT_END
309
TABLEFORMAT_END
  1
CELLSTYLE_BEGIN
 90
        1
 91
        1
300
_TITLE
309
CELLSTYLE_END
300
CELLSTYLE
  1
TABLEFORMAT_BEGIN
 90
        5
170
     1
 91
        0
 92
        0
 62
   257
 93
        1
300
CONTENTFORMAT
  1
CONTENTFORMAT_BEGIN
 90
        0
 91
        0
 92
        4
 93
        0
300

 40
0.0
140
1.0
 94
        5
 62
     0
340
11
144
0.18
309
CONTENTFORMAT_END
171
     1
301
MARGIN
  1
CELLMARGIN_BEGIN
 40
0.06
 40
0.06
 40
0.06
 40
0.06
 40
0.06
 40
0.06
309
CELLMARGIN_END
 94
        6
 95
        1
302
GRIDFORMAT
  1
GRIDFORMAT_BEGIN
 90
        0
 91
        1
 62
     0
 92
       -2
340
14
 93
        0
 40
0.045
309
GRIDFORMAT_END
 95
        2
302
GRIDFORMAT
  1
GRIDFORMAT_BEGIN
 90
        0
 91
        1
 62
     0
 92
       -2
340
14
 93
        0
 40
0.045
309
GRIDFORMAT_END
 95
        4
302
GRIDFORMAT
  1
GRIDFORMAT_BEGIN
 90
        0
 91
        1
 62
     0
 92
       -2
340
14
 93
        0
 40
0.045
309
GRIDFORMAT_END
 95
        8
302
GRIDFORMAT
  1
GRIDFORMAT_BEGIN
 90
        0
 91
        1
 62
     0
 92
       -2
340
14
 93
        0
 40
0.045
309
GRIDFORMAT_END
 95
       16
302
GRIDFORMAT
  1
GRIDFORMAT_BEGIN
 90
        0
 91
        1
 62
     0
 92
       -2
340
14
 93
        0
 40
0.045
309
GRIDFORMAT_END
 95
       32
302
GRIDFORMAT
  1
GRIDFORMAT_BEGIN
 90
        0
 91
        1
 62
     0
 92
       -2
340
14
 93
        0
 40
0.045
309
GRIDFORMAT_END
309
TABLEFORMAT_END
  1
CELLSTYLE_BEGIN
 90
        2
 91
        1
300
_HEADER
309
CELLSTYLE_END
300
CELLSTYLE
  1
TABLEFORMAT_BEGIN
 90
        5
170
     1
 91
        0
 92
        0
 62
   257
 93
        1
300
CONTENTFORMAT
  1
CONTENTFORMAT_BEGIN
 90
        0
 91
        0
 92
        4
 93
        0
300

 40
0.0
140
1.0
 94
        2
 62
     0
340
11
144
0.18
309
CONTENTFORMAT_END
171
     1
301
MARGIN
  1
CELLMARGIN_BEGIN
 40
0.06
 40
0.06
 40
0.06
 40
0.06
 40
0.06
 40
0.06
309
CELLMARGIN_END
 94
        6
 95
        1
302
GRIDFORMAT
  1
GRIDFORMAT_BEGIN
 90
        0
 91
        1
 62
     0
 92
       -2
340
14
 93
        0
 40
0.045
309
GRIDFORMAT_END
 95
        2
302
GRIDFORMAT
  1
GRIDFORMAT_BEGIN
 90
        0
 91
        1
 62
     0
 92
       -2
340
14
 93
        0
 40
0.045
309
GRIDFORMAT_END
 95
        4
302
GRIDFORMAT
  1
GRIDFORMAT_BEGIN
 90
        0
 91
        1
 62
     0
 92
       -2
340
14
 93
        0
 40
0.045
309
GRIDFORMAT_END
 95
        8
302
GRIDFORMAT
  1
GRIDFORMAT_BEGIN
 90
        0
 91
        1
 62
     0
 92
       -2
340
14
 93
        0
 40
0.045
309
GRIDFORMAT_END
 95
       16
302
GRIDFORMAT
  1
GRIDFORMAT_BEGIN
 90
        0
 91
        1
 62
     0
 92
       -2
340
14
 93
        0
 40
0.045
309
GRIDFORMAT_END
 95
       32
302
GRIDFORMAT
  1
GRIDFORMAT_BEGIN
 90
        0
 91
        1
 62
     0
 92
       -2
340
14
 93
        0
 40
0.045
309
GRIDFORMAT_END
309
TABLEFORMAT_END
  1
CELLSTYLE_BEGIN
 90
        3
 91
        2
300
_DATA
309
CELLSTYLE_END
  0
ENDSEC
  0
EOF