0
SECTION
  2
HEADER
  9
$ACADVER
  1
AC1027
  9
$ACADMAINTVER
 70
     8
  9
$DWGCODEPAGE
  3
ANSI_1252
  9
$REQUIREDVERSIONS
160
                 0
  9
$COMMENTS
  1
File was created by Cadenas
  9
$CUSTOMPROPERTYTAG
  1
NN
  9
$CUSTOMPROPERTY
  1
Set Screw Intermediate Duty Two-Bolt Pillow Block Inch Bore
  9
$CUSTOMPROPERTYTAG
  1
NT
  9
$CUSTOMPROPERTY
  1
VSC Intermediate Duty Pillow Blocks
  9
$CUSTOMPROPERTYTAG
  1
NB
  9
$CUSTOMPROPERTY
  1
125500
  9
$CUSTOMPROPERTYTAG
  1
NBSYN
  9
$CUSTOMPROPERTY
  1
$PN.
  9
$CUSTOMPROPERTYTAG
  1
LINA
  9
$CUSTOMPROPERTY
  1
125500
  9
$CUSTOMPROPERTYTAG
  1
RS
  9
$CUSTOMPROPERTY
  1
203
  9
$CUSTOMPROPERTYTAG
  1
SS
  9
$CUSTOMPROPERTY
  1
1/2
  9
$CUSTOMPROPERTYTAG
  1
PN
  9
$CUSTOMPROPERTY
  1
125500
  9
$CUSTOMPROPERTYTAG
  1
DESCRIPTION
  9
$CUSTOMPROPERTY
  1
P2B-VSC-008
  9
$CUSTOMPROPERTYTAG
  1
LF
  9
$CUSTOMPROPERTY
  1
RE-LUBE
  9
$CUSTOMPROPERTYTAG
  1
WEIGHT
  9
$CUSTOMPROPERTY
  1
1.1
  9
$CUSTOMPROPERTYTAG
  1
A
  9
$CUSTOMPROPERTY
  1
1.00
  9
$CUSTOMPROPERTYTAG
  1
B
  9
$CUSTOMPROPERTY
  1
5.00
  9
$CUSTOMPROPERTYTAG
  1
C
  9
$CUSTOMPROPERTY
  1
1.20
  9
$CUSTOMPROPERTYTAG
  1
DMIN
  9
$CUSTOMPROPERTY
  1
3.25
  9
$CUSTOMPROPERTYTAG
  1
DMAX
  9
$CUSTOMPROPERTY
  1
4.06
  9
$CUSTOMPROPERTYTAG
  1
F
  9
$CUSTOMPROPERTY
  1
3/8
  9
$CUSTOMPROPERTYTAG
  1
G
  9
$CUSTOMPROPERTY
  1
0.84
  9
$CUSTOMPROPERTYTAG
  1
H
  9
$CUSTOMPROPERTY
  1
0.47
  9
$CUSTOMPROPERTYTAG
  1
J
  9
$CUSTOMPROPERTY
  1
2.14
  9
$CUSTOMPROPERTYTAG
  1
L
  9
$CUSTOMPROPERTY
  1
0.96
  9
$CUSTOMPROPERTYTAG
  1
M
  9
$CUSTOMPROPERTY
  1
1.06
  9
$CUSTOMPROPERTYTAG
  1
R
  9
$CUSTOMPROPERTY
  1
0.36
  9
$CUSTOMPROPERTYTAG
  1
S
  9
$CUSTOMPROPERTY
  1
0.64
  9
$CUSTOMPROPERTYTAG
  1
U
  9
$CUSTOMPROPERTY
  1
2.25
  9
$CUSTOMPROPERTYTAG
  1
V
  9
$CUSTOMPROPERTY
  1
4.50
  9
$CUSTOMPROPERTYTAG
  1
W
  9
$CUSTOMPROPERTY
  1
0.38
  9
$CUSTOMPROPERTYTAG
  1
X
  9
$CUSTOMPROPERTY
  1
0.12
  9
$CUSTOMPROPERTYTAG
  1
COMPANY
  9
$CUSTOMPROPERTY
  1
baldor
  9
$INSBASE
 10
0.0
 20
0.0
 30
0.0
  9
$EXTMIN
 10
1.000000000000000E+20
 20
1.000000000000000E+20
 30
1.000000000000000E+20
  9
$EXTMAX
 10
-1.000000000000000E+20
 20
-1.000000000000000E+20
 30
-1.000000000000000E+20
  9
$LIMMIN
 10
0.0
 20
0.0
  9
$LIMMAX
 10
12.0
 20
9.0
  9
$ORTHOMODE
 70
     0
  9
$REGENMODE
 70
     1
  9
$FILLMODE
 70
     1
  9
$QTEXTMODE
 70
     0
  9
$MIRRTEXT
 70
     1
  9
$LTSCALE
 40
1.0
  9
$ATTMODE
 70
     1
  9
$TEXTSIZE
 40
0.2
  9
$TRACEWID
 40
0.05
  9
$TEXTSTYLE
  7
Standard
  9
$CLAYER
  8
0
  9
$CELTYPE
  6
ByLayer
  9
$CECOLOR
 62
   256
  9
$CELTSCALE
 40
1.0
  9
$DISPSILH
 70
     0
  9
$DIMSCALE
 40
1.0
  9
$DIMASZ
 40
0.18
  9
$DIMEXO
 40
0.0625
  9
$DIMDLI
 40
0.38
  9
$DIMRND
 40
0.0
  9
$DIMDLE
 40
0.0
  9
$DIMEXE
 40
0.18
  9
$DIMTP
 40
0.0
  9
$DIMTM
 40
0.0
  9
$DIMTXT
 40
0.18
  9
$DIMCEN
 40
0.09
  9
$DIMTSZ
 40
0.0
  9
$DIMTOL
 70
     0
  9
$DIMLIM
 70
     0
  9
$DIMTIH
 70
     1
  9
$DIMTOH
 70
     1
  9
$DIMSE1
 70
     0
  9
$DIMSE2
 70
     0
  9
$DIMTAD
 70
     0
  9
$DIMZIN
 70
     0
  9
$DIMBLK
  1

  9
$DIMASO
 70
     1
  9
$DIMSHO
 70
     1
  9
$DIMPOST
  1

  9
$DIMAPOST
  1

  9
$DIMALT
 70
     0
  9
$DIMALTD
 70
     2
  9
$DIMALTF
 40
25.4
  9
$DIMLFAC
 40
1.0
  9
$DIMTOFL
 70
     0
  9
$DIMTVP
 40
0.0
  9
$DIMTIX
 70
     0
  9
$DIMSOXD
 70
     0
  9
$DIMSAH
 70
     0
  9
$DIMBLK1
  1

  9
$DIMBLK2
  1

  9
$DIMSTYLE
  2
Standard
  9
$DIMCLRD
 70
     0
  9
$DIMCLRE
 70
     0
  9
$DIMCLRT
 70
     0
  9
$DIMTFAC
 40
1.0
  9
$DIMGAP
 40
0.09
  9
$DIMJUST
 70
     0
  9
$DIMSD1
 70
     0
  9
$DIMSD2
 70
     0
  9
$DIMTOLJ
 70
     1
  9
$DIMTZIN
 70
     0
  9
$DIMALTZ
 70
     0
  9
$DIMALTTZ
 70
     0
  9
$DIMUPT
 70
     0
  9
$DIMDEC
 70
     4
  9
$DIMTDEC
 70
     4
  9
$DIMALTU
 70
     2
  9
$DIMALTTD
 70
     2
  9
$DIMTXSTY
  7
Standard
  9
$DIMAUNIT
 70
     0
  9
$DIMADEC
 70
     0
  9
$DIMALTRND
 40
0.0
  9
$DIMAZIN
 70
     0
  9
$DIMDSEP
 70
    46
  9
$DIMATFIT
 70
     3
  9
$DIMFRAC
 70
     0
  9
$DIMLDRBLK
  1

  9
$DIMLUNIT
 70
     2
  9
$DIMLWD
 70
    -2
  9
$DIMLWE
 70
    -2
  9
$DIMTMOVE
 70
     0
  9
$DIMFXL
 40
1.0
  9
$DIMFXLON
 70
     0
  9
$DIMJOGANG
 40
0.7853981633974483
  9
$DIMTFILL
 70
     0
  9
$DIMTFILLCLR
 70
     0
  9
$DIMARCSYM
 70
     0
  9
$DIMLTYPE
  6

  9
$DIMLTEX1
  6

  9
$DIMLTEX2
  6

  9
$DIMTXTDIRECTION
 70
     0
  9
$LUNITS
 70
     2
  9
$LUPREC
 70
     4
  9
$SKETCHINC
 40
0.1
  9
$FILLETRAD
 40
0.5
  9
$AUNITS
 70
     0
  9
$AUPREC
 70
     0
  9
$MENU
  1
.
  9
$ELEVATION
 40
0.0
  9
$PELEVATION
 40
0.0
  9
$THICKNESS
 40
0.0
  9
$LIMCHECK
 70
     0
  9
$CHAMFERA
 40
0.0
  9
$CHAMFERB
 40
0.0
  9
$CHAMFERC
 40
0.0
  9
$CHAMFERD
 40
0.0
  9
$SKPOLY
 70
     0
  9
$TDCREATE
 40
2458168.998500845
  9
$TDUCREATE
 40
2458168.956834178
  9
$TDUPDATE
 40
2458168.99850103
  9
$TDUUPDATE
 40
2458168.956834363
  9
$TDINDWG
 40
0.0000000116
  9
$TDUSRTIMER
 40
0.0000000116
  9
$USRTIMER
 70
     1
  9
$ANGBASE
 50
0.0
  9
$ANGDIR
 70
     0
  9
$PDMODE
 70
     0
  9
$PDSIZE
 40
0.0
  9
$PLINEWID
 40
0.0
  9
$SPLFRAME
 70
     0
  9
$SPLINETYPE
 70
     6
  9
$SPLINESEGS
 70
     8
  9
$HANDSEED
  5
1CB
  9
$SURFTAB1
 70
     6
  9
$SURFTAB2
 70
     6
  9
$SURFTYPE
 70
     6
  9
$SURFU
 70
     6
  9
$SURFV
 70
     6
  9
$UCSBASE
  2

  9
$UCSNAME
  2

  9
$UCSORG
 10
0.0
 20
0.0
 30
0.0
  9
$UCSXDIR
 10
1.0
 20
0.0
 30
0.0
  9
$UCSYDIR
 10
0.0
 20
1.0
 30
0.0
  9
$UCSORTHOREF
  2

  9
$UCSORTHOVIEW
 70
     0
  9
$UCSORGTOP
 10
0.0
 20
0.0
 30
0.0
  9
$UCSORGBOTTOM
 10
0.0
 20
0.0
 30
0.0
  9
$UCSORGLEFT
 10
0.0
 20
0.0
 30
0.0
  9
$UCSORGRIGHT
 10
0.0
 20
0.0
 30
0.0
  9
$UCSORGFRONT
 10
0.0
 20
0.0
 30
0.0
  9
$UCSORGBACK
 10
0.0
 20
0.0
 30
0.0
  9
$PUCSBASE
  2

  9
$PUCSNAME
  2

  9
$PUCSORG
 10
0.0
 20
0.0
 30
0.0
  9
$PUCSXDIR
 10
1.0
 20
0.0
 30
0.0
  9
$PUCSYDIR
 10
0.0
 20
1.0
 30
0.0
  9
$PUCSORTHOREF
  2

  9
$PUCSORTHOVIEW
 70
     0
  9
$PUCSORGTOP
 10
0.0
 20
0.0
 30
0.0
  9
$PUCSORGBOTTOM
 10
0.0
 20
0.0
 30
0.0
  9
$PUCSORGLEFT
 10
0.0
 20
0.0
 30
0.0
  9
$PUCSORGRIGHT
 10
0.0
 20
0.0
 30
0.0
  9
$PUCSORGFRONT
 10
0.0
 20
0.0
 30
0.0
  9
$PUCSORGBACK
 10
0.0
 20
0.0
 30
0.0
  9
$USERI1
 70
     0
  9
$USERI2
 70
     0
  9
$USERI3
 70
     0
  9
$USERI4
 70
     0
  9
$USERI5
 70
     0
  9
$USERR1
 40
0.0
  9
$USERR2
 40
0.0
  9
$USERR3
 40
0.0
  9
$USERR4
 40
0.0
  9
$USERR5
 40
0.0
  9
$WORLDVIEW
 70
     1
  9
$SHADEDGE
 70
     3
  9
$SHADEDIF
 70
    70
  9
$TILEMODE
 70
     1
  9
$MAXACTVP
 70
    64
  9
$PINSBASE
 10
0.0
 20
0.0
 30
0.0
  9
$PLIMCHECK
 70
     0
  9
$PEXTMIN
 10
1.000000000000000E+20
 20
1.000000000000000E+20
 30
1.000000000000000E+20
  9
$PEXTMAX
 10
-1.000000000000000E+20
 20
-1.000000000000000E+20
 30
-1.000000000000000E+20
  9
$PLIMMIN
 10
0.0
 20
0.0
  9
$PLIMMAX
 10
12.0
 20
9.0
  9
$UNITMODE
 70
     0
  9
$VISRETAIN
 70
     1
  9
$PLINEGEN
 70
     0
  9
$PSLTSCALE
 70
     1
  9
$TREEDEPTH
 70
  3020
  9
$CMLSTYLE
  2
Standard
  9
$CMLJUST
 70
     0
  9
$CMLSCALE
 40
1.0
  9
$PROXYGRAPHICS
 70
     1
  9
$MEASUREMENT
 70
     0
  9
$CELWEIGHT
370
    -1
  9
$ENDCAPS
280
     0
  9
$JOINSTYLE
280
     0
  9
$LWDISPLAY
290
     0
  9
$INSUNITS
 70
     1
  9
$HYPERLINKBASE
  1

  9
$STYLESHEET
  1

  9
$XEDIT
290
     1
  9
$CEPSNTYPE
380
     0
  9
$PSTYLEMODE
290
     1
  9
$FINGERPRINTGUID
  2
{9621FA54-0F5D-4A97-B56D-571F64D39467}
  9
$VERSIONGUID
  2
{FAEB1C32-E019-11D5-929B-00C0DF256EC4}
  9
$EXTNAMES
290
     1
  9
$PSVPSCALE
 40
0.0
  9
$OLESTARTUP
290
     0
  9
$SORTENTS
280
   127
  9
$INDEXCTL
280
     0
  9
$HIDETEXT
280
     1
  9
$XCLIPFRAME
280
     2
  9
$HALOGAP
280
     0
  9
$OBSCOLOR
 70
   257
  9
$OBSLTYPE
280
     0
  9
$INTERSECTIONDISPLAY
280
     0
  9
$INTERSECTIONCOLOR
 70
   257
  9
$DIMASSOC
280
     2
  9
$PROJECTNAME
  1

  9
$CAMERADISPLAY
290
     0
  9
$LENSLENGTH
 40
50.0
  9
$CAMERAHEIGHT
 40
0.0
  9
$STEPSPERSEC
 40
2.0
  9
$STEPSIZE
 40
6.0
  9
$3DDWFPREC
 40
2.0
  9
$PSOLWIDTH
 40
0.25
  9
$PSOLHEIGHT
 40
4.0
  9
$LOFTANG1
 40
1.570796326794897
  9
$LOFTANG2
 40
1.570796326794897
  9
$LOFTMAG1
 40
0.0
  9
$LOFTMAG2
 40
0.0
  9
$LOFTPARAM
 70
     7
  9
$LOFTNORMALS
280
     1
  9
$LATITUDE
 40
37.795
  9
$LONGITUDE
 40
-122.394
  9
$NORTHDIRECTION
 40
0.0
  9
$TIMEZONE
 70
 -8000
  9
$LIGHTGLYPHDISPLAY
280
     1
  9
$TILEMODELIGHTSYNCH
280
     1
  9
$CMATERIAL
347
44
  9
$SOLIDHIST
280
     0
  9
$SHOWHIST
280
     1
  9
$DWFFRAME
280
     2
  9
$DGNFRAME
280
     2
  9
$REALWORLDSCALE
290
     1
  9
$INTERFERECOLOR
 62
   256
  9
$CSHADOW
280
     0
  9
$SHADOWPLANELOCATION
 40
0.0
  0
ENDSEC
  0
SECTION
  2
CLASSES
  0
CLASS
  1
ACDBDICTIONARYWDFLT
  2
AcDbDictionaryWithDefault
  3
ObjectDBX Classes
 90
        0
 91
        4
280
     0
281
     0
  0
CLASS
  1
VISUALSTYLE
  2
AcDbVisualStyle
  3
ObjectDBX Classes
 90
     4095
 91
        4
280
     0
281
     0
  0
CLASS
  1
MATERIAL
  2
AcDbMaterial
  3
ObjectDBX Classes
 90
     1153
 91
        4
280
     0
281
     0
  0
CLASS
  1
SCALE
  2
AcDbScale
  3
ObjectDBX Classes
 90
     1153
 91
        4
280
     0
281
     0
  0
CLASS
  1
TABLESTYLE
  2
AcDbTableStyle
  3
ObjectDBX Classes
 90
     4095
 91
        4
280
     0
281
     0
  0
CLASS
  1
MLEADERSTYLE
  2
AcDbMLeaderStyle
  3
ACDB_MLEADERSTYLE_CLASS
 90
     4095
 91
        4
280
     0
281
     0
  0
CLASS
  1
SUN
  2
AcDbSun
  3
SCENEOE
 90
     1153
 91
        4
280
     0
281
     0
  0
CLASS
  1
DICTIONARYVAR
  2
AcDbDictionaryVar
  3
ObjectDBX Classes
 90
        0
 91
        4
280
     0
281
     0
  0
CLASS
  1
CELLSTYLEMAP
  2
AcDbCellStyleMap
  3
ObjectDBX Classes
 90
     1152
 91
        4
280
     0
281
     0
  0
ENDSEC
  0
SECTION
  2
TABLES
  0
TABLE
  2
VPORT
  5
8
330
0
100
AcDbSymbolTable
 70
     1
  0
VPORT
  5
29
330
8
100
AcDbSymbolTableRecord
100
AcDbViewportTableRecord
  2
*Active
 70
     0
 10
0.0
 20
0.0
 11
1.0
 21
1.0
 12
0.0
 22
-0.0150000000000006
 13
0.0
 23
0.0
 14
0.5
 24
0.5
 15
0.5
 25
0.5
 16
0.0
 26
0.0
 36
1.0
 17
0.0
 27
0.0
 37
0.0
 40
1.377000000000001
 41
3.703703703703701
 42
50.0
 43
0.0
 44
0.0
 50
0.0
 51
0.0
 71
     0
 72
   100
 73
     1
 74
     3
 75
     0
 76
     0
 77
     0
 78
     0
281
     0
 65
     1
110
0.0
120
0.0
130
0.0
111
1.0
121
0.0
131
0.0
112
0.0
122
1.0
132
0.0
 79
     0
146
0.0
348
2F
 60
     3
 61
     5
292
     1
282
     1
141
0.0
142
0.0
 63
   250
361
6D
  0
ENDTAB
  0
TABLE
  2
LTYPE
  5
5
330
0
100
AcDbSymbolTable
 70
     3
  0
LTYPE
  5
14
330
5
100
AcDbSymbolTableRecord
100
AcDbLinetypeTableRecord
  2
ByBlock
 70
     0
  3

 72
    65
 73
     0
 40
0.0
  0
LTYPE
  5
15
330
5
100
AcDbSymbolTableRecord
100
AcDbLinetypeTableRecord
  2
ByLayer
 70
     0
  3

 72
    65
 73
     0
 40
0.0
  0
LTYPE
  5
16
330
5
100
AcDbSymbolTableRecord
100
AcDbLinetypeTableRecord
  2
Continuous
 70
     0
  3
Solid line
 72
    65
 73
     0
 40
0.0
  0
LTYPE
  5
A2
330
5
100
AcDbSymbolTableRecord
100
AcDbLinetypeTableRecord
  2
Dashed
 70
     0
  3

 72
    65
 73
     2
 40
2.0
 49
1.0
 74
     0
 49
-1.0
 74
     0
  0
LTYPE
  5
130
330
5
100
AcDbSymbolTableRecord
100
AcDbLinetypeTableRecord
  2
Center
 70
     0
  3

 72
    65
 73
     4
 40
1.5
 49
0.45
 74
     0
 49
-0.5
 74
     0
 49
0.05
 74
     0
 49
-0.5
 74
     0
  0
ENDTAB
  0
TABLE
  2
LAYER
  5
2
330
0
100
AcDbSymbolTable
 70
     7
  0
LAYER
  5
10
330
2
100
AcDbSymbolTableRecord
100
AcDbLayerTableRecord
  2
0
 70
     0
 62
     7
  6
Continuous
370
    -3
390
F
347
46
348
0
  0
LAYER
  5
72
330
2
100
AcDbSymbolTableRecord
100
AcDbLayerTableRecord
  2
AM_6
 70
     0
 62
    -2
  6
Continuous
370
    35
390
F
347
46
348
0
  0
LAYER
  5
A3
330
2
100
AcDbSymbolTableRecord
100
AcDbLayerTableRecord
  2
AM_9
 70
     0
 62
     6
  6
Dashed
370
    25
390
F
347
46
348
0
  0
LAYER
  5
BE
330
2
100
AcDbSymbolTableRecord
100
AcDbLayerTableRecord
  2
AM_4
 70
     0
 62
     7
  6
Continuous
370
    50
390
F
347
46
348
0
  0
LAYER
  5
131
330
2
100
AcDbSymbolTableRecord
100
AcDbLayerTableRecord
  2
AM_7
 70
     0
 62
     7
  6
Center
370
    25
390
F
347
46
348
0
  0
LAYER
  5
142
330
2
100
AcDbSymbolTableRecord
100
AcDbLayerTableRecord
  2
AM_5
 70
     0
 62
     3
  6
Continuous
370
    25
390
F
347
46
348
0
  0
LAYER
  5
1BE
330
2
100
AcDbSymbolTableRecord
100
AcDbLayerTableRecord
  2
ConnectionPoints
 70
     0
 62
     7
  6
Continuous
370
    50
390
F
347
46
348
0
  0
ENDTAB
  0
TABLE
  2
STYLE
  5
3
330
0
100
AcDbSymbolTable
 70
     1
  0
STYLE
  5
11
330
3
100
AcDbSymbolTableRecord
100
AcDbTextStyleTableRecord
  2
Standard
 70
     0
 40
0.0
 41
1.0
 50
0.0
 71
     0
 42
0.2
  3
txt
  4

  0
ENDTAB
  0
TABLE
  2
VIEW
  5
6
330
0
100
AcDbSymbolTable
 70
     0
  0
ENDTAB
  0
TABLE
  2
UCS
  5
7
330
0
100
AcDbSymbolTable
 70
     0
  0
ENDTAB
  0
TABLE
  2
APPID
  5
9
330
0
100
AcDbSymbolTable
 70
     1
  0
APPID
  5
12
330
9
100
AcDbSymbolTableRecord
100
AcDbRegAppTableRecord
  2
ACAD
 70
     0
  0
ENDTAB
  0
TABLE
  2
DIMSTYLE
  5
A
330
0
100
AcDbSymbolTable
 70
     1
100
AcDbDimStyleTable
  0
DIMSTYLE
105
27
330
A
100
AcDbSymbolTableRecord
100
AcDbDimStyleTableRecord
  2
Standard
 70
     0
178
     0
340
11
  0
ENDTAB
  0
TABLE
  2
BLOCK_RECORD
  5
1
330
0
100
AcDbSymbolTable
 70
     5
  0
BLOCK_RECORD
  5
1F
330
1
100
AcDbSymbolTableRecord
100
AcDbBlockTableRecord
  2
*Model_Space
340
22
 70
     0
280
     1
281
     0
  0
BLOCK_RECORD
  5
1B
330
1
100
AcDbSymbolTableRecord
100
AcDbBlockTableRecord
  2
*Paper_Space
340
1E
 70
     0
280
     1
281
     0
  0
BLOCK_RECORD
  5
23
330
1
100
AcDbSymbolTableRecord
100
AcDbBlockTableRecord
  2
*Paper_Space0
340
26
 70
     0
280
     1
281
     0
  0
BLOCK_RECORD
  5
6E
330
1
100
AcDbSymbolTableRecord
100
AcDbBlockTableRecord
  2
1_125500_4
340
0
102
{BLKREFS
331
6F
102
}
 70
     0
280
     1
281
     0
  0
BLOCK_RECORD
  5
90
330
1
100
AcDbSymbolTableRecord
100
AcDbBlockTableRecord
  2
2_405020c_Inch_0_in_125500_4
340
0
102
{BLKREFS
331
91
102
}
 70
     0
280
     1
281
     0
  0
BLOCK_RECORD
  5
DB
330
1
100
AcDbSymbolTableRecord
100
AcDbBlockTableRecord
  2
3_389923_0_in_125500_4
340
0
102
{BLKREFS
331
DC
102
}
 70
     0
280
     1
281
     0
  0
BLOCK_RECORD
  5
144
330
1
100
AcDbSymbolTableRecord
100
AcDbBlockTableRecord
  2
4_125500vsc_0_in_125500_4
340
0
102
{BLKREFS
331
145
102
}
 70
     0
280
     1
281
     0
  0
ENDTAB
  0
ENDSEC
  0
SECTION
  2
BLOCKS
  0
BLOCK
  5
20
330
1F
100
AcDbEntity
  8
0
100
AcDbBlockBegin
  2
*Model_Space
 70
     0
 10
0.0
 20
0.0
 30
0.0
  3
*Model_Space
  1

  0
ENDBLK
  5
21
330
1F
100
AcDbEntity
  8
0
100
AcDbBlockEnd
  0
BLOCK
  5
1C
330
1B
100
AcDbEntity
 67
     1
  8
0
100
AcDbBlockBegin
  2
*Paper_Space
 70
     0
 10
0.0
 20
0.0
 30
0.0
  3
*Paper_Space
  1

  0
ENDBLK
  5
1D
330
1B
100
AcDbEntity
 67
     1
  8
0
100
AcDbBlockEnd
  0
BLOCK
  5
24
330
23
100
AcDbEntity
  8
0
100
AcDbBlockBegin
  2
*Paper_Space0
 70
     0
 10
0.0
 20
0.0
 30
0.0
  3
*Paper_Space0
  1

  0
ENDBLK
  5
25
330
23
100
AcDbEntity
  8
0
100
AcDbBlockEnd
  0
BLOCK
  5
70
330
6E
100
AcDbEntity
  8
0
100
AcDbBlockBegin
  2
1_125500_4
 70
     2
 10
0.0
 20
0.0
 30
0.0
  3
1_125500_4
  1

  0
ATTDEF
  5
73
330
6E
100
AcDbEntity
  8
AM_6
100
AcDbText
 10
7.5
 20
0.6599999999999999
 30
0.0
 40
0.5
  1
Set Screw Intermediate Duty Two-Bolt Pillow Block Inch Bore
100
AcDbAttributeDefinition
  3

  2
NN
 70
     8
280
     0
  0
ATTDEF
  5
74
330
6E
100
AcDbEntity
  8
AM_6
100
AcDbText
 10
7.5
 20
0.1599999999999999
 30
0.0
 40
0.5
  1
VSC Intermediate Duty Pillow Blocks
100
AcDbAttributeDefinition
  3

  2
NT
 70
     8
280
     0
  0
ATTDEF
  5
75
330
6E
100
AcDbEntity
  8
AM_6
100
AcDbText
 10
7.5
 20
-0.3400000000000001
 30
0.0
 40
0.5
  1
125500
100
AcDbAttributeDefinition
  3

  2
NB
 70
     8
280
     0
  0
ATTDEF
  5
76
330
6E
100
AcDbEntity
  8
AM_6
100
AcDbText
 10
7.5
 20
-0.8400000000000001
 30
0.0
 40
0.5
  1
$PN.
100
AcDbAttributeDefinition
  3

  2
NBSYN
 70
     8
280
     0
  0
ATTDEF
  5
77
330
6E
100
AcDbEntity
  8
AM_6
100
AcDbText
 10
7.5
 20
-1.34
 30
0.0
 40
0.5
  1
125500
100
AcDbAttributeDefinition
  3

  2
LINA
 70
     8
280
     0
  0
ATTDEF
  5
78
330
6E
100
AcDbEntity
  8
AM_6
100
AcDbText
 10
7.5
 20
-1.84
 30
0.0
 40
0.5
  1
203
100
AcDbAttributeDefinition
  3

  2
RS
 70
     8
280
     0
  0
ATTDEF
  5
79
330
6E
100
AcDbEntity
  8
AM_6
100
AcDbText
 10
7.5
 20
-2.34
 30
0.0
 40
0.5
  1
1/2
100
AcDbAttributeDefinition
  3

  2
SS
 70
     8
280
     0
  0
ATTDEF
  5
7A
330
6E
100
AcDbEntity
  8
AM_6
100
AcDbText
 10
7.5
 20
-2.84
 30
0.0
 40
0.5
  1
125500
100
AcDbAttributeDefinition
  3

  2
PN
 70
     8
280
     0
  0
ATTDEF
  5
7B
330
6E
100
AcDbEntity
  8
AM_6
100
AcDbText
 10
7.5
 20
-3.34
 30
0.0
 40
0.5
  1
P2B-VSC-008
100
AcDbAttributeDefinition
  3

  2
DESCRIPTION
 70
     8
280
     0
  0
ATTDEF
  5
7C
330
6E
100
AcDbEntity
  8
AM_6
100
AcDbText
 10
7.5
 20
-3.84
 30
0.0
 40
0.5
  1
RE-LUBE
100
AcDbAttributeDefinition
  3

  2
LF
 70
     8
280
     0
  0
ATTDEF
  5
7D
330
6E
100
AcDbEntity
  8
AM_6
100
AcDbText
 10
7.5
 20
-4.34
 30
0.0
 40
0.5
  1
1.1
100
AcDbAttributeDefinition
  3

  2
WEIGHT
 70
     8
280
     0
  0
ATTDEF
  5
7E
330
6E
100
AcDbEntity
  8
AM_6
100
AcDbText
 10
7.5
 20
-4.84
 30
0.0
 40
0.5
  1
1.00
100
AcDbAttributeDefinition
  3

  2
A
 70
     8
280
     0
  0
ATTDEF
  5
7F
330
6E
100
AcDbEntity
  8
AM_6
100
AcDbText
 10
7.5
 20
-5.34
 30
0.0
 40
0.5
  1
5.00
100
AcDbAttributeDefinition
  3

  2
B
 70
     8
280
     0
  0
ATTDEF
  5
80
330
6E
100
AcDbEntity
  8
AM_6
100
AcDbText
 10
7.5
 20
-5.84
 30
0.0
 40
0.5
  1
1.20
100
AcDbAttributeDefinition
  3

  2
C
 70
     8
280
     0
  0
ATTDEF
  5
81
330
6E
100
AcDbEntity
  8
AM_6
100
AcDbText
 10
7.5
 20
-6.34
 30
0.0
 40
0.5
  1
3.25
100
AcDbAttributeDefinition
  3

  2
DMIN
 70
     8
280
     0
  0
ATTDEF
  5
82
330
6E
100
AcDbEntity
  8
AM_6
100
AcDbText
 10
7.5
 20
-6.84
 30
0.0
 40
0.5
  1
4.06
100
AcDbAttributeDefinition
  3

  2
DMAX
 70
     8
280
     0
  0
ATTDEF
  5
83
330
6E
100
AcDbEntity
  8
AM_6
100
AcDbText
 10
7.5
 20
-7.34
 30
0.0
 40
0.5
  1
3/8
100
AcDbAttributeDefinition
  3

  2
F
 70
     8
280
     0
  0
ATTDEF
  5
84
330
6E
100
AcDbEntity
  8
AM_6
100
AcDbText
 10
7.5
 20
-7.84
 30
0.0
 40
0.5
  1
0.84
100
AcDbAttributeDefinition
  3

  2
G
 70
     8
280
     0
  0
ATTDEF
  5
85
330
6E
100
AcDbEntity
  8
AM_6
100
AcDbText
 10
7.5
 20
-8.34
 30
0.0
 40
0.5
  1
0.47
100
AcDbAttributeDefinition
  3

  2
H
 70
     8
280
     0
  0
ATTDEF
  5
86
330
6E
100
AcDbEntity
  8
AM_6
100
AcDbText
 10
7.5
 20
-8.84
 30
0.0
 40
0.5
  1
2.14
100
AcDbAttributeDefinition
  3

  2
J
 70
     8
280
     0
  0
ATTDEF
  5
87
330
6E
100
AcDbEntity
  8
AM_6
100
AcDbText
 10
7.5
 20
-9.34
 30
0.0
 40
0.5
  1
0.96
100
AcDbAttributeDefinition
  3

  2
L
 70
     8
280
     0
  0
ATTDEF
  5
88
330
6E
100
AcDbEntity
  8
AM_6
100
AcDbText
 10
7.5
 20
-9.84
 30
0.0
 40
0.5
  1
1.06
100
AcDbAttributeDefinition
  3

  2
M
 70
     8
280
     0
  0
ATTDEF
  5
89
330
6E
100
AcDbEntity
  8
AM_6
100
AcDbText
 10
7.5
 20
-10.34
 30
0.0
 40
0.5
  1
0.36
100
AcDbAttributeDefinition
  3

  2
R
 70
     8
280
     0
  0
ATTDEF
  5
8A
330
6E
100
AcDbEntity
  8
AM_6
100
AcDbText
 10
7.5
 20
-10.84
 30
0.0
 40
0.5
  1
0.64
100
AcDbAttributeDefinition
  3

  2
S
 70
     8
280
     0
  0
ATTDEF
  5
8B
330
6E
100
AcDbEntity
  8
AM_6
100
AcDbText
 10
7.5
 20
-11.34
 30
0.0
 40
0.5
  1
2.25
100
AcDbAttributeDefinition
  3

  2
U
 70
     8
280
     0
  0
ATTDEF
  5
8C
330
6E
100
AcDbEntity
  8
AM_6
100
AcDbText
 10
7.5
 20
-11.84
 30
0.0
 40
0.5
  1
4.50
100
AcDbAttributeDefinition
  3

  2
V
 70
     8
280
     0
  0
ATTDEF
  5
8D
330
6E
100
AcDbEntity
  8
AM_6
100
AcDbText
 10
7.5
 20
-12.34
 30
0.0
 40
0.5
  1
0.38
100
AcDbAttributeDefinition
  3

  2
W
 70
     8
280
     0
  0
ATTDEF
  5
8E
330
6E
100
AcDbEntity
  8
AM_6
100
AcDbText
 10
7.5
 20
-12.84
 30
0.0
 40
0.5
  1
0.12
100
AcDbAttributeDefinition
  3

  2
X
 70
     8
280
     0
  0
ATTDEF
  5
8F
330
6E
100
AcDbEntity
  8
AM_6
100
AcDbText
 10
7.5
 20
-13.34
 30
0.0
 40
0.5
  1
baldor
100
AcDbAttributeDefinition
  3

  2
COMPANY
 70
     8
280
     0
  0
INSERT
  5
91
330
6E
100
AcDbEntity
  8
0
100
AcDbBlockReference
  2
2_405020c_Inch_0_in_125500_4
 10
0.0
 20
0.0
 30
0.0
  0
INSERT
  5
DC
330
6E
100
AcDbEntity
  8
0
100
AcDbBlockReference
  2
3_389923_0_in_125500_4
 10
0.0
 20
0.0
 30
0.0
  0
INSERT
  5
145
330
6E
100
AcDbEntity
  8
0
100
AcDbBlockReference
  2
4_125500vsc_0_in_125500_4
 10
0.0
 20
0.0
 30
0.0
  0
ENDBLK
  5
71
330
6E
100
AcDbEntity
  8
0
100
AcDbBlockEnd
  0
BLOCK
  5
92
330
90
100
AcDbEntity
  8
0
100
AcDbBlockBegin
  2
2_405020c_Inch_0_in_125500_4
 70
     2
 10
0.0
 20
0.0
 30
0.0
  3
2_405020c_Inch_0_in_125500_4
  1

  0
ATTDEF
  5
94
330
90
100
AcDbEntity
  8
AM_6
100
AcDbText
 10
6.072081276325042
 20
0.1406500000000008
 30
0.0
 40
0.5
  1
405020C -Inch
100
AcDbAttributeDefinition
  3

  2
NN
 70
     8
280
     0
  0
ATTDEF
  5
95
330
90
100
AcDbEntity
  8
AM_6
100
AcDbText
 10
6.072081276325042
 20
-0.3593499999999992
 30
0.0
 40
0.5
  1
Grease fitting
100
AcDbAttributeDefinition
  3

  2
NT
 70
     8
280
     0
  0
ATTDEF
  5
96
330
90
100
AcDbEntity
  8
AM_6
100
AcDbText
 10
6.072081276325042
 20
-0.8593499999999992
 30
0.0
 40
0.5
  1
405020c-Inch
100
AcDbAttributeDefinition
  3

  2
NB
 70
     8
280
     0
  0
ATTDEF
  5
97
330
90
100
AcDbEntity
  8
AM_6
100
AcDbText
 10
6.072081276325042
 20
-1.359349999999999
 30
0.0
 40
0.5
  1
$MN.-Inch
100
AcDbAttributeDefinition
  3

  2
NBSYN
 70
     8
280
     0
  0
ATTDEF
  5
98
330
90
100
AcDbEntity
  8
AM_6
100
AcDbText
 10
6.072081276325042
 20
-1.859349999999999
 30
0.0
 40
0.5
  1
405020c
100
AcDbAttributeDefinition
  3

  2
LINA
 70
     8
280
     0
  0
ATTDEF
  5
99
330
90
100
AcDbEntity
  8
AM_6
100
AcDbText
 10
6.072081276325042
 20
-2.359349999999999
 30
0.0
 40
0.5
  1
405020c
100
AcDbAttributeDefinition
  3

  2
MN
 70
     8
280
     0
  0
ATTDEF
  5
9A
330
90
100
AcDbEntity
  8
AM_6
100
AcDbText
 10
6.072081276325042
 20
-2.859349999999999
 30
0.0
 40
0.5
  1
0.230
100
AcDbAttributeDefinition
  3

  2
NDR
 70
     8
280
     0
  0
ATTDEF
  5
9B
330
90
100
AcDbEntity
  8
AM_6
100
AcDbText
 10
6.072081276325042
 20
-3.359349999999999
 30
0.0
 40
0.5
  1
0.210
100
AcDbAttributeDefinition
  3

  2
KDR
 70
     8
280
     0
  0
ATTDEF
  5
9C
330
90
100
AcDbEntity
  8
AM_6
100
AcDbText
 10
6.072081276325042
 20
-3.859349999999999
 30
0.0
 40
0.5
  1
0.157
100
AcDbAttributeDefinition
  3

  2
BZE
 70
     8
280
     0
  0
ATTDEF
  5
9D
330
90
100
AcDbEntity
  8
AM_6
100
AcDbText
 10
6.072081276325042
 20
-4.359349999999999
 30
0.0
 40
0.5
  1
9/32
100
AcDbAttributeDefinition
  3

  2
WAF
 70
     8
280
     0
  0
ATTDEF
  5
9E
330
90
100
AcDbEntity
  8
AM_6
100
AcDbText
 10
6.072081276325042
 20
-4.859349999999999
 30
0.0
 40
0.5
  1
0.2813
100
AcDbAttributeDefinition
  3

  2
WAF1
 70
     8
280
     0
  0
ATTDEF
  5
9F
330
90
100
AcDbEntity
  8
AM_6
100
AcDbText
 10
6.072081276325042
 20
-5.359349999999999
 30
0.0
 40
0.5
  1
0.545
100
AcDbAttributeDefinition
  3

  2
BL
 70
     8
280
     0
  0
ATTDEF
  5
A0
330
90
100
AcDbEntity
  8
AM_6
100
AcDbText
 10
6.072081276325042
 20
-5.859349999999999
 30
0.0
 40
0.5
  1
0.200
100
AcDbAttributeDefinition
  3

  2
TL
 70
     8
280
     0
  0
ATTDEF
  5
A1
330
90
100
AcDbEntity
  8
AM_6
100
AcDbText
 10
6.072081276325042
 20
-6.359349999999999
 30
0.0
 40
0.5
  1
baldor
100
AcDbAttributeDefinition
  3

  2
COMPANY
 70
     8
280
     0
  0
LWPOLYLINE
  5
A4
330
90
100
AcDbEntity
  8
AM_9
100
AcDbPolyline
 90
        3
 70
     0
 43
0.0
 10
0.8826381470696005
 20
0.0
 10
0.8653228438159927
 20
-0.0350043999316989
 10
0.8498055067620846
 20
-0.070325
  0
LWPOLYLINE
  5
A5
330
90
100
AcDbEntity
  8
AM_9
100
AcDbPolyline
 90
        3
 70
     0
 43
0.0
 10
0.8498055067620846
 20
0.070325
 10
0.8652486865504339
 20
0.0351625
 10
0.8826381470696005
 20
0.0
  0
ELLIPSE
  5
A6
330
90
100
AcDbEntity
  8
AM_9
100
AcDbEllipse
 10
0.6222539674441617
 20
0.0
 30
0.0
 11
-1.838598171376523E-17
 21
-0.1000886227036577
 31
0.0
210
0.0
220
0.0
230
1.0
 40
0.7071067811865474
 41
0.0
 42
6.283185307179586
  0
LWPOLYLINE
  5
A7
330
90
100
AcDbEntity
  8
AM_9
100
AcDbPolyline
 90
        3
 70
     0
 43
0.0
 10
0.8969459588411878
 20
-0.070325
 10
0.9102128400797098
 20
-0.0351624999999999
 10
0.9215334405874142
 20
0.0
  0
LWPOLYLINE
  5
A8
330
90
100
AcDbEntity
  8
AM_9
100
AcDbPolyline
 90
        3
 70
     0
 43
0.0
 10
0.9215334405874142
 20
0.0
 10
0.9102677709793632
 20
0.035004399931699
 10
0.8969459588411878
 20
0.070325
  0
LWPOLYLINE
  5
A9
330
90
100
AcDbEntity
  8
AM_9
100
AcDbPolyline
 90
        3
 70
     0
 43
0.0
 10
0.8252180250158582
 20
0.1406500000000001
 10
0.8364836946239091
 20
0.1056456000683011
 10
0.8498055067620846
 20
0.070325
  0
LINE
  5
AA
330
90
100
AcDbEntity
  8
AM_9
100
AcDbLine
 10
0.9215334405874142
 20
0.0
 30
0.0
 11
0.8826381470696005
 21
0.0
 31
0.0
  0
LWPOLYLINE
  5
AB
330
90
100
AcDbEntity
  8
AM_9
100
AcDbPolyline
 90
        3
 70
     0
 43
0.0
 10
0.8498055067620846
 20
-0.070325
 10
0.8365386255235626
 20
-0.1054875
 10
0.8252180250158582
 20
-0.1406499999999999
  0
LWPOLYLINE
  5
AC
330
90
100
AcDbEntity
  8
AM_9
100
AcDbPolyline
 90
        3
 70
     0
 43
0.0
 10
0.8969459588411878
 20
0.070325
 10
0.8815027790528387
 20
0.1054875000000001
 10
0.8767195889936084
 20
0.1155207165196121
  0
LWPOLYLINE
  5
AD
330
90
100
AcDbEntity
  8
AM_9
100
AcDbPolyline
 90
        3
 70
     0
 43
0.0
 10
0.8768793081181708
 20
-0.1151907939395562
 10
0.8814286217872798
 20
-0.105645600068301
 10
0.8969459588411878
 20
-0.070325
  0
LINE
  5
AE
330
90
100
AcDbEntity
  8
AM_9
100
AcDbLine
 10
0.6271167099064471
 20
-0.1103623268442186
 30
0.0
 11
0.7611000122517961
 21
-0.1162867979148863
 31
0.0
  0
LINE
  5
AF
330
90
100
AcDbEntity
  8
AM_9
100
AcDbLine
 10
0.7611000122517961
 20
0.1162867979148864
 30
0.0
 11
0.6271167099064471
 21
0.1103623268442187
 31
0.0
  0
ELLIPSE
  5
B0
330
90
100
AcDbEntity
  8
AM_9
100
AcDbEllipse
 10
0.8108157757605734
 20
-0.0000000000000009
 30
0.0
 11
8.612328615003860E-18
 21
0.1406500000000016
 31
0.0
210
0.0
220
0.0
230
1.0
 40
0.7071067811865474
 41
3.798906696793631
 42
5.625871263975756
  0
ELLIPSE
  5
B1
330
90
100
AcDbEntity
  8
AM_9
100
AcDbEllipse
 10
0.8329627486433924
 20
-0.000000000001125
 30
0.0
 11
6.694498085497684E-18
 21
0.1093294505837708
 31
0.0
210
0.0
220
0.0
230
1.0
 40
0.707106781186548
 41
4.434045067595193
 42
5.006279008912505
  0
ELLIPSE
  5
B2
330
90
100
AcDbEntity
  8
AM_9
100
AcDbEllipse
 10
0.8329627486461061
 20
-0.0000000000000007
 30
0.0
 11
6.694498085252835E-18
 21
0.1093294505797721
 31
0.0
210
0.0
220
0.0
230
1.0
 40
0.707106781186548
 41
5.319410838204686
 42
5.928986666165878
  0
ELLIPSE
  5
B3
330
90
100
AcDbEntity
  8
AM_9
100
AcDbEllipse
 10
0.8329627486461071
 20
-0.0000000000000001
 30
0.0
 11
6.694498085252771E-18
 21
0.1093294505797711
 31
0.0
210
0.0
220
0.0
230
1.0
 40
0.7071067811865435
 41
3.495791294603496
 42
4.101380407549798
  0
LWPOLYLINE
  5
B4
330
90
100
AcDbEntity
  8
AM_9
100
AcDbPolyline
 90
       19
 70
     0
 43
0.0
 10
0.8459630936738576
 20
0.0915585300704316
 10
0.8494738459449359
 20
0.0931009554853535
 10
0.8529713568572109
 20
0.0941311995734634
 10
0.8565608895042417
 20
0.0946408368713647
 10
0.8605902170877356
 20
0.0945306170633462
 10
0.86428346344177
 20
0.0938004344123982
 10
0.8678533695079029
 20
0.0925452085457311
 10
0.8714503619243935
 20
0.0907546728819856
 10
0.8751140488499664
 20
0.0883960316272315
 10
0.8792010802973158
 20
0.0851148882120377
 10
0.8832541104223522
 20
0.0811415695809945
 10
0.8872271138433138
 20
0.0764733953513838
 10
0.8910656178107116
 20
0.0711170325698027
 10
0.8947082971988883
 20
0.0650945011306045
 10
0.8980924505415088
 20
0.0584426818539971
 10
0.9011559164421947
 20
0.0512166987425707
 10
0.903845045779678
 20
0.0434763768490763
 10
0.9061120286712138
 20
0.0352915757089706
 10
0.9073724424788525
 20
0.0296063960209411
  0
LWPOLYLINE
  5
B5
330
90
100
AcDbEntity
  8
AM_9
100
AcDbPolyline
 90
        4
 70
     0
 43
0.0
 10
0.8402789185380205
 20
0.0880079090001177
 10
0.8422142815570866
 20
0.0893631544353826
 10
0.8459059279301222
 20
0.0915292887417243
 10
0.8459630936738576
 20
0.0915585300704316
  0
LWPOLYLINE
  5
B6
330
90
100
AcDbEntity
  8
AM_9
100
AcDbPolyline
 90
       19
 70
     0
 43
0.0
 10
0.9073093064632286
 20
-0.0299198620075797
 10
0.9059989598618766
 20
-0.0357523075785483
 10
0.9037053872219805
 20
-0.0439216754527378
 10
0.9009940128198302
 20
-0.0516349586693537
 10
0.8979167778359326
 20
-0.0588183417256663
 10
0.8945334594662779
 20
-0.065407950891931
 10
0.8909103835979205
 20
-0.0713518653601878
 10
0.8871185550227054
 20
-0.0766120939577929
 10
0.8832357073396319
 20
-0.0811613348261565
 10
0.879335491274511
 20
-0.084994941272483
 10
0.8754845463607992
 20
-0.0881272323071236
 10
0.8717346415740882
 20
-0.0905909872769984
 10
0.868110897836638
 20
-0.0924343786059591
 10
0.8645923871348005
 20
-0.0937128065288082
 10
0.8610762182082916
 20
-0.0944684849586283
 10
0.8573097336079956
 20
-0.0946752478607611
 10
0.853398838304726
 20
-0.0942214560148837
 10
0.8498013040923315
 20
-0.0932191479622129
 10
0.8482962305667638
 20
-0.0926394568922146
  0
ELLIPSE
  5
B7
330
90
100
AcDbEntity
  8
AM_9
100
AcDbEllipse
 10
0.8729045605826122
 20
0.0000000000000001
 30
0.0
 11
6.084620899749639E-18
 21
0.09936940028726632
 31
0.0
210
0.0
220
0.0
230
1.0
 40
0.7071067811865469
 41
2.656480407116016
 42
6.768297553653364
  0
ELLIPSE
  5
B8
330
90
100
AcDbEntity
  8
AM_9
100
AcDbEllipse
 10
0.921235889287088
 20
0.0
 30
0.0
 11
8.036249332247508E-18
 21
0.1312419113468905
 31
0.0
210
0.0
220
0.0
230
1.0
 40
0.7071067811865474
 41
2.654423822617185
 42
6.768297553653364
  0
ELLIPSE
  5
B9
330
90
100
AcDbEntity
  8
AM_9
100
AcDbEllipse
 10
0.9499921327523657
 20
0.0000000000000001
 30
0.0
 11
8.079715312105955E-18
 21
0.13195176466768
 31
0.0
210
0.0
220
0.0
230
1.0
 40
0.7071067811865489
 41
3.584181953812212
 42
5.840487858183221
  0
ELLIPSE
  5
BA
330
90
100
AcDbEntity
  8
AM_9
100
AcDbEllipse
 10
0.996856709425552
 20
0.0000000000000001
 30
0.0
 11
6.357083428131002E-18
 21
0.1038190510530392
 31
0.0
210
0.0
220
0.0
230
1.0
 40
0.7071067811865501
 41
3.579974428543801
 42
5.838884720313517
  0
ELLIPSE
  5
BB
330
90
100
AcDbEntity
  8
AM_9
100
AcDbEllipse
 10
0.7636753236814714
 20
-0.0000000000000002
 30
0.0
 11
7.124004163867308E-18
 21
0.1163438171532774
 31
0.0
210
0.0
220
0.0
230
1.0
 40
0.7071067811865481
 41
0.0
 42
6.283185307179586
  0
ELLIPSE
  5
BC
330
90
100
AcDbEntity
  8
AM_9
100
AcDbEllipse
 10
0.6295567095229475
 20
-0.0000000000000002
 30
0.0
 11
6.761045944280111E-18
 21
0.1104162595939893
 31
0.0
210
0.0
220
0.0
230
1.0
 40
0.707106781186548
 41
0.0
 42
6.283185307179586
  0
ELLIPSE
  5
BD
330
90
100
AcDbEntity
  8
AM_9
100
AcDbEllipse
 10
0.7636753236814717
 20
0.0
 30
0.0
 11
8.612328615003810E-18
 21
0.1406500000000008
 31
0.0
210
0.0
220
0.0
230
1.0
 40
0.7071067811865475
 41
0.0
 42
6.283185307179586
  0
LINE
  5
BF
330
90
100
AcDbEntity
  8
AM_4
100
AcDbLine
 10
0.8767195889936084
 20
0.1155207165196121
 30
0.0
 11
0.864113318533672
 21
0.1406500000000001
 31
0.0
  0
LINE
  5
C0
330
90
100
AcDbEntity
  8
AM_4
100
AcDbLine
 10
0.864113318533672
 20
-0.1406499999999999
 30
0.0
 11
0.8766480793405582
 21
-0.1156683220766923
 31
0.0
  0
LINE
  5
C1
330
90
100
AcDbEntity
  8
AM_4
100
AcDbLine
 10
0.864113318533672
 20
0.1406500000000001
 30
0.0
 11
0.7103777809083736
 21
0.1406500000000001
 31
0.0
  0
LWPOLYLINE
  5
C2
330
90
100
AcDbEntity
  8
AM_4
100
AcDbPolyline
 90
        3
 70
     0
 43
0.0
 10
0.6775451406008576
 20
0.070325
 10
0.6929883203892067
 20
0.1054875
 10
0.7103777809083736
 20
0.1406500000000001
  0
LWPOLYLINE
  5
C3
330
90
100
AcDbEntity
  8
AM_4
100
AcDbPolyline
 90
        3
 70
     0
 43
0.0
 10
0.6529576588546312
 20
0.0000000000000001
 10
0.6642233284626822
 20
0.035004399931699
 10
0.6775451406008576
 20
0.070325
  0
LWPOLYLINE
  5
C4
330
90
100
AcDbEntity
  8
AM_4
100
AcDbPolyline
 90
        3
 70
     0
 43
0.0
 10
0.7492730744261872
 20
0.1406500000000001
 10
0.7380074048181362
 20
0.1056456000683011
 10
0.7246855926799608
 20
0.070325
  0
LWPOLYLINE
  5
C5
330
90
100
AcDbEntity
  8
AM_4
100
AcDbPolyline
 90
        3
 70
     0
 43
0.0
 10
0.7246855926799608
 20
0.070325
 10
0.7092424128916116
 20
0.0351625
 10
0.6918529523724448
 20
0.0000000000000001
  0
LINE
  5
C6
330
90
100
AcDbEntity
  8
AM_4
100
AcDbLine
 10
0.6918529523724448
 20
0.0000000000000001
 30
0.0
 11
0.6529576588546312
 21
0.0000000000000001
 31
0.0
  0
LWPOLYLINE
  5
C7
330
90
100
AcDbEntity
  8
AM_4
100
AcDbPolyline
 90
        3
 70
     0
 43
0.0
 10
0.6775451406008576
 20
-0.070325
 10
0.6642782593623356
 20
-0.0351625
 10
0.6529576588546312
 20
0.0000000000000001
  0
LWPOLYLINE
  5
C8
330
90
100
AcDbEntity
  8
AM_4
100
AcDbPolyline
 90
        3
 70
     0
 43
0.0
 10
0.7103777809083736
 20
-0.1406499999999999
 10
0.6930624776547656
 20
-0.105645600068301
 10
0.6775451406008576
 20
-0.070325
  0
LINE
  5
C9
330
90
100
AcDbEntity
  8
AM_4
100
AcDbLine
 10
0.864113318533672
 20
-0.1406499999999999
 30
0.0
 11
0.7103777809083736
 21
-0.1406499999999999
 31
0.0
  0
LWPOLYLINE
  5
CA
330
90
100
AcDbEntity
  8
AM_4
100
AcDbPolyline
 90
        3
 70
     0
 43
0.0
 10
0.7246855926799608
 20
-0.0703249999999999
 10
0.7379524739184828
 20
-0.1054874999999999
 10
0.7492730744261872
 20
-0.1406499999999999
  0
LWPOLYLINE
  5
CB
330
90
100
AcDbEntity
  8
AM_4
100
AcDbPolyline
 90
        3
 70
     0
 43
0.0
 10
0.6918529523724448
 20
0.0000000000000001
 10
0.7091682556260527
 20
-0.0350043999316989
 10
0.7246855926799608
 20
-0.0703249999999999
  0
ELLIPSE
  5
CC
330
90
100
AcDbEntity
  8
AM_4
100
AcDbEllipse
 10
0.810815775760575
 20
0.0
 30
0.0
 11
8.612328615003781E-18
 21
0.1406500000000003
 31
0.0
210
0.0
220
0.0
230
1.0
 40
0.7071067811865507
 41
5.625871263975768
 42
10.0820920039732
  0
ELLIPSE
  5
CD
330
90
100
AcDbEntity
  8
AM_4
100
AcDbEllipse
 10
0.8329627486461064
 20
0.0
 30
0.0
 11
6.694498085252792E-18
 21
0.1093294505797714
 31
0.0
210
0.0
220
0.0
230
1.0
 40
0.7071067811865483
 41
5.928986666165878
 42
9.778976601783087
  0
ELLIPSE
  5
CE
330
90
100
AcDbEntity
  8
AM_4
100
AcDbEllipse
 10
0.8729045605826122
 20
0.0000000000000002
 30
0.0
 11
6.084620899749624E-18
 21
0.09936940028726607
 31
0.0
210
0.0
220
0.0
230
1.0
 40
0.7071067811865476
 41
0.4851122464737792
 42
2.656480407116017
  0
LINE
  5
CF
330
90
100
AcDbEntity
  8
AM_4
100
AcDbLine
 10
0.840139557068951
 20
-0.0879044185632923
 30
0.0
 11
0.8779615847829928
 21
-0.116099562589007
 31
0.0
  0
LINE
  5
D0
330
90
100
AcDbEntity
  8
AM_4
100
AcDbLine
 10
0.8779615847829928
 20
0.1160995625890071
 30
0.0
 11
0.840139557068951
 21
0.0879044185632924
 31
0.0
  0
ELLIPSE
  5
D1
330
90
100
AcDbEntity
  8
AM_4
100
AcDbEllipse
 10
0.9212358892870878
 20
0.0000000000000001
 30
0.0
 11
8.036249332247508E-18
 21
0.1312419113468905
 31
0.0
210
0.0
220
0.0
230
1.0
 40
0.7071067811865474
 41
0.4906502158885147
 42
2.654423822617188
  0
LWPOLYLINE
  5
D2
330
90
100
AcDbEntity
  8
AM_4
100
AcDbPolyline
 90
        3
 70
     0
 43
0.0
 10
0.9846195358404499
 20
-0.1225766588742888
 10
0.9868257852056471
 20
-0.1212497566752599
 10
0.9900544959108066
 20
-0.1191695501726067
  0
LWPOLYLINE
  5
D3
330
90
100
AcDbEntity
  8
AM_4
100
AcDbPolyline
 90
       14
 70
     0
 43
0.0
 10
0.8777323467066735
 20
-0.1159281986552114
 10
0.8812394186764178
 20
-0.1184483879325904
 10
0.8896322213763522
 20
-0.1236582091932714
 10
0.8983252204228904
 20
-0.127959487221444
 10
0.907242752432557
 20
-0.1313367225573294
 10
0.9163121911408065
 20
-0.1337850406032001
 10
0.9254645657381253
 20
-0.1353076451578792
 10
0.9346348458394335
 20
-0.135913718395223
 10
0.9437621331099487
 20
-0.1356167362906092
 10
0.9527868450668117
 20
-0.1344335921857969
 10
0.9616511456708688
 20
-0.132384733474635
 10
0.9703077814698148
 20
-0.1294910139306122
 10
0.9787130817964073
 20
-0.1257728059592389
 10
0.9839241642678412
 20
-0.1229794872370368
  0
LWPOLYLINE
  5
D4
330
90
100
AcDbEntity
  8
AM_4
100
AcDbPolyline
 90
       15
 70
     0
 43
0.0
 10
0.9900596033816415
 20
0.1191661252147427
 10
0.9832966882178575
 20
0.1233367676495731
 10
0.9746214391610661
 20
0.1276996386777438
 10
0.9657166640959101
 20
0.131139144246141
 10
0.9566552184295023
 20
0.1336497806240861
 10
0.9475063290847315
 20
0.1352342804948355
 10
0.938335297402875
 20
0.1359014814395202
 10
0.9292033040162808
 20
0.1356646177369095
 10
0.9201696267961269
 20
0.1345403064856316
 10
0.9112930386305207
 20
0.1325488809906476
 10
0.9026210677596014
 20
0.1297112041863301
 10
0.8941975925277029
 20
0.12604769559452
 10
0.8860639924542817
 20
0.1215780444369304
 10
0.8782606058793776
 20
0.1163216697530781
 10
0.8773995040185153
 20
0.1156776921195492
  0
ELLIPSE
  5
D5
330
90
100
AcDbEntity
  8
AM_4
100
AcDbEllipse
 10
1.00762716319083
 20
0.0000000000000001
 30
0.0
 11
-1.484390032546748E-17
 21
-0.08080642971672804
 31
0.0
210
0.0
220
0.0
230
1.0
 40
0.7071067811865489
 41
0.0
 42
6.283185307179586
  0
LWPOLYLINE
  5
D6
330
90
100
AcDbEntity
  8
AM_4
100
AcDbPolyline
 90
       25
 70
     0
 43
0.0
 10
1.028189366403066
 20
-0.0938878806938988
 10
1.032431206296451
 20
-0.0908491284353668
 10
1.038710340213494
 20
-0.085504181584904
 10
1.044590142889824
 20
-0.0794121842754028
 10
1.050016476818825
 20
-0.0726168174929177
 10
1.054936143914524
 20
-0.065174836872673
 10
1.059300494462459
 20
-0.0571548103304104
 10
1.063068254958593
 20
-0.0486337909879443
 10
1.066206766166292
 20
-0.0396933943201101
 10
1.068691281600958
 20
-0.0304184479370403
 10
1.070505129625396
 20
-0.0208909722966429
 10
1.071637375951748
 20
-0.0111905443233632
 10
1.072081276325042
 20
-0.001395528304857
 10
1.071833530271424
 20
0.0084166737518563
 10
1.070893900278063
 20
0.0181687113774515
 10
1.069265154430192
 20
0.0277832198266957
 10
1.066952736305067
 20
0.0371841388076408
 10
1.063964962958576
 20
0.0462950770021673
 10
1.060313677679538
 20
0.0550386044626832
 10
1.056015684199749
 20
0.0633352688243289
 10
1.05109714620097
 20
0.0711000736117587
 10
1.045593692447143
 20
0.078249158363064
 10
1.039553772912981
 20
0.084700248798738
 10
1.033039729521759
 20
0.090377330367058
 10
1.028481791853245
 20
0.0936919080935067
  0
ELLIPSE
  5
D7
330
90
100
AcDbEntity
  8
AM_4
100
AcDbEllipse
 10
0.9499921327523656
 20
0.0000000000000001
 30
0.0
 11
8.079715312105955E-18
 21
0.13195176466768
 31
0.0
210
0.0
220
0.0
230
1.0
 40
0.7071067811865464
 41
5.844803532225577
 42
9.86315973572339
  0
ELLIPSE
  5
D8
330
90
100
AcDbEntity
  8
AM_4
100
AcDbEllipse
 10
0.9968567094255522
 20
0.0
 30
0.0
 11
6.357083428130995E-18
 21
0.103819051053039
 31
0.0
210
0.0
220
0.0
230
1.0
 40
0.7071067811865478
 41
5.844803532225578
 42
9.863159735723388
  0
LINE
  5
D9
330
90
100
AcDbEntity
  8
AM_4
100
AcDbLine
 10
1.028017895958685
 20
0.0940018950300904
 30
0.0
 11
0.9895973257345769
 21
0.1194743720494001
 31
0.0
  0
LINE
  5
DA
330
90
100
AcDbEntity
  8
AM_4
100
AcDbLine
 10
0.9895973257345769
 20
-0.1194743720493999
 30
0.0
 11
1.028017895958685
 21
-0.0940018950300903
 31
0.0
  0
ENDBLK
  5
93
330
90
100
AcDbEntity
  8
0
100
AcDbBlockEnd
  0
BLOCK
  5
DD
330
DB
100
AcDbEntity
  8
0
100
AcDbBlockBegin
  2
3_389923_0_in_125500_4
 70
     2
 10
0.0
 20
0.0
 30
0.0
  3
3_389923_0_in_125500_4
  1

  0
ATTDEF
  5
DF
330
DB
100
AcDbEntity
  8
AM_6
100
AcDbText
 10
5.787399164056818
 20
0.36
 30
0.0
 40
0.5
  1
Set Screw Intermediate Duty Insert Inch Bore
100
AcDbAttributeDefinition
  3

  2
NN
 70
     8
280
     0
  0
ATTDEF
  5
E0
330
DB
100
AcDbEntity
  8
AM_6
100
AcDbText
 10
5.787399164056818
 20
-0.14
 30
0.0
 40
0.5
  1
VSC Intermediate Duty Bearing Inserts
100
AcDbAttributeDefinition
  3

  2
NT
 70
     8
280
     0
  0
ATTDEF
  5
E1
330
DB
100
AcDbEntity
  8
AM_6
100
AcDbText
 10
5.787399164056818
 20
-0.64
 30
0.0
 40
0.5
  1
389923
100
AcDbAttributeDefinition
  3

  2
NB
 70
     8
280
     0
  0
ATTDEF
  5
E2
330
DB
100
AcDbEntity
  8
AM_6
100
AcDbText
 10
5.787399164056818
 20
-1.14
 30
0.0
 40
0.5
  1
$PN.
100
AcDbAttributeDefinition
  3

  2
NBSYN
 70
     8
280
     0
  0
ATTDEF
  5
E3
330
DB
100
AcDbEntity
  8
AM_6
100
AcDbText
 10
5.787399164056818
 20
-1.64
 30
0.0
 40
0.5
  1
389923
100
AcDbAttributeDefinition
  3

  2
LINA
 70
     8
280
     0
  0
ATTDEF
  5
E4
330
DB
100
AcDbEntity
  8
AM_6
100
AcDbText
 10
5.787399164056818
 20
-2.14
 30
0.0
 40
0.5
  1
203
100
AcDbAttributeDefinition
  3

  2
SERIES
 70
     8
280
     0
  0
ATTDEF
  5
E5
330
DB
100
AcDbEntity
  8
AM_6
100
AcDbText
 10
5.787399164056818
 20
-2.64
 30
0.0
 40
0.5
  1
1/2
100
AcDbAttributeDefinition
  3

  2
SS
 70
     8
280
     0
  0
ATTDEF
  5
E6
330
DB
100
AcDbEntity
  8
AM_6
100
AcDbText
 10
5.787399164056818
 20
-3.14
 30
0.0
 40
0.5
  1
389923
100
AcDbAttributeDefinition
  3

  2
PN
 70
     8
280
     0
  0
ATTDEF
  5
E7
330
DB
100
AcDbEntity
  8
AM_6
100
AcDbText
 10
5.787399164056818
 20
-3.64
 30
0.0
 40
0.5
  1
INS-VSC-008
100
AcDbAttributeDefinition
  3

  2
DESCRIPTION
 70
     8
280
     0
  0
ATTDEF
  5
E8
330
DB
100
AcDbEntity
  8
AM_6
100
AcDbText
 10
5.787399164056818
 20
-4.140000000000001
 30
0.0
 40
0.5
  1
0.23
100
AcDbAttributeDefinition
  3

  2
WEIGHT
 70
     8
280
     0
  0
ATTDEF
  5
E9
330
DB
100
AcDbEntity
  8
AM_6
100
AcDbText
 10
5.787399164056818
 20
-4.640000000000001
 30
0.0
 40
0.5
  1
1.00
100
AcDbAttributeDefinition
  3

  2
A
 70
     8
280
     0
  0
ATTDEF
  5
EA
330
DB
100
AcDbEntity
  8
AM_6
100
AcDbText
 10
5.787399164056818
 20
-5.140000000000001
 30
0.0
 40
0.5
  1
0.51
100
AcDbAttributeDefinition
  3

  2
C
 70
     8
280
     0
  0
ATTDEF
  5
EB
330
DB
100
AcDbEntity
  8
AM_6
100
AcDbText
 10
5.787399164056818
 20
-5.640000000000001
 30
0.0
 40
0.5
  1
1.5748
100
AcDbAttributeDefinition
  3

  2
D
 70
     8
280
     0
  0
ATTDEF
  5
EC
330
DB
100
AcDbEntity
  8
AM_6
100
AcDbText
 10
5.787399164056818
 20
-6.140000000000001
 30
0.0
 40
0.5
  1
0.150
100
AcDbAttributeDefinition
  3

  2
J
 70
     8
280
     0
  0
ATTDEF
  5
ED
330
DB
100
AcDbEntity
  8
AM_6
100
AcDbText
 10
5.787399164056818
 20
-6.640000000000001
 30
0.0
 40
0.5
  1
0.96
100
AcDbAttributeDefinition
  3

  2
L
 70
     8
280
     0
  0
ATTDEF
  5
EE
330
DB
100
AcDbEntity
  8
AM_6
100
AcDbText
 10
5.787399164056818
 20
-7.140000000000001
 30
0.0
 40
0.5
  1
10-32
100
AcDbAttributeDefinition
  3

  2
N
 70
     8
280
     0
  0
ATTDEF
  5
EF
330
DB
100
AcDbEntity
  8
AM_6
100
AcDbText
 10
5.787399164056818
 20
-7.640000000000001
 30
0.0
 40
0.5
  1
0.36
100
AcDbAttributeDefinition
  3

  2
W
 70
     8
280
     0
  0
ATTDEF
  5
F0
330
DB
100
AcDbEntity
  8
AM_6
100
AcDbText
 10
5.787399164056818
 20
-8.14
 30
0.0
 40
0.5
  1
0.64
100
AcDbAttributeDefinition
  3

  2
Y
 70
     8
280
     0
  0
ATTDEF
  5
F1
330
DB
100
AcDbEntity
  8
AM_6
100
AcDbText
 10
5.787399164056818
 20
-8.64
 30
0.0
 40
0.5
  1
baldor
100
AcDbAttributeDefinition
  3

  2
COMPANY
 70
     8
280
     0
  0
LINE
  5
F2
330
DB
100
AcDbEntity
  8
AM_9
100
AcDbLine
 10
-0.7579752212329147
 20
0.2133333333333318
 30
0.0
 11
-0.7660363636363635
 21
0.2133333333333318
 31
0.0
  0
LINE
  5
F3
330
DB
100
AcDbEntity
  8
AM_9
100
AcDbLine
 10
-0.8124
 20
0.1669696969697087
 30
0.0
 11
-0.8124
 21
0.1330303030302913
 31
0.0
  0
ARC
  5
F4
330
DB
100
AcDbEntity
  8
AM_9
100
AcDbCircle
 10
-0.7660363636363634
 20
0.1330303030303046
 30
0.0
 40
0.0463636363636366
100
AcDbArc
 50
180.0
 51
249.4637456750564
  0
ARC
  5
F5
330
DB
100
AcDbEntity
  8
AM_9
100
AcDbCircle
 10
-0.7660363636363635
 20
0.1669696969696955
 30
0.0
 40
0.0463636363636364
100
AcDbArc
 50
90.0
 51
180.0
  0
LINE
  5
F6
330
DB
100
AcDbEntity
  8
AM_9
100
AcDbLine
 10
-0.7660363636363635
 20
0.2133333333333319
 30
0.0
 11
-0.7660363636363635
 21
0.1722531282522179
 31
0.0
  0
LWPOLYLINE
  5
F7
330
DB
100
AcDbEntity
  8
AM_9
100
AcDbPolyline
 90
        6
 70
     0
 43
0.0
 10
-0.0849133440398109
 20
-0.4695510141415065
 10
-0.0845033553635492
 20
-0.4706294753707728
 10
-0.0808290599072252
 20
-0.4784806996798626
 10
-0.0737863817871013
 20
-0.4888899795295499
 10
-0.065146450699712
 20
-0.4979830889903422
 10
-0.0536626430228547
 20
-0.5067444335930994
  0
LWPOLYLINE
  5
F8
330
DB
100
AcDbEntity
  8
AM_9
100
AcDbPolyline
 90
        6
 70
     0
 43
0.0
 10
-0.0852479914928526
 20
-0.4313876389635733
 10
-0.0862172456274936
 20
-0.4344644871308304
 10
-0.0880660391918289
 20
-0.4436098382344086
 10
-0.0883453383429263
 20
-0.4530043722715685
 10
-0.0870538592299184
 20
-0.4623041708797898
 10
-0.0849133440398109
 20
-0.4695510141415065
  0
LWPOLYLINE
  5
F9
330
DB
100
AcDbEntity
  8
AM_9
100
AcDbPolyline
 90
        6
 70
     0
 43
0.0
 10
-0.0536626430228547
 20
-0.3932555664069006
 10
-0.0622964855588043
 20
-0.3995567975468885
 10
-0.0700800120339974
 20
-0.4068556322969505
 10
-0.0772721885194967
 20
-0.4157753025609265
 10
-0.0829752567997321
 20
-0.4257574362575927
 10
-0.0852479914928526
 20
-0.4313876389635733
  0
LWPOLYLINE
  5
FA
330
DB
100
AcDbEntity
  8
AM_9
100
AcDbPolyline
 90
        6
 70
     0
 43
0.0
 10
0.0854074664176799
 20
-0.4318529972122698
 10
0.0845033553635566
 20
-0.4293705246292462
 10
0.0808290599072352
 20
-0.4215193003201556
 10
0.0737863817871164
 20
-0.4111100204704687
 10
0.0651464506997322
 20
-0.4020169110096759
 10
0.0536626430228547
 20
-0.3932555664069006
  0
LWPOLYLINE
  5
FB
330
DB
100
AcDbEntity
  8
AM_9
100
AcDbPolyline
 90
        6
 70
     0
 43
0.0
 10
0.0856586426228949
 20
-0.467387492282898
 10
0.0862172456274863
 20
-0.4655355128691949
 10
0.088066039191826
 20
-0.4563901617656157
 10
0.0883453383429274
 20
-0.4469956277284539
 10
0.0870538592299229
 20
-0.43769582912023
 10
0.0854074664176799
 20
-0.4318529972122698
  0
LWPOLYLINE
  5
FC
330
DB
100
AcDbEntity
  8
AM_9
100
AcDbPolyline
 90
        6
 70
     0
 43
0.0
 10
0.0536626430228547
 20
-0.5067444335930994
 10
0.0622964855587897
 20
-0.5004432024531236
 10
0.0700800120339715
 20
-0.493144367703077
 10
0.0772721885194781
 20
-0.4842246974391007
 10
0.0829752567997203
 20
-0.4742425637424329
 10
0.0856586426228949
 20
-0.467387492282898
  0
LWPOLYLINE
  5
FD
330
DB
100
AcDbEntity
  8
AM_9
100
AcDbPolyline
 90
       14
 70
     0
 43
0.0
 10
0.2439744570239795
 20
-0.5067444335930992
 10
0.2461011942766979
 20
-0.4988578752498344
 10
0.2475987881987713
 20
-0.4894739128032651
 10
0.2484233946245299
 20
-0.4806270088761264
 10
0.2489450387335744
 20
-0.4708647898471637
 10
0.2491896299029017
 20
-0.4621793374583114
 10
0.2492945787662331
 20
-0.4531526522599507
 10
0.2492758112413617
 20
-0.4440018694207241
 10
0.2491284531396015
 20
-0.4350287856434827
 10
0.2488469171974191
 20
-0.4267745576088464
 10
0.2484004869484638
 20
-0.4190388967201068
 10
0.2470249765481004
 20
-0.4062918971817428
 10
0.2456995288192622
 20
-0.3993100995428133
 10
0.2439744570239795
 20
-0.3932555664069008
  0
LWPOLYLINE
  5
FE
330
DB
100
AcDbEntity
  8
AM_9
100
AcDbPolyline
 90
       14
 70
     0
 43
0.0
 10
0.1986168311945183
 20
-0.3932555664069008
 10
0.1927775057149885
 20
-0.3999667328898448
 10
0.1872775335805537
 20
-0.40779697802057
 10
0.1823770226937239
 20
-0.4166975139097945
 10
0.1783765718710408
 20
-0.4266207291675645
 10
0.176059369704971
 20
-0.4353216167434206
 10
0.1747664239943665
 20
-0.4444358530207635
 10
0.1746586192729793
 20
-0.4537665980047925
 10
0.1757253359768543
 20
-0.4629804537400908
 10
0.1777211043374246
 20
-0.4712842929969734
 10
0.1805025556681694
 20
-0.4791029870829602
 10
0.1856645901033901
 20
-0.4895279855685198
 10
0.1916830226207199
 20
-0.4986081133098552
 10
0.1986168311945183
 20
-0.5067444335930992
  0
LINE
  5
FF
330
DB
100
AcDbEntity
  8
AM_9
100
AcDbLine
 10
0.25
 20
-0.6208
 30
0.0
 11
0.25
 21
0.3552
 31
0.0
  0
LINE
  5
100
330
DB
100
AcDbEntity
  8
AM_9
100
AcDbLine
 10
-0.25
 20
0.3552
 30
0.0
 11
-0.25
 21
-0.6208
 31
0.0
  0
LINE
  5
101
330
DB
100
AcDbEntity
  8
AM_9
100
AcDbLine
 10
0.25
 20
0.3552
 30
0.0
 11
0.2548
 21
0.36
 31
0.0
  0
LINE
  5
102
330
DB
100
AcDbEntity
  8
AM_9
100
AcDbLine
 10
-0.2548
 20
0.36
 30
0.0
 11
-0.25
 21
0.3552
 31
0.0
  0
ELLIPSE
  5
103
330
DB
100
AcDbEntity
  8
AM_9
100
AcDbEllipse
 10
0.2212956441092489
 20
-0.45
 30
0.0
 11
-1.434673725201122E-17
 21
-0.07809999999999989
 31
0.0
210
0.0
220
0.0
230
1.0
 40
0.4226182617407001
 41
0.7574924288901785
 42
2.384100224699615
  0
LWPOLYLINE
  5
104
330
DB
100
AcDbEntity
  8
AM_9
100
AcDbPolyline
 90
        6
 70
     0
 43
0.0
 10
0.1986168311945183
 20
-0.5067444335930992
 10
0.2046546135247441
 20
-0.514769443443321
 10
0.2111497041198734
 20
-0.5212102524426949
 10
0.2174566305484836
 20
-0.5255268337777702
 10
0.2236630582862678
 20
-0.5278118957230845
 10
0.2265775003730185
 20
-0.528099999989014
  0
ELLIPSE
  5
105
330
DB
100
AcDbEntity
  8
AM_9
100
AcDbEllipse
 10
0.2212956441092488
 20
-0.45
 30
0.0
 11
-1.434673725201124E-17
 21
-0.0781
 31
0.0
210
0.0
220
0.0
230
1.0
 40
0.4226182617406979
 41
3.899085082479971
 42
5.525692878289407
  0
LWPOLYLINE
  5
106
330
DB
100
AcDbEntity
  8
AM_9
100
AcDbPolyline
 90
        6
 70
     0
 43
0.0
 10
0.2439744570239795
 20
-0.3932555664069007
 10
0.2415415062249999
 20
-0.3852305565566789
 10
0.2382594049343101
 20
-0.3787897475573051
 10
0.2342619091205013
 20
-0.3744731662222298
 10
0.2293279646255901
 20
-0.3721881042769155
 10
0.2265763931390855
 20
-0.371900000010986
  0
LINE
  5
107
330
DB
100
AcDbEntity
  8
AM_9
100
AcDbLine
 10
0.226505251475653
 20
-0.5281
 30
0.0
 11
0.4197111361766725
 21
-0.5281
 31
0.0
  0
LINE
  5
108
330
DB
100
AcDbEntity
  8
AM_9
100
AcDbLine
 10
0.4197111361766725
 20
-0.3719
 30
0.0
 11
0.226505251475653
 21
-0.3719
 31
0.0
  0
ELLIPSE
  5
109
330
DB
100
AcDbEntity
  8
AM_9
100
AcDbEllipse
 10
0.4197111361766743
 20
-0.4499999999999968
 30
0.0
 11
-1.434673725201066E-17
 21
-0.07809999999999684
 31
0.0
210
0.0
220
0.0
230
1.0
 40
0.4226182617406981
 41
2.8381840055645
 42
3.348917750202994
  0
LWPOLYLINE
  5
10A
330
DB
100
AcDbEntity
  8
AM_9
100
AcDbPolyline
 90
        6
 70
     0
 43
0.0
 10
0.2265775003730185
 20
-0.528099999989014
 10
0.2290076158625941
 20
-0.5278767640155098
 10
0.233846355267022
 20
-0.5258273995706305
 10
0.2377564697364577
 20
-0.5219225256704904
 10
0.241016066085132
 20
-0.5160589167930849
 10
0.2439744570239795
 20
-0.5067444335930992
  0
LWPOLYLINE
  5
10B
330
DB
100
AcDbEntity
  8
AM_9
100
AcDbPolyline
 90
        6
 70
     0
 43
0.0
 10
0.2265763931390855
 20
-0.371900000010986
 10
0.2240200308753605
 20
-0.3721232359844902
 10
0.218037596823468
 20
-0.3741726004293694
 10
0.2120251556452052
 20
-0.3780774743295096
 10
0.2058007339355536
 20
-0.3839410832069151
 10
0.1986168311945183
 20
-0.3932555664069008
  0
LINE
  5
10C
330
DB
100
AcDbEntity
  8
AM_9
100
AcDbLine
 10
-0.25
 20
-0.6208
 30
0.0
 11
-0.2692
 21
-0.64
 31
0.0
  0
LINE
  5
10D
330
DB
100
AcDbEntity
  8
AM_9
100
AcDbLine
 10
0.2692
 20
-0.64
 30
0.0
 11
0.25
 21
-0.6208
 31
0.0
  0
ELLIPSE
  5
10E
330
DB
100
AcDbEntity
  8
AM_9
100
AcDbEllipse
 10
0.4197111361766726
 20
-0.4499999999999998
 30
0.0
 11
-1.434673725201128E-17
 21
-0.07810000000000022
 31
0.0
210
0.0
220
0.0
230
1.0
 40
0.4226182617406997
 41
3.481775787294715
 42
5.9475972217734
  0
LINE
  5
10F
330
DB
100
AcDbEntity
  8
AM_9
100
AcDbLine
 10
0.4043199588732643
 20
-0.5190890260980361
 30
0.0
 11
0.4148229603536109
 21
-0.5321892789540311
 31
0.0
  0
LINE
  5
110
330
DB
100
AcDbEntity
  8
AM_9
100
AcDbLine
 10
0.4148362680062334
 20
-0.3677941225893657
 30
0.0
 11
0.4043199588732643
 21
-0.3809109739019639
 31
0.0
  0
LINE
  5
111
330
DB
100
AcDbEntity
  8
AM_9
100
AcDbLine
 10
0.4109777997726928
 20
-0.3731417523113588
 30
0.0
 11
0.414908179837254
 21
-0.3677044286184674
 31
0.0
  0
LWPOLYLINE
  5
112
330
DB
100
AcDbEntity
  8
AM_9
100
AcDbPolyline
 90
       10
 70
     0
 43
0.0
 10
0.414908179837254
 20
-0.3677044286184674
 10
0.415964708573045
 20
-0.3664228999942453
 10
0.4226502592209637
 20
-0.3599350837402897
 10
0.4294173469343359
 20
-0.3560554621430985
 10
0.4353791228262419
 20
-0.3550155282767049
 10
0.4409795619037317
 20
-0.3563452911381459
 10
0.4458559745599638
 20
-0.3598235693299677
 10
0.4501754934143002
 20
-0.3652824105303154
 10
0.4530691234002725
 20
-0.3706832833998978
 10
0.455608778294015
 20
-0.3770256928880019
  0
LINE
  5
113
330
DB
100
AcDbEntity
  8
AM_9
100
AcDbLine
 10
0.2519578536184155
 20
0.36
 30
0.0
 11
0.4751999999999999
 21
0.36
 31
0.0
  0
LINE
  5
114
330
DB
100
AcDbEntity
  8
AM_9
100
AcDbLine
 10
-0.4751999999999999
 20
0.36
 30
0.0
 11
-0.2519578536184155
 21
0.36
 31
0.0
  0
LINE
  5
115
330
DB
100
AcDbEntity
  8
AM_9
100
AcDbLine
 10
-0.4751999999999999
 20
0.36
 30
0.0
 11
-0.4799999999999999
 21
0.3552
 31
0.0
  0
LINE
  5
116
330
DB
100
AcDbEntity
  8
AM_9
100
AcDbLine
 10
0.4799999999999999
 20
0.3552
 30
0.0
 11
0.4751999999999999
 21
0.36
 31
0.0
  0
LINE
  5
117
330
DB
100
AcDbEntity
  8
AM_9
100
AcDbLine
 10
0.1513359230321684
 20
0.3552
 30
0.0
 11
0.4799999999999996
 21
0.3552
 31
0.0
  0
LINE
  5
118
330
DB
100
AcDbEntity
  8
AM_9
100
AcDbLine
 10
-0.4799999999999999
 20
0.3552
 30
0.0
 11
-0.1513359230321684
 21
0.3552
 31
0.0
  0
LINE
  5
119
330
DB
100
AcDbEntity
  8
AM_9
100
AcDbLine
 10
0.4799999999999996
 20
0.255
 30
0.0
 11
0.4799999999999996
 21
0.3552
 31
0.0
  0
LINE
  5
11A
330
DB
100
AcDbEntity
  8
AM_9
100
AcDbLine
 10
-0.4799999999999996
 20
0.3552
 30
0.0
 11
-0.4799999999999996
 21
0.255
 31
0.0
  0
LINE
  5
11B
330
DB
100
AcDbEntity
  8
AM_9
100
AcDbLine
 10
0.455608778294015
 20
-0.3770256928880019
 30
0.0
 11
0.4561539893256498
 21
-0.3786404519389716
 31
0.0
  0
LINE
  5
11C
330
DB
100
AcDbEntity
  8
AM_9
100
AcDbLine
 10
0.4799999999999999
 20
-0.3818841075326536
 30
0.0
 11
0.4799999999999999
 21
-0.255
 31
0.0
  0
LINE
  5
11D
330
DB
100
AcDbEntity
  8
AM_9
100
AcDbLine
 10
-0.4799999999999999
 20
-0.255
 30
0.0
 11
-0.4799999999999999
 21
-0.3818841075326536
 31
0.0
  0
LINE
  5
11E
330
DB
100
AcDbEntity
  8
AM_9
100
AcDbLine
 10
0.7373999999999999
 20
-0.18
 30
0.0
 11
0.7373999999999999
 21
-0.12
 31
0.0
  0
LINE
  5
11F
330
DB
100
AcDbEntity
  8
AM_9
100
AcDbLine
 10
-0.7373999999999999
 20
-0.12
 30
0.0
 11
-0.7373999999999999
 21
-0.18
 31
0.0
  0
LINE
  5
120
330
DB
100
AcDbEntity
  8
AM_9
100
AcDbLine
 10
-0.7232079645579133
 20
0.255
 30
0.0
 11
0.7232079645571303
 21
0.255
 31
0.0
  0
ARC
  5
121
330
DB
100
AcDbEntity
  8
AM_9
100
AcDbCircle
 10
0.723207964557913
 20
0.2249999999999998
 30
0.0
 40
0.0300000000000001
100
AcDbArc
 50
17.28164042390496
 51
90.0
  0
ARC
  5
122
330
DB
100
AcDbEntity
  8
AM_9
100
AcDbCircle
 10
-0.723207964557913
 20
0.2249999999999998
 30
0.0
 40
0.0300000000000002
100
AcDbArc
 50
90.0
 51
162.7183595760951
  0
LINE
  5
123
330
DB
100
AcDbEntity
  8
AM_9
100
AcDbLine
 10
-0.7232079645579129
 20
-0.2550000000000001
 30
0.0
 11
0.72320796455713
 21
-0.2550000000000001
 31
0.0
  0
ARC
  5
124
330
DB
100
AcDbEntity
  8
AM_9
100
AcDbCircle
 10
0.7232079645579129
 20
-0.2249999999999996
 30
0.0
 40
0.0300000000000004
100
AcDbArc
 50
270.0
 51
342.7183595760947
  0
ARC
  5
125
330
DB
100
AcDbEntity
  8
AM_9
100
AcDbCircle
 10
-0.7232079645579129
 20
-0.2249999999999996
 30
0.0
 40
0.0300000000000004
100
AcDbArc
 50
197.2816404239053
 51
270.0
  0
LINE
  5
126
330
DB
100
AcDbEntity
  8
AM_9
100
AcDbLine
 10
-0.7665499070510675
 20
-0.18
 30
0.0
 11
0.7665499070510088
 21
-0.18
 31
0.0
  0
LINE
  5
127
330
DB
100
AcDbEntity
  8
AM_9
100
AcDbLine
 10
-0.7518536457524437
 20
-0.2339120675996832
 30
0.0
 11
0.751853645752385
 21
-0.2339120675996832
 31
0.0
  0
ARC
  5
128
330
DB
100
AcDbEntity
  8
AM_9
100
AcDbCircle
 10
-0.0000000000868687
 20
0.0000000000236674
 30
0.0
 40
0.7874000000899218
100
AcDbArc
 50
342.7183595763273
 51
346.7853111882468
  0
ARC
  5
129
330
DB
100
AcDbEntity
  8
AM_9
100
AcDbCircle
 10
0.0000000000868176
 20
0.000000000023653
 30
0.0
 40
0.7874000000898687
100
AcDbArc
 50
193.214688811753
 51
197.2816404236727
  0
LINE
  5
12A
330
DB
100
AcDbEntity
  8
AM_9
100
AcDbLine
 10
-0.7782022616261148
 20
-0.12
 30
0.0
 11
0.7782022616261148
 21
-0.12
 31
0.0
  0
LINE
  5
12B
330
DB
100
AcDbEntity
  8
AM_9
100
AcDbLine
 10
-0.7518536457524436
 20
0.2339120675996831
 30
0.0
 11
0.7518536457524434
 21
0.2339120675996831
 31
0.0
  0
ARC
  5
12C
330
DB
100
AcDbEntity
  8
AM_9
100
AcDbCircle
 10
-0.0000000000000081
 20
-0.0000000000000016
 30
0.0
 40
0.7874000000000078
100
AcDbArc
 50
351.233946552125
 51
17.2816404239047
  0
ARC
  5
12D
330
DB
100
AcDbEntity
  8
AM_9
100
AcDbCircle
 10
0.000000000001655
 20
-0.0000000000004897
 30
0.0
 40
0.7874000000017254
100
AcDbArc
 50
162.718359576097
 51
164.289767278525
  0
ARC
  5
12E
330
DB
100
AcDbEntity
  8
AM_9
100
AcDbCircle
 10
0.0000000000000108
 20
-0.0000000000000011
 30
0.0
 40
0.7874000000000105
100
AcDbArc
 50
173.4549281022226
 51
188.766053447875
  0
LINE
  5
12F
330
DB
100
AcDbEntity
  8
AM_9
100
AcDbLine
 10
-0.782284689933209
 20
0.0896070527076531
 30
0.0
 11
-0.757949634804524
 21
0.2133333332952565
 31
0.0
  0
LINE
  5
132
330
DB
100
AcDbEntity
  8
AM_7
100
AcDbLine
 10
-0.082005
 20
-0.45
 30
0.0
 11
0.082005
 21
-0.45
 31
0.0
  0
LINE
  5
133
330
DB
100
AcDbEntity
  8
AM_7
100
AcDbLine
 10
-0.82902
 20
0.15
 30
0.0
 11
-0.46338
 21
0.15
 31
0.0
  0
ELLIPSE
  5
134
330
DB
100
AcDbEntity
  8
AM_4
100
AcDbEllipse
 10
0.4197111361766725
 20
-0.45
 30
0.0
 11
-1.434673725201124E-17
 21
-0.0781
 31
0.0
210
0.0
220
0.0
230
1.0
 40
0.4226182617406988
 41
5.947597221773401
 42
9.121369312744047
  0
ELLIPSE
  5
135
330
DB
100
AcDbEntity
  8
AM_4
100
AcDbEllipse
 10
0.4197111361766635
 20
-0.4499999999999875
 30
0.0
 11
-1.434673725200886E-17
 21
-0.07809999999998701
 31
0.0
210
0.0
220
0.0
230
1.0
 40
0.422618261740671
 41
3.348917750202713
 42
3.481775787294529
  0
LWPOLYLINE
  5
136
330
DB
100
AcDbEntity
  8
AM_4
100
AcDbPolyline
 90
       14
 70
     0
 43
0.0
 10
0.4149034046353712
 20
-0.5322896131370464
 10
0.4130332836380493
 20
-0.5298378908806357
 10
0.407410860441599
 20
-0.5208905394759709
 10
0.4023930061485642
 20
-0.5103963177507027
 10
0.3978158116127465
 20
-0.4975270748399845
 10
0.3943180865346515
 20
-0.4835247963830052
 10
0.391930617853922
 20
-0.4676332871719455
 10
0.3910344857170073
 20
-0.4512772898263827
 10
0.3917425454116152
 20
-0.4343291269447439
 10
0.3940535114126458
 20
-0.4178219831568832
 10
0.3978975651089939
 20
-0.4022102774360268
 10
0.4030706570031681
 20
-0.3880086053921465
 10
0.409142581951718
 20
-0.3760887869995502
 10
0.4109777997726928
 20
-0.3731417523113588
  0
CIRCLE
  5
137
330
DB
100
AcDbEntity
  8
AM_4
100
AcDbCircle
 10
0.0
 20
-0.45
 30
0.0
 40
0.0781
  0
LINE
  5
138
330
DB
100
AcDbEntity
  8
AM_4
100
AcDbLine
 10
-0.2519578536184155
 20
0.36
 30
0.0
 11
0.2519578536184155
 21
0.36
 31
0.0
  0
LINE
  5
139
330
DB
100
AcDbEntity
  8
AM_4
100
AcDbLine
 10
-0.1513359230321684
 20
0.3552
 30
0.0
 11
0.1513359230321684
 21
0.3552
 31
0.0
  0
LWPOLYLINE
  5
13A
330
DB
100
AcDbEntity
  8
AM_4
100
AcDbPolyline
 90
       39
 70
     0
 43
0.0
 10
-0.0637683540564972
 20
-0.3854375672448158
 10
-0.054460106102366
 20
-0.3759743243216552
 10
-0.043593500621403
 20
-0.367831615758167
 10
-0.0303662715982214
 20
-0.3609992695189857
 10
-0.0156019166106796
 20
-0.3565470441422536
 10
-0.0020224958583011
 20
-0.3550257932435377
 10
0.0120527695222211
 20
-0.3559202576922134
 10
0.0247315130305008
 20
-0.358936159693209
 10
0.0370740741879676
 20
-0.3640923270085009
 10
0.04847061678898
 20
-0.3711619237045435
 10
0.0588790666864071
 20
-0.3801239084746091
 10
0.0682718285767496
 20
-0.3911734667395455
 10
0.0760333635155321
 20
-0.4038565881504422
 10
0.0820628699866639
 20
-0.418410293606747
 10
0.085815949536819
 20
-0.4341551158905344
 10
0.0870396987678368
 20
-0.4506942148979419
 10
0.085513558933206
 20
-0.4676761002093394
 10
0.081269993323763
 20
-0.4839338510939452
 10
0.0741368908471632
 20
-0.4996741993190145
 10
0.064833517594042
 20
-0.5132867606206335
 10
0.0528694964073183
 20
-0.5253886218625926
 10
0.0401317779525675
 20
-0.5342493278930293
 10
0.0254559463275407
 20
-0.5408246097522147
 10
0.01174827548046
 20
-0.5441258612614757
 10
-0.0028112783614295
 20
-0.5449501583796005
 10
-0.0158542013672372
 20
-0.543402097582626
 10
-0.0288156747206683
 20
-0.5396153965021824
 10
-0.0407010656066358
 20
-0.533922321813857
 10
-0.0518149407718686
 20
-0.5262571815452796
 10
-0.0620204045091211
 20
-0.516559466356599
 10
-0.0708193230403585
 20
-0.5051283083372681
 10
-0.0781814797609327
 20
-0.4916638424953974
 10
-0.0834809782440312
 20
-0.4768244582016662
 10
-0.0864816628200261
 20
-0.4607320497358527
 10
-0.0868617896694364
 20
-0.4439068551854367
 10
-0.0845031013950976
 20
-0.4272837734894869
 10
-0.0792629753086172
 20
-0.4108365642168284
 10
-0.0725908078503556
 20
-0.3976825669466036
 10
-0.0637683541365726
 20
-0.3854375671926613
  0
LWPOLYLINE
  5
13B
330
DB
100
AcDbEntity
  8
AM_4
100
AcDbPolyline
 90
       19
 70
     0
 43
0.0
 10
0.4561539893256498
 20
-0.3786404519389716
 10
0.4584798609673782
 20
-0.3868795719274868
 10
0.4607540963846891
 20
-0.3979839094757138
 10
0.4626897054627019
 20
-0.4120792492748983
 10
0.4639359063914478
 20
-0.4271163983707228
 10
0.4645502608404853
 20
-0.4436305740636832
 10
0.4644683754917757
 20
-0.4603170872998235
 10
0.463659586260569
 20
-0.4770773506504454
 10
0.462083942508769
 20
-0.4930628068541418
 10
0.4596958687804829
 20
-0.5076650896497509
 10
0.4564180503748342
 20
-0.5205396544281586
 10
0.4523906584931811
 20
-0.5307191380055681
 10
0.4474708341038647
 20
-0.5384476116267114
 10
0.4422299164972612
 20
-0.5429786046213416
 10
0.4363794088591005
 20
-0.5449345456844131
 10
0.430604602671699
 20
-0.5443284274478387
 10
0.4246303688007183
 20
-0.541490034615325
 10
0.4187369500286864
 20
-0.5365958106058392
 10
0.4149034046353712
 20
-0.5322896131370464
  0
LINE
  5
13C
330
DB
100
AcDbEntity
  8
AM_4
100
AcDbLine
 10
0.4799999999999999
 20
-0.6208
 30
0.0
 11
0.4799999999999999
 21
-0.3818841075326536
 31
0.0
  0
LINE
  5
13D
330
DB
100
AcDbEntity
  8
AM_4
100
AcDbLine
 10
-0.4799999999999999
 20
-0.3818841075326536
 30
0.0
 11
-0.4799999999999999
 21
-0.6208
 31
0.0
  0
LINE
  5
13E
330
DB
100
AcDbEntity
  8
AM_4
100
AcDbLine
 10
-0.4608
 20
-0.64
 30
0.0
 11
0.4608
 21
-0.64
 31
0.0
  0
LINE
  5
13F
330
DB
100
AcDbEntity
  8
AM_4
100
AcDbLine
 10
-0.48
 20
-0.6208
 30
0.0
 11
0.48
 21
-0.6208
 31
0.0
  0
LINE
  5
140
330
DB
100
AcDbEntity
  8
AM_4
100
AcDbLine
 10
0.4608
 20
-0.64
 30
0.0
 11
0.48
 21
-0.6208
 31
0.0
  0
LINE
  5
141
330
DB
100
AcDbEntity
  8
AM_4
100
AcDbLine
 10
-0.48
 20
-0.6208
 30
0.0
 11
-0.4608
 21
-0.64
 31
0.0
  0
CIRCLE
  5
143
330
DB
100
AcDbEntity
  8
AM_5
100
AcDbCircle
 10
0.0
 20
-0.4499999999999999
 30
0.0
 40
0.095
  0
ENDBLK
  5
DE
330
DB
100
AcDbEntity
  8
0
100
AcDbBlockEnd
  0
BLOCK
  5
146
330
144
100
AcDbEntity
  8
0
100
AcDbBlockBegin
  2
4_125500vsc_0_in_125500_4
 70
     2
 10
0.0
 20
0.0
 30
0.0
  3
4_125500vsc_0_in_125500_4
  1

  0
ATTDEF
  5
148
330
144
100
AcDbEntity
  8
AM_6
100
AcDbText
 10
7.5
 20
0.6599999999999999
 30
0.0
 40
0.5
  1
P2B-VSC -Inch - Body
100
AcDbAttributeDefinition
  3

  2
NN
 70
     8
280
     0
  0
ATTDEF
  5
149
330
144
100
AcDbEntity
  8
AM_6
100
AcDbText
 10
7.5
 20
0.1599999999999999
 30
0.0
 40
0.5
  1
VSC Intermediate Duty Pillow Blocks
100
AcDbAttributeDefinition
  3

  2
NT
 70
     8
280
     0
  0
ATTDEF
  5
14A
330
144
100
AcDbEntity
  8
AM_6
100
AcDbText
 10
7.5
 20
-0.3400000000000001
 30
0.0
 40
0.5
  1
125500vsc
100
AcDbAttributeDefinition
  3

  2
NB
 70
     8
280
     0
  0
ATTDEF
  5
14B
330
144
100
AcDbEntity
  8
AM_6
100
AcDbText
 10
7.5
 20
-0.8400000000000001
 30
0.0
 40
0.5
  1
$PN.
100
AcDbAttributeDefinition
  3

  2
NBSYN
 70
     8
280
     0
  0
ATTDEF
  5
14C
330
144
100
AcDbEntity
  8
AM_6
100
AcDbText
 10
7.5
 20
-1.34
 30
0.0
 40
0.5
  1
125500vsc
100
AcDbAttributeDefinition
  3

  2
LINA
 70
     8
280
     0
  0
ATTDEF
  5
14D
330
144
100
AcDbEntity
  8
AM_6
100
AcDbText
 10
7.5
 20
-1.84
 30
0.0
 40
0.5
  1
203
100
AcDbAttributeDefinition
  3

  2
RS
 70
     8
280
     0
  0
ATTDEF
  5
14E
330
144
100
AcDbEntity
  8
AM_6
100
AcDbText
 10
7.5
 20
-2.34
 30
0.0
 40
0.5
  1
1/2
100
AcDbAttributeDefinition
  3

  2
SS
 70
     8
280
     0
  0
ATTDEF
  5
14F
330
144
100
AcDbEntity
  8
AM_6
100
AcDbText
 10
7.5
 20
-2.84
 30
0.0
 40
0.5
  1
125500vsc
100
AcDbAttributeDefinition
  3

  2
PN
 70
     8
280
     0
  0
ATTDEF
  5
150
330
144
100
AcDbEntity
  8
AM_6
100
AcDbText
 10
7.5
 20
-3.34
 30
0.0
 40
0.5
  1
P2B-VSC-008
100
AcDbAttributeDefinition
  3

  2
DESCRIPTION
 70
     8
280
     0
  0
ATTDEF
  5
151
330
144
100
AcDbEntity
  8
AM_6
100
AcDbText
 10
7.5
 20
-3.84
 30
0.0
 40
0.5
  1
RE-LUBE
100
AcDbAttributeDefinition
  3

  2
LF
 70
     8
280
     0
  0
ATTDEF
  5
152
330
144
100
AcDbEntity
  8
AM_6
100
AcDbText
 10
7.5
 20
-4.34
 30
0.0
 40
0.5
  1
1.00
100
AcDbAttributeDefinition
  3

  2
A
 70
     8
280
     0
  0
ATTDEF
  5
153
330
144
100
AcDbEntity
  8
AM_6
100
AcDbText
 10
7.5
 20
-4.84
 30
0.0
 40
0.5
  1
5.00
100
AcDbAttributeDefinition
  3

  2
B
 70
     8
280
     0
  0
ATTDEF
  5
154
330
144
100
AcDbEntity
  8
AM_6
100
AcDbText
 10
7.5
 20
-5.34
 30
0.0
 40
0.5
  1
1.20
100
AcDbAttributeDefinition
  3

  2
C
 70
     8
280
     0
  0
ATTDEF
  5
155
330
144
100
AcDbEntity
  8
AM_6
100
AcDbText
 10
7.5
 20
-5.84
 30
0.0
 40
0.5
  1
3.25
100
AcDbAttributeDefinition
  3

  2
DMIN
 70
     8
280
     0
  0
ATTDEF
  5
156
330
144
100
AcDbEntity
  8
AM_6
100
AcDbText
 10
7.5
 20
-6.34
 30
0.0
 40
0.5
  1
4.06
100
AcDbAttributeDefinition
  3

  2
DMAX
 70
     8
280
     0
  0
ATTDEF
  5
157
330
144
100
AcDbEntity
  8
AM_6
100
AcDbText
 10
7.5
 20
-6.84
 30
0.0
 40
0.5
  1
3/8
100
AcDbAttributeDefinition
  3

  2
F
 70
     8
280
     0
  0
ATTDEF
  5
158
330
144
100
AcDbEntity
  8
AM_6
100
AcDbText
 10
7.5
 20
-7.34
 30
0.0
 40
0.5
  1
0.84
100
AcDbAttributeDefinition
  3

  2
G
 70
     8
280
     0
  0
ATTDEF
  5
159
330
144
100
AcDbEntity
  8
AM_6
100
AcDbText
 10
7.5
 20
-7.84
 30
0.0
 40
0.5
  1
0.47
100
AcDbAttributeDefinition
  3

  2
H
 70
     8
280
     0
  0
ATTDEF
  5
15A
330
144
100
AcDbEntity
  8
AM_6
100
AcDbText
 10
7.5
 20
-8.34
 30
0.0
 40
0.5
  1
2.14
100
AcDbAttributeDefinition
  3

  2
J
 70
     8
280
     0
  0
ATTDEF
  5
15B
330
144
100
AcDbEntity
  8
AM_6
100
AcDbText
 10
7.5
 20
-8.84
 30
0.0
 40
0.5
  1
0.96
100
AcDbAttributeDefinition
  3

  2
L
 70
     8
280
     0
  0
ATTDEF
  5
15C
330
144
100
AcDbEntity
  8
AM_6
100
AcDbText
 10
7.5
 20
-9.34
 30
0.0
 40
0.5
  1
1.06
100
AcDbAttributeDefinition
  3

  2
M
 70
     8
280
     0
  0
ATTDEF
  5
15D
330
144
100
AcDbEntity
  8
AM_6
100
AcDbText
 10
7.5
 20
-9.84
 30
0.0
 40
0.5
  1
0.36
100
AcDbAttributeDefinition
  3

  2
R
 70
     8
280
     0
  0
ATTDEF
  5
15E
330
144
100
AcDbEntity
  8
AM_6
100
AcDbText
 10
7.5
 20
-10.34
 30
0.0
 40
0.5
  1
0.64
100
AcDbAttributeDefinition
  3

  2
S
 70
     8
280
     0
  0
ATTDEF
  5
15F
330
144
100
AcDbEntity
  8
AM_6
100
AcDbText
 10
7.5
 20
-10.84
 30
0.0
 40
0.5
  1
2.25
100
AcDbAttributeDefinition
  3

  2
U
 70
     8
280
     0
  0
ATTDEF
  5
160
330
144
100
AcDbEntity
  8
AM_6
100
AcDbText
 10
7.5
 20
-11.34
 30
0.0
 40
0.5
  1
4.50
100
AcDbAttributeDefinition
  3

  2
V
 70
     8
280
     0
  0
ATTDEF
  5
161
330
144
100
AcDbEntity
  8
AM_6
100
AcDbText
 10
7.5
 20
-11.84
 30
0.0
 40
0.5
  1
0.38
100
AcDbAttributeDefinition
  3

  2
W
 70
     8
280
     0
  0
ATTDEF
  5
162
330
144
100
AcDbEntity
  8
AM_6
100
AcDbText
 10
7.5
 20
-12.34
 30
0.0
 40
0.5
  1
0.12
100
AcDbAttributeDefinition
  3

  2
X
 70
     8
280
     0
  0
ATTDEF
  5
163
330
144
100
AcDbEntity
  8
AM_6
100
AcDbText
 10
7.5
 20
-12.84
 30
0.0
 40
0.5
  1
baldor
100
AcDbAttributeDefinition
  3

  2
COMPANY
 70
     8
280
     0
  0
LINE
  5
164
330
144
100
AcDbEntity
  8
AM_9
100
AcDbLine
 10
-0.8124
 20
0.1669696969697087
 30
0.0
 11
-0.8124
 21
0.5371428571428571
 31
0.0
  0
LINE
  5
165
330
144
100
AcDbEntity
  8
AM_9
100
AcDbLine
 10
-0.8124
 20
-0.5371428571428569
 30
0.0
 11
-0.8124
 21
0.1330303030302913
 31
0.0
  0
LINE
  5
166
330
144
100
AcDbEntity
  8
AM_9
100
AcDbLine
 10
-0.7654
 20
-0.4809073828278967
 30
0.0
 11
-0.7654
 21
0.4809073828278967
 31
0.0
  0
LINE
  5
167
330
144
100
AcDbEntity
  8
AM_9
100
AcDbLine
 10
0.8124
 20
-0.5371428571428574
 30
0.0
 11
0.8124
 21
0.5371428571428558
 31
0.0
  0
LINE
  5
168
330
144
100
AcDbEntity
  8
AM_9
100
AcDbLine
 10
0.7653999999999999
 20
-0.4809073828278969
 30
0.0
 11
0.7653999999999999
 21
0.4809073828278966
 31
0.0
  0
LINE
  5
169
330
144
100
AcDbEntity
  8
AM_9
100
AcDbLine
 10
0.4799999999999997
 20
-0.4800000000000001
 30
0.0
 11
-0.4799999999999997
 21
-0.4799999999999999
 31
0.0
  0
LINE
  5
16A
330
144
100
AcDbEntity
  8
AM_9
100
AcDbLine
 10
0.7873999999999999
 20
-0.4898087061903875
 30
0.0
 11
0.7873999999999999
 21
0.4897915741354006
 31
0.0
  0
LINE
  5
16B
330
144
100
AcDbEntity
  8
AM_9
100
AcDbLine
 10
-0.7873999999999999
 20
0.4898087061903875
 30
0.0
 11
-0.7873999999999999
 21
-0.4897915741354005
 31
0.0
  0
LINE
  5
16C
330
144
100
AcDbEntity
  8
AM_9
100
AcDbLine
 10
0.8523683283886798
 20
-0.1406500000000001
 30
0.0
 11
0.8523683283886798
 21
0.1406499999999999
 31
0.0
  0
LINE
  5
16D
330
144
100
AcDbEntity
  8
AM_7
100
AcDbLine
 10
-2.313
 20
-0.3800000000000001
 30
0.0
 11
-2.187
 21
-0.3800000000000001
 31
0.0
  0
LINE
  5
16E
330
144
100
AcDbEntity
  8
AM_7
100
AcDbLine
 10
-2.25
 20
-0.4430000000000001
 30
0.0
 11
-2.25
 21
-0.3170000000000001
 31
0.0
  0
LINE
  5
16F
330
144
100
AcDbEntity
  8
AM_7
100
AcDbLine
 10
2.187
 20
-0.3800000000000001
 30
0.0
 11
2.313
 21
-0.3800000000000001
 31
0.0
  0
LINE
  5
170
330
144
100
AcDbEntity
  8
AM_7
100
AcDbLine
 10
2.25
 20
-0.4430000000000001
 30
0.0
 11
2.25
 21
-0.3170000000000001
 31
0.0
  0
LINE
  5
171
330
144
100
AcDbEntity
  8
AM_7
100
AcDbLine
 10
0.0
 20
0.6599999999999999
 30
0.0
 11
0.0
 21
-0.6900000000000001
 31
0.0
  0
LINE
  5
172
330
144
100
AcDbEntity
  8
AM_7
100
AcDbLine
 10
1.396625
 20
0.0
 30
0.0
 11
2.258375
 21
-0.0000000000000001
 31
0.0
  0
LINE
  5
173
330
144
100
AcDbEntity
  8
AM_7
100
AcDbLine
 10
1.625
 20
-0.2283750000000001
 30
0.0
 11
1.625
 21
0.2283750000000001
 31
0.0
  0
LINE
  5
174
330
144
100
AcDbEntity
  8
AM_7
100
AcDbLine
 10
-2.258375
 20
0.0000000000000002
 30
0.0
 11
-1.396625
 21
0.0000000000000001
 31
0.0
  0
LINE
  5
175
330
144
100
AcDbEntity
  8
AM_7
100
AcDbLine
 10
-2.03
 20
-0.2283750000000001
 30
0.0
 11
-2.03
 21
0.2283750000000005
 31
0.0
  0
LINE
  5
176
330
144
100
AcDbEntity
  8
AM_7
100
AcDbLine
 10
-1.625
 20
-0.2283749999999999
 30
0.0
 11
-1.625
 21
0.2283750000000002
 31
0.0
  0
LINE
  5
177
330
144
100
AcDbEntity
  8
AM_7
100
AcDbLine
 10
2.03
 20
-0.2283750000000003
 30
0.0
 11
2.03
 21
0.2283750000000002
 31
0.0
  0
LINE
  5
178
330
144
100
AcDbEntity
  8
AM_4
100
AcDbLine
 10
-2.5
 20
-0.4799999999999995
 30
0.0
 11
-2.38
 21
-0.5999999999999994
 31
0.0
  0
LINE
  5
179
330
144
100
AcDbEntity
  8
AM_4
100
AcDbLine
 10
-0.8695428571428571
 20
-0.5999999999999999
 30
0.0
 11
-2.38
 21
-0.5999999999999994
 31
0.0
  0
LINE
  5
17A
330
144
100
AcDbEntity
  8
AM_4
100
AcDbLine
 10
-2.38
 20
0.5999999999999999
 30
0.0
 11
-2.5
 21
0.4799999999999998
 31
0.0
  0
LINE
  5
17B
330
144
100
AcDbEntity
  8
AM_4
100
AcDbLine
 10
-1.625
 20
0.2175000000000002
 30
0.0
 11
-2.03
 21
0.2175000000000003
 31
0.0
  0
ARC
  5
17C
330
144
100
AcDbEntity
  8
AM_4
100
AcDbCircle
 10
-1.625
 20
0.0000000000000001
 30
0.0
 40
0.2175000000000001
100
AcDbArc
 50
270.0
 51
90.0
  0
LINE
  5
17D
330
144
100
AcDbEntity
  8
AM_4
100
AcDbLine
 10
-2.03
 20
-0.2174999999999998
 30
0.0
 11
-1.625
 21
-0.2175
 31
0.0
  0
ARC
  5
17E
330
144
100
AcDbEntity
  8
AM_4
100
AcDbCircle
 10
-2.03
 20
0.0000000000000002
 30
0.0
 40
0.2175000000000001
100
AcDbArc
 50
90.0
 51
270.0
  0
CIRCLE
  5
17F
330
144
100
AcDbEntity
  8
AM_4
100
AcDbCircle
 10
-2.25
 20
-0.3800000000000001
 30
0.0
 40
0.06
  0
LINE
  5
180
330
144
100
AcDbEntity
  8
AM_4
100
AcDbLine
 10
-0.8695428571428568
 20
0.5999999999999998
 30
0.0
 11
-2.38
 21
0.5999999999999999
 31
0.0
  0
LINE
  5
181
330
144
100
AcDbEntity
  8
AM_4
100
AcDbLine
 10
-2.406
 20
-0.5739999999999992
 30
0.0
 11
-2.406
 21
0.5739999999999996
 31
0.0
  0
LINE
  5
182
330
144
100
AcDbEntity
  8
AM_4
100
AcDbLine
 10
-2.5
 20
-0.4799999999999995
 30
0.0
 11
-2.5
 21
0.4799999999999999
 31
0.0
  0
LINE
  5
183
330
144
100
AcDbEntity
  8
AM_4
100
AcDbLine
 10
2.5
 20
-0.4800000000000004
 30
0.0
 11
2.5
 21
0.4799999999999999
 31
0.0
  0
LINE
  5
184
330
144
100
AcDbEntity
  8
AM_4
100
AcDbLine
 10
2.5
 20
0.4799999999999999
 30
0.0
 11
2.38
 21
0.5999999999999999
 31
0.0
  0
LINE
  5
185
330
144
100
AcDbEntity
  8
AM_4
100
AcDbLine
 10
2.38
 20
-0.6
 30
0.0
 11
2.5
 21
-0.4800000000000004
 31
0.0
  0
LINE
  5
186
330
144
100
AcDbEntity
  8
AM_4
100
AcDbLine
 10
2.03
 20
0.2175
 30
0.0
 11
1.625
 21
0.2175
 31
0.0
  0
ARC
  5
187
330
144
100
AcDbEntity
  8
AM_4
100
AcDbCircle
 10
2.03
 20
0.0
 30
0.0
 40
0.2175000000000001
100
AcDbArc
 50
270.0
 51
90.0
  0
LINE
  5
188
330
144
100
AcDbEntity
  8
AM_4
100
AcDbLine
 10
1.625
 20
-0.2175000000000001
 30
0.0
 11
2.03
 21
-0.2175000000000001
 31
0.0
  0
ARC
  5
189
330
144
100
AcDbEntity
  8
AM_4
100
AcDbCircle
 10
1.625
 20
-0.0000000000000001
 30
0.0
 40
0.2175000000000001
100
AcDbArc
 50
90.0
 51
270.0
  0
CIRCLE
  5
18A
330
144
100
AcDbEntity
  8
AM_4
100
AcDbCircle
 10
2.25
 20
-0.3800000000000001
 30
0.0
 40
0.06
  0
LINE
  5
18B
330
144
100
AcDbEntity
  8
AM_4
100
AcDbLine
 10
2.406
 20
-0.5739999999999998
 30
0.0
 11
2.406
 21
0.5739999999999995
 31
0.0
  0
LINE
  5
18C
330
144
100
AcDbEntity
  8
AM_4
100
AcDbLine
 10
2.38
 20
0.5999999999999999
 30
0.0
 11
0.8695428571428571
 21
0.5999999999999999
 31
0.0
  0
LINE
  5
18D
330
144
100
AcDbEntity
  8
AM_4
100
AcDbLine
 10
2.38
 20
-0.6
 30
0.0
 11
0.869542857142857
 21
-0.6000000000000001
 31
0.0
  0
LINE
  5
18E
330
144
100
AcDbEntity
  8
AM_4
100
AcDbLine
 10
-1.87346227912896
 20
0.3749999999999998
 30
0.0
 11
-1.625
 21
0.3750000000000002
 31
0.0
  0
LINE
  5
18F
330
144
100
AcDbEntity
  8
AM_4
100
AcDbLine
 10
-1.87346227912896
 20
0.3749999999999998
 30
0.0
 11
-1.87346227912896
 21
0.5999999999999999
 31
0.0
  0
LINE
  5
190
330
144
100
AcDbEntity
  8
AM_4
100
AcDbLine
 10
1.625
 20
0.3749999999999999
 30
0.0
 11
1.87346227912896
 21
0.3749999999999999
 31
0.0
  0
LINE
  5
191
330
144
100
AcDbEntity
  8
AM_4
100
AcDbLine
 10
1.87346227912896
 20
0.3749999999999999
 30
0.0
 11
1.87346227912896
 21
0.5999999999999999
 31
0.0
  0
LINE
  5
192
330
144
100
AcDbEntity
  8
AM_4
100
AcDbLine
 10
1.87346227912896
 20
-0.3750000000000001
 30
0.0
 11
1.625
 21
-0.3749999999999999
 31
0.0
  0
LINE
  5
193
330
144
100
AcDbEntity
  8
AM_4
100
AcDbLine
 10
1.87346227912896
 20
-0.6
 30
0.0
 11
1.87346227912896
 21
-0.3750000000000001
 31
0.0
  0
LINE
  5
194
330
144
100
AcDbEntity
  8
AM_4
100
AcDbLine
 10
-1.625
 20
-0.3749999999999998
 30
0.0
 11
-1.87346227912896
 21
-0.3749999999999998
 31
0.0
  0
LINE
  5
195
330
144
100
AcDbEntity
  8
AM_4
100
AcDbLine
 10
-1.87346227912896
 20
-0.6
 30
0.0
 11
-1.87346227912896
 21
-0.3749999999999998
 31
0.0
  0
LINE
  5
196
330
144
100
AcDbEntity
  8
AM_4
100
AcDbLine
 10
-1.799274665361797
 20
-0.5934835676929331
 30
0.0
 11
-1.799274665361797
 21
-0.3749999999999997
 31
0.0
  0
LINE
  5
197
330
144
100
AcDbEntity
  8
AM_4
100
AcDbLine
 10
-1.799274665361797
 20
0.3750000000000002
 30
0.0
 11
-1.799274665361797
 21
0.5934835676929332
 31
0.0
  0
LWPOLYLINE
  5
198
330
144
100
AcDbEntity
  8
AM_4
100
AcDbPolyline
 90
       37
 70
     0
 43
0.0
 10
-1.625
 20
-0.3749999999999998
 10
-1.592316596469628
 20
-0.3735730117844043
 10
-1.559881933374901
 20
-0.3693029073795778
 10
-1.527942858086555
 20
-0.3622221848584003
 10
-1.496742446252874
 20
-0.3523847327947154
 10
-1.466518151847238
 20
-0.3398654201387434
 10
-1.4375
 20
-0.3247595264191641
 10
-1.409908836368358
 20
-0.3071820166083715
 10
-1.383954646367548
 20
-0.2872666661696164
 10
-1.359834957055045
 20
-0.265165042944955
 10
-1.337733333830383
 20
-0.2410453536324519
 10
-1.317817983391628
 20
-0.215091163631642
 10
-1.300240473580836
 20
-0.1874999999999998
 10
-1.285134579861257
 20
-0.1584818481527621
 10
-1.272615267205285
 20
-0.1282575537471256
 10
-1.2627778151416
 20
-0.0970571419134452
 10
-1.255697092620422
 20
-0.0651180666250988
 10
-1.251426988215596
 20
-0.0326834035303718
 10
-1.25
 20
0.0
 10
-1.251426988215596
 20
0.0326834035303718
 10
-1.255697092620422
 20
0.0651180666250988
 10
-1.262777815141599
 20
0.0970571419134452
 10
-1.272615267205285
 20
0.1282575537471256
 10
-1.285134579861256
 20
0.1584818481527621
 10
-1.300240473580835
 20
0.1874999999999998
 10
-1.317817983391628
 20
0.2150911636316421
 10
-1.337733333830383
 20
0.241045353632452
 10
-1.359834957055045
 20
0.2651650429449551
 10
-1.383954646367548
 20
0.2872666661696167
 10
-1.409908836368357
 20
0.3071820166083718
 10
-1.4375
 20
0.3247595264191644
 10
-1.466518151847237
 20
0.3398654201387437
 10
-1.496742446252874
 20
0.3523847327947157
 10
-1.527942858086554
 20
0.3622221848584006
 10
-1.559881933374901
 20
0.3693029073795781
 10
-1.592316596469628
 20
0.3735730117844047
 10
-1.625
 20
0.3750000000000002
  0
LINE
  5
199
330
144
100
AcDbEntity
  8
AM_4
100
AcDbLine
 10
1.799274665361797
 20
-0.5934835676929331
 30
0.0
 11
1.799274665361797
 21
-0.3749999999999999
 31
0.0
  0
LWPOLYLINE
  5
19A
330
144
100
AcDbEntity
  8
AM_4
100
AcDbPolyline
 90
       37
 70
     0
 43
0.0
 10
1.625
 20
0.3749999999999999
 10
1.592316596469628
 20
0.3735730117844046
 10
1.559881933374902
 20
0.369302907379578
 10
1.527942858086555
 20
0.3622221848584006
 10
1.496742446252875
 20
0.3523847327947157
 10
1.466518151847238
 20
0.3398654201387438
 10
1.4375
 20
0.3247595264191646
 10
1.409908836368358
 20
0.3071820166083721
 10
1.383954646367548
 20
0.2872666661696169
 10
1.359834957055045
 20
0.2651650429449556
 10
1.337733333830384
 20
0.2410453536324526
 10
1.317817983391629
 20
0.2150911636316427
 10
1.300240473580836
 20
0.1875000000000004
 10
1.285134579861257
 20
0.1584818481527628
 10
1.272615267205285
 20
0.1282575537471263
 10
1.2627778151416
 20
0.0970571419134459
 10
1.255697092620422
 20
0.0651180666250995
 10
1.251426988215596
 20
0.0326834035303725
 10
1.25
 20
0.0000000000000008
 10
1.251426988215596
 20
-0.032683403530371
 10
1.255697092620422
 20
-0.065118066625098
 10
1.262777815141599
 20
-0.0970571419134444
 10
1.272615267205284
 20
-0.1282575537471249
 10
1.285134579861256
 20
-0.1584818481527614
 10
1.300240473580835
 20
-0.1874999999999991
 10
1.317817983391628
 20
-0.2150911636316414
 10
1.337733333830383
 20
-0.2410453536324514
 10
1.359834957055044
 20
-0.2651650429449545
 10
1.383954646367547
 20
-0.287266666169616
 10
1.409908836368357
 20
-0.3071820166083712
 10
1.437499999999999
 20
-0.3247595264191638
 10
1.466518151847237
 20
-0.3398654201387432
 10
1.496742446252873
 20
-0.3523847327947152
 10
1.527942858086554
 20
-0.3622221848584003
 10
1.5598819333749
 20
-0.3693029073795778
 10
1.592316596469627
 20
-0.3735730117844044
 10
1.624999999999999
 20
-0.3749999999999999
  0
LINE
  5
19B
330
144
100
AcDbEntity
  8
AM_4
100
AcDbLine
 10
1.799274665361797
 20
0.3749999999999999
 30
0.0
 11
1.799274665361797
 21
0.5934835676929332
 31
0.0
  0
LINE
  5
19C
330
144
100
AcDbEntity
  8
AM_4
100
AcDbLine
 10
-0.4799999999999997
 20
-0.4799999999999999
 30
0.0
 11
-0.7552571428571433
 21
-0.4799999999999999
 31
0.0
  0
LINE
  5
19D
330
144
100
AcDbEntity
  8
AM_4
100
AcDbLine
 10
0.7552571428571427
 20
-0.48
 30
0.0
 11
0.4799999999999997
 21
-0.4800000000000001
 31
0.0
  0
LWPOLYLINE
  5
19E
330
144
100
AcDbEntity
  8
AM_4
100
AcDbPolyline
 90
        9
 70
     0
 43
0.0
 10
0.7552571428571427
 20
-0.4800000000000001
 10
0.7628398109235808
 20
-0.4805053318840396
 10
0.7694257653956746
 20
-0.481784422755588
 10
0.7750166418620384
 20
-0.4835250585912148
 10
0.7795796315690389
 20
-0.4854348049139318
 10
0.7832443892779377
 20
-0.4873229799829255
 10
0.7857665445464019
 20
-0.4888263741270951
 10
0.7871373753556639
 20
-0.4897196887724369
 10
0.7873999999995431
 20
-0.489897298016393
  0
LINE
  5
19F
330
144
100
AcDbEntity
  8
AM_4
100
AcDbLine
 10
-0.7552571428571428
 20
0.48
 30
0.0
 11
0.7552571428571427
 21
0.4799999999999999
 31
0.0
  0
LWPOLYLINE
  5
1A0
330
144
100
AcDbEntity
  8
AM_4
100
AcDbPolyline
 90
        9
 70
     0
 43
0.0
 10
-0.7552571428571428
 20
0.48
 10
-0.7628398109235808
 20
0.4805053318840395
 10
-0.7694257653956746
 20
0.481784422755588
 10
-0.7750166418620387
 20
0.4835250585912148
 10
-0.779579631569039
 20
0.4854348049139318
 10
-0.7832443892779377
 20
0.4873229799829255
 10
-0.7857665445464019
 20
0.4888263741270951
 10
-0.7871373753556639
 20
0.4897196887724369
 10
-0.7873999999995431
 20
0.489897298016393
  0
LWPOLYLINE
  5
1A1
330
144
100
AcDbEntity
  8
AM_4
100
AcDbPolyline
 90
       10
 70
     0
 43
0.0
 10
-0.7873999999987379
 20
-0.4898972980158448
 10
-0.7873348504416721
 20
-0.489853040072261
 10
-0.7865421580078339
 20
-0.4893249321620506
 10
-0.7848478784469557
 20
-0.4882583556142254
 10
-0.7822436129109227
 20
-0.4867738532169759
 10
-0.7787339077275426
 20
-0.4850453751147498
 10
-0.7742656287797292
 20
-0.4832542351027656
 10
-0.768871368027594
 20
-0.4816454788673273
 10
-0.7625313870230731
 20
-0.4804648941037409
 10
-0.7552571428571433
 20
-0.4799999999999999
  0
LWPOLYLINE
  5
1A2
330
144
100
AcDbEntity
  8
AM_4
100
AcDbPolyline
 90
       10
 70
     0
 43
0.0
 10
0.7873999999987379
 20
0.4898972980158451
 10
0.7873348504416721
 20
0.4898530400722613
 10
0.7865421580078339
 20
0.4893249321620509
 10
0.7848478784469557
 20
0.4882583556142256
 10
0.7822436129109226
 20
0.486773853216976
 10
0.7787339077275424
 20
0.4850453751147499
 10
0.7742656287797289
 20
0.4832542351027657
 10
0.7688713680275937
 20
0.4816454788673273
 10
0.7625313870230728
 20
0.4804648941037409
 10
0.7552571428571427
 20
0.4799999999999999
  0
LINE
  5
1A3
330
144
100
AcDbEntity
  8
AM_4
100
AcDbLine
 10
-0.8124
 20
0.5371428571428573
 30
0.0
 11
-0.8124000000000002
 21
0.5428571428571408
 31
0.0
  0
LWPOLYLINE
  5
1A4
330
144
100
AcDbEntity
  8
AM_4
100
AcDbPolyline
 90
       19
 70
     0
 43
0.0
 10
-0.8124
 20
0.5428571428571389
 10
-0.8126174458233285
 20
0.547837471014148
 10
-0.8132681283993017
 20
0.5527798958666779
 10
-0.8143470956406237
 20
0.557646802577283
 10
-0.8158461359550896
 20
0.5624011510471773
 10
-0.8177538407407612
 20
0.5670067578137505
 10
-0.8200556912123157
 20
0.5714285714285678
 10
-0.8227341688977695
 20
0.5756329392200563
 10
-0.8257688889646271
 20
0.5795878634106562
 10
-0.8291367553607658
 20
0.5832632446392283
 10
-0.8328121365893373
 20
0.5866311110353674
 10
-0.8367670607799367
 20
0.5896658311022256
 10
-0.8409714285714249
 20
0.5923443087876801
 10
-0.8453932421862419
 20
0.5946461592592353
 10
-0.8499988489528147
 20
0.5965538640449075
 10
-0.8547531974227089
 20
0.5980529043593741
 10
-0.8596201041333138
 20
0.5991318716006967
 10
-0.8645625289858436
 20
0.5997825541766706
 10
-0.8695428571428526
 20
0.5999999999999999
  0
LWPOLYLINE
  5
1A5
330
144
100
AcDbEntity
  8
AM_4
100
AcDbPolyline
 90
       12
 70
     0
 43
0.0
 10
-1.87346227912896
 20
0.6
 10
-1.86526963931068
 20
0.5999357428061002
 10
-1.857139350428269
 20
0.5997434602604457
 10
-1.849133288889323
 20
0.5994246157493124
 10
-1.841312385656347
 20
0.5989816358719537
 10
-1.833736162525334
 20
0.5984178919727147
 10
-1.82646227912896
 20
0.5977376744830666
 10
-1.819546094111962
 20
0.5969461602688322
 10
-1.813040243818426
 20
0.596049373231111
 10
-1.806994241697425
 20
0.5950541384607549
 10
-1.801454101475777
 20
0.5939680302953058
 10
-1.799274665361797
 20
0.5934835676929332
  0
LINE
  5
1A6
330
144
100
AcDbEntity
  8
AM_4
100
AcDbLine
 10
-0.8523683283886798
 20
0.3748696477833215
 30
0.0
 11
-1.799274665361797
 21
0.5934835676929332
 31
0.0
  0
LINE
  5
1A7
330
144
100
AcDbEntity
  8
AM_4
100
AcDbLine
 10
1.799274665361797
 20
0.5934835676929332
 30
0.0
 11
0.85236832838868
 21
0.3748696477833215
 31
0.0
  0
LWPOLYLINE
  5
1A8
330
144
100
AcDbEntity
  8
AM_4
100
AcDbPolyline
 90
       12
 70
     0
 43
0.0
 10
1.799274665361797
 20
0.5934835676929332
 10
1.804588053743965
 20
0.5946056422063959
 10
1.810425616568707
 20
0.5956402566520704
 10
1.81674292645811
 20
0.5965795369893081
 10
1.82349190486942
 20
0.5974163347275894
 10
1.830621188001782
 20
0.5981442813308537
 10
1.838076517705779
 20
0.5987578366859041
 10
1.845801154420714
 20
0.5992523312660137
 10
1.853736308996923
 20
0.599624001668844
 10
1.861821590116702
 20
0.5998700192582086
 10
1.869995463908706
 20
0.5999885116917031
 10
1.873462281109862
 20
0.6
  0
LWPOLYLINE
  5
1A9
330
144
100
AcDbEntity
  8
AM_4
100
AcDbPolyline
 90
       19
 70
     0
 43
0.0
 10
0.8695428571428568
 20
0.5999999999999999
 10
0.8645625289858478
 20
0.599782554176671
 10
0.8596201041333181
 20
0.5991318716006975
 10
0.8547531974227128
 20
0.5980529043593752
 10
0.8499988489528187
 20
0.596553864044909
 10
0.8453932421862456
 20
0.594646159259237
 10
0.8409714285714285
 20
0.5923443087876822
 10
0.8367670607799401
 20
0.589665831102228
 10
0.8328121365893405
 20
0.5866311110353701
 10
0.8291367553607686
 20
0.5832632446392313
 10
0.8257688889646299
 20
0.5795878634106595
 10
0.8227341688977718
 20
0.5756329392200599
 10
0.8200556912123177
 20
0.5714285714285715
 10
0.8177538407407628
 20
0.5670067578137544
 10
0.8158461359550909
 20
0.5624011510471812
 10
0.8143470956406247
 20
0.557646802577287
 10
0.8132681283993024
 20
0.552779895866682
 10
0.8126174458233288
 20
0.5478374710141521
 10
0.8123999999999999
 20
0.5428571428571431
  0
LINE
  5
1AA
330
144
100
AcDbEntity
  8
AM_4
100
AcDbLine
 10
0.8124
 20
0.542857142857143
 30
0.0
 11
0.8124
 21
0.5371428571428545
 31
0.0
  0
LWPOLYLINE
  5
1AB
330
144
100
AcDbEntity
  8
AM_4
100
AcDbPolyline
 90
       13
 70
     0
 43
0.0
 10
0.7870244818746136
 20
0.4896439909016714
 10
0.7910433965257525
 20
0.4925934444552031
 10
0.7947899561781425
 20
0.495881945938959
 10
0.7982356472505944
 20
0.4994844678709957
 10
0.8013542459534816
 20
0.5033735928841484
 10
0.8041220178676138
 20
0.5075197223887492
 10
0.806517898577498
 20
0.5118913018357666
 10
0.8085236539842598
 20
0.5164550608659769
 10
0.8101240190781456
 20
0.5211762665174872
 10
0.8113068141144637
 20
0.5260189875645476
 10
0.8120630373087969
 20
0.5309463679758749
 10
0.8123869333460161
 20
0.5359209074113055
 10
0.8124
 20
0.5371428571428519
  0
LWPOLYLINE
  5
1AC
330
144
100
AcDbEntity
  8
AM_4
100
AcDbPolyline
 90
       37
 70
     0
 43
0.0
 10
-0.7870244818746143
 20
0.4896439909016718
 10
-0.7819104140023935
 20
0.4773383902580685
 10
-0.7708455357491977
 20
0.4651596856701122
 10
-0.7539140575196903
 20
0.4532005644334202
 10
-0.7312448380867039
 20
0.4415520426817185
 10
-0.7030104038981724
 20
0.4303027726991073
 10
-0.6694256360466878
 20
0.4195383682226491
 10
-0.6307461348946375
 20
0.4093407528701352
 10
-0.5872662748011098
 20
0.3997875366518863
 10
-0.5393169637552738
 20
0.3909514253117133
 10
-0.487263124966774
 20
0.3828996669923045
 10
-0.4315009195797579
 20
0.3756935404362555
 10
-0.3724547316473611
 20
0.3693878886178358
 10
-0.310573938312812
 20
0.3640307013548403
 10
-0.2463294897780312
 20
0.3596627500770987
 10
-0.1802103250882271
 20
0.3563172775312753
 10
-0.1127196510105321
 20
0.3540197447834958
 10
-0.0443711123266609
 20
0.3527876374452587
 10
0.0243151173140264
 20
0.3526303325973749
 10
0.0928162942300846
 20
0.3535490274247199
 10
0.1606110831030412
 20
0.3555367301049346
 10
0.2271835246539602
 20
0.358578313020415
 10
0.2920269624050997
 20
0.3626506278886161
 10
0.3546478986416355
 20
0.3677226819344601
 10
0.4145697502272525
 20
0.3737558737640681
 10
0.4713364756895808
 20
0.3807042871446759
 10
0.524516045971166
 20
0.3885150404548904
 10
0.5737037324314629
 20
0.3971286891457592
 10
0.6185251870761715
 20
0.4064796781496813
 10
0.6586392915715114
 20
0.4164968407940554
 10
0.6937407533607143
 20
0.4271039404226296
 10
0.7235624291247224
 20
0.4382202506024888
 10
0.7478773579041513
 20
0.4497611695009523
 10
0.7665004884092346
 20
0.4616388637566057
 10
0.7792900873718744
 20
0.4737629369442156
 10
0.7861488182213942
 20
0.4860411175461086
 10
0.7870244818746143
 20
0.4896439909016714
  0
LWPOLYLINE
  5
1AD
330
144
100
AcDbEntity
  8
AM_4
100
AcDbPolyline
 90
       13
 70
     0
 43
0.0
 10
-0.8124
 20
0.5371428571428573
 10
-0.8121825541766712
 20
0.5321625289858481
 10
-0.8115318716006976
 20
0.5272201041333183
 10
-0.8104529043593753
 20
0.5223531974227132
 10
-0.808953864044909
 20
0.517598848952819
 10
-0.8070461592592372
 20
0.5129932421862459
 10
-0.8047443087876822
 20
0.5085714285714287
 10
-0.8020658311022282
 20
0.5043670607799403
 10
-0.7990311110353702
 20
0.5004121365893407
 10
-0.7956632446392313
 20
0.4967367553607688
 10
-0.7919878634106594
 20
0.4933688889646299
 10
-0.7880329392200598
 20
0.490334168897772
 10
-0.7870244818746138
 20
0.4896439909016717
  0
LINE
  5
1AE
330
144
100
AcDbEntity
  8
AM_4
100
AcDbLine
 10
0.8124
 20
-0.5371428571428573
 30
0.0
 11
0.8123999999999998
 21
-0.5428571428571426
 31
0.0
  0
LWPOLYLINE
  5
1AF
330
144
100
AcDbEntity
  8
AM_4
100
AcDbPolyline
 90
       19
 70
     0
 43
0.0
 10
0.8123999999999999
 20
-0.5428571428571423
 10
0.8126174458233287
 20
-0.5478374710141514
 10
0.8132681283993021
 20
-0.5527798958666812
 10
0.8143470956406244
 20
-0.5576468025772863
 10
0.8158461359550907
 20
-0.5624011510471805
 10
0.8177538407407624
 20
-0.5670067578137538
 10
0.8200556912123174
 20
-0.5714285714285708
 10
0.8227341688977714
 20
-0.5756329392200593
 10
0.8257688889646293
 20
-0.5795878634106589
 10
0.829136755360768
 20
-0.5832632446392308
 10
0.83281213658934
 20
-0.5866311110353698
 10
0.8367670607799396
 20
-0.5896658311022277
 10
0.8409714285714277
 20
-0.5923443087876819
 10
0.8453932421862449
 20
-0.5946461592592369
 10
0.8499988489528181
 20
-0.5965538640449088
 10
0.8547531974227122
 20
-0.5980529043593752
 10
0.8596201041333174
 20
-0.5991318716006976
 10
0.8645625289858472
 20
-0.5997825541766711
 10
0.8695428571428562
 20
-0.6
  0
LWPOLYLINE
  5
1B0
330
144
100
AcDbEntity
  8
AM_4
100
AcDbPolyline
 90
       12
 70
     0
 43
0.0
 10
1.87346227912896
 20
-0.6
 10
1.86526963931068
 20
-0.5999357428061001
 10
1.857139350428269
 20
-0.5997434602604457
 10
1.849133288889323
 20
-0.5994246157493124
 10
1.841312385656347
 20
-0.5989816358719536
 10
1.833736162525335
 20
-0.5984178919727147
 10
1.82646227912896
 20
-0.5977376744830666
 10
1.819546094111962
 20
-0.5969461602688321
 10
1.813040243818426
 20
-0.596049373231111
 10
1.806994241697425
 20
-0.5950541384607549
 10
1.801454101475777
 20
-0.5939680302953056
 10
1.799274665361797
 20
-0.5934835676929331
  0
LINE
  5
1B1
330
144
100
AcDbEntity
  8
AM_4
100
AcDbLine
 10
0.8523683283886798
 20
-0.3748696477833213
 30
0.0
 11
1.799274665361797
 21
-0.5934835676929331
 31
0.0
  0
LINE
  5
1B2
330
144
100
AcDbEntity
  8
AM_4
100
AcDbLine
 10
-1.799274665361797
 20
-0.5934835676929331
 30
0.0
 11
-0.8523683283886798
 21
-0.3748696477833213
 31
0.0
  0
LWPOLYLINE
  5
1B3
330
144
100
AcDbEntity
  8
AM_4
100
AcDbPolyline
 90
       12
 70
     0
 43
0.0
 10
-1.799274665361797
 20
-0.5934835676929331
 10
-1.804588053743965
 20
-0.5946056422063958
 10
-1.810425616568707
 20
-0.5956402566520704
 10
-1.81674292645811
 20
-0.5965795369893081
 10
-1.82349190486942
 20
-0.5974163347275894
 10
-1.830621188001782
 20
-0.5981442813308537
 10
-1.838076517705779
 20
-0.598757836685904
 10
-1.845801154420714
 20
-0.5992523312660136
 10
-1.853736308996923
 20
-0.5996240016688439
 10
-1.861821590116702
 20
-0.5998700192582086
 10
-1.869995463908706
 20
-0.5999885116917031
 10
-1.873462277148058
 20
-0.6
  0
LWPOLYLINE
  5
1B4
330
144
100
AcDbEntity
  8
AM_4
100
AcDbPolyline
 90
       19
 70
     0
 43
0.0
 10
-0.8695428571428568
 20
-0.5999999999999998
 10
-0.8645625289858478
 20
-0.5997825541766709
 10
-0.8596201041333181
 20
-0.5991318716006974
 10
-0.8547531974227128
 20
-0.5980529043593751
 10
-0.8499988489528187
 20
-0.5965538640449088
 10
-0.8453932421862456
 20
-0.5946461592592369
 10
-0.8409714285714285
 20
-0.5923443087876821
 10
-0.8367670607799401
 20
-0.5896658311022279
 10
-0.8328121365893405
 20
-0.58663111103537
 10
-0.8291367553607686
 20
-0.5832632446392312
 10
-0.8257688889646299
 20
-0.5795878634106594
 10
-0.8227341688977718
 20
-0.5756329392200598
 10
-0.8200556912123177
 20
-0.5714285714285714
 10
-0.8177538407407628
 20
-0.5670067578137542
 10
-0.8158461359550909
 20
-0.5624011510471811
 10
-0.8143470956406247
 20
-0.557646802577287
 10
-0.8132681283993024
 20
-0.5527798958666819
 10
-0.8126174458233288
 20
-0.547837471014152
 10
-0.8124
 20
-0.542857142857143
  0
LINE
  5
1B5
330
144
100
AcDbEntity
  8
AM_4
100
AcDbLine
 10
-0.8124
 20
-0.5428571428571429
 30
0.0
 11
-0.8124000000000002
 21
-0.5371428571428567
 31
0.0
  0
LWPOLYLINE
  5
1B6
330
144
100
AcDbEntity
  8
AM_4
100
AcDbPolyline
 90
       13
 70
     0
 43
0.0
 10
-0.7870244818746138
 20
-0.4896439909016712
 10
-0.7910433965257527
 20
-0.492593444455203
 10
-0.7947899561781426
 20
-0.4958819459389587
 10
-0.7982356472505945
 20
-0.4994844678709954
 10
-0.8013542459534817
 20
-0.5033735928841481
 10
-0.8041220178676138
 20
-0.5075197223887489
 10
-0.806517898577498
 20
-0.5118913018357663
 10
-0.8085236539842598
 20
-0.5164550608659765
 10
-0.8101240190781456
 20
-0.5211762665174867
 10
-0.8113068141144637
 20
-0.526018987564547
 10
-0.8120630373087968
 20
-0.5309463679758744
 10
-0.8123869333460161
 20
-0.5359209074113049
 10
-0.8124
 20
-0.5371428571428564
  0
LWPOLYLINE
  5
1B7
330
144
100
AcDbEntity
  8
AM_4
100
AcDbPolyline
 90
       37
 70
     0
 43
0.0
 10
0.7870244818746143
 20
-0.4896439909016718
 10
0.7819104140023933
 20
-0.4773383902580685
 10
0.7708455357491977
 20
-0.4651596856701122
 10
0.7539140575196904
 20
-0.4532005644334202
 10
0.7312448380867042
 20
-0.4415520426817184
 10
0.7030104038981726
 20
-0.4303027726991073
 10
0.6694256360466881
 20
-0.4195383682226491
 10
0.6307461348946379
 20
-0.4093407528701351
 10
0.5872662748011103
 20
-0.3997875366518862
 10
0.5393169637552744
 20
-0.3909514253117131
 10
0.4872631249667745
 20
-0.3828996669923044
 10
0.4315009195797586
 20
-0.3756935404362553
 10
0.3724547316473617
 20
-0.3693878886178357
 10
0.3105739383128127
 20
-0.3640307013548402
 10
0.2463294897780319
 20
-0.3596627500770985
 10
0.1802103250882278
 20
-0.3563172775312752
 10
0.1127196510105329
 20
-0.3540197447834956
 10
0.0443711123266617
 20
-0.3527876374452585
 10
-0.0243151173140256
 20
-0.3526303325973746
 10
-0.0928162942300838
 20
-0.3535490274247197
 10
-0.1606110831030405
 20
-0.3555367301049344
 10
-0.2271835246539594
 20
-0.3585783130204148
 10
-0.292026962405099
 20
-0.3626506278886159
 10
-0.3546478986416348
 20
-0.3677226819344599
 10
-0.4145697502272517
 20
-0.3737558737640678
 10
-0.47133647568958
 20
-0.3807042871446756
 10
-0.5245160459711652
 20
-0.3885150404548902
 10
-0.5737037324314623
 20
-0.3971286891457588
 10
-0.6185251870761709
 20
-0.406479678149681
 10
-0.6586392915715107
 20
-0.4164968407940551
 10
-0.6937407533607137
 20
-0.4271039404226293
 10
-0.723562429124722
 20
-0.4382202506024885
 10
-0.747877357904151
 20
-0.4497611695009521
 10
-0.7665004884092342
 20
-0.4616388637566055
 10
-0.7792900873718741
 20
-0.4737629369442154
 10
-0.786148818221394
 20
-0.4860411175461084
 10
-0.7870244818746142
 20
-0.4896439909016712
  0
LWPOLYLINE
  5
1B8
330
144
100
AcDbEntity
  8
AM_4
100
AcDbPolyline
 90
       13
 70
     0
 43
0.0
 10
0.8124
 20
-0.5371428571428573
 10
0.8121825541766713
 20
-0.5321625289858481
 10
0.8115318716006977
 20
-0.5272201041333183
 10
0.8104529043593754
 20
-0.5223531974227132
 10
0.8089538640449092
 20
-0.517598848952819
 10
0.8070461592592373
 20
-0.5129932421862459
 10
0.8047443087876822
 20
-0.5085714285714287
 10
0.8020658311022282
 20
-0.5043670607799403
 10
0.7990311110353703
 20
-0.5004121365893407
 10
0.7956632446392313
 20
-0.4967367553607688
 10
0.7919878634106595
 20
-0.4933688889646299
 10
0.7880329392200599
 20
-0.490334168897772
 10
0.7870244818746142
 20
-0.4896439909016717
  0
LINE
  5
1B9
330
144
100
AcDbEntity
  8
AM_4
100
AcDbLine
 10
-0.8523683283886798
 20
-0.3748696477833213
 30
0.0
 11
-0.8523683283886798
 21
0.3748696477833215
 31
0.0
  0
LWPOLYLINE
  5
1BA
330
144
100
AcDbEntity
  8
AM_4
100
AcDbPolyline
 90
       22
 70
     0
 43
0.0
 10
-0.8523683283886802
 20
-0.3748696477833214
 10
-0.7913208874020706
 20
-0.3619777278414094
 10
-0.7242510166497156
 20
-0.3500906682528076
 10
-0.6516691583459356
 20
-0.3392989367185881
 10
-0.5741277042585471
 20
-0.3296846648319521
 10
-0.4922167916739649
 20
-0.3213210230072128
 10
-0.4065598120961191
 20
-0.3142716636087615
 10
-0.3178086668606954
 20
-0.3085902365181401
 10
-0.2266388057723421
 20
-0.3043199808260476
 10
-0.1337440865238087
 20
-0.3014933957567518
 10
-0.0398314940199418
 20
-0.3001319933293687
 10
0.0543842402043305
 20
-0.300246134638408
 10
0.1481860775225459
 20
-0.3018349509995875
 10
0.2408601293136146
 20
-0.304886350561045
 10
0.3317010900852844
 20
-0.3093771103296324
 10
0.4200176052748109
 20
-0.3152730529119159
 10
0.505137532874632
 20
-0.3225293066247769
 10
0.5864130588388955
 20
-0.3310906469960146
 10
0.6632256273395091
 20
-0.3408919170559254
 10
0.734990648349486
 20
-0.3518585232211846
 10
0.8011619467260361
 20
-0.3639070029970567
 10
0.85236832838868
 20
-0.3748696477833213
  0
LINE
  5
1BB
330
144
100
AcDbEntity
  8
AM_4
100
AcDbLine
 10
0.8523683283886798
 20
0.1406499999999999
 30
0.0
 11
0.85236832838868
 21
0.3748696477833215
 31
0.0
  0
LINE
  5
1BC
330
144
100
AcDbEntity
  8
AM_4
100
AcDbLine
 10
0.8523683283886798
 20
-0.3748696477833213
 30
0.0
 11
0.8523683283886798
 21
-0.1406500000000001
 31
0.0
  0
LWPOLYLINE
  5
1BD
330
144
100
AcDbEntity
  8
AM_4
100
AcDbPolyline
 90
       22
 70
     0
 43
0.0
 10
0.8523683283886798
 20
0.3748696477833214
 10
0.7913208874020701
 20
0.3619777278414094
 10
0.7242510166497149
 20
0.3500906682528077
 10
0.651669158345935
 20
0.3392989367185882
 10
0.5741277042585463
 20
0.3296846648319522
 10
0.492216791673964
 20
0.3213210230072129
 10
0.4065598120961182
 20
0.3142716636087617
 10
0.3178086668606944
 20
0.3085902365181403
 10
0.2266388057723411
 20
0.3043199808260479
 10
0.1337440865238077
 20
0.301493395756752
 10
0.0398314940199407
 20
0.300131993329369
 10
-0.0543842402043316
 20
0.3002461346384083
 10
-0.148186077522547
 20
0.3018349509995878
 10
-0.2408601293136158
 20
0.3048863505610453
 10
-0.3317010900852855
 20
0.3093771103296327
 10
-0.420017605274812
 20
0.3152730529119163
 10
-0.5051375328746331
 20
0.3225293066247772
 10
-0.5864130588388966
 20
0.331090646996015
 10
-0.6632256273395101
 20
0.3408919170559258
 10
-0.7349906483494869
 20
0.351858523221185
 10
-0.8011619467260369
 20
0.3639070029970571
 10
-0.8523683283886795
 20
0.3748696477833214
  0
ENDBLK
  5
147
330
144
100
AcDbEntity
  8
0
100
AcDbBlockEnd
  0
ENDSEC
  0
SECTION
  2
ENTITIES
  0
INSERT
  5
6F
330
1F
100
AcDbEntity
  8
0
100
AcDbBlockReference
  2
1_125500_4
 10
0.0
 20
0.0
 30
0.0
  0
POINT
  5
1BF
330
1F
100
AcDbEntity
  8
ConnectionPoints
100
AcDbPoint
 10
0.0
 20
-0.64
 30
0.0000000000000001
  0
POINT
  5
1C0
330
1F
100
AcDbEntity
  8
ConnectionPoints
100
AcDbPoint
 10
0.7636753236814712
 20
0.0
 30
0.7636753236814715
  0
POINT
  5
1C1
330
1F
100
AcDbEntity
  8
ConnectionPoints
100
AcDbPoint
 10
0.0
 20
-0.64
 30
0.0
  0
ENDSEC
  0
SECTION
  2
OBJECTS
  0
DICTIONARY
  5
C
330
0
100
AcDbDictionary
281
     1
  3
ACAD_DETAILVIEWSTYLE
350
1C9
  3
ACAD_GROUP
350
D
  3
ACAD_LAYOUT
350
1A
  3
ACAD_MATERIAL
350
43
  3
ACAD_MLEADERSTYLE
350
6B
  3
ACAD_MLINESTYLE
350
17
  3
ACAD_PLOTSETTINGS
350
19
  3
ACAD_PLOTSTYLENAME
350
E
  3
ACAD_SCALELIST
350
47
  3
ACAD_SECTIONVIEWSTYLE
350
1CA
  3
ACAD_TABLESTYLE
350
69
  3
ACAD_VISUALSTYLE
350
2A
  3
ACDB_RECOMPOSE_DATA
350
1C6
  3
AcDbVariableDictionary
350
1C2
  0
SUN
  5
6D
330
29
100
AcDbSun
 90
        1
290
     0
 63
     7
421
 16777215
 40
1.0
291
     1
 91
  2455826
 92
 54000000
292
     0
 70
     2
 71
   256
280
     1
  0
DICTIONARY
  5
1C9
102
{ACAD_REACTORS
330
C
102
}
330
C
100
AcDbDictionary
281
     1
  0
DICTIONARY
  5
D
102
{ACAD_REACTORS
330
C
102
}
330
C
100
AcDbDictionary
281
     1
  0
DICTIONARY
  5
1A
102
{ACAD_REACTORS
330
C
102
}
330
C
100
AcDbDictionary
281
     1
  3
Layout1
350
1E
  3
Layout2
350
26
  3
Model
350
22
  0
DICTIONARY
  5
43
102
{ACAD_REACTORS
330
C
102
}
330
C
100
AcDbDictionary
281
     1
  3
ByBlock
350
45
  3
ByLayer
350
44
  3
Global
350
46
  0
DICTIONARY
  5
6B
102
{ACAD_REACTORS
330
C
102
}
330
C
100
AcDbDictionary
281
     1
  3
Standard
350
6C
  0
DICTIONARY
  5
17
102
{ACAD_REACTORS
330
C
102
}
330
C
100
AcDbDictionary
281
     1
  3
Standard
350
18
  0
DICTIONARY
  5
19
102
{ACAD_REACTORS
330
C
102
}
330
C
100
AcDbDictionary
281
     1
  0
ACDBDICTIONARYWDFLT
  5
E
102
{ACAD_REACTORS
330
C
102
}
330
C
100
AcDbDictionary
281
     1
  3
Normal
350
F
100
AcDbDictionaryWithDefault
340
F
  0
DICTIONARY
  5
47
102
{ACAD_REACTORS
330
C
102
}
330
C
100
AcDbDictionary
281
     1
  3
A0
350
48
  3
A1
350
49
  3
A2
350
4A
  3
A3
350
4B
  3
A4
350
4C
  3
A5
350
4D
  3
A6
350
4E
  3
A7
350
4F
  3
A8
350
50
  3
A9
350
51
  3
B0
350
52
  3
B1
350
53
  3
B2
350
54
  3
B3
350
55
  3
B4
350
56
  3
B5
350
57
  3
B6
350
58
  3
B7
350
59
  3
B8
350
5A
  3
B9
350
5B
  3
C0
350
5C
  3
C1
350
5D
  3
C2
350
5E
  3
C3
350
5F
  3
C4
350
60
  3
C5
350
61
  3
C6
350
62
  3
C7
350
63
  3
C8
350
64
  3
C9
350
65
  3
D0
350
66
  3
D1
350
67
  3
D2
350
68
  0
DICTIONARY
  5
1CA
102
{ACAD_REACTORS
330
C
102
}
330
C
100
AcDbDictionary
281
     1
  0
DICTIONARY
  5
69
102
{ACAD_REACTORS
330
C
102
}
330
C
100
AcDbDictionary
281
     1
  3
Standard
350
6A
  0
DICTIONARY
  5
2A
102
{ACAD_REACTORS
330
C
102
}
330
C
100
AcDbDictionary
281
     1
  3
2dWireframe
350
2F
  3
Basic
350
32
  3
Brighten
350
36
  3
ColorChange
350
3A
  3
Conceptual
350
34
  3
Dim
350
35
  3
EdgeColorOff
350
3D
  3
Facepattern
350
39
  3
Flat
350
2B
  3
FlatWithEdges
350
2C
  3
Gouraud
350
2D
  3
GouraudWithEdges
350
2E
  3
Hidden
350
31
  3
JitterOff
350
3B
  3
Linepattern
350
38
  3
OverhangOff
350
3C
  3
Realistic
350
33
  3
Shaded
350
42
  3
Shaded with edges
350
41
  3
Shades of Gray
350
3E
  3
Sketchy
350
3F
  3
Thicken
350
37
  3
Wireframe
350
30
  3
X-Ray
350
40
  0
XRECORD
  5
1C6
102
{ACAD_REACTORS
330
C
102
}
330
C
100
AcDbXrecord
280
     1
 90
        1
330
6A
  0
DICTIONARY
  5
1C2
102
{ACAD_REACTORS
330
C
102
}
330
C
100
AcDbDictionary
281
     1
  3
CANNOSCALE
350
1C3
  3
CMLEADERSTYLE
350
1C8
  3
CTABLESTYLE
350
1C7
  0
LAYOUT
  5
1E
102
{ACAD_REACTORS
330
1A
102
}
330
1A
100
AcDbPlotSettings
  1

  2
none_device
  4

  6

 40
0.0
 41
0.0
 42
0.0
 43
0.0
 44
0.0
 45
0.0
 46
0.0
 47
0.0
 48
0.0
 49
0.0
140
0.0
141
0.0
142
1.0
143
1.0
 70
   688
 72
     0
 73
     0
 74
     5
  7

 75
    16
 76
     0
 77
     2
 78
   300
147
1.0
148
0.0
149
0.0
100
AcDbLayout
  1
Layout1
 70
     1
 71
     1
 10
0.0
 20
0.0
 11
12.0
 21
9.0
 12
0.0
 22
0.0
 32
0.0
 14
1.000000000000000E+20
 24
1.000000000000000E+20
 34
1.000000000000000E+20
 15
-1.000000000000000E+20
 25
-1.000000000000000E+20
 35
-1.000000000000000E+20
146
0.0
 13
0.0
 23
0.0
 33
0.0
 16
1.0
 26
0.0
 36
0.0
 17
0.0
 27
1.0
 37
0.0
 76
     0
330
1B
  0
LAYOUT
  5
26
102
{ACAD_REACTORS
330
1A
102
}
330
1A
100
AcDbPlotSettings
  1

  2
none_device
  4

  6

 40
0.0
 41
0.0
 42
0.0
 43
0.0
 44
0.0
 45
0.0
 46
0.0
 47
0.0
 48
0.0
 49
0.0
140
0.0
141
0.0
142
1.0
143
1.0
 70
   688
 72
     0
 73
     0
 74
     5
  7

 75
    16
 76
     0
 77
     2
 78
   300
147
1.0
148
0.0
149
0.0
100
AcDbLayout
  1
Layout2
 70
     1
 71
     2
 10
0.0
 20
0.0
 11
0.0
 21
0.0
 12
0.0
 22
0.0
 32
0.0
 14
0.0
 24
0.0
 34
0.0
 15
0.0
 25
0.0
 35
0.0
146
0.0
 13
0.0
 23
0.0
 33
0.0
 16
1.0
 26
0.0
 36
0.0
 17
0.0
 27
1.0
 37
0.0
 76
     0
330
23
  0
LAYOUT
  5
22
102
{ACAD_REACTORS
330
1A
102
}
330
1A
100
AcDbPlotSettings
  1

  2
none_device
  4
Letter_(8.50_x_11.00_Inches)
  6

 40
6.35
 41
6.35
 42
6.35000508
 43
6.35000508
 44
215.9
 45
279.4
 46
0.0
 47
0.0
 48
0.0
 49
0.0
140
0.0
141
0.0
142
1.0
143
1.0
 70
  1712
 72
     0
 73
     0
 74
     0
  7

 75
     0
 76
     0
 77
     2
 78
   300
147
1.0
148
0.0
149
0.0
100
AcDbLayout
  1
Model
 70
     1
 71
     0
 10
0.0
 20
0.0
 11
12.0
 21
9.0
 12
0.0
 22
0.0
 32
0.0
 14
1.000000000000000E+20
 24
1.000000000000000E+20
 34
1.000000000000000E+20
 15
-1.000000000000000E+20
 25
-1.000000000000000E+20
 35
-1.000000000000000E+20
146
0.0
 13
0.0
 23
0.0
 33
0.0
 16
1.0
 26
0.0
 36
0.0
 17
0.0
 27
1.0
 37
0.0
 76
     0
330
1F
331
29
  0
MATERIAL
  5
45
102
{ACAD_REACTORS
330
43
102
}
330
43
100
AcDbMaterial
  1
ByBlock
 72
     1
 94
      127
  0
MATERIAL
  5
44
102
{ACAD_REACTORS
330
43
102
}
330
43
100
AcDbMaterial
  1
ByLayer
 72
     1
 94
      127
  0
MATERIAL
  5
46
102
{ACAD_REACTORS
330
43
102
}
330
43
100
AcDbMaterial
  1
Global
 72
     1
 94
      127
  0
MLEADERSTYLE
  5
6C
102
{ACAD_REACTORS
330
6B
102
}
330
6B
100
AcDbMLeaderStyle
179
     2
170
     2
171
     1
172
     0
 90
        2
 40
0.0
 41
0.0
173
     1
 91
-1056964608
340
14
 92
       -2
290
     1
 42
0.09
291
     1
 43
0.36
  3
Standard
341
0
 44
0.18
300

342
11
174
     1
178
     6
175
     1
176
     0
 93
-1056964608
 45
0.18
292
     0
297
     0
 46
0.18
343
0
 94
-1056964608
 47
1.0
 49
1.0
140
1.0
293
     1
141
0.0
294
     1
177
     0
142
1.0
295
     0
296
     0
143
0.125
271
     0
272
     9
273
     9
298
     0
  0
MLINESTYLE
  5
18
102
{ACAD_REACTORS
330
17
102
}
330
17
100
AcDbMlineStyle
  2
Standard
 70
     0
  3

 62
   256
 51
90.0
 52
90.0
 71
     2
 49
0.5
 62
   256
  6
BYLAYER
 49
-0.5
 62
   256
  6
BYLAYER
  0
ACDBPLACEHOLDER
  5
F
102
{ACAD_REACTORS
330
E
102
}
330
E
  0
SCALE
  5
48
102
{ACAD_REACTORS
330
47
102
}
330
47
100
AcDbScale
 70
     0
300
1:1
140
1.0
141
1.0
290
     1
  0
SCALE
  5
49
102
{ACAD_REACTORS
330
47
102
}
330
47
100
AcDbScale
 70
     0
300
1:2
140
1.0
141
2.0
290
     0
  0
SCALE
  5
4A
102
{ACAD_REACTORS
330
47
102
}
330
47
100
AcDbScale
 70
     0
300
1:4
140
1.0
141
4.0
290
     0
  0
SCALE
  5
4B
102
{ACAD_REACTORS
330
47
102
}
330
47
100
AcDbScale
 70
     0
300
1:5
140
1.0
141
5.0
290
     0
  0
SCALE
  5
4C
102
{ACAD_REACTORS
330
47
102
}
330
47
100
AcDbScale
 70
     0
300
1:8
140
1.0
141
8.0
290
     0
  0
SCALE
  5
4D
102
{ACAD_REACTORS
330
47
102
}
330
47
100
AcDbScale
 70
     0
300
1:10
140
1.0
141
10.0
290
     0
  0
SCALE
  5
4E
102
{ACAD_REACTORS
330
47
102
}
330
47
100
AcDbScale
 70
     0
300
1:16
140
1.0
141
16.0
290
     0
  0
SCALE
  5
4F
102
{ACAD_REACTORS
330
47
102
}
330
47
100
AcDbScale
 70
     0
300
1:20
140
1.0
141
20.0
290
     0
  0
SCALE
  5
50
102
{ACAD_REACTORS
330
47
102
}
330
47
100
AcDbScale
 70
     0
300
1:30
140
1.0
141
30.0
290
     0
  0
SCALE
  5
51
102
{ACAD_REACTORS
330
47
102
}
330
47
100
AcDbScale
 70
     0
300
1:40
140
1.0
141
40.0
290
     0
  0
SCALE
  5
52
102
{ACAD_REACTORS
330
47
102
}
330
47
100
AcDbScale
 70
     0
300
1:50
140
1.0
141
50.0
290
     0
  0
SCALE
  5
53
102
{ACAD_REACTORS
330
47
102
}
330
47
100
AcDbScale
 70
     0
300
1:100
140
1.0
141
100.0
290
     0
  0
SCALE
  5
54
102
{ACAD_REACTORS
330
47
102
}
330
47
100
AcDbScale
 70
     0
300
2:1
140
2.0
141
1.0
290
     0
  0
SCALE
  5
55
102
{ACAD_REACTORS
330
47
102
}
330
47
100
AcDbScale
 70
     0
300
4:1
140
4.0
141
1.0
290
     0
  0
SCALE
  5
56
102
{ACAD_REACTORS
330
47
102
}
330
47
100
AcDbScale
 70
     0
300
8:1
140
8.0
141
1.0
290
     0
  0
SCALE
  5
57
102
{ACAD_REACTORS
330
47
102
}
330
47
100
AcDbScale
 70
     0
300
10:1
140
10.0
141
1.0
290
     0
  0
SCALE
  5
58
102
{ACAD_REACTORS
330
47
102
}
330
47
100
AcDbScale
 70
     0
300
100:1
140
100.0
141
1.0
290
     0
  0
SCALE
  5
59
102
{ACAD_REACTORS
330
47
102
}
330
47
100
AcDbScale
 70
     0
300
1/128" = 1'-0"
140
0.0078125
141
12.0
290
     0
  0
SCALE
  5
5A
102
{ACAD_REACTORS
330
47
102
}
330
47
100
AcDbScale
 70
     0
300
1/64" = 1'-0"
140
0.015625
141
12.0
290
     0
  0
SCALE
  5
5B
102
{ACAD_REACTORS
330
47
102
}
330
47
100
AcDbScale
 70
     0
300
1/32" = 1'-0"
140
0.03125
141
12.0
290
     0
  0
SCALE
  5
5C
102
{ACAD_REACTORS
330
47
102
}
330
47
100
AcDbScale
 70
     0
300
1/16" = 1'-0"
140
0.0625
141
12.0
290
     0
  0
SCALE
  5
5D
102
{ACAD_REACTORS
330
47
102
}
330
47
100
AcDbScale
 70
     0
300
3/32" = 1'-0"
140
0.09375
141
12.0
290
     0
  0
SCALE
  5
5E
102
{ACAD_REACTORS
330
47
102
}
330
47
100
AcDbScale
 70
     0
300
1/8" = 1'-0"
140
0.125
141
12.0
290
     0
  0
SCALE
  5
5F
102
{ACAD_REACTORS
330
47
102
}
330
47
100
AcDbScale
 70
     0
300
3/16" = 1'-0"
140
0.1875
141
12.0
290
     0
  0
SCALE
  5
60
102
{ACAD_REACTORS
330
47
102
}
330
47
100
AcDbScale
 70
     0
300
1/4" = 1'-0"
140
0.25
141
12.0
290
     0
  0
SCALE
  5
61
102
{ACAD_REACTORS
330
47
102
}
330
47
100
AcDbScale
 70
     0
300
3/8" = 1'-0"
140
0.375
141
12.0
290
     0
  0
SCALE
  5
62
102
{ACAD_REACTORS
330
47
102
}
330
47
100
AcDbScale
 70
     0
300
1/2" = 1'-0"
140
0.5
141
12.0
290
     0
  0
SCALE
  5
63
102
{ACAD_REACTORS
330
47
102
}
330
47
100
AcDbScale
 70
     0
300
3/4" = 1'-0"
140
0.75
141
12.0
290
     0
  0
SCALE
  5
64
102
{ACAD_REACTORS
330
47
102
}
330
47
100
AcDbScale
 70
     0
300
1" = 1'-0"
140
1.0
141
12.0
290
     0
  0
SCALE
  5
65
102
{ACAD_REACTORS
330
47
102
}
330
47
100
AcDbScale
 70
     0
300
1-1/2" = 1'-0"
140
1.5
141
12.0
290
     0
  0
SCALE
  5
66
102
{ACAD_REACTORS
330
47
102
}
330
47
100
AcDbScale
 70
     0
300
3" = 1'-0"
140
3.0
141
12.0
290
     0
  0
SCALE
  5
67
102
{ACAD_REACTORS
330
47
102
}
330
47
100
AcDbScale
 70
     0
300
6" = 1'-0"
140
6.0
141
12.0
290
     0
  0
SCALE
  5
68
102
{ACAD_REACTORS
330
47
102
}
330
47
100
AcDbScale
 70
     0
300
1'-0" = 1'-0"
140
12.0
141
12.0
290
     0
  0
TABLESTYLE
  5
6A
102
{ACAD_REACTORS
330
69
102
}
102
{ACAD_XDICTIONARY
360
1C4
102
}
330
69
100
AcDbTableStyle
  3
Standard
 70
     0
 71
     0
 40
0.06
 41
0.06
280
     0
281
     0
  7
Standard
140
0.18
170
     2
 62
     0
 63
   257
283
     0
 90
        4
 91
        0
  1

274
    -2
284
     1
 64
     0
275
    -2
285
     1
 65
     0
276
    -2
286
     1
 66
     0
277
    -2
287
     1
 67
     0
278
    -2
288
     1
 68
     0
279
    -2
289
     1
 69
     0
  7
Standard
140
0.25
170
     5
 62
     0
 63
   257
283
     0
 90
        4
 91
        0
  1

274
    -2
284
     1
 64
     0
275
    -2
285
     1
 65
     0
276
    -2
286
     1
 66
     0
277
    -2
287
     1
 67
     0
278
    -2
288
     1
 68
     0
279
    -2
289
     1
 69
     0
  7
Standard
140
0.18
170
     5
 62
     0
 63
   257
283
     0
 90
        4
 91
        0
  1

274
    -2
284
     1
 64
     0
275
    -2
285
     1
 65
     0
276
    -2
286
     1
 66
     0
277
    -2
287
     1
 67
     0
278
    -2
288
     1
 68
     0
279
    -2
289
     1
 69
     0
  0
VISUALSTYLE
  5
2F
102
{ACAD_REACTORS
330
2A
102
}
330
2A
100
AcDbVisualStyle
  2
2dWireframe
 70
     4
177
     3
291
     0
 70
    58
 90
        0
176
     1
 90
        2
176
     1
 90
        0
176
     1
 90
        0
176
     1
 40
0.6
176
     1
 40
30.0
176
     1
 62
     7
420
 16777215
176
     1
 90
        1
176
     1
 90
        4
176
     1
 62
     7
176
     1
 62
   257
176
     1
 90
        1
176
     1
 90
        1
176
     1
 40
1.0
176
     1
 90
        0
176
     1
 62
   257
176
     1
 40
1.0
176
     1
 90
        1
176
     1
 90
        6
176
     1
 90
        2
176
     1
 62
     7
176
     1
 90
        5
176
     1
 90
        0
176
     1
 90
        0
176
     1
290
     0
176
     1
 90
        1
176
     1
 40
0.0
176
     1
 90
        0
176
     1
290
     1
176
     1
290
     1
176
     1
290
     0
176
     1
290
     0
176
     1
290
     0
176
     1
290
     0
176
     1
290
     0
176
     1
290
     0
176
     1
290
     0
176
     1
 90
       50
176
     1
 40
0.0
176
     1
 40
1.0
176
     1
 90
        0
176
     1
 62
    18
420
        0
176
     1
 90
       50
176
     1
 90
        3
176
     1
 62
     5
420
      255
176
     1
290
     0
176
     1
 90
       50
176
     1
 90
       50
176
     1
 90
       50
176
     1
290
     0
176
     1
 90
       50
176
     1
 62
   256
176
     0
 40
1.0
176
     0
 90
        2
176
     1
  1
strokes_ogs.tif
176
     1
290
     0
176
     1
 40
1.0
176
     1
 40
1.0
176
     1
  0
VISUALSTYLE
  5
32
102
{ACAD_REACTORS
330
2A
102
}
330
2A
100
AcDbVisualStyle
  2
Basic
 70
     7
177
     3
291
     1
 70
    58
 90
        1
176
     1
 90
        0
176
     1
 90
        1
176
     1
 90
        0
176
     1
 40
0.6
176
     1
 40
30.0
176
     1
 62
     7
420
 16777215
176
     1
 90
        0
176
     1
 90
        4
176
     1
 62
     7
176
     1
 62
   257
176
     1
 90
        1
176
     1
 90
        1
176
     1
 40
1.0
176
     1
 90
        8
176
     1
 62
     7
176
     1
 40
1.0
176
     1
 90
        1
176
     1
 90
        6
176
     1
 90
        2
176
     1
 62
     7
176
     1
 90
        5
176
     1
 90
        0
176
     1
 90
        0
176
     1
290
     0
176
     1
 90
        1
176
     1
 40
0.0
176
     1
 90
        0
176
     1
290
     0
176
     1
290
     1
176
     1
290
     1
176
     1
290
     0
176
     1
290
     0
176
     1
290
     0
176
     1
290
     0
176
     1
290
     0
176
     1
290
     0
176
     1
 90
       50
176
     1
 40
0.0
176
     1
 40
1.0
176
     1
 90
        0
176
     1
 62
    18
420
        0
176
     1
 90
       50
176
     1
 90
        3
176
     1
 62
     5
420
      255
176
     1
290
     0
176
     1
 90
       50
176
     1
 90
       50
176
     1
 90
       50
176
     1
290
     0
176
     1
 90
       50
176
     1
 62
   256
176
     0
 40
1.0
176
     0
 90
        2
176
     1
  1
strokes_ogs.tif
176
     1
290
     0
176
     1
 40
1.0
176
     1
 40
1.0
176
     1
  0
VISUALSTYLE
  5
36
102
{ACAD_REACTORS
330
2A
102
}
330
2A
100
AcDbVisualStyle
  2
Brighten
 70
    12
177
     3
291
     1
 70
    58
 90
        2
176
     1
 90
        2
176
     1
 90
        0
176
     1
 90
        0
176
     1
 40
0.6
176
     1
 40
30.0
176
     1
 62
     7
420
 16777215
176
     1
 90
        1
176
     1
 90
        4
176
     1
 62
     7
176
     1
 62
   257
176
     1
 90
        1
176
     1
 90
        1
176
     1
 40
1.0
176
     1
 90
        8
176
     1
 62
     7
176
     1
 40
1.0
176
     1
 90
        1
176
     1
 90
        6
176
     1
 90
        2
176
     1
 62
     7
176
     1
 90
        5
176
     1
 90
        0
176
     1
 90
        0
176
     1
290
     0
176
     1
 90
        1
176
     1
 40
50.0
176
     1
 90
        0
176
     1
290
     0
176
     1
290
     1
176
     1
290
     1
176
     1
290
     0
176
     1
290
     0
176
     1
290
     0
176
     1
290
     0
176
     1
290
     0
176
     1
290
     0
176
     1
 90
       50
176
     1
 40
0.0
176
     1
 40
1.0
176
     1
 90
        0
176
     1
 62
    18
420
        0
176
     1
 90
       50
176
     1
 90
        3
176
     1
 62
     5
420
      255
176
     1
290
     0
176
     1
 90
       50
176
     1
 90
       50
176
     1
 90
       50
176
     1
290
     0
176
     1
 90
       50
176
     1
 62
   256
176
     0
 40
1.0
176
     0
 90
        2
176
     1
  1
strokes_ogs.tif
176
     1
290
     0
176
     1
 40
1.0
176
     1
 40
1.0
176
     1
  0
VISUALSTYLE
  5
3A
102
{ACAD_REACTORS
330
2A
102
}
330
2A
100
AcDbVisualStyle
  2
ColorChange
 70
    16
177
     3
291
     1
 70
    58
 90
        2
176
     1
 90
        2
176
     1
 90
        3
176
     1
 90
        0
176
     1
 40
0.6
176
     1
 40
30.0
176
     1
 62
     8
420
  8421504
176
     1
 90
        1
176
     1
 90
        4
176
     1
 62
     7
176
     1
 62
   257
176
     1
 90
        1
176
     1
 90
        1
176
     1
 40
1.0
176
     1
 90
        8
176
     1
 62
     8
420
  8421504
176
     1
 40
1.0
176
     1
 90
        1
176
     1
 90
        6
176
     1
 90
        2
176
     1
 62
     7
176
     1
 90
        5
176
     1
 90
        0
176
     1
 90
        0
176
     1
290
     0
176
     1
 90
        1
176
     1
 40
0.0
176
     1
 90
        0
176
     1
290
     0
176
     1
290
     1
176
     1
290
     1
176
     1
290
     0
176
     1
290
     0
176
     1
290
     0
176
     1
290
     0
176
     1
290
     0
176
     1
290
     0
176
     1
 90
       50
176
     1
 40
0.0
176
     1
 40
1.0
176
     1
 90
        0
176
     1
 62
    18
420
        0
176
     1
 90
       50
176
     1
 90
        3
176
     1
 62
     5
420
      255
176
     1
290
     0
176
     1
 90
       50
176
     1
 90
       50
176
     1
 90
       50
176
     1
290
     0
176
     1
 90
       50
176
     1
 62
   256
176
     0
 40
1.0
176
     0
 90
        2
176
     1
  1
strokes_ogs.tif
176
     1
290
     0
176
     1
 40
1.0
176
     1
 40
1.0
176
     1
  0
VISUALSTYLE
  5
34
102
{ACAD_REACTORS
330
2A
102
}
330
2A
100
AcDbVisualStyle
  2
Conceptual
 70
     9
177
     3
291
     0
 70
    58
 90
        3
176
     1
 90
        2
176
     1
 90
        0
176
     1
 90
        0
176
     1
 40
0.6
176
     1
 40
30.0
176
     1
 62
     7
420
 16777215
176
     1
 90
        2
176
     1
 90
        2
176
     1
 62
     7
176
     1
 62
   257
176
     1
 90
        1
176
     1
 90
        1
176
     1
 40
179.0
176
     1
 90
        8
176
     1
 62
     7
176
     1
 40
1.0
176
     1
 90
        1
176
     1
 90
        6
176
     1
 90
        2
176
     1
 62
     7
176
     1
 90
        3
176
     1
 90
        0
176
     1
 90
        0
176
     1
290
     0
176
     1
 90
        1
176
     1
 40
0.0
176
     1
 90
        0
176
     1
290
     0
176
     1
290
     1
176
     1
290
     1
176
     1
290
     0
176
     1
290
     0
176
     1
290
     0
176
     1
290
     0
176
     1
290
     0
176
     1
290
     0
176
     1
 90
       50
176
     1
 40
0.0
176
     1
 40
1.0
176
     1
 90
        0
176
     1
 62
    18
420
        0
176
     1
 90
       50
176
     1
 90
        3
176
     1
 62
     5
420
      255
176
     1
290
     0
176
     1
 90
       50
176
     1
 90
       50
176
     1
 90
       50
176
     1
290
     0
176
     1
 90
       50
176
     1
 62
   256
176
     0
 40
1.0
176
     0
 90
        2
176
     1
  1
strokes_ogs.tif
176
     1
290
     0
176
     1
 40
1.0
176
     1
 40
1.0
176
     1
  0
VISUALSTYLE
  5
35
102
{ACAD_REACTORS
330
2A
102
}
330
2A
100
AcDbVisualStyle
  2
Dim
 70
    11
177
     3
291
     1
 70
    58
 90
        2
176
     1
 90
        2
176
     1
 90
        0
176
     1
 90
        0
176
     1
 40
0.6
176
     1
 40
30.0
176
     1
 62
     7
420
 16777215
176
     1
 90
        1
176
     1
 90
        4
176
     1
 62
     7
176
     1
 62
   257
176
     1
 90
        1
176
     1
 90
        1
176
     1
 40
1.0
176
     1
 90
        8
176
     1
 62
     7
176
     1
 40
1.0
176
     1
 90
        1
176
     1
 90
        6
176
     1
 90
        2
176
     1
 62
     7
176
     1
 90
        5
176
     1
 90
        0
176
     1
 90
        0
176
     1
290
     0
176
     1
 90
        1
176
     1
 40
-50.0
176
     1
 90
        0
176
     1
290
     0
176
     1
290
     1
176
     1
290
     1
176
     1
290
     0
176
     1
290
     0
176
     1
290
     0
176
     1
290
     0
176
     1
290
     0
176
     1
290
     0
176
     1
 90
       50
176
     1
 40
0.0
176
     1
 40
1.0
176
     1
 90
        0
176
     1
 62
    18
420
        0
176
     1
 90
       50
176
     1
 90
        3
176
     1
 62
     5
420
      255
176
     1
290
     0
176
     1
 90
       50
176
     1
 90
       50
176
     1
 90
       50
176
     1
290
     0
176
     1
 90
       50
176
     1
 62
   256
176
     0
 40
1.0
176
     0
 90
        2
176
     1
  1
strokes_ogs.tif
176
     1
290
     0
176
     1
 40
1.0
176
     1
 40
1.0
176
     1
  0
VISUALSTYLE
  5
3D
102
{ACAD_REACTORS
330
2A
102
}
330
2A
100
AcDbVisualStyle
  2
EdgeColorOff
 70
    22
177
     3
291
     1
 70
    58
 90
        2
176
     0
 90
        2
176
     0
 90
        0
176
     0
 90
        0
176
     0
 40
0.6
176
     0
 40
30.0
176
     0
 62
     7
420
 16777215
176
     0
 90
        1
176
     0
 90
        4
176
     0
 62
     7
176
     0
 62
   257
176
     0
 90
        1
176
     0
 90
        1
176
     0
 40
1.0
176
     0
 90
        8
176
     2
 62
     7
176
     0
 40
1.0
176
     0
 90
        1
176
     0
 90
        6
176
     0
 90
        2
176
     0
 62
     7
176
     0
 90
        5
176
     0
 90
        0
176
     0
 90
        0
176
     0
290
     0
176
     0
 90
        1
176
     0
 40
0.0
176
     0
 90
        0
176
     0
290
     0
176
     0
290
     1
176
     0
290
     1
176
     0
290
     0
176
     0
290
     0
176
     0
290
     0
176
     0
290
     0
176
     0
290
     0
176
     0
290
     0
176
     0
 90
       50
176
     0
 40
0.0
176
     0
 40
1.0
176
     0
 90
        0
176
     0
 62
    18
420
        0
176
     0
 90
       50
176
     0
 90
        3
176
     0
 62
     5
420
      255
176
     0
290
     0
176
     0
 90
       50
176
     0
 90
       50
176
     0
 90
       50
176
     0
290
     0
176
     0
 90
       50
176
     0
 62
   256
176
     0
 40
1.0
176
     0
 90
        2
176
     0
  1
strokes_ogs.tif
176
     0
290
     0
176
     0
 40
1.0
176
     0
 40
1.0
176
     0
  0
VISUALSTYLE
  5
39
102
{ACAD_REACTORS
330
2A
102
}
330
2A
100
AcDbVisualStyle
  2
Facepattern
 70
    15
177
     3
291
     1
 70
    58
 90
        2
176
     1
 90
        2
176
     1
 90
        0
176
     1
 90
        0
176
     1
 40
0.6
176
     1
 40
30.0
176
     1
 62
     7
420
 16777215
176
     1
 90
        1
176
     1
 90
        4
176
     1
 62
     7
176
     1
 62
   257
176
     1
 90
        1
176
     1
 90
        1
176
     1
 40
1.0
176
     1
 90
        8
176
     1
 62
     7
176
     1
 40
1.0
176
     1
 90
        1
176
     1
 90
        6
176
     1
 90
        2
176
     1
 62
     7
176
     1
 90
        5
176
     1
 90
        0
176
     1
 90
        0
176
     1
290
     0
176
     1
 90
        1
176
     1
 40
0.0
176
     1
 90
        0
176
     1
290
     0
176
     1
290
     1
176
     1
290
     1
176
     1
290
     0
176
     1
290
     0
176
     1
290
     0
176
     1
290
     0
176
     1
290
     0
176
     1
290
     0
176
     1
 90
       50
176
     1
 40
0.0
176
     1
 40
1.0
176
     1
 90
        0
176
     1
 62
    18
420
        0
176
     1
 90
       50
176
     1
 90
        3
176
     1
 62
     5
420
      255
176
     1
290
     0
176
     1
 90
       50
176
     1
 90
       50
176
     1
 90
       50
176
     1
290
     0
176
     1
 90
       50
176
     1
 62
   256
176
     0
 40
1.0
176
     0
 90
        2
176
     1
  1
strokes_ogs.tif
176
     1
290
     0
176
     1
 40
1.0
176
     1
 40
1.0
176
     1
  0
VISUALSTYLE
  5
2B
102
{ACAD_REACTORS
330
2A
102
}
330
2A
100
AcDbVisualStyle
  2
Flat
 70
     0
177
     3
291
     1
 70
    58
 90
        2
176
     1
 90
        1
176
     1
 90
        1
176
     1
 90
        2
176
     1
 40
0.6
176
     1
 40
30.0
176
     1
 62
     7
420
 16777215
176
     1
 90
        0
176
     1
 90
        0
176
     1
 62
     7
176
     1
 62
   257
176
     1
 90
        1
176
     1
 90
        1
176
     1
 40
1.0
176
     1
 90
        8
176
     1
 62
     7
176
     1
 40
1.0
176
     1
 90
        1
176
     1
 90
        6
176
     1
 90
        2
176
     1
 62
     7
176
     1
 90
        5
176
     1
 90
        0
176
     1
 90
        0
176
     1
290
     0
176
     1
 90
       13
176
     1
 40
0.0
176
     1
 90
        0
176
     1
290
     0
176
     1
290
     1
176
     1
290
     1
176
     1
290
     0
176
     1
290
     0
176
     1
290
     0
176
     1
290
     0
176
     1
290
     0
176
     1
290
     0
176
     1
 90
       50
176
     1
 40
0.0
176
     1
 40
1.0
176
     1
 90
        0
176
     1
 62
    18
420
        0
176
     1
 90
       50
176
     1
 90
        3
176
     1
 62
     5
420
      255
176
     1
290
     0
176
     1
 90
       50
176
     1
 90
       50
176
     1
 90
       50
176
     1
290
     0
176
     1
 90
       50
176
     1
 62
   256
176
     0
 40
1.0
176
     0
 90
        2
176
     1
  1
strokes_ogs.tif
176
     1
290
     0
176
     1
 40
1.0
176
     1
 40
1.0
176
     1
  0
VISUALSTYLE
  5
2C
102
{ACAD_REACTORS
330
2A
102
}
330
2A
100
AcDbVisualStyle
  2
FlatWithEdges
 70
     1
177
     3
291
     1
 70
    58
 90
        2
176
     1
 90
        1
176
     1
 90
        1
176
     1
 90
        2
176
     1
 40
0.6
176
     1
 40
30.0
176
     1
 62
     7
420
 16777215
176
     1
 90
        1
176
     1
 90
        0
176
     1
 62
     7
176
     1
 62
   257
176
     1
 90
        1
176
     1
 90
        1
176
     1
 40
1.0
176
     1
 90
        0
176
     1
 62
   257
176
     1
 40
1.0
176
     1
 90
        1
176
     1
 90
        6
176
     1
 90
        2
176
     1
 62
     7
176
     1
 90
        5
176
     1
 90
        0
176
     1
 90
        0
176
     1
290
     0
176
     1
 90
       13
176
     1
 40
0.0
176
     1
 90
        0
176
     1
290
     0
176
     1
290
     1
176
     1
290
     1
176
     1
290
     0
176
     1
290
     0
176
     1
290
     0
176
     1
290
     0
176
     1
290
     0
176
     1
290
     0
176
     1
 90
       50
176
     1
 40
0.0
176
     1
 40
1.0
176
     1
 90
        0
176
     1
 62
    18
420
        0
176
     1
 90
       50
176
     1
 90
        3
176
     1
 62
     5
420
      255
176
     1
290
     0
176
     1
 90
       50
176
     1
 90
       50
176
     1
 90
       50
176
     1
290
     0
176
     1
 90
       50
176
     1
 62
   256
176
     0
 40
1.0
176
     0
 90
        2
176
     1
  1
strokes_ogs.tif
176
     1
290
     0
176
     1
 40
1.0
176
     1
 40
1.0
176
     1
  0
VISUALSTYLE
  5
2D
102
{ACAD_REACTORS
330
2A
102
}
330
2A
100
AcDbVisualStyle
  2
Gouraud
 70
     2
177
     3
291
     1
 70
    58
 90
        2
176
     1
 90
        2
176
     1
 90
        1
176
     1
 90
        2
176
     1
 40
0.6
176
     1
 40
30.0
176
     1
 62
     7
420
 16777215
176
     1
 90
        0
176
     1
 90
        0
176
     1
 62
     7
176
     1
 62
   257
176
     1
 90
        1
176
     1
 90
        1
176
     1
 40
1.0
176
     1
 90
        0
176
     1
 62
     7
176
     1
 40
1.0
176
     1
 90
        1
176
     1
 90
        6
176
     1
 90
        2
176
     1
 62
     7
176
     1
 90
        5
176
     1
 90
        0
176
     1
 90
        0
176
     1
290
     0
176
     1
 90
       13
176
     1
 40
0.0
176
     1
 90
        0
176
     1
290
     0
176
     1
290
     1
176
     1
290
     1
176
     1
290
     0
176
     1
290
     0
176
     1
290
     0
176
     1
290
     0
176
     1
290
     0
176
     1
290
     0
176
     1
 90
       50
176
     1
 40
0.0
176
     1
 40
1.0
176
     1
 90
        0
176
     1
 62
    18
420
        0
176
     1
 90
       50
176
     1
 90
        3
176
     1
 62
     5
420
      255
176
     1
290
     0
176
     1
 90
       50
176
     1
 90
       50
176
     1
 90
       50
176
     1
290
     0
176
     1
 90
       50
176
     1
 62
   256
176
     0
 40
1.0
176
     0
 90
        2
176
     1
  1
strokes_ogs.tif
176
     1
290
     0
176
     1
 40
1.0
176
     1
 40
1.0
176
     1
  0
VISUALSTYLE
  5
2E
102
{ACAD_REACTORS
330
2A
102
}
330
2A
100
AcDbVisualStyle
  2
GouraudWithEdges
 70
     3
177
     3
291
     1
 70
    58
 90
        2
176
     1
 90
        2
176
     1
 90
        1
176
     1
 90
        2
176
     1
 40
0.6
176
     1
 40
30.0
176
     1
 62
     7
420
 16777215
176
     1
 90
        1
176
     1
 90
        0
176
     1
 62
     7
176
     1
 62
   257
176
     1
 90
        1
176
     1
 90
        1
176
     1
 40
1.0
176
     1
 90
        0
176
     1
 62
   257
176
     1
 40
1.0
176
     1
 90
        1
176
     1
 90
        6
176
     1
 90
        2
176
     1
 62
     7
176
     1
 90
        5
176
     1
 90
        0
176
     1
 90
        0
176
     1
290
     0
176
     1
 90
       13
176
     1
 40
0.0
176
     1
 90
        0
176
     1
290
     0
176
     1
290
     1
176
     1
290
     1
176
     1
290
     0
176
     1
290
     0
176
     1
290
     0
176
     1
290
     0
176
     1
290
     0
176
     1
290
     0
176
     1
 90
       50
176
     1
 40
0.0
176
     1
 40
1.0
176
     1
 90
        0
176
     1
 62
    18
420
        0
176
     1
 90
       50
176
     1
 90
        3
176
     1
 62
     5
420
      255
176
     1
290
     0
176
     1
 90
       50
176
     1
 90
       50
176
     1
 90
       50
176
     1
290
     0
176
     1
 90
       50
176
     1
 62
   256
176
     0
 40
1.0
176
     0
 90
        2
176
     1
  1
strokes_ogs.tif
176
     1
290
     0
176
     1
 40
1.0
176
     1
 40
1.0
176
     1
  0
VISUALSTYLE
  5
31
102
{ACAD_REACTORS
330
2A
102
}
330
2A
100
AcDbVisualStyle
  2
Hidden
 70
     6
177
     3
291
     0
 70
    58
 90
        1
176
     1
 90
        2
176
     1
 90
        2
176
     1
 90
        0
176
     1
 40
0.6
176
     1
 40
30.0
176
     1
 62
     7
420
 16777215
176
     1
 90
        2
176
     1
 90
        2
176
     1
 62
     7
176
     1
 62
   257
176
     1
 90
        2
176
     1
 90
        1
176
     1
 40
40.0
176
     1
 90
        0
176
     1
 62
   257
176
     1
 40
1.0
176
     1
 90
        1
176
     1
 90
        6
176
     1
 90
        2
176
     1
 62
     7
176
     1
 90
        3
176
     1
 90
        0
176
     1
 90
        0
176
     1
290
     0
176
     1
 90
        1
176
     1
 40
0.0
176
     1
 90
        0
176
     1
290
     0
176
     1
290
     1
176
     1
290
     1
176
     1
290
     0
176
     1
290
     0
176
     1
290
     0
176
     1
290
     0
176
     1
290
     0
176
     1
290
     0
176
     1
 90
       50
176
     1
 40
0.0
176
     1
 40
1.0
176
     1
 90
        0
176
     1
 62
    18
420
        0
176
     1
 90
       50
176
     1
 90
        3
176
     1
 62
     5
420
      255
176
     1
290
     0
176
     1
 90
       50
176
     1
 90
       50
176
     1
 90
       50
176
     1
290
     0
176
     1
 90
       50
176
     1
 62
   256
176
     0
 40
1.0
176
     0
 90
        2
176
     1
  1
strokes_ogs.tif
176
     1
290
     0
176
     1
 40
1.0
176
     1
 40
1.0
176
     1
  0
VISUALSTYLE
  5
3B
102
{ACAD_REACTORS
330
2A
102
}
330
2A
100
AcDbVisualStyle
  2
JitterOff
 70
    20
177
     3
291
     1
 70
    58
 90
        2
176
     0
 90
        2
176
     0
 90
        0
176
     0
 90
        0
176
     0
 40
0.6
176
     0
 40
30.0
176
     0
 62
     7
420
 16777215
176
     0
 90
        1
176
     0
 90
        4
176
     0
 62
     7
176
     0
 62
   257
176
     0
 90
        1
176
     0
 90
        1
176
     0
 40
1.0
176
     0
 90
       10
176
     2
 62
     7
176
     0
 40
1.0
176
     0
 90
        1
176
     0
 90
        6
176
     0
 90
        2
176
     0
 62
     7
176
     0
 90
        5
176
     0
 90
        0
176
     0
 90
        0
176
     0
290
     0
176
     0
 90
        1
176
     0
 40
0.0
176
     0
 90
        0
176
     0
290
     0
176
     0
290
     1
176
     0
290
     1
176
     0
290
     0
176
     0
290
     0
176
     0
290
     0
176
     0
290
     0
176
     0
290
     0
176
     0
290
     0
176
     0
 90
       50
176
     0
 40
0.0
176
     0
 40
1.0
176
     0
 90
        0
176
     0
 62
    18
420
        0
176
     0
 90
       50
176
     0
 90
        3
176
     0
 62
     5
420
      255
176
     0
290
     0
176
     0
 90
       50
176
     0
 90
       50
176
     0
 90
       50
176
     0
290
     0
176
     0
 90
       50
176
     0
 62
   256
176
     0
 40
1.0
176
     0
 90
        2
176
     0
  1
strokes_ogs.tif
176
     0
290
     0
176
     0
 40
1.0
176
     0
 40
1.0
176
     0
  0
VISUALSTYLE
  5
38
102
{ACAD_REACTORS
330
2A
102
}
330
2A
100
AcDbVisualStyle
  2
Linepattern
 70
    14
177
     3
291
     1
 70
    58
 90
        2
176
     1
 90
        2
176
     1
 90
        0
176
     1
 90
        0
176
     1
 40
0.6
176
     1
 40
30.0
176
     1
 62
     7
420
 16777215
176
     1
 90
        1
176
     1
 90
        4
176
     1
 62
     7
176
     1
 62
   257
176
     1
 90
        7
176
     1
 90
        7
176
     1
 40
1.0
176
     1
 90
        8
176
     1
 62
     7
176
     1
 40
1.0
176
     1
 90
        1
176
     1
 90
        6
176
     1
 90
        2
176
     1
 62
     7
176
     1
 90
        5
176
     1
 90
        0
176
     1
 90
        0
176
     1
290
     0
176
     1
 90
        1
176
     1
 40
0.0
176
     1
 90
        0
176
     1
290
     0
176
     1
290
     1
176
     1
290
     1
176
     1
290
     0
176
     1
290
     0
176
     1
290
     0
176
     1
290
     0
176
     1
290
     0
176
     1
290
     0
176
     1
 90
       50
176
     1
 40
0.0
176
     1
 40
1.0
176
     1
 90
        0
176
     1
 62
    18
420
        0
176
     1
 90
       50
176
     1
 90
        3
176
     1
 62
     5
420
      255
176
     1
290
     0
176
     1
 90
       50
176
     1
 90
       50
176
     1
 90
       50
176
     1
290
     0
176
     1
 90
       50
176
     1
 62
   256
176
     0
 40
1.0
176
     0
 90
        2
176
     1
  1
strokes_ogs.tif
176
     1
290
     0
176
     1
 40
1.0
176
     1
 40
1.0
176
     1
  0
VISUALSTYLE
  5
3C
102
{ACAD_REACTORS
330
2A
102
}
330
2A
100
AcDbVisualStyle
  2
OverhangOff
 70
    21
177
     3
291
     1
 70
    58
 90
        2
176
     0
 90
        2
176
     0
 90
        0
176
     0
 90
        0
176
     0
 40
0.6
176
     0
 40
30.0
176
     0
 62
     7
420
 16777215
176
     0
 90
        1
176
     0
 90
        4
176
     0
 62
     7
176
     0
 62
   257
176
     0
 90
        1
176
     0
 90
        1
176
     0
 40
1.0
176
     0
 90
        9
176
     2
 62
     7
176
     0
 40
1.0
176
     0
 90
        1
176
     0
 90
        6
176
     0
 90
        2
176
     0
 62
     7
176
     0
 90
        5
176
     0
 90
        0
176
     0
 90
        0
176
     0
290
     0
176
     0
 90
        1
176
     0
 40
0.0
176
     0
 90
        0
176
     0
290
     0
176
     0
290
     1
176
     0
290
     1
176
     0
290
     0
176
     0
290
     0
176
     0
290
     0
176
     0
290
     0
176
     0
290
     0
176
     0
290
     0
176
     0
 90
       50
176
     0
 40
0.0
176
     0
 40
1.0
176
     0
 90
        0
176
     0
 62
    18
420
        0
176
     0
 90
       50
176
     0
 90
        3
176
     0
 62
     5
420
      255
176
     0
290
     0
176
     0
 90
       50
176
     0
 90
       50
176
     0
 90
       50
176
     0
290
     0
176
     0
 90
       50
176
     0
 62
   256
176
     0
 40
1.0
176
     0
 90
        2
176
     0
  1
strokes_ogs.tif
176
     0
290
     0
176
     0
 40
1.0
176
     0
 40
1.0
176
     0
  0
VISUALSTYLE
  5
33
102
{ACAD_REACTORS
330
2A
102
}
330
2A
100
AcDbVisualStyle
  2
Realistic
 70
     8
177
     3
291
     0
 70
    58
 90
        2
176
     1
 90
        3
176
     1
 90
        0
176
     1
 90
        2
176
     1
 40
0.6
176
     1
 40
30.0
176
     1
 62
     7
420
 16777215
176
     1
 90
        0
176
     1
 90
        0
176
     1
 62
     7
176
     1
 62
   257
176
     1
 90
        1
176
     1
 90
        1
176
     1
 40
1.0
176
     1
 90
        8
176
     1
 62
   257
176
     1
 40
1.0
176
     1
 90
        1
176
     1
 90
        6
176
     1
 90
        2
176
     1
 62
     7
176
     1
 90
        3
176
     1
 90
        0
176
     1
 90
        0
176
     1
290
     0
176
     1
 90
       13
176
     1
 40
0.0
176
     1
 90
        0
176
     1
290
     0
176
     1
290
     1
176
     1
290
     1
176
     1
290
     0
176
     1
290
     0
176
     1
290
     0
176
     1
290
     0
176
     1
290
     0
176
     1
290
     0
176
     1
 90
       50
176
     1
 40
0.0
176
     1
 40
1.0
176
     1
 90
        0
176
     1
 62
    18
420
        0
176
     1
 90
       50
176
     1
 90
        3
176
     1
 62
     5
420
      255
176
     1
290
     0
176
     1
 90
       50
176
     1
 90
       50
176
     1
 90
       50
176
     1
290
     0
176
     1
 90
       50
176
     1
 62
   256
176
     0
 40
1.0
176
     0
 90
        2
176
     1
  1
strokes_ogs.tif
176
     1
290
     0
176
     1
 40
1.0
176
     1
 40
1.0
176
     1
  0
VISUALSTYLE
  5
42
102
{ACAD_REACTORS
330
2A
102
}
330
2A
100
AcDbVisualStyle
  2
Shaded
 70
    27
177
     3
291
     0
 70
    58
 90
        2
176
     1
 90
        2
176
     1
 90
        1
176
     1
 90
        2
176
     1
 40
0.6
176
     1
 40
30.0
176
     1
 62
     7
420
 16777215
176
     1
 90
        0
176
     1
 90
        4
176
     1
 62
     7
176
     1
 62
   257
176
     1
 90
        1
176
     1
 90
        1
176
     1
 40
1.0
176
     1
 90
        8
176
     1
 62
   257
176
     1
 40
1.0
176
     1
 90
        1
176
     1
 90
        6
176
     1
 90
        2
176
     1
 62
     8
420
  7895160
176
     1
 90
        3
176
     1
 90
        0
176
     1
 90
        0
176
     1
290
     0
176
     1
 90
        5
176
     1
 40
0.0
176
     1
 90
        0
176
     1
290
     0
176
     1
290
     1
176
     1
290
     1
176
     1
290
     0
176
     1
290
     0
176
     1
290
     0
176
     1
290
     0
176
     1
290
     0
176
     1
290
     0
176
     1
 90
       50
176
     1
 40
0.0
176
     1
 40
1.0
176
     1
 90
        0
176
     1
 62
    18
420
        0
176
     1
 90
       50
176
     1
 90
        3
176
     1
 62
     5
420
      255
176
     1
290
     0
176
     1
 90
       50
176
     1
 90
       50
176
     1
 90
       50
176
     1
290
     0
176
     1
 90
       50
176
     1
 62
   256
176
     0
 40
1.0
176
     0
 90
        2
176
     1
  1
strokes_ogs.tif
176
     1
290
     0
176
     1
 40
1.0
176
     1
 40
1.0
176
     1
  0
VISUALSTYLE
  5
41
102
{ACAD_REACTORS
330
2A
102
}
330
2A
100
AcDbVisualStyle
  2
Shaded with edges
 70
    26
177
     3
291
     0
 70
    58
 90
        2
176
     1
 90
        2
176
     1
 90
        1
176
     1
 90
        2
176
     1
 40
0.6
176
     1
 40
30.0
176
     1
 62
     7
420
 16777215
176
     1
 90
        1
176
     1
 90
       10
176
     1
 62
     7
176
     1
 62
   257
176
     1
 90
        2
176
     1
 90
        1
176
     1
 40
1.0
176
     1
 90
        8
176
     1
 62
   257
176
     1
 40
1.0
176
     1
 90
        1
176
     1
 90
        6
176
     1
 90
        2
176
     1
 62
     7
176
     1
 90
        3
176
     1
 90
        0
176
     1
 90
        0
176
     1
290
     0
176
     1
 90
        5
176
     1
 40
0.0
176
     1
 90
        0
176
     1
290
     0
176
     1
290
     1
176
     1
290
     1
176
     1
290
     0
176
     1
290
     0
176
     1
290
     0
176
     1
290
     0
176
     1
290
     0
176
     1
290
     0
176
     1
 90
       50
176
     1
 40
0.0
176
     1
 40
1.0
176
     1
 90
        0
176
     1
 62
    18
420
        0
176
     1
 90
       50
176
     1
 90
        3
176
     1
 62
     5
420
      255
176
     1
290
     0
176
     1
 90
       50
176
     1
 90
       50
176
     1
 90
       50
176
     1
290
     0
176
     1
 90
       50
176
     1
 62
   256
176
     0
 40
1.0
176
     0
 90
        2
176
     1
  1
strokes_ogs.tif
176
     1
290
     0
176
     1
 40
1.0
176
     1
 40
1.0
176
     1
  0
VISUALSTYLE
  5
3E
102
{ACAD_REACTORS
330
2A
102
}
330
2A
100
AcDbVisualStyle
  2
Shades of Gray
 70
    23
177
     3
291
     0
 70
    58
 90
        2
176
     1
 90
        2
176
     1
 90
        3
176
     1
 90
        0
176
     1
 40
0.6
176
     1
 40
30.0
176
     1
 62
     7
420
 16777215
176
     1
 90
        2
176
     1
 90
        2
176
     1
 62
     7
176
     1
 62
     7
176
     1
 90
        1
176
     1
 90
        1
176
     1
 40
40.0
176
     1
 90
        8
176
     1
 62
     7
176
     1
 40
1.0
176
     1
 90
        1
176
     1
 90
        6
176
     1
 90
        2
176
     1
 62
     7
176
     1
 90
        3
176
     1
 90
        0
176
     1
 90
        0
176
     1
290
     0
176
     1
 90
        1
176
     1
 40
0.0
176
     1
 90
        0
176
     1
290
     0
176
     1
290
     1
176
     1
290
     1
176
     1
290
     0
176
     1
290
     0
176
     1
290
     0
176
     1
290
     0
176
     1
290
     0
176
     1
290
     0
176
     1
 90
       50
176
     1
 40
0.0
176
     1
 40
1.0
176
     1
 90
        0
176
     1
 62
    18
420
        0
176
     1
 90
       50
176
     1
 90
        3
176
     1
 62
     5
420
      255
176
     1
290
     0
176
     1
 90
       50
176
     1
 90
       50
176
     1
 90
       50
176
     1
290
     0
176
     1
 90
       50
176
     1
 62
   256
176
     0
 40
1.0
176
     0
 90
        2
176
     1
  1
strokes_ogs.tif
176
     1
290
     0
176
     1
 40
1.0
176
     1
 40
1.0
176
     1
  0
VISUALSTYLE
  5
3F
102
{ACAD_REACTORS
330
2A
102
}
330
2A
100
AcDbVisualStyle
  2
Sketchy
 70
    24
177
     3
291
     0
 70
    58
 90
        1
176
     1
 90
        2
176
     1
 90
        2
176
     1
 90
        0
176
     1
 40
0.6
176
     1
 40
30.0
176
     1
 62
     7
420
 16777215
176
     1
 90
        2
176
     1
 90
        2
176
     1
 62
     7
176
     1
 62
     7
176
     1
 90
        1
176
     1
 90
        1
176
     1
 40
40.0
176
     1
 90
       11
176
     1
 62
     7
176
     1
 40
1.0
176
     1
 90
        1
176
     1
 90
        6
176
     1
 90
        2
176
     1
 62
     7
176
     1
 90
        6
176
     1
 90
        0
176
     1
 90
        0
176
     1
290
     0
176
     1
 90
        1
176
     1
 40
0.0
176
     1
 90
        0
176
     1
290
     0
176
     1
290
     1
176
     1
290
     1
176
     1
290
     0
176
     1
290
     0
176
     1
290
     0
176
     1
290
     0
176
     1
290
     0
176
     1
290
     0
176
     1
 90
       50
176
     1
 40
0.0
176
     1
 40
1.0
176
     1
 90
        0
176
     1
 62
    18
420
        0
176
     1
 90
       50
176
     1
 90
        3
176
     1
 62
     5
420
      255
176
     1
290
     0
176
     1
 90
       50
176
     1
 90
       50
176
     1
 90
       50
176
     1
290
     0
176
     1
 90
       50
176
     1
 62
   256
176
     0
 40
1.0
176
     0
 90
        2
176
     1
  1
strokes_ogs.tif
176
     1
290
     0
176
     1
 40
1.0
176
     1
 40
1.0
176
     1
  0
VISUALSTYLE
  5
37
102
{ACAD_REACTORS
330
2A
102
}
330
2A
100
AcDbVisualStyle
  2
Thicken
 70
    13
177
     3
291
     1
 70
    58
 90
        2
176
     1
 90
        2
176
     1
 90
        0
176
     1
 90
        0
176
     1
 40
0.6
176
     1
 40
30.0
176
     1
 62
     7
420
 16777215
176
     1
 90
        1
176
     1
 90
        4
176
     1
 62
     7
176
     1
 62
   257
176
     1
 90
        1
176
     1
 90
        1
176
     1
 40
1.0
176
     1
 90
       12
176
     1
 62
     7
176
     1
 40
1.0
176
     1
 90
        1
176
     1
 90
        6
176
     1
 90
        2
176
     1
 62
     7
176
     1
 90
        5
176
     1
 90
        0
176
     1
 90
        0
176
     1
290
     0
176
     1
 90
        1
176
     1
 40
0.0
176
     1
 90
        0
176
     1
290
     0
176
     1
290
     1
176
     1
290
     1
176
     1
290
     0
176
     1
290
     0
176
     1
290
     0
176
     1
290
     0
176
     1
290
     0
176
     1
290
     0
176
     1
 90
       50
176
     1
 40
0.0
176
     1
 40
1.0
176
     1
 90
        0
176
     1
 62
    18
420
        0
176
     1
 90
       50
176
     1
 90
        3
176
     1
 62
     5
420
      255
176
     1
290
     0
176
     1
 90
       50
176
     1
 90
       50
176
     1
 90
       50
176
     1
290
     0
176
     1
 90
       50
176
     1
 62
   256
176
     0
 40
1.0
176
     0
 90
        2
176
     1
  1
strokes_ogs.tif
176
     1
290
     0
176
     1
 40
1.0
176
     1
 40
1.0
176
     1
  0
VISUALSTYLE
  5
30
102
{ACAD_REACTORS
330
2A
102
}
330
2A
100
AcDbVisualStyle
  2
Wireframe
 70
     5
177
     3
291
     0
 70
    58
 90
        0
176
     1
 90
        2
176
     1
 90
        0
176
     1
 90
        0
176
     1
 40
0.6
176
     1
 40
30.0
176
     1
 62
     7
420
 16777215
176
     1
 90
        1
176
     1
 90
        4
176
     1
 62
     7
176
     1
 62
   257
176
     1
 90
        1
176
     1
 90
        1
176
     1
 40
1.0
176
     1
 90
        0
176
     1
 62
   257
176
     1
 40
1.0
176
     1
 90
        1
176
     1
 90
        6
176
     1
 90
        2
176
     1
 62
     7
176
     1
 90
        3
176
     1
 90
        0
176
     1
 90
        0
176
     1
290
     0
176
     1
 90
        1
176
     1
 40
0.0
176
     1
 90
        0
176
     1
290
     0
176
     1
290
     1
176
     1
290
     1
176
     1
290
     0
176
     1
290
     0
176
     1
290
     0
176
     1
290
     0
176
     1
290
     0
176
     1
290
     0
176
     1
 90
       50
176
     1
 40
0.0
176
     1
 40
1.0
176
     1
 90
        0
176
     1
 62
    18
420
        0
176
     1
 90
       50
176
     1
 90
        3
176
     1
 62
     5
420
      255
176
     1
290
     0
176
     1
 90
       50
176
     1
 90
       50
176
     1
 90
       50
176
     1
290
     0
176
     1
 90
       50
176
     1
 62
   256
176
     0
 40
1.0
176
     0
 90
        2
176
     1
  1
strokes_ogs.tif
176
     1
290
     0
176
     1
 40
1.0
176
     1
 40
1.0
176
     1
  0
VISUALSTYLE
  5
40
102
{ACAD_REACTORS
330
2A
102
}
330
2A
100
AcDbVisualStyle
  2
X-Ray
 70
    25
177
     3
291
     0
 70
    58
 90
        2
176
     1
 90
        2
176
     1
 90
        1
176
     1
 90
        1
176
     1
 40
0.5
176
     1
 40
30.0
176
     1
 62
     7
420
 16777215
176
     1
 90
        1
176
     1
 90
        0
176
     1
 62
     7
176
     1
 62
   257
176
     1
 90
        1
176
     1
 90
        1
176
     1
 40
1.0
176
     1
 90
        8
176
     1
 62
     7
176
     1
 40
1.0
176
     1
 90
        1
176
     1
 90
        6
176
     1
 90
        2
176
     1
 62
     7
176
     1
 90
        3
176
     1
 90
        0
176
     1
 90
        0
176
     1
290
     0
176
     1
 90
       13
176
     1
 40
0.0
176
     1
 90
        0
176
     1
290
     0
176
     1
290
     1
176
     1
290
     1
176
     1
290
     0
176
     1
290
     0
176
     1
290
     0
176
     1
290
     0
176
     1
290
     0
176
     1
290
     0
176
     1
 90
       50
176
     1
 40
0.0
176
     1
 40
1.0
176
     1
 90
        0
176
     1
 62
    18
420
        0
176
     1
 90
       50
176
     1
 90
        3
176
     1
 62
     5
420
      255
176
     1
290
     0
176
     1
 90
       50
176
     1
 90
       50
176
     1
 90
       50
176
     1
290
     0
176
     1
 90
       50
176
     1
 62
   256
176
     0
 40
1.0
176
     0
 90
        2
176
     1
  1
strokes_ogs.tif
176
     1
290
     0
176
     1
 40
1.0
176
     1
 40
1.0
176
     1
  0
DICTIONARYVAR
  5
1C3
102
{ACAD_REACTORS
330
1C2
102
}
330
1C2
100
DictionaryVariables
280
     0
  1
1:1
  0
DICTIONARYVAR
  5
1C8
102
{ACAD_REACTORS
330
1C2
102
}
330
1C2
100
DictionaryVariables
280
     0
  1
Standard
  0
DICTIONARYVAR
  5
1C7
102
{ACAD_REACTORS
330
1C2
102
}
330
1C2
100
DictionaryVariables
280
     0
  1
Standard
  0
DICTIONARY
  5
1C4
330
6A
100
AcDbDictionary
280
     1
281
     1
  3
ACAD_ROUNDTRIP_2008_TABLESTYLE_CELLSTYLEMAP
360
1C5
  0
CELLSTYLEMAP
  5
1C5
102
{ACAD_REACTORS
330
1C4
102
}
330
1C4
100
AcDbCellStyleMap
 90
        3
300
CELLSTYLE
  1
TABLEFORMAT_BEGIN
 90
        5
170
     1
 91
        0
 92
    32768
 62
   257
 93
        1
300
CONTENTFORMAT
  1
CONTENTFORMAT_BEGIN
 90
        0
 91
        0
 92
        4
 93
        0
300

 40
0.0
140
1.0
 94
        5
 62
     0
340
11
144
0.25
309
CONTENTFORMAT_END
171
     1
301
MARGIN
  1
CELLMARGIN_BEGIN
 40
0.06
 40
0.06
 40
0.06
 40
0.06
 40
0.06
 40
0.06
309
CELLMARGIN_END
 94
        6
 95
        1
302
GRIDFORMAT
  1
GRIDFORMAT_BEGIN
 90
        0
 91
        1
 62
     0
 92
       -2
340
14
 93
        0
 40
0.045
309
GRIDFORMAT_END
 95
        2
302
GRIDFORMAT
  1
GRIDFORMAT_BEGIN
 90
        0
 91
        1
 62
     0
 92
       -2
340
14
 93
        0
 40
0.045
309
GRIDFORMAT_END
 95
        4
302
GRIDFORMAT
  1
GRIDFORMAT_BEGIN
 90
        0
 91
        1
 62
     0
 92
       -2
340
14
 93
        0
 40
0.045
309
GRIDFORMAT_END
 95
        8
302
GRIDFORMAT
  1
GRIDFORMAT_BEGIN
 90
        0
 91
        1
 62
     0
 92
       -2
340
14
 93
        0
 40
0.045
309
GRIDFORMAT_END
 95
       16
302
GRIDFORMAT
  1
GRIDFORMAT_BEGIN
 90
        0
 91
        1
 62
     0
 92
       -2
340
14
 93
        0
 40
0.045
309
GRIDFORMAT_END
 95
       32
302
GRIDFORMAT
  1
GRIDFORMAT_BEGIN
 90
        0
 91
        1
 62
     0
 92
       -2
340
14
 93
        0
 40
0.045
309
GRIDFORMAT_END
309
TABLEFORMAT_END
  1
CELLSTYLE_BEGIN
 90
        1
 91
        1
300
_TITLE
309
CELLSTYLE_END
300
CELLSTYLE
  1
TABLEFORMAT_BEGIN
 90
        5
170
     1
 91
        0
 92
        0
 62
   257
 93
        1
300
CONTENTFORMAT
  1
CONTENTFORMAT_BEGIN
 90
        0
 91
        0
 92
        4
 93
        0
300

 40
0.0
140
1.0
 94
        5
 62
     0
340
11
144
0.18
309
CONTENTFORMAT_END
171
     1
301
MARGIN
  1
CELLMARGIN_BEGIN
 40
0.06
 40
0.06
 40
0.06
 40
0.06
 40
0.06
 40
0.06
309
CELLMARGIN_END
 94
        6
 95
        1
302
GRIDFORMAT
  1
GRIDFORMAT_BEGIN
 90
        0
 91
        1
 62
     0
 92
       -2
340
14
 93
        0
 40
0.045
309
GRIDFORMAT_END
 95
        2
302
GRIDFORMAT
  1
GRIDFORMAT_BEGIN
 90
        0
 91
        1
 62
     0
 92
       -2
340
14
 93
        0
 40
0.045
309
GRIDFORMAT_END
 95
        4
302
GRIDFORMAT
  1
GRIDFORMAT_BEGIN
 90
        0
 91
        1
 62
     0
 92
       -2
340
14
 93
        0
 40
0.045
309
GRIDFORMAT_END
 95
        8
302
GRIDFORMAT
  1
GRIDFORMAT_BEGIN
 90
        0
 91
        1
 62
     0
 92
       -2
340
14
 93
        0
 40
0.045
309
GRIDFORMAT_END
 95
       16
302
GRIDFORMAT
  1
GRIDFORMAT_BEGIN
 90
        0
 91
        1
 62
     0
 92
       -2
340
14
 93
        0
 40
0.045
309
GRIDFORMAT_END
 95
       32
302
GRIDFORMAT
  1
GRIDFORMAT_BEGIN
 90
        0
 91
        1
 62
     0
 92
       -2
340
14
 93
        0
 40
0.045
309
GRIDFORMAT_END
309
TABLEFORMAT_END
  1
CELLSTYLE_BEGIN
 90
        2
 91
        1
300
_HEADER
309
CELLSTYLE_END
300
CELLSTYLE
  1
TABLEFORMAT_BEGIN
 90
        5
170
     1
 91
        0
 92
        0
 62
   257
 93
        1
300
CONTENTFORMAT
  1
CONTENTFORMAT_BEGIN
 90
        0
 91
        0
 92
        4
 93
        0
300

 40
0.0
140
1.0
 94
        2
 62
     0
340
11
144
0.18
309
CONTENTFORMAT_END
171
     1
301
MARGIN
  1
CELLMARGIN_BEGIN
 40
0.06
 40
0.06
 40
0.06
 40
0.06
 40
0.06
 40
0.06
309
CELLMARGIN_END
 94
        6
 95
        1
302
GRIDFORMAT
  1
GRIDFORMAT_BEGIN
 90
        0
 91
        1
 62
     0
 92
       -2
340
14
 93
        0
 40
0.045
309
GRIDFORMAT_END
 95
        2
302
GRIDFORMAT
  1
GRIDFORMAT_BEGIN
 90
        0
 91
        1
 62
     0
 92
       -2
340
14
 93
        0
 40
0.045
309
GRIDFORMAT_END
 95
        4
302
GRIDFORMAT
  1
GRIDFORMAT_BEGIN
 90
        0
 91
        1
 62
     0
 92
       -2
340
14
 93
        0
 40
0.045
309
GRIDFORMAT_END
 95
        8
302
GRIDFORMAT
  1
GRIDFORMAT_BEGIN
 90
        0
 91
        1
 62
     0
 92
       -2
340
14
 93
        0
 40
0.045
309
GRIDFORMAT_END
 95
       16
302
GRIDFORMAT
  1
GRIDFORMAT_BEGIN
 90
        0
 91
        1
 62
     0
 92
       -2
340
14
 93
        0
 40
0.045
309
GRIDFORMAT_END
 95
       32
302
GRIDFORMAT
  1
GRIDFORMAT_BEGIN
 90
        0
 91
        1
 62
     0
 92
       -2
340
14
 93
        0
 40
0.045
309
GRIDFORMAT_END
309
TABLEFORMAT_END
  1
CELLSTYLE_BEGIN
 90
        3
 91
        2
300
_DATA
309
CELLSTYLE_END
  0
ENDSEC
  0
EOF