0
SECTION
  2
HEADER
  9
$ACADVER
  1
AC1027
  9
$ACADMAINTVER
 70
     8
  9
$DWGCODEPAGE
  3
ANSI_1252
  9
$REQUIREDVERSIONS
160
                 0
  9
$COMMENTS
  1
File was created by Cadenas
  9
$CUSTOMPROPERTYTAG
  1
NN
  9
$CUSTOMPROPERTY
  1
Set Screw LF  Normal Duty 3-Bolt Flange Metric Bore
  9
$CUSTOMPROPERTYTAG
  1
NT
  9
$CUSTOMPROPERTY
  1
SC 3 Bolt Flange Bearings -(Normal Duty) -Re-Lube and No-Lube
  9
$CUSTOMPROPERTYTAG
  1
NB
  9
$CUSTOMPROPERTY
  1
125384
  9
$CUSTOMPROPERTYTAG
  1
NBSYN
  9
$CUSTOMPROPERTY
  1
$PN.
  9
$CUSTOMPROPERTYTAG
  1
LINA
  9
$CUSTOMPROPERTY
  1
125384
  9
$CUSTOMPROPERTYTAG
  1
SERIES
  9
$CUSTOMPROPERTY
  1
204
  9
$CUSTOMPROPERTYTAG
  1
SS
  9
$CUSTOMPROPERTY
  1
20
  9
$CUSTOMPROPERTYTAG
  1
PN
  9
$CUSTOMPROPERTY
  1
125384
  9
$CUSTOMPROPERTYTAG
  1
DESCRIPTION
  9
$CUSTOMPROPERTY
  1
LF-SC-20M-NL
  9
$CUSTOMPROPERTYTAG
  1
W
  9
$CUSTOMPROPERTY
  1
0.38
  9
$CUSTOMPROPERTYTAG
  1
LF
  9
$CUSTOMPROPERTY
  1
NO-LUBE
  9
$CUSTOMPROPERTYTAG
  1
A
  9
$CUSTOMPROPERTY
  1
25.9
  9
$CUSTOMPROPERTYTAG
  1
B
  9
$CUSTOMPROPERTY
  1
90.4
  9
$CUSTOMPROPERTYTAG
  1
C
  9
$CUSTOMPROPERTY
  1
30.7
  9
$CUSTOMPROPERTYTAG
  1
D
  9
$CUSTOMPROPERTY
  1
71.4
  9
$CUSTOMPROPERTYTAG
  1
G
  9
$CUSTOMPROPERTY
  1
8.6
  9
$CUSTOMPROPERTYTAG
  1
H
  9
$CUSTOMPROPERTY
  1
10.7
  9
$CUSTOMPROPERTYTAG
  1
J
  9
$CUSTOMPROPERTY
  1
9.1
  9
$CUSTOMPROPERTYTAG
  1
L
  9
$CUSTOMPROPERTY
  1
28.4
  9
$CUSTOMPROPERTYTAG
  1
M
  9
$CUSTOMPROPERTY
  1
45.2
  9
$CUSTOMPROPERTYTAG
  1
N
  9
$CUSTOMPROPERTY
  1
39.6
  9
$CUSTOMPROPERTYTAG
  1
COMPANY
  9
$CUSTOMPROPERTY
  1
baldor
  9
$INSBASE
 10
0.0
 20
0.0
 30
0.0
  9
$EXTMIN
 10
1.000000000000000E+20
 20
1.000000000000000E+20
 30
1.000000000000000E+20
  9
$EXTMAX
 10
-1.000000000000000E+20
 20
-1.000000000000000E+20
 30
-1.000000000000000E+20
  9
$LIMMIN
 10
0.0
 20
0.0
  9
$LIMMAX
 10
420.0
 20
297.0
  9
$ORTHOMODE
 70
     0
  9
$REGENMODE
 70
     1
  9
$FILLMODE
 70
     1
  9
$QTEXTMODE
 70
     0
  9
$MIRRTEXT
 70
     1
  9
$LTSCALE
 40
1.0
  9
$ATTMODE
 70
     1
  9
$TEXTSIZE
 40
2.5
  9
$TRACEWID
 40
1.0
  9
$TEXTSTYLE
  7
Standard
  9
$CLAYER
  8
0
  9
$CELTYPE
  6
ByLayer
  9
$CECOLOR
 62
   256
  9
$CELTSCALE
 40
1.0
  9
$DISPSILH
 70
     0
  9
$DIMSCALE
 40
1.0
  9
$DIMASZ
 40
2.5
  9
$DIMEXO
 40
0.625
  9
$DIMDLI
 40
3.75
  9
$DIMRND
 40
0.0
  9
$DIMDLE
 40
0.0
  9
$DIMEXE
 40
1.25
  9
$DIMTP
 40
0.0
  9
$DIMTM
 40
0.0
  9
$DIMTXT
 40
2.5
  9
$DIMCEN
 40
2.5
  9
$DIMTSZ
 40
0.0
  9
$DIMTOL
 70
     0
  9
$DIMLIM
 70
     0
  9
$DIMTIH
 70
     0
  9
$DIMTOH
 70
     0
  9
$DIMSE1
 70
     0
  9
$DIMSE2
 70
     0
  9
$DIMTAD
 70
     1
  9
$DIMZIN
 70
     8
  9
$DIMBLK
  1

  9
$DIMASO
 70
     1
  9
$DIMSHO
 70
     1
  9
$DIMPOST
  1

  9
$DIMAPOST
  1

  9
$DIMALT
 70
     0
  9
$DIMALTD
 70
     3
  9
$DIMALTF
 40
0.03937007874016
  9
$DIMLFAC
 40
1.0
  9
$DIMTOFL
 70
     1
  9
$DIMTVP
 40
0.0
  9
$DIMTIX
 70
     0
  9
$DIMSOXD
 70
     0
  9
$DIMSAH
 70
     0
  9
$DIMBLK1
  1

  9
$DIMBLK2
  1

  9
$DIMSTYLE
  2
ISO-25
  9
$DIMCLRD
 70
     0
  9
$DIMCLRE
 70
     0
  9
$DIMCLRT
 70
     0
  9
$DIMTFAC
 40
1.0
  9
$DIMGAP
 40
0.625
  9
$DIMJUST
 70
     0
  9
$DIMSD1
 70
     0
  9
$DIMSD2
 70
     0
  9
$DIMTOLJ
 70
     0
  9
$DIMTZIN
 70
     8
  9
$DIMALTZ
 70
     0
  9
$DIMALTTZ
 70
     0
  9
$DIMUPT
 70
     0
  9
$DIMDEC
 70
     2
  9
$DIMTDEC
 70
     2
  9
$DIMALTU
 70
     2
  9
$DIMALTTD
 70
     3
  9
$DIMTXSTY
  7
Standard
  9
$DIMAUNIT
 70
     0
  9
$DIMADEC
 70
     0
  9
$DIMALTRND
 40
0.0
  9
$DIMAZIN
 70
     0
  9
$DIMDSEP
 70
    44
  9
$DIMATFIT
 70
     3
  9
$DIMFRAC
 70
     0
  9
$DIMLDRBLK
  1

  9
$DIMLUNIT
 70
     2
  9
$DIMLWD
 70
    -2
  9
$DIMLWE
 70
    -2
  9
$DIMTMOVE
 70
     0
  9
$DIMFXL
 40
1.0
  9
$DIMFXLON
 70
     0
  9
$DIMJOGANG
 40
0.7853981633974483
  9
$DIMTFILL
 70
     0
  9
$DIMTFILLCLR
 70
     0
  9
$DIMARCSYM
 70
     0
  9
$DIMLTYPE
  6

  9
$DIMLTEX1
  6

  9
$DIMLTEX2
  6

  9
$DIMTXTDIRECTION
 70
     0
  9
$LUNITS
 70
     2
  9
$LUPREC
 70
     4
  9
$SKETCHINC
 40
1.0
  9
$FILLETRAD
 40
10.0
  9
$AUNITS
 70
     0
  9
$AUPREC
 70
     0
  9
$MENU
  1
.
  9
$ELEVATION
 40
0.0
  9
$PELEVATION
 40
0.0
  9
$THICKNESS
 40
0.0
  9
$LIMCHECK
 70
     0
  9
$CHAMFERA
 40
0.0
  9
$CHAMFERB
 40
0.0
  9
$CHAMFERC
 40
0.0
  9
$CHAMFERD
 40
0.0
  9
$SKPOLY
 70
     0
  9
$TDCREATE
 40
2458169.004655833
  9
$TDUCREATE
 40
2458168.962989167
  9
$TDUPDATE
 40
2458169.004656019
  9
$TDUUPDATE
 40
2458168.962989352
  9
$TDINDWG
 40
0.0000000116
  9
$TDUSRTIMER
 40
0.0000000116
  9
$USRTIMER
 70
     1
  9
$ANGBASE
 50
0.0
  9
$ANGDIR
 70
     0
  9
$PDMODE
 70
     0
  9
$PDSIZE
 40
0.0
  9
$PLINEWID
 40
0.0
  9
$SPLFRAME
 70
     0
  9
$SPLINETYPE
 70
     6
  9
$SPLINESEGS
 70
     8
  9
$HANDSEED
  5
1AB
  9
$SURFTAB1
 70
     6
  9
$SURFTAB2
 70
     6
  9
$SURFTYPE
 70
     6
  9
$SURFU
 70
     6
  9
$SURFV
 70
     6
  9
$UCSBASE
  2

  9
$UCSNAME
  2

  9
$UCSORG
 10
0.0
 20
0.0
 30
0.0
  9
$UCSXDIR
 10
1.0
 20
0.0
 30
0.0
  9
$UCSYDIR
 10
0.0
 20
1.0
 30
0.0
  9
$UCSORTHOREF
  2

  9
$UCSORTHOVIEW
 70
     0
  9
$UCSORGTOP
 10
0.0
 20
0.0
 30
0.0
  9
$UCSORGBOTTOM
 10
0.0
 20
0.0
 30
0.0
  9
$UCSORGLEFT
 10
0.0
 20
0.0
 30
0.0
  9
$UCSORGRIGHT
 10
0.0
 20
0.0
 30
0.0
  9
$UCSORGFRONT
 10
0.0
 20
0.0
 30
0.0
  9
$UCSORGBACK
 10
0.0
 20
0.0
 30
0.0
  9
$PUCSBASE
  2

  9
$PUCSNAME
  2

  9
$PUCSORG
 10
0.0
 20
0.0
 30
0.0
  9
$PUCSXDIR
 10
1.0
 20
0.0
 30
0.0
  9
$PUCSYDIR
 10
0.0
 20
1.0
 30
0.0
  9
$PUCSORTHOREF
  2

  9
$PUCSORTHOVIEW
 70
     0
  9
$PUCSORGTOP
 10
0.0
 20
0.0
 30
0.0
  9
$PUCSORGBOTTOM
 10
0.0
 20
0.0
 30
0.0
  9
$PUCSORGLEFT
 10
0.0
 20
0.0
 30
0.0
  9
$PUCSORGRIGHT
 10
0.0
 20
0.0
 30
0.0
  9
$PUCSORGFRONT
 10
0.0
 20
0.0
 30
0.0
  9
$PUCSORGBACK
 10
0.0
 20
0.0
 30
0.0
  9
$USERI1
 70
     0
  9
$USERI2
 70
     0
  9
$USERI3
 70
     0
  9
$USERI4
 70
     0
  9
$USERI5
 70
     0
  9
$USERR1
 40
0.0
  9
$USERR2
 40
0.0
  9
$USERR3
 40
0.0
  9
$USERR4
 40
0.0
  9
$USERR5
 40
0.0
  9
$WORLDVIEW
 70
     1
  9
$SHADEDGE
 70
     3
  9
$SHADEDIF
 70
    70
  9
$TILEMODE
 70
     1
  9
$MAXACTVP
 70
    64
  9
$PINSBASE
 10
0.0
 20
0.0
 30
0.0
  9
$PLIMCHECK
 70
     0
  9
$PEXTMIN
 10
1.000000000000000E+20
 20
1.000000000000000E+20
 30
1.000000000000000E+20
  9
$PEXTMAX
 10
-1.000000000000000E+20
 20
-1.000000000000000E+20
 30
-1.000000000000000E+20
  9
$PLIMMIN
 10
0.0
 20
0.0
  9
$PLIMMAX
 10
420.0
 20
297.0
  9
$UNITMODE
 70
     0
  9
$VISRETAIN
 70
     1
  9
$PLINEGEN
 70
     0
  9
$PSLTSCALE
 70
     1
  9
$TREEDEPTH
 70
  3020
  9
$CMLSTYLE
  2
Standard
  9
$CMLJUST
 70
     0
  9
$CMLSCALE
 40
20.0
  9
$PROXYGRAPHICS
 70
     1
  9
$MEASUREMENT
 70
     1
  9
$CELWEIGHT
370
    -1
  9
$ENDCAPS
280
     0
  9
$JOINSTYLE
280
     0
  9
$LWDISPLAY
290
     0
  9
$INSUNITS
 70
     4
  9
$HYPERLINKBASE
  1

  9
$STYLESHEET
  1

  9
$XEDIT
290
     1
  9
$CEPSNTYPE
380
     0
  9
$PSTYLEMODE
290
     1
  9
$FINGERPRINTGUID
  2
{5A99A4AF-04AE-41F8-A180-7770247D47B6}
  9
$VERSIONGUID
  2
{FAEB1C32-E019-11D5-929B-00C0DF256EC4}
  9
$EXTNAMES
290
     1
  9
$PSVPSCALE
 40
0.0
  9
$OLESTARTUP
290
     0
  9
$SORTENTS
280
   127
  9
$INDEXCTL
280
     0
  9
$HIDETEXT
280
     1
  9
$XCLIPFRAME
280
     2
  9
$HALOGAP
280
     0
  9
$OBSCOLOR
 70
   257
  9
$OBSLTYPE
280
     0
  9
$INTERSECTIONDISPLAY
280
     0
  9
$INTERSECTIONCOLOR
 70
   257
  9
$DIMASSOC
280
     2
  9
$PROJECTNAME
  1

  9
$CAMERADISPLAY
290
     0
  9
$LENSLENGTH
 40
50.0
  9
$CAMERAHEIGHT
 40
0.0
  9
$STEPSPERSEC
 40
2.0
  9
$STEPSIZE
 40
6.0
  9
$3DDWFPREC
 40
2.0
  9
$PSOLWIDTH
 40
5.0
  9
$PSOLHEIGHT
 40
80.0
  9
$LOFTANG1
 40
1.570796326794897
  9
$LOFTANG2
 40
1.570796326794897
  9
$LOFTMAG1
 40
0.0
  9
$LOFTMAG2
 40
0.0
  9
$LOFTPARAM
 70
     7
  9
$LOFTNORMALS
280
     1
  9
$LATITUDE
 40
37.795
  9
$LONGITUDE
 40
-122.394
  9
$NORTHDIRECTION
 40
0.0
  9
$TIMEZONE
 70
 -8000
  9
$LIGHTGLYPHDISPLAY
280
     1
  9
$TILEMODELIGHTSYNCH
280
     1
  9
$CMATERIAL
347
44
  9
$SOLIDHIST
280
     0
  9
$SHOWHIST
280
     1
  9
$DWFFRAME
280
     2
  9
$DGNFRAME
280
     2
  9
$REALWORLDSCALE
290
     1
  9
$INTERFERECOLOR
 62
   256
  9
$CSHADOW
280
     0
  9
$SHADOWPLANELOCATION
 40
0.0
  0
ENDSEC
  0
SECTION
  2
CLASSES
  0
CLASS
  1
ACDBDICTIONARYWDFLT
  2
AcDbDictionaryWithDefault
  3
ObjectDBX Classes
 90
        0
 91
        4
280
     0
281
     0
  0
CLASS
  1
VISUALSTYLE
  2
AcDbVisualStyle
  3
ObjectDBX Classes
 90
     4095
 91
        4
280
     0
281
     0
  0
CLASS
  1
MATERIAL
  2
AcDbMaterial
  3
ObjectDBX Classes
 90
     1153
 91
        4
280
     0
281
     0
  0
CLASS
  1
SCALE
  2
AcDbScale
  3
ObjectDBX Classes
 90
     1153
 91
        4
280
     0
281
     0
  0
CLASS
  1
TABLESTYLE
  2
AcDbTableStyle
  3
ObjectDBX Classes
 90
     4095
 91
        4
280
     0
281
     0
  0
CLASS
  1
MLEADERSTYLE
  2
AcDbMLeaderStyle
  3
ACDB_MLEADERSTYLE_CLASS
 90
     4095
 91
        4
280
     0
281
     0
  0
CLASS
  1
SUN
  2
AcDbSun
  3
SCENEOE
 90
     1153
 91
        4
280
     0
281
     0
  0
CLASS
  1
DICTIONARYVAR
  2
AcDbDictionaryVar
  3
ObjectDBX Classes
 90
        0
 91
        4
280
     0
281
     0
  0
CLASS
  1
CELLSTYLEMAP
  2
AcDbCellStyleMap
  3
ObjectDBX Classes
 90
     1152
 91
        4
280
     0
281
     0
  0
ENDSEC
  0
SECTION
  2
TABLES
  0
TABLE
  2
VPORT
  5
8
330
0
100
AcDbSymbolTable
 70
     1
  0
VPORT
  5
29
330
8
100
AcDbSymbolTableRecord
100
AcDbViewportTableRecord
  2
*Active
 70
     0
 10
0.0
 20
0.0
 11
1.0
 21
1.0
 12
0.0
 22
-16.42250000000001
 13
0.0
 23
0.0
 14
10.0
 24
10.0
 15
10.0
 25
10.0
 16
0.0
 26
0.0
 36
1.0
 17
0.0
 27
0.0
 37
0.0
 40
34.59329999999996
 41
2.383435466024149
 42
50.0
 43
0.0
 44
0.0
 50
0.0
 51
0.0
 71
     0
 72
   100
 73
     1
 74
     3
 75
     0
 76
     0
 77
     0
 78
     0
281
     0
 65
     1
110
0.0
120
0.0
130
0.0
111
1.0
121
0.0
131
0.0
112
0.0
122
1.0
132
0.0
 79
     0
146
0.0
348
2F
 60
     3
 61
     5
292
     1
282
     1
141
0.0
142
0.0
 63
   250
361
6D
  0
ENDTAB
  0
TABLE
  2
LTYPE
  5
5
330
0
100
AcDbSymbolTable
 70
     3
  0
LTYPE
  5
14
330
5
100
AcDbSymbolTableRecord
100
AcDbLinetypeTableRecord
  2
ByBlock
 70
     0
  3

 72
    65
 73
     0
 40
0.0
  0
LTYPE
  5
15
330
5
100
AcDbSymbolTableRecord
100
AcDbLinetypeTableRecord
  2
ByLayer
 70
     0
  3

 72
    65
 73
     0
 40
0.0
  0
LTYPE
  5
16
330
5
100
AcDbSymbolTableRecord
100
AcDbLinetypeTableRecord
  2
Continuous
 70
     0
  3
Solid line
 72
    65
 73
     0
 40
0.0
  0
LTYPE
  5
A0
330
5
100
AcDbSymbolTableRecord
100
AcDbLinetypeTableRecord
  2
Dashed
 70
     0
  3

 72
    65
 73
     2
 40
2.0
 49
1.0
 74
     0
 49
-1.0
 74
     0
  0
LTYPE
  5
DC
330
5
100
AcDbSymbolTableRecord
100
AcDbLinetypeTableRecord
  2
Center
 70
     0
  3

 72
    65
 73
     4
 40
1.5
 49
0.45
 74
     0
 49
-0.5
 74
     0
 49
0.05
 74
     0
 49
-0.5
 74
     0
  0
ENDTAB
  0
TABLE
  2
LAYER
  5
2
330
0
100
AcDbSymbolTable
 70
     7
  0
LAYER
  5
10
330
2
100
AcDbSymbolTableRecord
100
AcDbLayerTableRecord
  2
0
 70
     0
 62
     7
  6
Continuous
370
    -3
390
F
347
46
348
0
  0
LAYER
  5
72
330
2
100
AcDbSymbolTableRecord
100
AcDbLayerTableRecord
  2
AM_6
 70
     0
 62
    -2
  6
Continuous
370
    35
390
F
347
46
348
0
  0
LAYER
  5
A1
330
2
100
AcDbSymbolTableRecord
100
AcDbLayerTableRecord
  2
AM_9
 70
     0
 62
     6
  6
Dashed
370
    25
390
F
347
46
348
0
  0
LAYER
  5
DA
330
2
100
AcDbSymbolTableRecord
100
AcDbLayerTableRecord
  2
AM_5
 70
     0
 62
     3
  6
Continuous
370
    25
390
F
347
46
348
0
  0
LAYER
  5
DD
330
2
100
AcDbSymbolTableRecord
100
AcDbLayerTableRecord
  2
AM_7
 70
     0
 62
     7
  6
Center
370
    25
390
F
347
46
348
0
  0
LAYER
  5
E0
330
2
100
AcDbSymbolTableRecord
100
AcDbLayerTableRecord
  2
AM_4
 70
     0
 62
     7
  6
Continuous
370
    50
390
F
347
46
348
0
  0
LAYER
  5
19E
330
2
100
AcDbSymbolTableRecord
100
AcDbLayerTableRecord
  2
ConnectionPoints
 70
     0
 62
     7
  6
Continuous
370
    50
390
F
347
46
348
0
  0
ENDTAB
  0
TABLE
  2
STYLE
  5
3
330
0
100
AcDbSymbolTable
 70
     1
  0
STYLE
  5
11
330
3
100
AcDbSymbolTableRecord
100
AcDbTextStyleTableRecord
  2
Standard
 70
     0
 40
0.0
 41
1.0
 50
0.0
 71
     0
 42
2.5
  3
txt
  4

  0
ENDTAB
  0
TABLE
  2
VIEW
  5
6
330
0
100
AcDbSymbolTable
 70
     0
  0
ENDTAB
  0
TABLE
  2
UCS
  5
7
330
0
100
AcDbSymbolTable
 70
     0
  0
ENDTAB
  0
TABLE
  2
APPID
  5
9
330
0
100
AcDbSymbolTable
 70
     1
  0
APPID
  5
12
330
9
100
AcDbSymbolTableRecord
100
AcDbRegAppTableRecord
  2
ACAD
 70
     0
  0
ENDTAB
  0
TABLE
  2
DIMSTYLE
  5
A
330
0
100
AcDbSymbolTable
 70
     1
100
AcDbDimStyleTable
  0
DIMSTYLE
105
27
330
A
100
AcDbSymbolTableRecord
100
AcDbDimStyleTableRecord
  2
ISO-25
 70
     0
 41
2.5
 42
0.625
 43
3.75
 44
1.25
 73
     0
 74
     0
 77
     1
 78
     8
140
2.5
141
2.5
143
0.03937007874016
147
0.625
171
     3
172
     1
178
     0
271
     2
272
     2
274
     3
278
    44
283
     0
284
     8
340
11
  0
ENDTAB
  0
TABLE
  2
BLOCK_RECORD
  5
1
330
0
100
AcDbSymbolTable
 70
     5
  0
BLOCK_RECORD
  5
1F
330
1
100
AcDbSymbolTableRecord
100
AcDbBlockTableRecord
  2
*Model_Space
340
22
 70
     0
280
     1
281
     0
  0
BLOCK_RECORD
  5
1B
330
1
100
AcDbSymbolTableRecord
100
AcDbBlockTableRecord
  2
*Paper_Space
340
1E
 70
     0
280
     1
281
     0
  0
BLOCK_RECORD
  5
23
330
1
100
AcDbSymbolTableRecord
100
AcDbBlockTableRecord
  2
*Paper_Space0
340
26
 70
     0
280
     1
281
     0
  0
BLOCK_RECORD
  5
6E
330
1
100
AcDbSymbolTableRecord
100
AcDbBlockTableRecord
  2
1_125384_4
340
0
102
{BLKREFS
331
6F
102
}
 70
     0
280
     1
281
     0
  0
BLOCK_RECORD
  5
89
330
1
100
AcDbSymbolTableRecord
100
AcDbBlockTableRecord
  2
2_077993_0_in_125384_4
340
0
102
{BLKREFS
331
8A
102
}
 70
     0
280
     1
281
     0
  0
BLOCK_RECORD
  5
F7
330
1
100
AcDbSymbolTableRecord
100
AcDbBlockTableRecord
  2
3_430026m_0_in_125384_4
340
0
102
{BLKREFS
331
F8
102
}
 70
     0
280
     1
281
     0
  0
BLOCK_RECORD
  5
10F
330
1
100
AcDbSymbolTableRecord
100
AcDbBlockTableRecord
  2
4_125384H_0_in_125384_4
340
0
102
{BLKREFS
331
110
102
}
 70
     0
280
     1
281
     0
  0
ENDTAB
  0
ENDSEC
  0
SECTION
  2
BLOCKS
  0
BLOCK
  5
20
330
1F
100
AcDbEntity
  8
0
100
AcDbBlockBegin
  2
*Model_Space
 70
     0
 10
0.0
 20
0.0
 30
0.0
  3
*Model_Space
  1

  0
ENDBLK
  5
21
330
1F
100
AcDbEntity
  8
0
100
AcDbBlockEnd
  0
BLOCK
  5
1C
330
1B
100
AcDbEntity
 67
     1
  8
0
100
AcDbBlockBegin
  2
*Paper_Space
 70
     0
 10
0.0
 20
0.0
 30
0.0
  3
*Paper_Space
  1

  0
ENDBLK
  5
1D
330
1B
100
AcDbEntity
 67
     1
  8
0
100
AcDbBlockEnd
  0
BLOCK
  5
24
330
23
100
AcDbEntity
  8
0
100
AcDbBlockBegin
  2
*Paper_Space0
 70
     0
 10
0.0
 20
0.0
 30
0.0
  3
*Paper_Space0
  1

  0
ENDBLK
  5
25
330
23
100
AcDbEntity
  8
0
100
AcDbBlockEnd
  0
BLOCK
  5
70
330
6E
100
AcDbEntity
  8
0
100
AcDbBlockBegin
  2
1_125384_4
 70
     2
 10
0.0
 20
0.0
 30
0.0
  3
1_125384_4
  1

  0
ATTDEF
  5
73
330
6E
100
AcDbEntity
  8
AM_6
100
AcDbText
 10
45.41710691510446
 20
0.5350000000000023
 30
0.0
 40
0.5
  1
Set Screw LF  Normal Duty 3-Bolt Flange Metric Bore
100
AcDbAttributeDefinition
  3

  2
NN
 70
     8
280
     0
  0
ATTDEF
  5
74
330
6E
100
AcDbEntity
  8
AM_6
100
AcDbText
 10
45.41710691510446
 20
0.0350000000000023
 30
0.0
 40
0.5
  1
SC 3 Bolt Flange Bearings -(Normal Duty) -Re-Lube and No-Lube
100
AcDbAttributeDefinition
  3

  2
NT
 70
     8
280
     0
  0
ATTDEF
  5
75
330
6E
100
AcDbEntity
  8
AM_6
100
AcDbText
 10
45.41710691510446
 20
-0.4649999999999977
 30
0.0
 40
0.5
  1
125384
100
AcDbAttributeDefinition
  3

  2
NB
 70
     8
280
     0
  0
ATTDEF
  5
76
330
6E
100
AcDbEntity
  8
AM_6
100
AcDbText
 10
45.41710691510446
 20
-0.9649999999999977
 30
0.0
 40
0.5
  1
$PN.
100
AcDbAttributeDefinition
  3

  2
NBSYN
 70
     8
280
     0
  0
ATTDEF
  5
77
330
6E
100
AcDbEntity
  8
AM_6
100
AcDbText
 10
45.41710691510446
 20
-1.464999999999998
 30
0.0
 40
0.5
  1
125384
100
AcDbAttributeDefinition
  3

  2
LINA
 70
     8
280
     0
  0
ATTDEF
  5
78
330
6E
100
AcDbEntity
  8
AM_6
100
AcDbText
 10
45.41710691510446
 20
-1.964999999999998
 30
0.0
 40
0.5
  1
204
100
AcDbAttributeDefinition
  3

  2
SERIES
 70
     8
280
     0
  0
ATTDEF
  5
79
330
6E
100
AcDbEntity
  8
AM_6
100
AcDbText
 10
45.41710691510446
 20
-2.464999999999998
 30
0.0
 40
0.5
  1
20
100
AcDbAttributeDefinition
  3

  2
SS
 70
     8
280
     0
  0
ATTDEF
  5
7A
330
6E
100
AcDbEntity
  8
AM_6
100
AcDbText
 10
45.41710691510446
 20
-2.964999999999998
 30
0.0
 40
0.5
  1
125384
100
AcDbAttributeDefinition
  3

  2
PN
 70
     8
280
     0
  0
ATTDEF
  5
7B
330
6E
100
AcDbEntity
  8
AM_6
100
AcDbText
 10
45.41710691510446
 20
-3.464999999999998
 30
0.0
 40
0.5
  1
LF-SC-20M-NL
100
AcDbAttributeDefinition
  3

  2
DESCRIPTION
 70
     8
280
     0
  0
ATTDEF
  5
7C
330
6E
100
AcDbEntity
  8
AM_6
100
AcDbText
 10
45.41710691510446
 20
-3.964999999999998
 30
0.0
 40
0.5
  1
0.38
100
AcDbAttributeDefinition
  3

  2
W
 70
     8
280
     0
  0
ATTDEF
  5
7D
330
6E
100
AcDbEntity
  8
AM_6
100
AcDbText
 10
45.41710691510446
 20
-4.464999999999998
 30
0.0
 40
0.5
  1
NO-LUBE
100
AcDbAttributeDefinition
  3

  2
LF
 70
     8
280
     0
  0
ATTDEF
  5
7E
330
6E
100
AcDbEntity
  8
AM_6
100
AcDbText
 10
45.41710691510446
 20
-4.964999999999998
 30
0.0
 40
0.5
  1
25.9
100
AcDbAttributeDefinition
  3

  2
A
 70
     8
280
     0
  0
ATTDEF
  5
7F
330
6E
100
AcDbEntity
  8
AM_6
100
AcDbText
 10
45.41710691510446
 20
-5.464999999999998
 30
0.0
 40
0.5
  1
90.4
100
AcDbAttributeDefinition
  3

  2
B
 70
     8
280
     0
  0
ATTDEF
  5
80
330
6E
100
AcDbEntity
  8
AM_6
100
AcDbText
 10
45.41710691510446
 20
-5.964999999999998
 30
0.0
 40
0.5
  1
30.7
100
AcDbAttributeDefinition
  3

  2
C
 70
     8
280
     0
  0
ATTDEF
  5
81
330
6E
100
AcDbEntity
  8
AM_6
100
AcDbText
 10
45.41710691510446
 20
-6.464999999999998
 30
0.0
 40
0.5
  1
71.4
100
AcDbAttributeDefinition
  3

  2
D
 70
     8
280
     0
  0
ATTDEF
  5
82
330
6E
100
AcDbEntity
  8
AM_6
100
AcDbText
 10
45.41710691510446
 20
-6.964999999999998
 30
0.0
 40
0.5
  1
8.6
100
AcDbAttributeDefinition
  3

  2
G
 70
     8
280
     0
  0
ATTDEF
  5
83
330
6E
100
AcDbEntity
  8
AM_6
100
AcDbText
 10
45.41710691510446
 20
-7.464999999999998
 30
0.0
 40
0.5
  1
10.7
100
AcDbAttributeDefinition
  3

  2
H
 70
     8
280
     0
  0
ATTDEF
  5
84
330
6E
100
AcDbEntity
  8
AM_6
100
AcDbText
 10
45.41710691510446
 20
-7.964999999999998
 30
0.0
 40
0.5
  1
9.1
100
AcDbAttributeDefinition
  3

  2
J
 70
     8
280
     0
  0
ATTDEF
  5
85
330
6E
100
AcDbEntity
  8
AM_6
100
AcDbText
 10
45.41710691510446
 20
-8.464999999999998
 30
0.0
 40
0.5
  1
28.4
100
AcDbAttributeDefinition
  3

  2
L
 70
     8
280
     0
  0
ATTDEF
  5
86
330
6E
100
AcDbEntity
  8
AM_6
100
AcDbText
 10
45.41710691510446
 20
-8.964999999999998
 30
0.0
 40
0.5
  1
45.2
100
AcDbAttributeDefinition
  3

  2
M
 70
     8
280
     0
  0
ATTDEF
  5
87
330
6E
100
AcDbEntity
  8
AM_6
100
AcDbText
 10
45.41710691510446
 20
-9.464999999999998
 30
0.0
 40
0.5
  1
39.6
100
AcDbAttributeDefinition
  3

  2
N
 70
     8
280
     0
  0
ATTDEF
  5
88
330
6E
100
AcDbEntity
  8
AM_6
100
AcDbText
 10
45.41710691510446
 20
-9.964999999999998
 30
0.0
 40
0.5
  1
baldor
100
AcDbAttributeDefinition
  3

  2
COMPANY
 70
     8
280
     0
  0
INSERT
  5
8A
330
6E
100
AcDbEntity
  8
0
100
AcDbBlockReference
  2
2_077993_0_in_125384_4
 10
0.0
 20
0.0
 30
0.0
  0
INSERT
  5
F8
330
6E
100
AcDbEntity
  8
0
100
AcDbBlockReference
  2
3_430026m_0_in_125384_4
 10
0.0
 20
0.0
 30
0.0
  0
INSERT
  5
110
330
6E
100
AcDbEntity
  8
0
100
AcDbBlockReference
  2
4_125384H_0_in_125384_4
 10
0.0
 20
0.0
 30
0.0
  0
ENDBLK
  5
71
330
6E
100
AcDbEntity
  8
0
100
AcDbBlockEnd
  0
BLOCK
  5
8B
330
89
100
AcDbEntity
  8
0
100
AcDbBlockBegin
  2
2_077993_0_in_125384_4
 70
     2
 10
0.0
 20
0.0
 30
0.0
  3
2_077993_0_in_125384_4
  1

  0
ATTDEF
  5
8D
330
89
100
AcDbEntity
  8
AM_6
100
AcDbText
 10
28.48141705936559
 20
-4.799999999999999
 30
0.0
 40
0.5
  1
Set Screw Light Duty Insert with Pin Metric Bore
100
AcDbAttributeDefinition
  3

  2
NN
 70
     8
280
     0
  0
ATTDEF
  5
8E
330
89
100
AcDbEntity
  8
AM_6
100
AcDbText
 10
28.48141705936559
 20
-5.299999999999999
 30
0.0
 40
0.5
  1
SCP Bearing Inserts
100
AcDbAttributeDefinition
  3

  2
NT
 70
     8
280
     0
  0
ATTDEF
  5
8F
330
89
100
AcDbEntity
  8
AM_6
100
AcDbText
 10
28.48141705936559
 20
-5.799999999999999
 30
0.0
 40
0.5
  1
077993
100
AcDbAttributeDefinition
  3

  2
NB
 70
     8
280
     0
  0
ATTDEF
  5
90
330
89
100
AcDbEntity
  8
AM_6
100
AcDbText
 10
28.48141705936559
 20
-6.299999999999999
 30
0.0
 40
0.5
  1
$PN.
100
AcDbAttributeDefinition
  3

  2
NBSYN
 70
     8
280
     0
  0
ATTDEF
  5
91
330
89
100
AcDbEntity
  8
AM_6
100
AcDbText
 10
28.48141705936559
 20
-6.799999999999999
 30
0.0
 40
0.5
  1
077993
100
AcDbAttributeDefinition
  3

  2
LINA
 70
     8
280
     0
  0
ATTDEF
  5
92
330
89
100
AcDbEntity
  8
AM_6
100
AcDbText
 10
28.48141705936559
 20
-7.299999999999999
 30
0.0
 40
0.5
  1
204
100
AcDbAttributeDefinition
  3

  2
SERIES
 70
     8
280
     0
  0
ATTDEF
  5
93
330
89
100
AcDbEntity
  8
AM_6
100
AcDbText
 10
28.48141705936559
 20
-7.799999999999999
 30
0.0
 40
0.5
  1
20
100
AcDbAttributeDefinition
  3

  2
SS
 70
     8
280
     0
  0
ATTDEF
  5
94
330
89
100
AcDbEntity
  8
AM_6
100
AcDbText
 10
28.48141705936559
 20
-8.299999999999999
 30
0.0
 40
0.5
  1
077993
100
AcDbAttributeDefinition
  3

  2
PN
 70
     8
280
     0
  0
ATTDEF
  5
95
330
89
100
AcDbEntity
  8
AM_6
100
AcDbText
 10
28.48141705936559
 20
-8.799999999999999
 30
0.0
 40
0.5
  1
INS-SCP-20M
100
AcDbAttributeDefinition
  3

  2
DESCRIPTION
 70
     8
280
     0
  0
ATTDEF
  5
96
330
89
100
AcDbEntity
  8
AM_6
100
AcDbText
 10
28.48141705936559
 20
-9.299999999999999
 30
0.0
 40
0.5
  1
0.11
100
AcDbAttributeDefinition
  3

  2
WEIGHT
 70
     8
280
     0
  0
ATTDEF
  5
97
330
89
100
AcDbEntity
  8
AM_6
100
AcDbText
 10
28.48141705936559
 20
-9.799999999999999
 30
0.0
 40
0.5
  1
25.9
100
AcDbAttributeDefinition
  3

  2
A
 70
     8
280
     0
  0
ATTDEF
  5
98
330
89
100
AcDbEntity
  8
AM_6
100
AcDbText
 10
28.48141705936559
 20
-10.3
 30
0.0
 40
0.5
  1
14.7
100
AcDbAttributeDefinition
  3

  2
C
 70
     8
280
     0
  0
ATTDEF
  5
99
330
89
100
AcDbEntity
  8
AM_6
100
AcDbText
 10
28.48141705936559
 20
-10.8
 30
0.0
 40
0.5
  1
47.000
100
AcDbAttributeDefinition
  3

  2
D
 70
     8
280
     0
  0
ATTDEF
  5
9A
330
89
100
AcDbEntity
  8
AM_6
100
AcDbText
 10
28.48141705936559
 20
-11.3
 30
0.0
 40
0.5
  1
3.8
100
AcDbAttributeDefinition
  3

  2
J
 70
     8
280
     0
  0
ATTDEF
  5
9B
330
89
100
AcDbEntity
  8
AM_6
100
AcDbText
 10
28.48141705936559
 20
-11.8
 30
0.0
 40
0.5
  1
28.4
100
AcDbAttributeDefinition
  3

  2
L
 70
     8
280
     0
  0
ATTDEF
  5
9C
330
89
100
AcDbEntity
  8
AM_6
100
AcDbText
 10
28.48141705936559
 20
-12.3
 30
0.0
 40
0.5
  1
M6x1
100
AcDbAttributeDefinition
  3

  2
N
 70
     8
280
     0
  0
ATTDEF
  5
9D
330
89
100
AcDbEntity
  8
AM_6
100
AcDbText
 10
28.48141705936559
 20
-12.8
 30
0.0
 40
0.5
  1
7.4
100
AcDbAttributeDefinition
  3

  2
W
 70
     8
280
     0
  0
ATTDEF
  5
9E
330
89
100
AcDbEntity
  8
AM_6
100
AcDbText
 10
28.48141705936559
 20
-13.3
 30
0.0
 40
0.5
  1
18.5
100
AcDbAttributeDefinition
  3

  2
Y
 70
     8
280
     0
  0
ATTDEF
  5
9F
330
89
100
AcDbEntity
  8
AM_6
100
AcDbText
 10
28.48141705936559
 20
-13.8
 30
0.0
 40
0.5
  1
baldor
100
AcDbAttributeDefinition
  3

  2
COMPANY
 70
     8
280
     0
  0
LINE
  5
A2
330
89
100
AcDbEntity
  8
AM_9
100
AcDbLine
 10
-22.77396533187512
 20
-6.40000002000003
 30
0.0
 11
-23.16363637700001
 21
-6.40000002000003
 31
0.0
  0
LINE
  5
A3
330
89
100
AcDbEntity
  8
AM_9
100
AcDbLine
 10
-24.5
 20
-7.736363642999826
 30
0.0
 11
-24.5
 21
-9.063636357000172
 31
0.0
  0
ARC
  5
A4
330
89
100
AcDbEntity
  8
AM_9
100
AcDbCircle
 10
-23.16363637700001
 20
-9.063636356999975
 30
0.0
 40
1.336363622999993
100
AcDbArc
 50
180.0
 51
258.5653920938854
  0
ARC
  5
A5
330
89
100
AcDbEntity
  8
AM_9
100
AcDbCircle
 10
-23.16363637700001
 20
-7.736363643000025
 30
0.0
 40
1.336363622999994
100
AcDbArc
 50
90.0
 51
180.0
  0
LINE
  5
A6
330
89
100
AcDbEntity
  8
AM_9
100
AcDbLine
 10
-23.16363637700001
 20
-6.40000002000003
 30
0.0
 11
-23.16363637700001
 21
-8.761059227090291
 31
0.0
  0
ELLIPSE
  5
A7
330
89
100
AcDbEntity
  8
AM_9
100
AcDbEllipse
 10
8.878999521198953
 20
-25.125
 30
0.0
 11
-4.516191233555673E-16
 21
-2.458500000000011
 31
0.0
210
0.0
220
0.0
230
1.0
 40
0.4226182617406969
 41
0.9538127097035183
 42
2.187779943886274
  0
ELLIPSE
  5
A8
330
89
100
AcDbEntity
  8
AM_9
100
AcDbEllipse
 10
8.878999521198951
 20
-25.125
 30
0.0
 11
-4.516191233555660E-16
 21
-2.458500000000004
 31
0.0
210
0.0
220
0.0
230
1.0
 40
0.4226182617406996
 41
4.095405363293313
 42
5.329372597476064
  0
LINE
  5
A9
330
89
100
AcDbEntity
  8
AM_9
100
AcDbLine
 10
9.06124681014938
 20
-27.5835
 30
0.0
 11
12.34570768928088
 21
-27.5835
 31
0.0
  0
LINE
  5
AA
330
89
100
AcDbEntity
  8
AM_9
100
AcDbLine
 10
12.34570768928088
 20
-22.6665
 30
0.0
 11
9.061246810149377
 21
-22.6665
 31
0.0
  0
ELLIPSE
  5
AB
330
89
100
AcDbEntity
  8
AM_9
100
AcDbEllipse
 10
12.34570768928088
 20
-25.12500000000001
 30
0.0
 11
-4.516191233555686E-16
 21
-2.458500000000019
 31
0.0
210
0.0
220
0.0
230
1.0
 40
0.4226182617406972
 41
2.052278063747723
 42
3.083187046439675
  0
ELLIPSE
  5
AC
330
89
100
AcDbEntity
  8
AM_9
100
AcDbEllipse
 10
12.34570768928088
 20
-25.12499999999998
 30
0.0
 11
-4.516191233555692E-16
 21
-2.458500000000022
 31
0.0
210
0.0
220
0.0
230
1.0
 40
0.4226182617406973
 41
0.0584056071501182
 42
1.08931458984207
  0
LWPOLYLINE
  5
AD
330
89
100
AcDbEntity
  8
AM_9
100
AcDbPolyline
 90
        8
 70
     0
 43
0.0
 10
9.063162874849782
 20
-27.58349999177178
 10
9.12549589242126
 20
-27.57891305441262
 10
9.279463064315914
 20
-27.52261840670236
 10
9.417864670603908
 20
-27.39956387021662
 10
9.531892775031752
 20
-27.21916072226969
 10
9.627098320343384
 20
-26.97716368223497
 10
9.681459461688247
 20
-26.77529877868983
 10
9.726442071362033
 20
-26.54743291135201
  0
LWPOLYLINE
  5
AE
330
89
100
AcDbEntity
  8
AM_9
100
AcDbPolyline
 90
        8
 70
     0
 43
0.0
 10
9.062992862216465
 20
-22.66650000822821
 10
8.99861755251479
 20
-22.67108694558738
 10
8.81987801354738
 20
-22.72738159329763
 10
8.629217118365164
 20
-22.85043612978338
 10
8.443303891944582
 20
-23.03083927773032
 10
8.260606248517108
 20
-23.27283631776504
 10
8.14119447642946
 20
-23.47470122131017
 10
8.03155697103587
 20
-23.70256708864799
  0
ELLIPSE
  5
AF
330
89
100
AcDbEntity
  8
AM_9
100
AcDbEllipse
 10
12.83647335596122
 20
-25.12499999999994
 30
0.0
 11
-5.510910596163187E-16
 21
-3.000000000000053
 31
0.0
210
0.0
220
0.0
230
1.0
 40
0.4226182617407003
 41
5.937068664171591
 42
6.629301950187584
  0
ELLIPSE
  5
B0
330
89
100
AcDbEntity
  8
AM_9
100
AcDbEllipse
 10
12.83647335596124
 20
-25.12500000000003
 30
0.0
 11
-5.510910596163141E-16
 21
-3.000000000000028
 31
0.0
210
0.0
220
0.0
230
1.0
 40
0.4226182617406997
 41
2.795476010581812
 42
3.48770929659781
  0
ELLIPSE
  5
B1
330
89
100
AcDbEntity
  8
AM_9
100
AcDbEllipse
 10
12.34570768928087
 20
-25.12500000000001
 30
0.0
 11
-4.516191233555633E-16
 21
-2.45849999999999
 31
0.0
210
0.0
220
0.0
230
1.0
 40
0.4226182617406999
 41
3.452923792246931
 42
5.967487401647504
  0
LINE
  5
B2
330
89
100
AcDbEntity
  8
AM_9
100
AcDbLine
 10
11.86121076994119
 20
-27.2998446947762
 30
0.0
 11
12.22179326636457
 21
-27.74959440560232
 31
0.0
  0
LINE
  5
B3
330
89
100
AcDbEntity
  8
AM_9
100
AcDbLine
 10
12.22132999772204
 20
-22.50098342316107
 30
0.0
 11
11.86121076994119
 21
-22.95015530522379
 31
0.0
  0
LWPOLYLINE
  5
B4
330
89
100
AcDbEntity
  8
AM_9
100
AcDbPolyline
 90
       11
 70
     0
 43
0.0
 10
2.005219903826684
 20
-26.54743291135199
 10
2.20898755580175
 20
-26.30079875146962
 10
2.388018101619165
 20
-26.00370634927824
 10
2.516612103438546
 20
-25.68071544503454
 10
2.586799284509792
 20
-25.3370276846566
 10
2.593956719192763
 20
-24.98595552210022
 10
2.545271529223236
 20
-24.67597877517129
 10
2.44837556191135
 20
-24.37815219240294
 10
2.303832630905666
 20
-24.09327295410851
 10
2.119887147463142
 20
-23.8328184527675
 10
2.005219903826684
 20
-23.70256708864801
  0
LWPOLYLINE
  5
B5
330
89
100
AcDbEntity
  8
AM_9
100
AcDbPolyline
 90
       11
 70
     0
 43
0.0
 10
-2.005219903826684
 20
-23.70256708864801
 10
-2.208987555801756
 20
-23.94920124853038
 10
-2.388018101619169
 20
-24.24629365072176
 10
-2.516612103438549
 20
-24.56928455496547
 10
-2.586799284509793
 20
-24.9129723153434
 10
-2.593956719192762
 20
-25.26404447789979
 10
-2.545271529223235
 20
-25.57402122482871
 10
-2.448375561911348
 20
-25.87184780759706
 10
-2.303832630905662
 20
-26.15672704589149
 10
-2.119887147463138
 20
-26.4171815472325
 10
-2.005219903826684
 20
-26.54743291135199
  0
LWPOLYLINE
  5
B6
330
89
100
AcDbEntity
  8
AM_9
100
AcDbPolyline
 90
       12
 70
     0
 43
0.0
 10
9.726442071362031
 20
-26.54743291135201
 10
9.771048827151466
 20
-26.31163632545003
 10
9.808922546411651
 20
-26.01533814730805
 10
9.834261208903307
 20
-25.69284922462603
 10
9.847620579082088
 20
-25.34925481697224
 10
9.849261942520485
 20
-24.99784274481587
 10
9.840782675321087
 20
-24.68720884743498
 10
9.82278492857214
 20
-24.38847427384264
 10
9.794169472290745
 20
-24.10328937216658
 10
9.75473546370986
 20
-23.84230125302123
 10
9.728380695953815
 20
-23.71125773131373
 10
9.726442071362031
 20
-23.70256708864799
  0
LWPOLYLINE
  5
B7
330
89
100
AcDbEntity
  8
AM_9
100
AcDbPolyline
 90
        7
 70
     0
 43
0.0
 10
9.726442071362033
 20
-23.70256708864799
 10
9.660459647006986
 20
-23.38921678454627
 10
9.57101371831396
 20
-23.11722820723005
 10
9.461596416135466
 20
-22.90911102195278
 10
9.325331802584769
 20
-22.75913806953483
 10
9.17360414752499
 20
-22.68129444528839
 10
9.062992862216465
 20
-22.66650000822821
  0
LWPOLYLINE
  5
B8
330
89
100
AcDbEntity
  8
AM_9
100
AcDbPolyline
 90
       10
 70
     0
 43
0.0
 10
8.031556971035867
 20
-23.70256708864799
 10
7.897931121440608
 20
-23.96666992908474
 10
7.786924237006507
 20
-24.26065049269031
 10
7.69904801905828
 20
-24.61749566024725
 10
7.65621366033719
 20
-24.99422556763708
 10
7.660245944183217
 20
-25.32174243435382
 10
7.700656885406733
 20
-25.64325842990845
 10
7.770593499939436
 20
-25.93552942089202
 10
7.865938234986988
 20
-26.20814569566493
 10
8.031556971035867
 20
-26.547432911352
  0
LWPOLYLINE
  5
B9
330
89
100
AcDbEntity
  8
AM_9
100
AcDbPolyline
 90
        7
 70
     0
 43
0.0
 10
8.03155697103587
 20
-26.547432911352
 10
8.188854826373316
 20
-26.86078321545371
 10
8.371767940615252
 20
-27.13277179276994
 10
8.561485676900624
 20
-27.34088897804721
 10
8.760273911723761
 20
-27.49086193046516
 10
8.945977366441808
 20
-27.5687055547116
 10
9.063162874849782
 20
-27.58349999177178
  0
LINE
  5
BA
330
89
100
AcDbEntity
  8
AM_9
100
AcDbLine
 10
-10.0
 20
-5.367999999999998
 30
0.0
 11
-10.0
 21
-30.132
 31
0.0
  0
LINE
  5
BB
330
89
100
AcDbEntity
  8
AM_9
100
AcDbLine
 10
10.0
 20
-30.132
 30
0.0
 11
10.0
 21
-5.367999999999998
 31
0.0
  0
LINE
  5
BC
330
89
100
AcDbEntity
  8
AM_9
100
AcDbLine
 10
-9.999999999999998
 20
-30.132
 30
0.0
 11
-10.56799999999997
 21
-30.7
 31
0.0
  0
LINE
  5
BD
330
89
100
AcDbEntity
  8
AM_9
100
AcDbLine
 10
10.56799999999997
 20
-30.7
 30
0.0
 11
9.999999999999998
 21
-30.132
 31
0.0
  0
LINE
  5
BE
330
89
100
AcDbEntity
  8
AM_9
100
AcDbLine
 10
10.0
 20
-5.367999999999998
 30
0.0
 11
-10.0
 21
-5.367999999999998
 31
0.0
  0
LINE
  5
BF
330
89
100
AcDbEntity
  8
AM_9
100
AcDbLine
 10
10.0
 20
-5.367999999999998
 30
0.0
 11
10.56799999999997
 21
-4.799999999999999
 31
0.0
  0
LINE
  5
C0
330
89
100
AcDbEntity
  8
AM_9
100
AcDbLine
 10
-10.56799999999997
 20
-4.799999999999999
 30
0.0
 11
-10.0
 21
-5.367999999999998
 31
0.0
  0
LINE
  5
C1
330
89
100
AcDbEntity
  8
AM_9
100
AcDbLine
 10
14.2
 20
-4.799999999999999
 30
0.0
 11
-14.2
 21
-4.799999999999999
 31
0.0
  0
LINE
  5
C2
330
89
100
AcDbEntity
  8
AM_9
100
AcDbLine
 10
-14.2
 20
-4.799999999999999
 30
0.0
 11
-14.2
 21
-4.850000000000001
 31
0.0
  0
LINE
  5
C3
330
89
100
AcDbEntity
  8
AM_9
100
AcDbLine
 10
14.2
 20
-4.850000000000001
 30
0.0
 11
14.2
 21
-4.799999999999999
 31
0.0
  0
ARC
  5
C4
330
89
100
AcDbEntity
  8
AM_9
100
AcDbCircle
 10
-0.0000000000000008
 20
-25.125
 30
0.0
 40
2.458500000000005
100
AcDbArc
 50
65.54561554292978
 51
114.4543844570702
  0
ARC
  5
C5
330
89
100
AcDbEntity
  8
AM_9
100
AcDbCircle
 10
0.0000000000000007
 20
-25.12499999999999
 30
0.0
 40
2.458500000000008
100
AcDbArc
 50
245.5456155429298
 51
294.4543844570702
  0
LINE
  5
C6
330
89
100
AcDbEntity
  8
AM_9
100
AcDbLine
 10
-14.20000000000009
 20
-19.55
 30
0.0
 11
-14.20000000000009
 21
-21.6
 31
0.0
  0
LINE
  5
C7
330
89
100
AcDbEntity
  8
AM_9
100
AcDbLine
 10
14.20000000000009
 20
-21.6
 30
0.0
 11
14.20000000000009
 21
-19.55
 31
0.0
  0
LINE
  5
C8
330
89
100
AcDbEntity
  8
AM_9
100
AcDbLine
 10
-22.23333334600022
 20
-15.24
 30
0.0
 11
-22.23333334600022
 21
-16.76
 31
0.0
  0
LINE
  5
C9
330
89
100
AcDbEntity
  8
AM_9
100
AcDbLine
 10
22.23333334600022
 20
-16.76
 30
0.0
 11
22.23333334600022
 21
-15.24
 31
0.0
  0
LINE
  5
CA
330
89
100
AcDbEntity
  8
AM_9
100
AcDbLine
 10
21.76417928615724
 20
-19.55
 30
0.0
 11
-21.76417928609493
 21
-19.55
 31
0.0
  0
ARC
  5
CB
330
89
100
AcDbEntity
  8
AM_9
100
AcDbCircle
 10
-21.76417928615735
 20
-18.79000000000001
 30
0.0
 40
0.7599999999999839
100
AcDbArc
 50
196.8458458014642
 51
270.0
  0
ARC
  5
CC
330
89
100
AcDbEntity
  8
AM_9
100
AcDbCircle
 10
21.76417928615735
 20
-18.79000000000001
 30
0.0
 40
0.7599999999999838
100
AcDbArc
 50
270.0
 51
343.1541541985359
  0
LINE
  5
CD
330
89
100
AcDbEntity
  8
AM_9
100
AcDbLine
 10
21.76417928615741
 20
-4.850000000000001
 30
0.0
 11
-21.76417928609511
 21
-4.850000000000001
 31
0.0
  0
ARC
  5
CE
330
89
100
AcDbEntity
  8
AM_9
100
AcDbCircle
 10
-21.76417928615741
 20
-5.610000000000001
 30
0.0
 40
0.7600000000000007
100
AcDbArc
 50
90.0
 51
163.1541796178644
  0
ARC
  5
CF
330
89
100
AcDbEntity
  8
AM_9
100
AcDbCircle
 10
21.76417928615741
 20
-5.610000000000007
 30
0.0
 40
0.7600000000000039
100
AcDbArc
 50
16.84582038213588
 51
90.0
  0
LINE
  5
D0
330
89
100
AcDbEntity
  8
AM_9
100
AcDbLine
 10
23.05333815307449
 20
-16.76000000000001
 30
0.0
 11
-23.05333815307553
 21
-16.76000000000001
 31
0.0
  0
LINE
  5
D1
330
89
100
AcDbEntity
  8
AM_9
100
AcDbLine
 10
22.49156610486795
 20
-19.01024626209325
 30
0.0
 11
-22.491566104869
 21
-19.01024626209325
 31
0.0
  0
ARC
  5
D2
330
89
100
AcDbEntity
  8
AM_9
100
AcDbCircle
 10
-0.0000000008062742
 20
-12.20000000020111
 30
0.0
 40
23.49999999917105
100
AcDbArc
 50
191.1887976479381
 51
196.8458458015625
  0
ARC
  5
D3
330
89
100
AcDbEntity
  8
AM_9
100
AcDbCircle
 10
0.0000000008062777
 20
-12.20000000020111
 30
0.0
 40
23.49999999917104
100
AcDbArc
 50
343.1541541984375
 51
348.811202352062
  0
LINE
  5
D4
330
89
100
AcDbEntity
  8
AM_9
100
AcDbLine
 10
22.49156620258043
 20
-5.389754060612651
 30
0.0
 11
-22.49156620258033
 21
-5.389754060612651
 31
0.0
  0
LINE
  5
D5
330
89
100
AcDbEntity
  8
AM_9
100
AcDbLine
 10
23.30254063401672
 20
-15.24
 30
0.0
 11
-23.30254063401662
 21
-15.24
 31
0.0
  0
ARC
  5
D6
330
89
100
AcDbEntity
  8
AM_9
100
AcDbCircle
 10
0.0000000001921201
 20
-12.20000000005122
 30
0.0
 40
23.50000000019863
100
AcDbArc
 50
163.1541550206253
 51
165.7253446879186
  0
ARC
  5
D7
330
89
100
AcDbEntity
  8
AM_9
100
AcDbCircle
 10
0.0000000000091553
 20
-12.20000000000023
 30
0.0
 40
23.50000000000895
100
AcDbArc
 50
175.5294284857646
 51
187.4327090917525
  0
ARC
  5
D8
330
89
100
AcDbEntity
  8
AM_9
100
AcDbCircle
 10
-0.0000000000046185
 20
-12.20000000000037
 30
0.0
 40
23.50000000000444
100
AcDbArc
 50
352.5672909082464
 51
16.84584497938855
  0
LINE
  5
D9
330
89
100
AcDbEntity
  8
AM_9
100
AcDbLine
 10
-23.42890437226239
 20
-10.37340756732342
 30
0.0
 11
-22.77301034632283
 21
-6.400000020228405
 31
0.0
  0
ARC
  5
DB
330
89
100
AcDbEntity
  8
AM_5
100
AcDbCircle
 10
-0.0000000000000002
 20
-25.125
 30
0.0
 40
3.0
100
AcDbArc
 50
75.0
 51
14.99999999999997
  0
LINE
  5
DE
330
89
100
AcDbEntity
  8
AM_7
100
AcDbLine
 10
-25.015
 20
-8.4
 30
0.0
 11
-13.685
 21
-8.4
 31
0.0
  0
LINE
  5
DF
330
89
100
AcDbEntity
  8
AM_7
100
AcDbLine
 10
-2.581425000000003
 20
-25.12500000000001
 30
0.0
 11
2.58142500000004
 21
-25.12500000000001
 31
0.0
  0
ELLIPSE
  5
E1
330
89
100
AcDbEntity
  8
AM_4
100
AcDbEllipse
 10
12.34570768928107
 20
-25.1249999999996
 30
0.0
 11
-4.516191233554922E-16
 21
-2.458499999999603
 31
0.0
210
0.0
220
0.0
230
1.0
 40
0.4226182617407
 41
3.083187046439843
 42
3.452923792247157
  0
ELLIPSE
  5
E2
330
89
100
AcDbEntity
  8
AM_4
100
AcDbEllipse
 10
12.34570768928088
 20
-25.125
 30
0.0
 11
-4.516191233555660E-16
 21
-2.458500000000004
 31
0.0
210
0.0
220
0.0
230
1.0
 40
0.4226182617406967
 41
1.089314589842078
 42
2.052278063747717
  0
ELLIPSE
  5
E3
330
89
100
AcDbEntity
  8
AM_4
100
AcDbEllipse
 10
12.34570768928106
 20
-25.1250000000004
 30
0.0
 11
-4.516191233554908E-16
 21
-2.458499999999596
 31
0.0
210
0.0
220
0.0
230
1.0
 40
0.4226182617406998
 41
5.967487401647279
 42
6.341590914329545
  0
LWPOLYLINE
  5
E4
330
89
100
AcDbEntity
  8
AM_4
100
AcDbPolyline
 90
       16
 70
     0
 43
0.0
 10
12.22304729823598
 20
-27.75115852317395
 10
12.16277564721152
 20
-27.67220019009133
 10
11.98276097476752
 20
-27.38673094961056
 10
11.82189178794574
 20
-27.05276825913522
 10
11.6740320020327
 20
-26.64121614623725
 10
11.56099795526471
 20
-26.19382199249246
 10
11.48364679692441
 20
-25.68433104620946
 10
11.45495046847802
 20
-25.16012282532742
 10
11.47866377633702
 20
-24.61677714103861
 10
11.55468683786152
 20
-24.08773835090015
 10
11.63339001945302
 20
-23.75044108152506
 10
11.7325958819806
 20
-23.42990245368784
 10
11.84958019390155
 20
-23.13298193828614
 10
11.97801393730588
 20
-22.87206490176917
 10
12.11901541389244
 20
-22.64035218702715
 10
12.22302365437964
 20
-22.49887097472882
  0
LWPOLYLINE
  5
E5
330
89
100
AcDbEntity
  8
AM_4
100
AcDbPolyline
 90
        3
 70
     0
 43
0.0
 10
12.22302365437964
 20
-22.49887097472882
 10
12.26856882183439
 20
-22.44413203534849
 10
12.40635702869425
 20
-22.30290833693839
  0
ARC
  5
E6
330
89
100
AcDbEntity
  8
AM_4
100
AcDbCircle
 10
-0.0000000000000031
 20
-25.125
 30
0.0
 40
2.4585
100
AcDbArc
 50
114.4543844570702
 51
245.5456155429298
  0
ARC
  5
E7
330
89
100
AcDbEntity
  8
AM_4
100
AcDbCircle
 10
0.0000000000000007
 20
-25.125
 30
0.0
 40
2.458500000000001
100
AcDbArc
 50
294.4543844570702
 51
65.54561554292974
  0
LINE
  5
E8
330
89
100
AcDbEntity
  8
AM_4
100
AcDbLine
 10
-1.017741934518837
 20
-22.30290833693839
 30
0.0
 11
-1.017741934518837
 21
-27.94709166306161
 31
0.0
  0
LWPOLYLINE
  5
E9
330
89
100
AcDbEntity
  8
AM_4
100
AcDbPolyline
 90
       17
 70
     0
 43
0.0
 10
-1.017741934518837
 20
-27.94709166306161
 10
-1.049550710185443
 20
-27.93293860142514
 10
-1.420800599600886
 20
-27.72747300103763
 10
-1.755840536541594
 20
-27.46755082336526
 10
-2.070486526823657
 20
-27.13342796364874
 10
-2.330573974054582
 20
-26.75488844581626
 10
-2.547583416030644
 20
-26.30091239637798
 10
-2.691368485487704
 20
-25.8179101973962
 10
-2.760555944548796
 20
-25.28675826490889
 10
-2.743605188995063
 20
-24.75121845672615
 10
-2.636685593382285
 20
-24.21518066038504
 10
-2.442222334569263
 20
-23.70522555064618
 10
-2.266866376301363
 20
-23.39083667230664
 10
-2.055519024188988
 20
-23.09824591980805
 10
-1.811551357309282
 20
-22.83424666657672
 10
-1.437912857284234
 20
-22.53406855615674
 10
-1.017741934518837
 20
-22.30290833693839
  0
LINE
  5
EA
330
89
100
AcDbEntity
  8
AM_4
100
AcDbLine
 10
1.017741934518837
 20
-27.94709166306161
 30
0.0
 11
1.017741934518837
 21
-22.30290833693839
 31
0.0
  0
LWPOLYLINE
  5
EB
330
89
100
AcDbEntity
  8
AM_4
100
AcDbPolyline
 90
       19
 70
     0
 43
0.0
 10
1.017741934518837
 20
-22.30290833693839
 10
1.277975229237082
 20
-22.43422073793286
 10
1.522368006872232
 20
-22.5927060867287
 10
1.792879897899698
 20
-22.81667757532357
 10
2.034067013432414
 20
-23.07192154303141
 10
2.28395784844601
 20
-23.41778009897974
 10
2.48400120081152
 20
-23.79517768004168
 10
2.655835861315757
 20
-24.28445501220758
 10
2.748328586266594
 20
-24.7954286335684
 10
2.757700029162732
 20
-25.33707989917407
 10
2.679080009886588
 20
-25.87284900663836
 10
2.576634438994084
 20
-26.22221473847825
 10
2.435240455458875
 20
-26.55859474043389
 10
2.256959601511186
 20
-26.87512174251703
 10
2.047095134867048
 20
-27.16196714648558
 10
1.803868664286562
 20
-27.42267623455948
 10
1.531471162463893
 20
-27.65064758130754
 10
1.282858582281361
 20
-27.8129603727203
 10
1.017741934518837
 20
-27.94709166306161
  0
LINE
  5
EC
330
89
100
AcDbEntity
  8
AM_4
100
AcDbLine
 10
12.40635702869424
 20
-22.3029083369384
 30
0.0
 11
12.40635702869424
 21
-27.9470916630616
 31
0.0
  0
LWPOLYLINE
  5
ED
330
89
100
AcDbEntity
  8
AM_4
100
AcDbPolyline
 90
        3
 70
     0
 43
0.0
 10
12.40635702869373
 20
-27.94709166306219
 10
12.28282547185772
 20
-27.82212125598771
 10
12.22304729823598
 20
-27.75115852317395
  0
LINE
  5
EE
330
89
100
AcDbEntity
  8
AM_4
100
AcDbLine
 10
13.2665896832282
 20
-27.9470916630616
 30
0.0
 11
13.2665896832282
 21
-22.30290833693839
 31
0.0
  0
LWPOLYLINE
  5
EF
330
89
100
AcDbEntity
  8
AM_4
100
AcDbPolyline
 90
       17
 70
     0
 43
0.0
 10
13.2665896832282
 20
-22.30290833693839
 10
13.34919525655202
 20
-22.42044875339434
 10
13.4393467166476
 20
-22.59407578192526
 10
13.51800510545475
 20
-22.79764386799819
 10
13.60629487181531
 20
-23.11325239769753
 10
13.67570965290672
 20
-23.46834341707573
 10
13.73453334916838
 20
-23.92008606845656
 10
13.77206310454305
 20
-24.40161070928591
 10
13.7903434620471
 20
-24.93139850948254
 10
13.78742623264466
 20
-25.46642605659896
 10
13.76235695027134
 20
-26.00344360124614
 10
13.71364177157294
 20
-26.51531337982157
 10
13.66729139697497
 20
-26.83178216231569
 10
13.60855984597651
 20
-27.12684202431221
 10
13.53698577716314
 20
-27.39369045300695
 10
13.41538402146616
 20
-27.70700740163093
 10
13.2665896832282
 20
-27.9470916630616
  0
LINE
  5
F0
330
89
100
AcDbEntity
  8
AM_4
100
AcDbLine
 10
-14.20000000000009
 20
-21.6
 30
0.0
 11
-14.20000000000009
 21
-30.132
 31
0.0
  0
LINE
  5
F1
330
89
100
AcDbEntity
  8
AM_4
100
AcDbLine
 10
14.20000000000009
 20
-30.132
 30
0.0
 11
14.20000000000009
 21
-21.6
 31
0.0
  0
LINE
  5
F2
330
89
100
AcDbEntity
  8
AM_4
100
AcDbLine
 10
14.20000000000009
 20
-30.132
 30
0.0
 11
-14.20000000000009
 21
-30.132
 31
0.0
  0
LINE
  5
F3
330
89
100
AcDbEntity
  8
AM_4
100
AcDbLine
 10
13.63200000000013
 20
-30.7
 30
0.0
 11
-13.63200000000013
 21
-30.7
 31
0.0
  0
LINE
  5
F4
330
89
100
AcDbEntity
  8
AM_4
100
AcDbLine
 10
13.63200000000013
 20
-30.7
 30
0.0
 11
14.20000000000009
 21
-30.132
 31
0.0
  0
LINE
  5
F5
330
89
100
AcDbEntity
  8
AM_4
100
AcDbLine
 10
-14.20000000000009
 20
-30.132
 30
0.0
 11
-13.63200000000013
 21
-30.7
 31
0.0
  0
ARC
  5
F6
330
89
100
AcDbEntity
  8
AM_5
100
AcDbCircle
 10
-0.0000000000000009
 20
-25.125
 30
0.0
 40
3.0
100
AcDbArc
 50
345.0
 51
285.0
  0
ENDBLK
  5
8C
330
89
100
AcDbEntity
  8
0
100
AcDbBlockEnd
  0
BLOCK
  5
F9
330
F7
100
AcDbEntity
  8
0
100
AcDbBlockBegin
  2
3_430026m_0_in_125384_4
 70
     2
 10
0.0
 20
0.0
 30
0.0
  3
3_430026m_0_in_125384_4
  1

  0
ATTDEF
  5
FB
330
F7
100
AcDbEntity
  8
AM_6
100
AcDbText
 10
10.24999999999997
 20
-9.333333333333343
 30
0.0
 40
0.5
  1
430026 Plug - Metric
100
AcDbAttributeDefinition
  3

  2
NN
 70
     8
280
     0
  0
ATTDEF
  5
FC
330
F7
100
AcDbEntity
  8
AM_6
100
AcDbText
 10
10.24999999999997
 20
-9.833333333333343
 30
0.0
 40
0.5
  1
Plug
100
AcDbAttributeDefinition
  3

  2
NT
 70
     8
280
     0
  0
ATTDEF
  5
FD
330
F7
100
AcDbEntity
  8
AM_6
100
AcDbText
 10
10.24999999999997
 20
-10.33333333333334
 30
0.0
 40
0.5
  1
430026m
100
AcDbAttributeDefinition
  3

  2
NB
 70
     8
280
     0
  0
ATTDEF
  5
FE
330
F7
100
AcDbEntity
  8
AM_6
100
AcDbText
 10
10.24999999999997
 20
-10.83333333333334
 30
0.0
 40
0.5
  1
$PN.m
100
AcDbAttributeDefinition
  3

  2
NBSYN
 70
     8
280
     0
  0
ATTDEF
  5
FF
330
F7
100
AcDbEntity
  8
AM_6
100
AcDbText
 10
10.24999999999997
 20
-11.33333333333334
 30
0.0
 40
0.5
  1
430026m
100
AcDbAttributeDefinition
  3

  2
LINA
 70
     8
280
     0
  0
ATTDEF
  5
100
330
F7
100
AcDbEntity
  8
AM_6
100
AcDbText
 10
10.24999999999997
 20
-11.83333333333334
 30
0.0
 40
0.5
  1
430026
100
AcDbAttributeDefinition
  3

  2
PN
 70
     8
280
     0
  0
ATTDEF
  5
101
330
F7
100
AcDbEntity
  8
AM_6
100
AcDbText
 10
10.24999999999997
 20
-12.33333333333334
 30
0.0
 40
0.5
  1
baldor
100
AcDbAttributeDefinition
  3

  2
COMPANY
 70
     8
280
     0
  0
CIRCLE
  5
102
330
F7
100
AcDbEntity
  8
AM_9
100
AcDbCircle
 10
0.0
 20
-14.33333333333334
 30
0.0
 40
2.768600000000001
  0
LINE
  5
103
330
F7
100
AcDbEntity
  8
AM_9
100
AcDbLine
 10
2.35
 20
-12.97656020073772
 30
0.0
 11
2.35
 21
-15.69010646592896
 31
0.0
  0
LINE
  5
104
330
F7
100
AcDbEntity
  8
AM_9
100
AcDbLine
 10
0.0
 20
-11.6197870681421
 30
0.0
 11
2.35
 21
-12.97656020073772
 31
0.0
  0
LINE
  5
105
330
F7
100
AcDbEntity
  8
AM_9
100
AcDbLine
 10
2.35
 20
-15.69010646592896
 30
0.0
 11
0.0
 21
-17.04687959852458
 31
0.0
  0
LINE
  5
106
330
F7
100
AcDbEntity
  8
AM_9
100
AcDbLine
 10
-2.35
 20
-15.69010646592896
 30
0.0
 11
-2.35
 21
-12.97656020073772
 31
0.0
  0
LINE
  5
107
330
F7
100
AcDbEntity
  8
AM_9
100
AcDbLine
 10
-2.35
 20
-12.97656020073772
 30
0.0
 11
0.0
 21
-11.6197870681421
 31
0.0
  0
LINE
  5
108
330
F7
100
AcDbEntity
  8
AM_9
100
AcDbLine
 10
0.0
 20
-17.04687959852458
 30
0.0
 11
-2.35
 21
-15.69010646592896
 31
0.0
  0
CIRCLE
  5
109
330
F7
100
AcDbEntity
  8
AM_9
100
AcDbCircle
 10
0.0
 20
-14.33333333333334
 30
0.0
 40
1.772197253102404
  0
ARC
  5
10A
330
F7
100
AcDbEntity
  8
AM_5
100
AcDbCircle
 10
-0.0000000000000016
 20
-14.33333333333334
 30
0.0
 40
4.080000000000001
100
AcDbArc
 50
75.00000000000001
 51
15.00000000000002
  0
CIRCLE
  5
10B
330
F7
100
AcDbEntity
  8
AM_9
100
AcDbCircle
 10
-0.0000000000000036
 20
-14.33333333333333
 30
0.0
 40
2.349999999999996
  0
CIRCLE
  5
10C
330
F7
100
AcDbEntity
  8
AM_9
100
AcDbCircle
 10
0.0000000000000044
 20
-14.33333333333334
 30
0.0
 40
4.999999999999996
  0
LINE
  5
10D
330
F7
100
AcDbEntity
  8
AM_7
100
AcDbLine
 10
-5.249999999999984
 20
-14.33333333333336
 30
0.0
 11
5.249999999999968
 21
-14.33333333333336
 31
0.0
  0
ARC
  5
10E
330
F7
100
AcDbEntity
  8
AM_5
100
AcDbCircle
 10
0.0000000000000001
 20
-14.33333333333334
 30
0.0
 40
4.080000000000002
100
AcDbArc
 50
255.0
 51
195.0
  0
ENDBLK
  5
FA
330
F7
100
AcDbEntity
  8
0
100
AcDbBlockEnd
  0
BLOCK
  5
111
330
10F
100
AcDbEntity
  8
0
100
AcDbBlockBegin
  2
4_125384H_0_in_125384_4
 70
     2
 10
0.0
 20
0.0
 30
0.0
  3
4_125384H_0_in_125384_4
  1

  0
ATTDEF
  5
113
330
10F
100
AcDbEntity
  8
AM_6
100
AcDbText
 10
45.41710691510446
 20
0.5350000000000023
 30
0.0
 40
0.5
  1
LF-SC & LF-SC-NL - housing -Metric
100
AcDbAttributeDefinition
  3

  2
NN
 70
     8
280
     0
  0
ATTDEF
  5
114
330
10F
100
AcDbEntity
  8
AM_6
100
AcDbText
 10
45.41710691510446
 20
0.0350000000000023
 30
0.0
 40
0.5
  1
SC 3 Bolt Flange Bearings -(Normal Duty) -Re-Lube and No-Lube
100
AcDbAttributeDefinition
  3

  2
NT
 70
     8
280
     0
  0
ATTDEF
  5
115
330
10F
100
AcDbEntity
  8
AM_6
100
AcDbText
 10
45.41710691510446
 20
-0.4649999999999977
 30
0.0
 40
0.5
  1
125384H
100
AcDbAttributeDefinition
  3

  2
NB
 70
     8
280
     0
  0
ATTDEF
  5
116
330
10F
100
AcDbEntity
  8
AM_6
100
AcDbText
 10
45.41710691510446
 20
-0.9649999999999977
 30
0.0
 40
0.5
  1
$PN.H
100
AcDbAttributeDefinition
  3

  2
NBSYN
 70
     8
280
     0
  0
ATTDEF
  5
117
330
10F
100
AcDbEntity
  8
AM_6
100
AcDbText
 10
45.41710691510446
 20
-1.464999999999998
 30
0.0
 40
0.5
  1
125384
100
AcDbAttributeDefinition
  3

  2
LINA
 70
     8
280
     0
  0
ATTDEF
  5
118
330
10F
100
AcDbEntity
  8
AM_6
100
AcDbText
 10
45.41710691510446
 20
-1.964999999999998
 30
0.0
 40
0.5
  1
204
100
AcDbAttributeDefinition
  3

  2
SERIES
 70
     8
280
     0
  0
ATTDEF
  5
119
330
10F
100
AcDbEntity
  8
AM_6
100
AcDbText
 10
45.41710691510446
 20
-2.464999999999998
 30
0.0
 40
0.5
  1
20
100
AcDbAttributeDefinition
  3

  2
SS
 70
     8
280
     0
  0
ATTDEF
  5
11A
330
10F
100
AcDbEntity
  8
AM_6
100
AcDbText
 10
45.41710691510446
 20
-2.964999999999998
 30
0.0
 40
0.5
  1
125384
100
AcDbAttributeDefinition
  3

  2
PN
 70
     8
280
     0
  0
ATTDEF
  5
11B
330
10F
100
AcDbEntity
  8
AM_6
100
AcDbText
 10
45.41710691510446
 20
-3.464999999999998
 30
0.0
 40
0.5
  1
LF-SC-20M-NL
100
AcDbAttributeDefinition
  3

  2
DESCRIPTION
 70
     8
280
     0
  0
ATTDEF
  5
11C
330
10F
100
AcDbEntity
  8
AM_6
100
AcDbText
 10
45.41710691510446
 20
-3.964999999999998
 30
0.0
 40
0.5
  1
0.38
100
AcDbAttributeDefinition
  3

  2
W
 70
     8
280
     0
  0
ATTDEF
  5
11D
330
10F
100
AcDbEntity
  8
AM_6
100
AcDbText
 10
45.41710691510446
 20
-4.464999999999998
 30
0.0
 40
0.5
  1
NO-LUBE
100
AcDbAttributeDefinition
  3

  2
LF
 70
     8
280
     0
  0
ATTDEF
  5
11E
330
10F
100
AcDbEntity
  8
AM_6
100
AcDbText
 10
45.41710691510446
 20
-4.964999999999998
 30
0.0
 40
0.5
  1
25.9
100
AcDbAttributeDefinition
  3

  2
A
 70
     8
280
     0
  0
ATTDEF
  5
11F
330
10F
100
AcDbEntity
  8
AM_6
100
AcDbText
 10
45.41710691510446
 20
-5.464999999999998
 30
0.0
 40
0.5
  1
90.4
100
AcDbAttributeDefinition
  3

  2
B
 70
     8
280
     0
  0
ATTDEF
  5
120
330
10F
100
AcDbEntity
  8
AM_6
100
AcDbText
 10
45.41710691510446
 20
-5.964999999999998
 30
0.0
 40
0.5
  1
30.7
100
AcDbAttributeDefinition
  3

  2
C
 70
     8
280
     0
  0
ATTDEF
  5
121
330
10F
100
AcDbEntity
  8
AM_6
100
AcDbText
 10
45.41710691510446
 20
-6.464999999999998
 30
0.0
 40
0.5
  1
71.4
100
AcDbAttributeDefinition
  3

  2
D
 70
     8
280
     0
  0
ATTDEF
  5
122
330
10F
100
AcDbEntity
  8
AM_6
100
AcDbText
 10
45.41710691510446
 20
-6.964999999999998
 30
0.0
 40
0.5
  1
8.6
100
AcDbAttributeDefinition
  3

  2
G
 70
     8
280
     0
  0
ATTDEF
  5
123
330
10F
100
AcDbEntity
  8
AM_6
100
AcDbText
 10
45.41710691510446
 20
-7.464999999999998
 30
0.0
 40
0.5
  1
10.7
100
AcDbAttributeDefinition
  3

  2
H
 70
     8
280
     0
  0
ATTDEF
  5
124
330
10F
100
AcDbEntity
  8
AM_6
100
AcDbText
 10
45.41710691510446
 20
-7.964999999999998
 30
0.0
 40
0.5
  1
9.1
100
AcDbAttributeDefinition
  3

  2
J
 70
     8
280
     0
  0
ATTDEF
  5
125
330
10F
100
AcDbEntity
  8
AM_6
100
AcDbText
 10
45.41710691510446
 20
-8.464999999999998
 30
0.0
 40
0.5
  1
28.4
100
AcDbAttributeDefinition
  3

  2
L
 70
     8
280
     0
  0
ATTDEF
  5
126
330
10F
100
AcDbEntity
  8
AM_6
100
AcDbText
 10
45.41710691510446
 20
-8.964999999999998
 30
0.0
 40
0.5
  1
45.2
100
AcDbAttributeDefinition
  3

  2
M
 70
     8
280
     0
  0
ATTDEF
  5
127
330
10F
100
AcDbEntity
  8
AM_6
100
AcDbText
 10
45.41710691510446
 20
-9.464999999999998
 30
0.0
 40
0.5
  1
39.6
100
AcDbAttributeDefinition
  3

  2
N
 70
     8
280
     0
  0
ATTDEF
  5
128
330
10F
100
AcDbEntity
  8
AM_6
100
AcDbText
 10
45.41710691510446
 20
-9.964999999999998
 30
0.0
 40
0.5
  1
1390
100
AcDbAttributeDefinition
  3

  2
CAPS
 70
     8
280
     0
  0
ATTDEF
  5
129
330
10F
100
AcDbEntity
  8
AM_6
100
AcDbText
 10
45.41710691510446
 20
-10.465
 30
0.0
 40
0.5
  1
2899
100
AcDbAttributeDefinition
  3

  2
CAPD
 70
     8
280
     0
  0
ATTDEF
  5
12A
330
10F
100
AcDbEntity
  8
AM_6
100
AcDbText
 10
45.41710691510446
 20
-10.965
 30
0.0
 40
0.5
  1
baldor
100
AcDbAttributeDefinition
  3

  2
COMPANY
 70
     8
280
     0
  0
LINE
  5
12B
330
10F
100
AcDbEntity
  8
AM_9
100
AcDbLine
 10
5.919410642852884
 20
-2.675000000000002
 30
0.0
 11
5.919410642852904
 21
-2.700400000000001
 31
0.0
  0
LINE
  5
12C
330
10F
100
AcDbEntity
  8
AM_9
100
AcDbLine
 10
-5.919410642852901
 20
-2.700400000000001
 30
0.0
 11
-5.919410642852884
 21
-2.675000000000002
 31
0.0
  0
LINE
  5
12D
330
10F
100
AcDbEntity
  8
AM_9
100
AcDbLine
 10
11.42502590334001
 20
-2.700400000000001
 30
0.0
 11
5.919410642852904
 21
-2.700400000000001
 31
0.0
  0
LINE
  5
12E
330
10F
100
AcDbEntity
  8
AM_9
100
AcDbLine
 10
-5.919410642852901
 20
-2.700400000000001
 30
0.0
 11
-11.42502590334001
 21
-2.700400000000001
 31
0.0
  0
LINE
  5
12F
330
10F
100
AcDbEntity
  8
AM_9
100
AcDbLine
 10
-11.42502590334001
 20
-2.700400000000001
 30
0.0
 11
-11.42502590334002
 21
-10.7
 31
0.0
  0
LINE
  5
130
330
10F
100
AcDbEntity
  8
AM_9
100
AcDbLine
 10
-9.71
 20
-21.5746
 30
0.0
 11
-9.71
 21
-2.700400000000001
 31
0.0
  0
LINE
  5
131
330
10F
100
AcDbEntity
  8
AM_9
100
AcDbLine
 10
11.42502590334002
 20
-10.7
 30
0.0
 11
11.42502590334001
 21
-2.700400000000001
 31
0.0
  0
LINE
  5
132
330
10F
100
AcDbEntity
  8
AM_9
100
AcDbLine
 10
9.709999999999997
 20
-21.5746
 30
0.0
 11
9.709999999999997
 21
-2.700400000000001
 31
0.0
  0
CIRCLE
  5
133
330
10F
100
AcDbEntity
  8
AM_9
100
AcDbCircle
 10
0.0
 20
-14.33333333333334
 30
0.0
 40
3.5
  0
LINE
  5
134
330
10F
100
AcDbEntity
  8
AM_9
100
AcDbLine
 10
-19.70000791048313
 20
-2.675000000000001
 30
0.0
 11
-19.70000791048312
 21
-10.7
 31
0.0
  0
LINE
  5
135
330
10F
100
AcDbEntity
  8
AM_9
100
AcDbLine
 10
19.70000791048312
 20
-10.7
 30
0.0
 11
19.70000791048312
 21
-2.675000000000001
 31
0.0
  0
LINE
  5
136
330
10F
100
AcDbEntity
  8
AM_9
100
AcDbLine
 10
-15.30131904872266
 20
-2.675000000000002
 30
0.0
 11
-15.30131904872266
 21
-0.0000000000000015
 31
0.0
  0
LINE
  5
137
330
10F
100
AcDbEntity
  8
AM_9
100
AcDbLine
 10
15.30131904872263
 20
-2.675000000000002
 30
0.0
 11
15.30131904872263
 21
-0.0000000000000015
 31
0.0
  0
LINE
  5
138
330
10F
100
AcDbEntity
  8
AM_9
100
AcDbLine
 10
-25.04319767883138
 20
-5.350000000000001
 30
0.0
 11
-25.04319767883138
 21
-10.7
 31
0.0
  0
LINE
  5
139
330
10F
100
AcDbEntity
  8
AM_9
100
AcDbLine
 10
25.04319767883138
 20
-5.350000000000001
 30
0.0
 11
25.04319767883138
 21
-10.7
 31
0.0
  0
LINE
  5
13A
330
10F
100
AcDbEntity
  8
AM_9
100
AcDbLine
 10
11.43
 20
-10.7
 30
0.0
 11
11.43
 21
-21.5746
 31
0.0
  0
LINE
  5
13B
330
10F
100
AcDbEntity
  8
AM_9
100
AcDbLine
 10
-11.43
 20
-10.7
 30
0.0
 11
-11.43
 21
-21.5746
 31
0.0
  0
LINE
  5
13C
330
10F
100
AcDbEntity
  8
AM_9
100
AcDbLine
 10
11.43
 20
-21.5746
 30
0.0
 11
-11.43
 21
-21.5746
 31
0.0
  0
LINE
  5
13D
330
10F
100
AcDbEntity
  8
AM_9
100
AcDbLine
 10
-36.79101615137755
 20
-5.350000000000001
 30
0.0
 11
-36.79101615137755
 21
-10.7
 31
0.0
  0
LINE
  5
13E
330
10F
100
AcDbEntity
  8
AM_9
100
AcDbLine
 10
-32.49101615137755
 20
-5.350000000000001
 30
0.0
 11
-32.49101615137755
 21
-10.7
 31
0.0
  0
LINE
  5
13F
330
10F
100
AcDbEntity
  8
AM_9
100
AcDbLine
 10
36.79101615137755
 20
-5.350000000000001
 30
0.0
 11
36.79101615137755
 21
-10.7
 31
0.0
  0
LINE
  5
140
330
10F
100
AcDbEntity
  8
AM_9
100
AcDbLine
 10
32.49101615137755
 20
-5.350000000000001
 30
0.0
 11
32.49101615137755
 21
-10.7
 31
0.0
  0
LINE
  5
141
330
10F
100
AcDbEntity
  8
AM_9
100
AcDbLine
 10
36.79101615137755
 20
-5.350000000000001
 30
0.0
 11
25.04319767883138
 21
-5.350000000000001
 31
0.0
  0
LINE
  5
142
330
10F
100
AcDbEntity
  8
AM_9
100
AcDbLine
 10
-26.61710691510446
 20
-5.350000000000001
 30
0.0
 11
-26.61710691510446
 21
-0.0000000000000011
 31
0.0
  0
LINE
  5
143
330
10F
100
AcDbEntity
  8
AM_9
100
AcDbLine
 10
-35.21710691510447
 20
-0.0000000000000011
 30
0.0
 11
-35.21710691510447
 21
-5.350000000000001
 31
0.0
  0
LINE
  5
144
330
10F
100
AcDbEntity
  8
AM_9
100
AcDbLine
 10
35.21710691510447
 20
-5.350000000000001
 30
0.0
 11
35.21710691510447
 21
-0.0000000000000011
 31
0.0
  0
LINE
  5
145
330
10F
100
AcDbEntity
  8
AM_9
100
AcDbLine
 10
26.61710691510446
 20
-0.0000000000000011
 30
0.0
 11
26.61710691510446
 21
-5.350000000000001
 31
0.0
  0
LINE
  5
146
330
10F
100
AcDbEntity
  8
AM_9
100
AcDbLine
 10
29.34319767883137
 20
-5.350000000000001
 30
0.0
 11
29.34319767883137
 21
-10.7
 31
0.0
  0
LINE
  5
147
330
10F
100
AcDbEntity
  8
AM_9
100
AcDbLine
 10
-29.34319767883137
 20
-5.350000000000001
 30
0.0
 11
-29.34319767883137
 21
-10.7
 31
0.0
  0
LINE
  5
148
330
10F
100
AcDbEntity
  8
AM_9
100
AcDbLine
 10
-25.04319767883138
 20
-5.350000000000001
 30
0.0
 11
-36.79101615137755
 21
-5.350000000000001
 31
0.0
  0
LINE
  5
149
330
10F
100
AcDbEntity
  8
AM_9
100
AcDbLine
 10
-27.46793671859261
 20
-10.7
 30
0.0
 11
-27.46793671859261
 21
-0.0000000000000016
 31
0.0
  0
LINE
  5
14A
330
10F
100
AcDbEntity
  8
AM_9
100
AcDbLine
 10
27.46793696696308
 20
-10.7
 30
0.0
 11
27.46793696696308
 21
-0.0000000000000016
 31
0.0
  0
LWPOLYLINE
  5
14B
330
10F
100
AcDbEntity
  8
AM_9
100
AcDbPolyline
 90
       11
 70
     0
 43
0.0
 10
-22.87356772276593
 20
-10.7
 10
-22.85395165626575
 20
-10.70099579221773
 10
-22.77136825267142
 20
-10.72912200599781
 10
-22.69606461573409
 20
-10.79643834673208
 10
-22.62748574767432
 20
-10.90824935716519
 10
-22.56958812352393
 20
-11.06484456851941
 10
-22.53310887001528
 20
-11.21718302101542
 10
-22.50425473677118
 20
-11.39857232500112
 10
-22.48763069673317
 20
-11.55937183455336
 10
-22.47657111674346
 20
-11.7367654560031
 10
-22.47156020485442
 20
-11.97
  0
LINE
  5
14C
330
10F
100
AcDbEntity
  8
AM_9
100
AcDbLine
 10
-22.47156020485443
 20
-19.88
 30
0.0
 11
-22.47156020485442
 21
-11.97
 31
0.0
  0
LWPOLYLINE
  5
14D
330
10F
100
AcDbEntity
  8
AM_9
100
AcDbPolyline
 90
        4
 70
     0
 43
0.0
 10
-22.40660459938325
 20
-21.6
 10
-22.36335851521826
 20
-21.58765765615845
 10
-22.33920953508859
 20
-21.54690008516995
 10
-22.33249154980591
 20
-21.48050172555117
  0
LINE
  5
14E
330
10F
100
AcDbEntity
  8
AM_9
100
AcDbLine
 10
-22.33249153048908
 20
-21.47822340218065
 30
0.0
 11
-22.33249153048908
 21
-10.7
 31
0.0
  0
LWPOLYLINE
  5
14F
330
10F
100
AcDbEntity
  8
AM_9
100
AcDbPolyline
 90
       10
 70
     0
 43
0.0
 10
-22.33249154980591
 20
-21.48050172555117
 10
-22.33262169408462
 20
-21.46866576379616
 10
-22.34269242012288
 20
-21.34542415311532
 10
-22.3674428091113
 20
-21.16273686197754
 10
-22.39124807057517
 20
-20.99341125848077
 10
-22.41767981728961
 20
-20.78485623283404
 10
-22.4418618118821
 20
-20.54863562856104
 10
-22.46113580367315
 20
-20.27506863717889
 10
-22.46883243885368
 20
-20.08191268204671
 10
-22.47156020485443
 20
-19.87999999999999
  0
LWPOLYLINE
  5
150
330
10F
100
AcDbEntity
  8
AM_9
100
AcDbPolyline
 90
       10
 70
     0
 43
0.0
 10
22.47156020485441
 20
-19.88
 10
22.46791245674786
 20
-20.11351595337213
 10
22.45700734869306
 20
-20.34703190674426
 10
22.44087151878593
 20
-20.55980117814582
 10
22.42060634780469
 20
-20.75935225337666
 10
22.39832878120631
 20
-20.94056449263066
 10
22.37642330308762
 20
-21.09976783490664
 10
22.34987558149095
 20
-21.28859371528556
 10
22.33455948816085
 20
-21.42826587843638
 10
22.3324915550849
 20
-21.48048355239414
  0
LINE
  5
151
330
10F
100
AcDbEntity
  8
AM_9
100
AcDbLine
 10
22.47156020485442
 20
-11.97
 30
0.0
 11
22.47156020485441
 21
-19.88
 31
0.0
  0
LWPOLYLINE
  5
152
330
10F
100
AcDbEntity
  8
AM_9
100
AcDbPolyline
 90
       12
 70
     0
 43
0.0
 10
22.47156020485442
 20
-11.97
 10
22.47460997635425
 20
-11.7881322462364
 10
22.48362368428342
 20
-11.61204856954911
 10
22.49844089354323
 20
-11.44760498197606
 10
22.51889605614257
 20
-11.29666183910721
 10
22.54770888176467
 20
-11.14907976191306
 10
22.58307544336436
 20
-11.02112315024611
 10
22.63481019224514
 20
-10.89333182440679
 10
22.69594326478605
 20
-10.79658718143955
 10
22.77698629319883
 20
-10.72598843702162
 10
22.86855453277805
 20
-10.70006434140844
 10
22.87356772276591
 20
-10.7
  0
LINE
  5
153
330
10F
100
AcDbEntity
  8
AM_9
100
AcDbLine
 10
22.33249153048906
 20
-10.7
 30
0.0
 11
22.33249153048906
 21
-21.47781680463095
 31
0.0
  0
LWPOLYLINE
  5
154
330
10F
100
AcDbEntity
  8
AM_9
100
AcDbPolyline
 90
        5
 70
     0
 43
0.0
 10
22.3324915550849
 20
-21.48048355239414
 10
22.33297870588529
 20
-21.50134792465879
 10
22.34057303213975
 20
-21.55166295174031
 10
22.38613379758648
 20
-21.5979419285132
 10
22.4066045993832
 20
-21.60000000000005
  0
LINE
  5
155
330
10F
100
AcDbEntity
  8
AM_9
100
AcDbLine
 10
22.36626924634504
 20
-14.04
 30
0.0
 11
22.36626924634504
 21
-2.675
 31
0.0
  0
LINE
  5
156
330
10F
100
AcDbEntity
  8
AM_9
100
AcDbLine
 10
24.5
 20
-14.04
 30
0.0
 11
24.5
 21
-2.675
 31
0.0
  0
LINE
  5
157
330
10F
100
AcDbEntity
  8
AM_9
100
AcDbLine
 10
24.5
 20
-14.04
 30
0.0
 11
21.26617031813674
 21
-14.04
 31
0.0
  0
LINE
  5
158
330
10F
100
AcDbEntity
  8
AM_9
100
AcDbLine
 10
-21.26617031813674
 20
-14.04
 30
0.0
 11
-24.5
 21
-14.04
 31
0.0
  0
LINE
  5
159
330
10F
100
AcDbEntity
  8
AM_9
100
AcDbLine
 10
-22.36626924634504
 20
-14.04
 30
0.0
 11
-22.36626924634504
 21
-2.675
 31
0.0
  0
LINE
  5
15A
330
10F
100
AcDbEntity
  8
AM_9
100
AcDbLine
 10
-24.5
 20
-9.063636357000172
 30
0.0
 11
-24.5
 21
-14.04
 31
0.0
  0
LINE
  5
15B
330
10F
100
AcDbEntity
  8
AM_9
100
AcDbLine
 10
-24.5
 20
-2.675
 30
0.0
 11
-24.5
 21
-7.736363642999826
 31
0.0
  0
LINE
  5
15C
330
10F
100
AcDbEntity
  8
AM_9
100
AcDbLine
 10
-21.26617031813674
 20
-14.04
 30
0.0
 11
-21.26617031813674
 21
-2.675
 31
0.0
  0
LINE
  5
15D
330
10F
100
AcDbEntity
  8
AM_9
100
AcDbLine
 10
21.26617031813674
 20
-2.675
 30
0.0
 11
21.26617031813674
 21
-14.04
 31
0.0
  0
LINE
  5
15E
330
10F
100
AcDbEntity
  8
AM_9
100
AcDbLine
 10
23.5
 20
-21.6
 30
0.0
 11
23.5
 21
-14.04
 31
0.0
  0
LINE
  5
15F
330
10F
100
AcDbEntity
  8
AM_9
100
AcDbLine
 10
-23.5
 20
-14.04
 30
0.0
 11
-23.5
 21
-21.6
 31
0.0
  0
LINE
  5
160
330
10F
100
AcDbEntity
  8
AM_9
100
AcDbLine
 10
10.13174167284043
 20
-2.674999999999999
 30
0.0
 11
10.13174167284042
 21
0.0000000000000014
 31
0.0
  0
LINE
  5
161
330
10F
100
AcDbEntity
  8
AM_9
100
AcDbLine
 10
11.32550689489421
 20
-2.674999999999999
 30
0.0
 11
-11.3255068948942
 21
-2.674999999999999
 31
0.0
  0
LINE
  5
162
330
10F
100
AcDbEntity
  8
AM_9
100
AcDbLine
 10
-10.13174167284042
 20
-2.674999999999999
 30
0.0
 11
-10.13174167284042
 21
0.0000000000000014
 31
0.0
  0
LINE
  5
163
330
10F
100
AcDbEntity
  8
AM_9
100
AcDbLine
 10
-28.02710193823201
 20
-11.97
 30
0.0
 11
-28.02710193823201
 21
-19.88
 31
0.0
  0
LINE
  5
164
330
10F
100
AcDbEntity
  8
AM_9
100
AcDbLine
 10
28.02710193823201
 20
-19.88
 30
0.0
 11
28.02710193823201
 21
-11.97
 31
0.0
  0
LINE
  5
165
330
10F
100
AcDbEntity
  8
AM_9
100
AcDbLine
 10
31.02551480537732
 20
-2.675
 30
0.0
 11
31.02551480537732
 21
-10.7
 31
0.0
  0
LINE
  5
166
330
10F
100
AcDbEntity
  8
AM_9
100
AcDbLine
 10
-31.02551480537732
 20
-10.7
 30
0.0
 11
-31.02551480537732
 21
-2.675
 31
0.0
  0
LWPOLYLINE
  5
167
330
10F
100
AcDbEntity
  8
AM_9
100
AcDbPolyline
 90
       13
 70
     0
 43
0.0
 10
-28.02710193823201
 20
-19.88
 10
-28.00782361422946
 20
-20.11351595337213
 10
-27.9487038618259
 20
-20.34703190674426
 10
-27.8566101686861
 20
-20.55980117814582
 10
-27.73131818781208
 20
-20.75935225337666
 10
-27.57670114800126
 20
-20.94056449263066
 10
-27.39793656482491
 20
-21.09976783490664
 10
-27.10638281472147
 20
-21.28859371528556
 10
-26.78900711048221
 20
-21.42826587843638
 10
-26.5484595790049
 20
-21.50111374227246
 10
-26.30632502497585
 20
-21.55166295174031
 10
-25.82180758983084
 20
-21.5979419285132
 10
-25.68705899539589
 20
-21.6
  0
LWPOLYLINE
  5
168
330
10F
100
AcDbEntity
  8
AM_9
100
AcDbPolyline
 90
       12
 70
     0
 43
0.0
 10
25.68705899539589
 20
-21.6
 10
26.01034605082036
 20
-21.58765765615846
 10
26.33409466093228
 20
-21.54690008516996
 10
26.66580443039149
 20
-21.46866576379617
 10
26.99222276585419
 20
-21.34542415311534
 10
27.31246045755924
 20
-21.16273686197755
 10
27.52251740249645
 20
-20.99341125848079
 10
27.71215182298464
 20
-20.78485623283405
 10
27.8624388455256
 20
-20.54863562856105
 10
27.97135784237887
 20
-20.2750686371789
 10
28.0127081953146
 20
-20.08191268204672
 10
28.02710193823201
 20
-19.88
  0
LWPOLYLINE
  5
169
330
10F
100
AcDbEntity
  8
AM_9
100
AcDbPolyline
 90
       12
 70
     0
 43
0.0
 10
-28.02710193823201
 20
-11.97
 10
-28.04242525466734
 20
-11.79102428477455
 10
-28.08924485636067
 20
-11.61204856954911
 10
-28.16143866430848
 20
-11.44942678554612
 10
-28.25886382621158
 20
-11.29666183910721
 10
-28.38528711081041
 20
-11.15037918224881
 10
-28.53325004690876
 20
-11.02112315024611
 10
-28.72918469424031
 20
-10.89452754653925
 10
-28.94686785509853
 20
-10.79658718143955
 10
-29.20432661620498
 20
-10.72658578566344
 10
-29.47881591106867
 20
-10.70006434140844
 10
-29.49299471018541
 20
-10.7
  0
LWPOLYLINE
  5
16A
330
10F
100
AcDbEntity
  8
AM_9
100
AcDbPolyline
 90
       11
 70
     0
 43
0.0
 10
29.49299471018541
 20
-10.7
 10
29.43716825509821
 20
-10.70099579221773
 10
29.19092081961427
 20
-10.7291220059978
 10
28.94727808574551
 20
-10.79643834673209
 10
28.70448463787039
 20
-10.90824935716519
 10
28.4785459213676
 20
-11.06484456851941
 10
28.32296538347913
 20
-11.21718302101542
 10
28.19042899554843
 20
-11.39857232500112
 10
28.10937413258462
 20
-11.55937183455336
 10
28.0532064269786
 20
-11.7367654560031
 10
28.02710193823201
 20
-11.97
  0
LINE
  5
16B
330
10F
100
AcDbEntity
  8
AM_9
100
AcDbLine
 10
4.3
 20
-5.349999999999997
 30
0.0
 11
-4.299999999999998
 21
-5.349999999999997
 31
0.0
  0
LINE
  5
16C
330
10F
100
AcDbEntity
  8
AM_9
100
AcDbLine
 10
4.3
 20
0.0000000000000022
 30
0.0
 11
4.3
 21
-10.7
 31
0.0
  0
LINE
  5
16D
330
10F
100
AcDbEntity
  8
AM_9
100
AcDbLine
 10
-4.3
 20
0.0000000000000022
 30
0.0
 11
-4.299999999999998
 21
-10.7
 31
0.0
  0
LINE
  5
16E
330
10F
100
AcDbEntity
  8
AM_7
100
AcDbLine
 10
30.91710691510447
 20
0.5349999999999989
 30
0.0
 11
30.91710691510445
 21
-33.38
 31
0.0
  0
LINE
  5
16F
330
10F
100
AcDbEntity
  8
AM_7
100
AcDbLine
 10
0.0
 20
0.5350000000000023
 30
0.0
 11
0.0
 21
-33.38
 31
0.0
  0
LINE
  5
170
330
10F
100
AcDbEntity
  8
AM_7
100
AcDbLine
 10
-30.91710691510447
 20
0.5349999999999989
 30
0.0
 11
-30.91710691510447
 21
-33.38
 31
0.0
  0
LINE
  5
171
330
10F
100
AcDbEntity
  8
AM_4
100
AcDbLine
 10
-13.35319879856036
 20
-2.675000000000002
 30
0.0
 11
-13.35319879856036
 21
-0.0000000000000013
 31
0.0
  0
LINE
  5
172
330
10F
100
AcDbEntity
  8
AM_4
100
AcDbLine
 10
-13.35319879856036
 20
-0.0000000000000013
 30
0.0
 11
-40.41710691510446
 21
-0.0000000000000011
 31
0.0
  0
LINE
  5
173
330
10F
100
AcDbEntity
  8
AM_4
100
AcDbLine
 10
40.41710691510446
 20
-0.0000000000000011
 30
0.0
 11
13.35319879856036
 21
-0.0000000000000013
 31
0.0
  0
LINE
  5
174
330
10F
100
AcDbEntity
  8
AM_4
100
AcDbLine
 10
13.35319879856036
 20
-0.0000000000000013
 30
0.0
 11
13.35319879856036
 21
-2.675000000000002
 31
0.0
  0
LINE
  5
175
330
10F
100
AcDbEntity
  8
AM_4
100
AcDbLine
 10
-40.41710691510446
 20
-0.0000000000000011
 30
0.0
 11
-40.41710691510446
 21
-10.7
 31
0.0
  0
LINE
  5
176
330
10F
100
AcDbEntity
  8
AM_4
100
AcDbLine
 10
40.41710691510446
 20
-10.7
 30
0.0
 11
40.41710691510446
 21
-0.0000000000000011
 31
0.0
  0
LINE
  5
177
330
10F
100
AcDbEntity
  8
AM_4
100
AcDbLine
 10
36.85834980321903
 20
-10.7
 30
0.0
 11
36.85834980321903
 21
-0.0000000000000006
 31
0.0
  0
LINE
  5
178
330
10F
100
AcDbEntity
  8
AM_4
100
AcDbLine
 10
-36.85835001121828
 20
-10.7
 30
0.0
 11
-36.85835001121828
 21
-0.0000000000000006
 31
0.0
  0
LINE
  5
179
330
10F
100
AcDbEntity
  8
AM_4
100
AcDbLine
 10
-28.27684087086182
 20
-2.675
 30
0.0
 11
-28.27684087086182
 21
-0.0000000000000001
 31
0.0
  0
LINE
  5
17A
330
10F
100
AcDbEntity
  8
AM_4
100
AcDbLine
 10
28.27684134915122
 20
-2.675
 30
0.0
 11
28.27684134915121
 21
-0.0000000000000001
 31
0.0
  0
LINE
  5
17B
330
10F
100
AcDbEntity
  8
AM_4
100
AcDbLine
 10
24.38421336382465
 20
-2.675
 30
0.0
 11
24.38421336382462
 21
-0.0000000000000001
 31
0.0
  0
LINE
  5
17C
330
10F
100
AcDbEntity
  8
AM_4
100
AcDbLine
 10
14.2524716909842
 20
-2.675000000000002
 30
0.0
 11
14.2524716909842
 21
-0.0000000000000012
 31
0.0
  0
LINE
  5
17D
330
10F
100
AcDbEntity
  8
AM_4
100
AcDbLine
 10
-24.38421336382462
 20
-2.675
 30
0.0
 11
-24.38421336382462
 21
-0.0000000000000001
 31
0.0
  0
LINE
  5
17E
330
10F
100
AcDbEntity
  8
AM_4
100
AcDbLine
 10
-14.2524716909842
 20
-2.675000000000002
 30
0.0
 11
-14.2524716909842
 21
-0.0000000000000012
 31
0.0
  0
LINE
  5
17F
330
10F
100
AcDbEntity
  8
AM_4
100
AcDbLine
 10
13.17085369719173
 20
-2.674999999999999
 30
0.0
 11
13.17085369719173
 21
0.0000000000000015
 31
0.0
  0
LINE
  5
180
330
10F
100
AcDbEntity
  8
AM_4
100
AcDbLine
 10
13.17085369719173
 20
0.0000000000000015
 30
0.0
 11
-13.17085369719196
 21
0.0000000000000015
 31
0.0
  0
LINE
  5
181
330
10F
100
AcDbEntity
  8
AM_4
100
AcDbLine
 10
-13.17085369719196
 20
0.0000000000000015
 30
0.0
 11
-13.17085369719196
 21
-2.674999999999999
 31
0.0
  0
LINE
  5
182
330
10F
100
AcDbEntity
  8
AM_4
100
AcDbLine
 10
-29.6799989336
 20
-11.97
 30
0.0
 11
-29.6799989336
 21
-19.88
 31
0.0
  0
LINE
  5
183
330
10F
100
AcDbEntity
  8
AM_4
100
AcDbLine
 10
29.6799989336
 20
-19.88
 30
0.0
 11
29.6799989336
 21
-11.97
 31
0.0
  0
LINE
  5
184
330
10F
100
AcDbEntity
  8
AM_4
100
AcDbLine
 10
11.32550689489421
 20
-2.674999999999998
 30
0.0
 11
31.3999998624
 21
-2.675
 31
0.0
  0
LINE
  5
185
330
10F
100
AcDbEntity
  8
AM_4
100
AcDbLine
 10
31.3999998624
 20
-10.7
 30
0.0
 11
31.3999998624
 21
-2.675
 31
0.0
  0
LINE
  5
186
330
10F
100
AcDbEntity
  8
AM_4
100
AcDbLine
 10
-31.3999998624
 20
-2.675
 30
0.0
 11
-31.3999998624
 21
-10.7
 31
0.0
  0
LINE
  5
187
330
10F
100
AcDbEntity
  8
AM_4
100
AcDbLine
 10
-31.3999998624
 20
-2.675
 30
0.0
 11
-11.3255068948942
 21
-2.674999999999998
 31
0.0
  0
ARC
  5
188
330
10F
100
AcDbEntity
  8
AM_4
100
AcDbCircle
 10
-27.95999893360002
 20
-19.88000000000002
 30
0.0
 40
1.719999999999981
100
AcDbArc
 50
180.0
 51
270.0
  0
LINE
  5
189
330
10F
100
AcDbEntity
  8
AM_4
100
AcDbLine
 10
-29.6799989336
 20
-19.88
 30
0.0
 11
-5.555541733377592
 21
-19.88
 31
0.0
  0
LINE
  5
18A
330
10F
100
AcDbEntity
  8
AM_4
100
AcDbLine
 10
-27.9599989336
 20
-21.6
 30
0.0
 11
27.9599989336
 21
-21.6
 31
0.0
  0
LINE
  5
18B
330
10F
100
AcDbEntity
  8
AM_4
100
AcDbLine
 10
5.555541733377594
 20
-19.88
 30
0.0
 11
29.6799989336
 21
-19.88
 31
0.0
  0
ARC
  5
18C
330
10F
100
AcDbEntity
  8
AM_4
100
AcDbCircle
 10
27.95999893360002
 20
-19.88000000000002
 30
0.0
 40
1.719999999999985
100
AcDbArc
 50
270.0
 51
0.0
  0
ARC
  5
18D
330
10F
100
AcDbEntity
  8
AM_4
100
AcDbCircle
 10
-30.94999893359999
 20
-11.97
 30
0.0
 40
1.269999999999992
100
AcDbArc
 50
0.0
 51
90.0
  0
LINE
  5
18E
330
10F
100
AcDbEntity
  8
AM_4
100
AcDbLine
 10
-29.6799989336
 20
-11.97
 30
0.0
 11
-5.555541733377597
 21
-11.97
 31
0.0
  0
LINE
  5
18F
330
10F
100
AcDbEntity
  8
AM_4
100
AcDbLine
 10
5.555541733377593
 20
-11.97
 30
0.0
 11
29.6799989336
 21
-11.97
 31
0.0
  0
ARC
  5
190
330
10F
100
AcDbEntity
  8
AM_4
100
AcDbCircle
 10
30.94999893360001
 20
-11.97000000000001
 30
0.0
 40
1.270000000000005
100
AcDbArc
 50
90.0
 51
180.0
  0
LWPOLYLINE
  5
191
330
10F
100
AcDbEntity
  8
AM_4
100
AcDbPolyline
 90
       10
 70
     0
 43
0.0
 10
-6.619426987419486
 20
-10.7
 10
-6.466230388336001
 20
-10.71733278713851
 10
-6.311404837641694
 20
-10.76793929121378
 10
-6.134457497627271
 20
-10.86636109063224
 10
-5.966122932610627
 20
-11.00521730615359
 10
-5.83373977386394
 20
-11.15592174531418
 10
-5.718963451551036
 20
-11.33406697813905
 10
-5.644242616973638
 20
-11.49645991774344
 10
-5.589923993863628
 20
-11.67276426772941
 10
-5.555541733377597
 20
-11.97
  0
LINE
  5
192
330
10F
100
AcDbEntity
  8
AM_4
100
AcDbLine
 10
-5.555541733377592
 20
-19.88
 30
0.0
 11
-5.555541733377597
 21
-11.97
 31
0.0
  0
LWPOLYLINE
  5
193
330
10F
100
AcDbEntity
  8
AM_4
100
AcDbPolyline
 90
       12
 70
     0
 43
0.0
 10
-3.280454396012645
 20
-21.6
 10
-3.646987535602113
 20
-21.58765765615846
 10
-3.996766554538363
 20
-21.5465982901078
 10
-4.333182736306889
 20
-21.46866576379617
 10
-4.653300937697895
 20
-21.3434148123399
 10
-4.94501764844795
 20
-21.16273686197754
 10
-5.133417701810053
 20
-20.99087769114104
 10
-5.294472005695044
 20
-20.78485623283404
 10
-5.422496953432505
 20
-20.54343688414538
 10
-5.510222038705728
 20
-20.2750686371789
 10
-5.544059606825051
 20
-20.07970924490328
 10
-5.555541733377592
 20
-19.88
  0
LWPOLYLINE
  5
194
330
10F
100
AcDbEntity
  8
AM_4
100
AcDbPolyline
 90
       13
 70
     0
 43
0.0
 10
5.555541733377594
 20
-19.88
 10
5.539911157481593
 20
-20.11351595337213
 10
5.491696513132823
 20
-20.34703190674426
 10
5.415738649900164
 20
-20.55980117814581
 10
5.310711840007372
 20
-20.75935225337665
 10
5.178372366794934
 20
-20.94056449263065
 10
5.021513261737272
 20
-21.09976783490664
 10
4.756507233230511
 20
-21.28859371528555
 10
4.454447622321351
 20
-21.42826587843638
 10
4.214567602277354
 20
-21.50134792465878
 10
3.965751992836089
 20
-21.55166295174031
 10
3.435673792244351
 20
-21.5979419285132
 10
3.280454396012645
 20
-21.6
  0
LINE
  5
195
330
10F
100
AcDbEntity
  8
AM_4
100
AcDbLine
 10
5.555541733377593
 20
-11.97
 30
0.0
 11
5.555541733377594
 21
-19.88
 31
0.0
  0
LWPOLYLINE
  5
196
330
10F
100
AcDbEntity
  8
AM_4
100
AcDbPolyline
 90
       12
 70
     0
 43
0.0
 10
5.555541733377593
 20
-11.97
 10
5.567933610493326
 20
-11.79102428477455
 10
5.60562117207724
 20
-11.6120485695491
 10
5.66321944242818
 20
-11.44942678554612
 10
5.739967770068996
 20
-11.29666183910721
 10
5.837901211281435
 20
-11.15037918224881
 10
5.950174603544392
 20
-11.02112315024611
 10
6.095020962359458
 20
-10.89452754653924
 10
6.250924590312476
 20
-10.79658718143955
 10
6.428628979702069
 20
-10.72658578566344
 10
6.610261378290613
 20
-10.70006434140844
 10
6.619426987419486
 20
-10.7
  0
LINE
  5
197
330
10F
100
AcDbEntity
  8
AM_4
100
AcDbLine
 10
12.97552182213919
 20
-2.674999999999998
 30
0.0
 11
12.9755218221392
 21
0.0000000000000015
 31
0.0
  0
LINE
  5
198
330
10F
100
AcDbEntity
  8
AM_4
100
AcDbLine
 10
11.32550689489421
 20
-2.674999999999998
 30
0.0
 11
11.32550689489421
 21
-10.7
 31
0.0
  0
LINE
  5
199
330
10F
100
AcDbEntity
  8
AM_4
100
AcDbLine
 10
-40.41710691510446
 20
-10.7
 30
0.0
 11
40.41710691510446
 21
-10.7
 31
0.0
  0
LINE
  5
19A
330
10F
100
AcDbEntity
  8
AM_4
100
AcDbLine
 10
-11.3255068948942
 20
-10.7
 30
0.0
 11
-11.3255068948942
 21
-2.674999999999998
 31
0.0
  0
LINE
  5
19B
330
10F
100
AcDbEntity
  8
AM_4
100
AcDbLine
 10
-12.97552147817135
 20
-2.674999999999998
 30
0.0
 11
-12.97552147817135
 21
0.0000000000000015
 31
0.0
  0
LINE
  5
19C
330
10F
100
AcDbEntity
  8
AM_4
100
AcDbLine
 10
-9.390413069788186
 20
-10.7
 30
0.0
 11
-9.390413069788186
 21
0.0000000000000023
 31
0.0
  0
LINE
  5
19D
330
10F
100
AcDbEntity
  8
AM_4
100
AcDbLine
 10
9.390413169340805
 20
-10.7
 30
0.0
 11
9.390413169340805
 21
0.0000000000000023
 31
0.0
  0
ENDBLK
  5
112
330
10F
100
AcDbEntity
  8
0
100
AcDbBlockEnd
  0
ENDSEC
  0
SECTION
  2
ENTITIES
  0
INSERT
  5
6F
330
1F
100
AcDbEntity
  8
0
100
AcDbBlockReference
  2
1_125384_4
 10
0.0
 20
0.0
 30
0.0
  0
POINT
  5
19F
330
1F
100
AcDbEntity
  8
ConnectionPoints
100
AcDbPoint
 10
0.0
 20
-14.33333333333334
 30
-30.837
  0
POINT
  5
1A0
330
1F
100
AcDbEntity
  8
ConnectionPoints
100
AcDbPoint
 10
0.0
 20
-14.33333333333334
 30
-30.837
  0
POINT
  5
1A1
330
1F
100
AcDbEntity
  8
ConnectionPoints
100
AcDbPoint
 10
0.0
 20
-30.7
 30
0.0000000000000019
  0
ENDSEC
  0
SECTION
  2
OBJECTS
  0
DICTIONARY
  5
C
330
0
100
AcDbDictionary
281
     1
  3
ACAD_DETAILVIEWSTYLE
350
1A9
  3
ACAD_GROUP
350
D
  3
ACAD_LAYOUT
350
1A
  3
ACAD_MATERIAL
350
43
  3
ACAD_MLEADERSTYLE
350
6B
  3
ACAD_MLINESTYLE
350
17
  3
ACAD_PLOTSETTINGS
350
19
  3
ACAD_PLOTSTYLENAME
350
E
  3
ACAD_SCALELIST
350
47
  3
ACAD_SECTIONVIEWSTYLE
350
1AA
  3
ACAD_TABLESTYLE
350
69
  3
ACAD_VISUALSTYLE
350
2A
  3
ACDB_RECOMPOSE_DATA
350
1A6
  3
AcDbVariableDictionary
350
1A2
  0
SUN
  5
6D
330
29
100
AcDbSun
 90
        1
290
     0
 63
     7
421
 16777215
 40
1.0
291
     1
 91
  2455826
 92
 54000000
292
     0
 70
     2
 71
   256
280
     1
  0
DICTIONARY
  5
1A9
102
{ACAD_REACTORS
330
C
102
}
330
C
100
AcDbDictionary
281
     1
  0
DICTIONARY
  5
D
102
{ACAD_REACTORS
330
C
102
}
330
C
100
AcDbDictionary
281
     1
  0
DICTIONARY
  5
1A
102
{ACAD_REACTORS
330
C
102
}
330
C
100
AcDbDictionary
281
     1
  3
Layout1
350
1E
  3
Layout2
350
26
  3
Model
350
22
  0
DICTIONARY
  5
43
102
{ACAD_REACTORS
330
C
102
}
330
C
100
AcDbDictionary
281
     1
  3
ByBlock
350
45
  3
ByLayer
350
44
  3
Global
350
46
  0
DICTIONARY
  5
6B
102
{ACAD_REACTORS
330
C
102
}
330
C
100
AcDbDictionary
281
     1
  3
Standard
350
6C
  0
DICTIONARY
  5
17
102
{ACAD_REACTORS
330
C
102
}
330
C
100
AcDbDictionary
281
     1
  3
Standard
350
18
  0
DICTIONARY
  5
19
102
{ACAD_REACTORS
330
C
102
}
330
C
100
AcDbDictionary
281
     1
  0
ACDBDICTIONARYWDFLT
  5
E
102
{ACAD_REACTORS
330
C
102
}
330
C
100
AcDbDictionary
281
     1
  3
Normal
350
F
100
AcDbDictionaryWithDefault
340
F
  0
DICTIONARY
  5
47
102
{ACAD_REACTORS
330
C
102
}
330
C
100
AcDbDictionary
281
     1
  3
A0
350
48
  3
A1
350
49
  3
A2
350
4A
  3
A3
350
4B
  3
A4
350
4C
  3
A5
350
4D
  3
A6
350
4E
  3
A7
350
4F
  3
A8
350
50
  3
A9
350
51
  3
B0
350
52
  3
B1
350
53
  3
B2
350
54
  3
B3
350
55
  3
B4
350
56
  3
B5
350
57
  3
B6
350
58
  3
B7
350
59
  3
B8
350
5A
  3
B9
350
5B
  3
C0
350
5C
  3
C1
350
5D
  3
C2
350
5E
  3
C3
350
5F
  3
C4
350
60
  3
C5
350
61
  3
C6
350
62
  3
C7
350
63
  3
C8
350
64
  3
C9
350
65
  3
D0
350
66
  3
D1
350
67
  3
D2
350
68
  0
DICTIONARY
  5
1AA
102
{ACAD_REACTORS
330
C
102
}
330
C
100
AcDbDictionary
281
     1
  0
DICTIONARY
  5
69
102
{ACAD_REACTORS
330
C
102
}
330
C
100
AcDbDictionary
281
     1
  3
Standard
350
6A
  0
DICTIONARY
  5
2A
102
{ACAD_REACTORS
330
C
102
}
330
C
100
AcDbDictionary
281
     1
  3
2dWireframe
350
2F
  3
Basic
350
32
  3
Brighten
350
36
  3
ColorChange
350
3A
  3
Conceptual
350
34
  3
Dim
350
35
  3
EdgeColorOff
350
3D
  3
Facepattern
350
39
  3
Flat
350
2B
  3
FlatWithEdges
350
2C
  3
Gouraud
350
2D
  3
GouraudWithEdges
350
2E
  3
Hidden
350
31
  3
JitterOff
350
3B
  3
Linepattern
350
38
  3
OverhangOff
350
3C
  3
Realistic
350
33
  3
Shaded
350
42
  3
Shaded with edges
350
41
  3
Shades of Gray
350
3E
  3
Sketchy
350
3F
  3
Thicken
350
37
  3
Wireframe
350
30
  3
X-Ray
350
40
  0
XRECORD
  5
1A6
102
{ACAD_REACTORS
330
C
102
}
330
C
100
AcDbXrecord
280
     1
 90
        1
330
6A
  0
DICTIONARY
  5
1A2
102
{ACAD_REACTORS
330
C
102
}
330
C
100
AcDbDictionary
281
     1
  3
CANNOSCALE
350
1A3
  3
CMLEADERSTYLE
350
1A8
  3
CTABLESTYLE
350
1A7
  0
LAYOUT
  5
1E
102
{ACAD_REACTORS
330
1A
102
}
330
1A
100
AcDbPlotSettings
  1

  2
none_device
  4

  6

 40
0.0
 41
0.0
 42
0.0
 43
0.0
 44
0.0
 45
0.0
 46
0.0
 47
0.0
 48
0.0
 49
0.0
140
0.0
141
0.0
142
1.0
143
1.0
 70
   688
 72
     1
 73
     0
 74
     5
  7

 75
    16
 76
     0
 77
     2
 78
   300
147
1.0
148
0.0
149
0.0
100
AcDbLayout
  1
Layout1
 70
     1
 71
     1
 10
0.0
 20
0.0
 11
420.0
 21
297.0
 12
0.0
 22
0.0
 32
0.0
 14
1.000000000000000E+20
 24
1.000000000000000E+20
 34
1.000000000000000E+20
 15
-1.000000000000000E+20
 25
-1.000000000000000E+20
 35
-1.000000000000000E+20
146
0.0
 13
0.0
 23
0.0
 33
0.0
 16
1.0
 26
0.0
 36
0.0
 17
0.0
 27
1.0
 37
0.0
 76
     0
330
1B
  0
LAYOUT
  5
26
102
{ACAD_REACTORS
330
1A
102
}
330
1A
100
AcDbPlotSettings
  1

  2
none_device
  4

  6

 40
0.0
 41
0.0
 42
0.0
 43
0.0
 44
0.0
 45
0.0
 46
0.0
 47
0.0
 48
0.0
 49
0.0
140
0.0
141
0.0
142
1.0
143
1.0
 70
   688
 72
     1
 73
     0
 74
     5
  7

 75
    16
 76
     0
 77
     2
 78
   300
147
1.0
148
0.0
149
0.0
100
AcDbLayout
  1
Layout2
 70
     1
 71
     2
 10
0.0
 20
0.0
 11
0.0
 21
0.0
 12
0.0
 22
0.0
 32
0.0
 14
0.0
 24
0.0
 34
0.0
 15
0.0
 25
0.0
 35
0.0
146
0.0
 13
0.0
 23
0.0
 33
0.0
 16
1.0
 26
0.0
 36
0.0
 17
0.0
 27
1.0
 37
0.0
 76
     0
330
23
  0
LAYOUT
  5
22
102
{ACAD_REACTORS
330
1A
102
}
330
1A
100
AcDbPlotSettings
  1

  2
none_device
  4
Letter_(8.50_x_11.00_Inches)
  6

 40
6.35
 41
6.35
 42
6.35000508
 43
6.35000508
 44
215.9
 45
279.4
 46
0.0
 47
0.0
 48
0.0
 49
0.0
140
0.0
141
0.0
142
1.0
143
1.0
 70
  1712
 72
     1
 73
     0
 74
     0
  7

 75
     0
 76
     0
 77
     2
 78
   300
147
1.0
148
0.0
149
0.0
100
AcDbLayout
  1
Model
 70
     1
 71
     0
 10
0.0
 20
0.0
 11
420.0
 21
297.0
 12
0.0
 22
0.0
 32
0.0
 14
1.000000000000000E+20
 24
1.000000000000000E+20
 34
1.000000000000000E+20
 15
-1.000000000000000E+20
 25
-1.000000000000000E+20
 35
-1.000000000000000E+20
146
0.0
 13
0.0
 23
0.0
 33
0.0
 16
1.0
 26
0.0
 36
0.0
 17
0.0
 27
1.0
 37
0.0
 76
     0
330
1F
331
29
  0
MATERIAL
  5
45
102
{ACAD_REACTORS
330
43
102
}
330
43
100
AcDbMaterial
  1
ByBlock
 72
     1
 94
      127
  0
MATERIAL
  5
44
102
{ACAD_REACTORS
330
43
102
}
330
43
100
AcDbMaterial
  1
ByLayer
 72
     1
 94
      127
  0
MATERIAL
  5
46
102
{ACAD_REACTORS
330
43
102
}
330
43
100
AcDbMaterial
  1
Global
 72
     1
 94
      127
  0
MLEADERSTYLE
  5
6C
102
{ACAD_REACTORS
330
6B
102
}
330
6B
100
AcDbMLeaderStyle
179
     2
170
     2
171
     1
172
     0
 90
        2
 40
0.0
 41
0.0
173
     1
 91
-1056964608
340
14
 92
       -2
290
     1
 42
2.0
291
     1
 43
8.0
  3
Standard
341
0
 44
4.0
300

342
11
174
     1
178
     6
175
     1
176
     0
 93
-1056964608
 45
4.0
292
     0
297
     0
 46
4.0
343
0
 94
-1056964608
 47
1.0
 49
1.0
140
1.0
293
     1
141
0.0
294
     1
177
     0
142
1.0
295
     0
296
     0
143
3.75
271
     0
272
     9
273
     9
298
     0
  0
MLINESTYLE
  5
18
102
{ACAD_REACTORS
330
17
102
}
330
17
100
AcDbMlineStyle
  2
Standard
 70
     0
  3

 62
   256
 51
90.0
 52
90.0
 71
     2
 49
0.5
 62
   256
  6
BYLAYER
 49
-0.5
 62
   256
  6
BYLAYER
  0
ACDBPLACEHOLDER
  5
F
102
{ACAD_REACTORS
330
E
102
}
330
E
  0
SCALE
  5
48
102
{ACAD_REACTORS
330
47
102
}
330
47
100
AcDbScale
 70
     0
300
1:1
140
1.0
141
1.0
290
     1
  0
SCALE
  5
49
102
{ACAD_REACTORS
330
47
102
}
330
47
100
AcDbScale
 70
     0
300
1:2
140
1.0
141
2.0
290
     0
  0
SCALE
  5
4A
102
{ACAD_REACTORS
330
47
102
}
330
47
100
AcDbScale
 70
     0
300
1:4
140
1.0
141
4.0
290
     0
  0
SCALE
  5
4B
102
{ACAD_REACTORS
330
47
102
}
330
47
100
AcDbScale
 70
     0
300
1:5
140
1.0
141
5.0
290
     0
  0
SCALE
  5
4C
102
{ACAD_REACTORS
330
47
102
}
330
47
100
AcDbScale
 70
     0
300
1:8
140
1.0
141
8.0
290
     0
  0
SCALE
  5
4D
102
{ACAD_REACTORS
330
47
102
}
330
47
100
AcDbScale
 70
     0
300
1:10
140
1.0
141
10.0
290
     0
  0
SCALE
  5
4E
102
{ACAD_REACTORS
330
47
102
}
330
47
100
AcDbScale
 70
     0
300
1:16
140
1.0
141
16.0
290
     0
  0
SCALE
  5
4F
102
{ACAD_REACTORS
330
47
102
}
330
47
100
AcDbScale
 70
     0
300
1:20
140
1.0
141
20.0
290
     0
  0
SCALE
  5
50
102
{ACAD_REACTORS
330
47
102
}
330
47
100
AcDbScale
 70
     0
300
1:30
140
1.0
141
30.0
290
     0
  0
SCALE
  5
51
102
{ACAD_REACTORS
330
47
102
}
330
47
100
AcDbScale
 70
     0
300
1:40
140
1.0
141
40.0
290
     0
  0
SCALE
  5
52
102
{ACAD_REACTORS
330
47
102
}
330
47
100
AcDbScale
 70
     0
300
1:50
140
1.0
141
50.0
290
     0
  0
SCALE
  5
53
102
{ACAD_REACTORS
330
47
102
}
330
47
100
AcDbScale
 70
     0
300
1:100
140
1.0
141
100.0
290
     0
  0
SCALE
  5
54
102
{ACAD_REACTORS
330
47
102
}
330
47
100
AcDbScale
 70
     0
300
2:1
140
2.0
141
1.0
290
     0
  0
SCALE
  5
55
102
{ACAD_REACTORS
330
47
102
}
330
47
100
AcDbScale
 70
     0
300
4:1
140
4.0
141
1.0
290
     0
  0
SCALE
  5
56
102
{ACAD_REACTORS
330
47
102
}
330
47
100
AcDbScale
 70
     0
300
8:1
140
8.0
141
1.0
290
     0
  0
SCALE
  5
57
102
{ACAD_REACTORS
330
47
102
}
330
47
100
AcDbScale
 70
     0
300
10:1
140
10.0
141
1.0
290
     0
  0
SCALE
  5
58
102
{ACAD_REACTORS
330
47
102
}
330
47
100
AcDbScale
 70
     0
300
100:1
140
100.0
141
1.0
290
     0
  0
SCALE
  5
59
102
{ACAD_REACTORS
330
47
102
}
330
47
100
AcDbScale
 70
     0
300
1/128" = 1'-0"
140
0.0078125
141
12.0
290
     0
  0
SCALE
  5
5A
102
{ACAD_REACTORS
330
47
102
}
330
47
100
AcDbScale
 70
     0
300
1/64" = 1'-0"
140
0.015625
141
12.0
290
     0
  0
SCALE
  5
5B
102
{ACAD_REACTORS
330
47
102
}
330
47
100
AcDbScale
 70
     0
300
1/32" = 1'-0"
140
0.03125
141
12.0
290
     0
  0
SCALE
  5
5C
102
{ACAD_REACTORS
330
47
102
}
330
47
100
AcDbScale
 70
     0
300
1/16" = 1'-0"
140
0.0625
141
12.0
290
     0
  0
SCALE
  5
5D
102
{ACAD_REACTORS
330
47
102
}
330
47
100
AcDbScale
 70
     0
300
3/32" = 1'-0"
140
0.09375
141
12.0
290
     0
  0
SCALE
  5
5E
102
{ACAD_REACTORS
330
47
102
}
330
47
100
AcDbScale
 70
     0
300
1/8" = 1'-0"
140
0.125
141
12.0
290
     0
  0
SCALE
  5
5F
102
{ACAD_REACTORS
330
47
102
}
330
47
100
AcDbScale
 70
     0
300
3/16" = 1'-0"
140
0.1875
141
12.0
290
     0
  0
SCALE
  5
60
102
{ACAD_REACTORS
330
47
102
}
330
47
100
AcDbScale
 70
     0
300
1/4" = 1'-0"
140
0.25
141
12.0
290
     0
  0
SCALE
  5
61
102
{ACAD_REACTORS
330
47
102
}
330
47
100
AcDbScale
 70
     0
300
3/8" = 1'-0"
140
0.375
141
12.0
290
     0
  0
SCALE
  5
62
102
{ACAD_REACTORS
330
47
102
}
330
47
100
AcDbScale
 70
     0
300
1/2" = 1'-0"
140
0.5
141
12.0
290
     0
  0
SCALE
  5
63
102
{ACAD_REACTORS
330
47
102
}
330
47
100
AcDbScale
 70
     0
300
3/4" = 1'-0"
140
0.75
141
12.0
290
     0
  0
SCALE
  5
64
102
{ACAD_REACTORS
330
47
102
}
330
47
100
AcDbScale
 70
     0
300
1" = 1'-0"
140
1.0
141
12.0
290
     0
  0
SCALE
  5
65
102
{ACAD_REACTORS
330
47
102
}
330
47
100
AcDbScale
 70
     0
300
1-1/2" = 1'-0"
140
1.5
141
12.0
290
     0
  0
SCALE
  5
66
102
{ACAD_REACTORS
330
47
102
}
330
47
100
AcDbScale
 70
     0
300
3" = 1'-0"
140
3.0
141
12.0
290
     0
  0
SCALE
  5
67
102
{ACAD_REACTORS
330
47
102
}
330
47
100
AcDbScale
 70
     0
300
6" = 1'-0"
140
6.0
141
12.0
290
     0
  0
SCALE
  5
68
102
{ACAD_REACTORS
330
47
102
}
330
47
100
AcDbScale
 70
     0
300
1'-0" = 1'-0"
140
12.0
141
12.0
290
     0
  0
TABLESTYLE
  5
6A
102
{ACAD_REACTORS
330
69
102
}
102
{ACAD_XDICTIONARY
360
1A4
102
}
330
69
100
AcDbTableStyle
  3
Standard
 70
     0
 71
     0
 40
0.06
 41
0.06
280
     0
281
     0
  7
Standard
140
4.5
170
     2
 62
     0
 63
   257
283
     0
 90
        4
 91
        0
  1

274
    -2
284
     1
 64
     0
275
    -2
285
     1
 65
     0
276
    -2
286
     1
 66
     0
277
    -2
287
     1
 67
     0
278
    -2
288
     1
 68
     0
279
    -2
289
     1
 69
     0
  7
Standard
140
6.0
170
     5
 62
     0
 63
   257
283
     0
 90
        4
 91
        0
  1

274
    -2
284
     1
 64
     0
275
    -2
285
     1
 65
     0
276
    -2
286
     1
 66
     0
277
    -2
287
     1
 67
     0
278
    -2
288
     1
 68
     0
279
    -2
289
     1
 69
     0
  7
Standard
140
4.5
170
     5
 62
     0
 63
   257
283
     0
 90
        4
 91
        0
  1

274
    -2
284
     1
 64
     0
275
    -2
285
     1
 65
     0
276
    -2
286
     1
 66
     0
277
    -2
287
     1
 67
     0
278
    -2
288
     1
 68
     0
279
    -2
289
     1
 69
     0
  0
VISUALSTYLE
  5
2F
102
{ACAD_REACTORS
330
2A
102
}
330
2A
100
AcDbVisualStyle
  2
2dWireframe
 70
     4
177
     3
291
     0
 70
    58
 90
        0
176
     1
 90
        2
176
     1
 90
        0
176
     1
 90
        0
176
     1
 40
0.6
176
     1
 40
30.0
176
     1
 62
     7
420
 16777215
176
     1
 90
        1
176
     1
 90
        4
176
     1
 62
     7
176
     1
 62
   257
176
     1
 90
        1
176
     1
 90
        1
176
     1
 40
1.0
176
     1
 90
        0
176
     1
 62
   257
176
     1
 40
1.0
176
     1
 90
        1
176
     1
 90
        6
176
     1
 90
        2
176
     1
 62
     7
176
     1
 90
        5
176
     1
 90
        0
176
     1
 90
        0
176
     1
290
     0
176
     1
 90
        1
176
     1
 40
0.0
176
     1
 90
        0
176
     1
290
     1
176
     1
290
     1
176
     1
290
     0
176
     1
290
     0
176
     1
290
     0
176
     1
290
     0
176
     1
290
     0
176
     1
290
     0
176
     1
290
     0
176
     1
 90
       50
176
     1
 40
0.0
176
     1
 40
1.0
176
     1
 90
        0
176
     1
 62
    18
420
        0
176
     1
 90
       50
176
     1
 90
        3
176
     1
 62
     5
420
      255
176
     1
290
     0
176
     1
 90
       50
176
     1
 90
       50
176
     1
 90
       50
176
     1
290
     0
176
     1
 90
       50
176
     1
 62
   256
176
     0
 40
1.0
176
     0
 90
        2
176
     1
  1
strokes_ogs.tif
176
     1
290
     0
176
     1
 40
1.0
176
     1
 40
1.0
176
     1
  0
VISUALSTYLE
  5
32
102
{ACAD_REACTORS
330
2A
102
}
330
2A
100
AcDbVisualStyle
  2
Basic
 70
     7
177
     3
291
     1
 70
    58
 90
        1
176
     1
 90
        0
176
     1
 90
        1
176
     1
 90
        0
176
     1
 40
0.6
176
     1
 40
30.0
176
     1
 62
     7
420
 16777215
176
     1
 90
        0
176
     1
 90
        4
176
     1
 62
     7
176
     1
 62
   257
176
     1
 90
        1
176
     1
 90
        1
176
     1
 40
1.0
176
     1
 90
        8
176
     1
 62
     7
176
     1
 40
1.0
176
     1
 90
        1
176
     1
 90
        6
176
     1
 90
        2
176
     1
 62
     7
176
     1
 90
        5
176
     1
 90
        0
176
     1
 90
        0
176
     1
290
     0
176
     1
 90
        1
176
     1
 40
0.0
176
     1
 90
        0
176
     1
290
     0
176
     1
290
     1
176
     1
290
     1
176
     1
290
     0
176
     1
290
     0
176
     1
290
     0
176
     1
290
     0
176
     1
290
     0
176
     1
290
     0
176
     1
 90
       50
176
     1
 40
0.0
176
     1
 40
1.0
176
     1
 90
        0
176
     1
 62
    18
420
        0
176
     1
 90
       50
176
     1
 90
        3
176
     1
 62
     5
420
      255
176
     1
290
     0
176
     1
 90
       50
176
     1
 90
       50
176
     1
 90
       50
176
     1
290
     0
176
     1
 90
       50
176
     1
 62
   256
176
     0
 40
1.0
176
     0
 90
        2
176
     1
  1
strokes_ogs.tif
176
     1
290
     0
176
     1
 40
1.0
176
     1
 40
1.0
176
     1
  0
VISUALSTYLE
  5
36
102
{ACAD_REACTORS
330
2A
102
}
330
2A
100
AcDbVisualStyle
  2
Brighten
 70
    12
177
     3
291
     1
 70
    58
 90
        2
176
     1
 90
        2
176
     1
 90
        0
176
     1
 90
        0
176
     1
 40
0.6
176
     1
 40
30.0
176
     1
 62
     7
420
 16777215
176
     1
 90
        1
176
     1
 90
        4
176
     1
 62
     7
176
     1
 62
   257
176
     1
 90
        1
176
     1
 90
        1
176
     1
 40
1.0
176
     1
 90
        8
176
     1
 62
     7
176
     1
 40
1.0
176
     1
 90
        1
176
     1
 90
        6
176
     1
 90
        2
176
     1
 62
     7
176
     1
 90
        5
176
     1
 90
        0
176
     1
 90
        0
176
     1
290
     0
176
     1
 90
        1
176
     1
 40
50.0
176
     1
 90
        0
176
     1
290
     0
176
     1
290
     1
176
     1
290
     1
176
     1
290
     0
176
     1
290
     0
176
     1
290
     0
176
     1
290
     0
176
     1
290
     0
176
     1
290
     0
176
     1
 90
       50
176
     1
 40
0.0
176
     1
 40
1.0
176
     1
 90
        0
176
     1
 62
    18
420
        0
176
     1
 90
       50
176
     1
 90
        3
176
     1
 62
     5
420
      255
176
     1
290
     0
176
     1
 90
       50
176
     1
 90
       50
176
     1
 90
       50
176
     1
290
     0
176
     1
 90
       50
176
     1
 62
   256
176
     0
 40
1.0
176
     0
 90
        2
176
     1
  1
strokes_ogs.tif
176
     1
290
     0
176
     1
 40
1.0
176
     1
 40
1.0
176
     1
  0
VISUALSTYLE
  5
3A
102
{ACAD_REACTORS
330
2A
102
}
330
2A
100
AcDbVisualStyle
  2
ColorChange
 70
    16
177
     3
291
     1
 70
    58
 90
        2
176
     1
 90
        2
176
     1
 90
        3
176
     1
 90
        0
176
     1
 40
0.6
176
     1
 40
30.0
176
     1
 62
     8
420
  8421504
176
     1
 90
        1
176
     1
 90
        4
176
     1
 62
     7
176
     1
 62
   257
176
     1
 90
        1
176
     1
 90
        1
176
     1
 40
1.0
176
     1
 90
        8
176
     1
 62
     8
420
  8421504
176
     1
 40
1.0
176
     1
 90
        1
176
     1
 90
        6
176
     1
 90
        2
176
     1
 62
     7
176
     1
 90
        5
176
     1
 90
        0
176
     1
 90
        0
176
     1
290
     0
176
     1
 90
        1
176
     1
 40
0.0
176
     1
 90
        0
176
     1
290
     0
176
     1
290
     1
176
     1
290
     1
176
     1
290
     0
176
     1
290
     0
176
     1
290
     0
176
     1
290
     0
176
     1
290
     0
176
     1
290
     0
176
     1
 90
       50
176
     1
 40
0.0
176
     1
 40
1.0
176
     1
 90
        0
176
     1
 62
    18
420
        0
176
     1
 90
       50
176
     1
 90
        3
176
     1
 62
     5
420
      255
176
     1
290
     0
176
     1
 90
       50
176
     1
 90
       50
176
     1
 90
       50
176
     1
290
     0
176
     1
 90
       50
176
     1
 62
   256
176
     0
 40
1.0
176
     0
 90
        2
176
     1
  1
strokes_ogs.tif
176
     1
290
     0
176
     1
 40
1.0
176
     1
 40
1.0
176
     1
  0
VISUALSTYLE
  5
34
102
{ACAD_REACTORS
330
2A
102
}
330
2A
100
AcDbVisualStyle
  2
Conceptual
 70
     9
177
     3
291
     0
 70
    58
 90
        3
176
     1
 90
        2
176
     1
 90
        0
176
     1
 90
        0
176
     1
 40
0.6
176
     1
 40
30.0
176
     1
 62
     7
420
 16777215
176
     1
 90
        2
176
     1
 90
        2
176
     1
 62
     7
176
     1
 62
   257
176
     1
 90
        1
176
     1
 90
        1
176
     1
 40
179.0
176
     1
 90
        8
176
     1
 62
     7
176
     1
 40
1.0
176
     1
 90
        1
176
     1
 90
        6
176
     1
 90
        2
176
     1
 62
     7
176
     1
 90
        3
176
     1
 90
        0
176
     1
 90
        0
176
     1
290
     0
176
     1
 90
        1
176
     1
 40
0.0
176
     1
 90
        0
176
     1
290
     0
176
     1
290
     1
176
     1
290
     1
176
     1
290
     0
176
     1
290
     0
176
     1
290
     0
176
     1
290
     0
176
     1
290
     0
176
     1
290
     0
176
     1
 90
       50
176
     1
 40
0.0
176
     1
 40
1.0
176
     1
 90
        0
176
     1
 62
    18
420
        0
176
     1
 90
       50
176
     1
 90
        3
176
     1
 62
     5
420
      255
176
     1
290
     0
176
     1
 90
       50
176
     1
 90
       50
176
     1
 90
       50
176
     1
290
     0
176
     1
 90
       50
176
     1
 62
   256
176
     0
 40
1.0
176
     0
 90
        2
176
     1
  1
strokes_ogs.tif
176
     1
290
     0
176
     1
 40
1.0
176
     1
 40
1.0
176
     1
  0
VISUALSTYLE
  5
35
102
{ACAD_REACTORS
330
2A
102
}
330
2A
100
AcDbVisualStyle
  2
Dim
 70
    11
177
     3
291
     1
 70
    58
 90
        2
176
     1
 90
        2
176
     1
 90
        0
176
     1
 90
        0
176
     1
 40
0.6
176
     1
 40
30.0
176
     1
 62
     7
420
 16777215
176
     1
 90
        1
176
     1
 90
        4
176
     1
 62
     7
176
     1
 62
   257
176
     1
 90
        1
176
     1
 90
        1
176
     1
 40
1.0
176
     1
 90
        8
176
     1
 62
     7
176
     1
 40
1.0
176
     1
 90
        1
176
     1
 90
        6
176
     1
 90
        2
176
     1
 62
     7
176
     1
 90
        5
176
     1
 90
        0
176
     1
 90
        0
176
     1
290
     0
176
     1
 90
        1
176
     1
 40
-50.0
176
     1
 90
        0
176
     1
290
     0
176
     1
290
     1
176
     1
290
     1
176
     1
290
     0
176
     1
290
     0
176
     1
290
     0
176
     1
290
     0
176
     1
290
     0
176
     1
290
     0
176
     1
 90
       50
176
     1
 40
0.0
176
     1
 40
1.0
176
     1
 90
        0
176
     1
 62
    18
420
        0
176
     1
 90
       50
176
     1
 90
        3
176
     1
 62
     5
420
      255
176
     1
290
     0
176
     1
 90
       50
176
     1
 90
       50
176
     1
 90
       50
176
     1
290
     0
176
     1
 90
       50
176
     1
 62
   256
176
     0
 40
1.0
176
     0
 90
        2
176
     1
  1
strokes_ogs.tif
176
     1
290
     0
176
     1
 40
1.0
176
     1
 40
1.0
176
     1
  0
VISUALSTYLE
  5
3D
102
{ACAD_REACTORS
330
2A
102
}
330
2A
100
AcDbVisualStyle
  2
EdgeColorOff
 70
    22
177
     3
291
     1
 70
    58
 90
        2
176
     0
 90
        2
176
     0
 90
        0
176
     0
 90
        0
176
     0
 40
0.6
176
     0
 40
30.0
176
     0
 62
     7
420
 16777215
176
     0
 90
        1
176
     0
 90
        4
176
     0
 62
     7
176
     0
 62
   257
176
     0
 90
        1
176
     0
 90
        1
176
     0
 40
1.0
176
     0
 90
        8
176
     2
 62
     7
176
     0
 40
1.0
176
     0
 90
        1
176
     0
 90
        6
176
     0
 90
        2
176
     0
 62
     7
176
     0
 90
        5
176
     0
 90
        0
176
     0
 90
        0
176
     0
290
     0
176
     0
 90
        1
176
     0
 40
0.0
176
     0
 90
        0
176
     0
290
     0
176
     0
290
     1
176
     0
290
     1
176
     0
290
     0
176
     0
290
     0
176
     0
290
     0
176
     0
290
     0
176
     0
290
     0
176
     0
290
     0
176
     0
 90
       50
176
     0
 40
0.0
176
     0
 40
1.0
176
     0
 90
        0
176
     0
 62
    18
420
        0
176
     0
 90
       50
176
     0
 90
        3
176
     0
 62
     5
420
      255
176
     0
290
     0
176
     0
 90
       50
176
     0
 90
       50
176
     0
 90
       50
176
     0
290
     0
176
     0
 90
       50
176
     0
 62
   256
176
     0
 40
1.0
176
     0
 90
        2
176
     0
  1
strokes_ogs.tif
176
     0
290
     0
176
     0
 40
1.0
176
     0
 40
1.0
176
     0
  0
VISUALSTYLE
  5
39
102
{ACAD_REACTORS
330
2A
102
}
330
2A
100
AcDbVisualStyle
  2
Facepattern
 70
    15
177
     3
291
     1
 70
    58
 90
        2
176
     1
 90
        2
176
     1
 90
        0
176
     1
 90
        0
176
     1
 40
0.6
176
     1
 40
30.0
176
     1
 62
     7
420
 16777215
176
     1
 90
        1
176
     1
 90
        4
176
     1
 62
     7
176
     1
 62
   257
176
     1
 90
        1
176
     1
 90
        1
176
     1
 40
1.0
176
     1
 90
        8
176
     1
 62
     7
176
     1
 40
1.0
176
     1
 90
        1
176
     1
 90
        6
176
     1
 90
        2
176
     1
 62
     7
176
     1
 90
        5
176
     1
 90
        0
176
     1
 90
        0
176
     1
290
     0
176
     1
 90
        1
176
     1
 40
0.0
176
     1
 90
        0
176
     1
290
     0
176
     1
290
     1
176
     1
290
     1
176
     1
290
     0
176
     1
290
     0
176
     1
290
     0
176
     1
290
     0
176
     1
290
     0
176
     1
290
     0
176
     1
 90
       50
176
     1
 40
0.0
176
     1
 40
1.0
176
     1
 90
        0
176
     1
 62
    18
420
        0
176
     1
 90
       50
176
     1
 90
        3
176
     1
 62
     5
420
      255
176
     1
290
     0
176
     1
 90
       50
176
     1
 90
       50
176
     1
 90
       50
176
     1
290
     0
176
     1
 90
       50
176
     1
 62
   256
176
     0
 40
1.0
176
     0
 90
        2
176
     1
  1
strokes_ogs.tif
176
     1
290
     0
176
     1
 40
1.0
176
     1
 40
1.0
176
     1
  0
VISUALSTYLE
  5
2B
102
{ACAD_REACTORS
330
2A
102
}
330
2A
100
AcDbVisualStyle
  2
Flat
 70
     0
177
     3
291
     1
 70
    58
 90
        2
176
     1
 90
        1
176
     1
 90
        1
176
     1
 90
        2
176
     1
 40
0.6
176
     1
 40
30.0
176
     1
 62
     7
420
 16777215
176
     1
 90
        0
176
     1
 90
        0
176
     1
 62
     7
176
     1
 62
   257
176
     1
 90
        1
176
     1
 90
        1
176
     1
 40
1.0
176
     1
 90
        8
176
     1
 62
     7
176
     1
 40
1.0
176
     1
 90
        1
176
     1
 90
        6
176
     1
 90
        2
176
     1
 62
     7
176
     1
 90
        5
176
     1
 90
        0
176
     1
 90
        0
176
     1
290
     0
176
     1
 90
       13
176
     1
 40
0.0
176
     1
 90
        0
176
     1
290
     0
176
     1
290
     1
176
     1
290
     1
176
     1
290
     0
176
     1
290
     0
176
     1
290
     0
176
     1
290
     0
176
     1
290
     0
176
     1
290
     0
176
     1
 90
       50
176
     1
 40
0.0
176
     1
 40
1.0
176
     1
 90
        0
176
     1
 62
    18
420
        0
176
     1
 90
       50
176
     1
 90
        3
176
     1
 62
     5
420
      255
176
     1
290
     0
176
     1
 90
       50
176
     1
 90
       50
176
     1
 90
       50
176
     1
290
     0
176
     1
 90
       50
176
     1
 62
   256
176
     0
 40
1.0
176
     0
 90
        2
176
     1
  1
strokes_ogs.tif
176
     1
290
     0
176
     1
 40
1.0
176
     1
 40
1.0
176
     1
  0
VISUALSTYLE
  5
2C
102
{ACAD_REACTORS
330
2A
102
}
330
2A
100
AcDbVisualStyle
  2
FlatWithEdges
 70
     1
177
     3
291
     1
 70
    58
 90
        2
176
     1
 90
        1
176
     1
 90
        1
176
     1
 90
        2
176
     1
 40
0.6
176
     1
 40
30.0
176
     1
 62
     7
420
 16777215
176
     1
 90
        1
176
     1
 90
        0
176
     1
 62
     7
176
     1
 62
   257
176
     1
 90
        1
176
     1
 90
        1
176
     1
 40
1.0
176
     1
 90
        0
176
     1
 62
   257
176
     1
 40
1.0
176
     1
 90
        1
176
     1
 90
        6
176
     1
 90
        2
176
     1
 62
     7
176
     1
 90
        5
176
     1
 90
        0
176
     1
 90
        0
176
     1
290
     0
176
     1
 90
       13
176
     1
 40
0.0
176
     1
 90
        0
176
     1
290
     0
176
     1
290
     1
176
     1
290
     1
176
     1
290
     0
176
     1
290
     0
176
     1
290
     0
176
     1
290
     0
176
     1
290
     0
176
     1
290
     0
176
     1
 90
       50
176
     1
 40
0.0
176
     1
 40
1.0
176
     1
 90
        0
176
     1
 62
    18
420
        0
176
     1
 90
       50
176
     1
 90
        3
176
     1
 62
     5
420
      255
176
     1
290
     0
176
     1
 90
       50
176
     1
 90
       50
176
     1
 90
       50
176
     1
290
     0
176
     1
 90
       50
176
     1
 62
   256
176
     0
 40
1.0
176
     0
 90
        2
176
     1
  1
strokes_ogs.tif
176
     1
290
     0
176
     1
 40
1.0
176
     1
 40
1.0
176
     1
  0
VISUALSTYLE
  5
2D
102
{ACAD_REACTORS
330
2A
102
}
330
2A
100
AcDbVisualStyle
  2
Gouraud
 70
     2
177
     3
291
     1
 70
    58
 90
        2
176
     1
 90
        2
176
     1
 90
        1
176
     1
 90
        2
176
     1
 40
0.6
176
     1
 40
30.0
176
     1
 62
     7
420
 16777215
176
     1
 90
        0
176
     1
 90
        0
176
     1
 62
     7
176
     1
 62
   257
176
     1
 90
        1
176
     1
 90
        1
176
     1
 40
1.0
176
     1
 90
        0
176
     1
 62
     7
176
     1
 40
1.0
176
     1
 90
        1
176
     1
 90
        6
176
     1
 90
        2
176
     1
 62
     7
176
     1
 90
        5
176
     1
 90
        0
176
     1
 90
        0
176
     1
290
     0
176
     1
 90
       13
176
     1
 40
0.0
176
     1
 90
        0
176
     1
290
     0
176
     1
290
     1
176
     1
290
     1
176
     1
290
     0
176
     1
290
     0
176
     1
290
     0
176
     1
290
     0
176
     1
290
     0
176
     1
290
     0
176
     1
 90
       50
176
     1
 40
0.0
176
     1
 40
1.0
176
     1
 90
        0
176
     1
 62
    18
420
        0
176
     1
 90
       50
176
     1
 90
        3
176
     1
 62
     5
420
      255
176
     1
290
     0
176
     1
 90
       50
176
     1
 90
       50
176
     1
 90
       50
176
     1
290
     0
176
     1
 90
       50
176
     1
 62
   256
176
     0
 40
1.0
176
     0
 90
        2
176
     1
  1
strokes_ogs.tif
176
     1
290
     0
176
     1
 40
1.0
176
     1
 40
1.0
176
     1
  0
VISUALSTYLE
  5
2E
102
{ACAD_REACTORS
330
2A
102
}
330
2A
100
AcDbVisualStyle
  2
GouraudWithEdges
 70
     3
177
     3
291
     1
 70
    58
 90
        2
176
     1
 90
        2
176
     1
 90
        1
176
     1
 90
        2
176
     1
 40
0.6
176
     1
 40
30.0
176
     1
 62
     7
420
 16777215
176
     1
 90
        1
176
     1
 90
        0
176
     1
 62
     7
176
     1
 62
   257
176
     1
 90
        1
176
     1
 90
        1
176
     1
 40
1.0
176
     1
 90
        0
176
     1
 62
   257
176
     1
 40
1.0
176
     1
 90
        1
176
     1
 90
        6
176
     1
 90
        2
176
     1
 62
     7
176
     1
 90
        5
176
     1
 90
        0
176
     1
 90
        0
176
     1
290
     0
176
     1
 90
       13
176
     1
 40
0.0
176
     1
 90
        0
176
     1
290
     0
176
     1
290
     1
176
     1
290
     1
176
     1
290
     0
176
     1
290
     0
176
     1
290
     0
176
     1
290
     0
176
     1
290
     0
176
     1
290
     0
176
     1
 90
       50
176
     1
 40
0.0
176
     1
 40
1.0
176
     1
 90
        0
176
     1
 62
    18
420
        0
176
     1
 90
       50
176
     1
 90
        3
176
     1
 62
     5
420
      255
176
     1
290
     0
176
     1
 90
       50
176
     1
 90
       50
176
     1
 90
       50
176
     1
290
     0
176
     1
 90
       50
176
     1
 62
   256
176
     0
 40
1.0
176
     0
 90
        2
176
     1
  1
strokes_ogs.tif
176
     1
290
     0
176
     1
 40
1.0
176
     1
 40
1.0
176
     1
  0
VISUALSTYLE
  5
31
102
{ACAD_REACTORS
330
2A
102
}
330
2A
100
AcDbVisualStyle
  2
Hidden
 70
     6
177
     3
291
     0
 70
    58
 90
        1
176
     1
 90
        2
176
     1
 90
        2
176
     1
 90
        0
176
     1
 40
0.6
176
     1
 40
30.0
176
     1
 62
     7
420
 16777215
176
     1
 90
        2
176
     1
 90
        2
176
     1
 62
     7
176
     1
 62
   257
176
     1
 90
        2
176
     1
 90
        1
176
     1
 40
40.0
176
     1
 90
        0
176
     1
 62
   257
176
     1
 40
1.0
176
     1
 90
        1
176
     1
 90
        6
176
     1
 90
        2
176
     1
 62
     7
176
     1
 90
        3
176
     1
 90
        0
176
     1
 90
        0
176
     1
290
     0
176
     1
 90
        1
176
     1
 40
0.0
176
     1
 90
        0
176
     1
290
     0
176
     1
290
     1
176
     1
290
     1
176
     1
290
     0
176
     1
290
     0
176
     1
290
     0
176
     1
290
     0
176
     1
290
     0
176
     1
290
     0
176
     1
 90
       50
176
     1
 40
0.0
176
     1
 40
1.0
176
     1
 90
        0
176
     1
 62
    18
420
        0
176
     1
 90
       50
176
     1
 90
        3
176
     1
 62
     5
420
      255
176
     1
290
     0
176
     1
 90
       50
176
     1
 90
       50
176
     1
 90
       50
176
     1
290
     0
176
     1
 90
       50
176
     1
 62
   256
176
     0
 40
1.0
176
     0
 90
        2
176
     1
  1
strokes_ogs.tif
176
     1
290
     0
176
     1
 40
1.0
176
     1
 40
1.0
176
     1
  0
VISUALSTYLE
  5
3B
102
{ACAD_REACTORS
330
2A
102
}
330
2A
100
AcDbVisualStyle
  2
JitterOff
 70
    20
177
     3
291
     1
 70
    58
 90
        2
176
     0
 90
        2
176
     0
 90
        0
176
     0
 90
        0
176
     0
 40
0.6
176
     0
 40
30.0
176
     0
 62
     7
420
 16777215
176
     0
 90
        1
176
     0
 90
        4
176
     0
 62
     7
176
     0
 62
   257
176
     0
 90
        1
176
     0
 90
        1
176
     0
 40
1.0
176
     0
 90
       10
176
     2
 62
     7
176
     0
 40
1.0
176
     0
 90
        1
176
     0
 90
        6
176
     0
 90
        2
176
     0
 62
     7
176
     0
 90
        5
176
     0
 90
        0
176
     0
 90
        0
176
     0
290
     0
176
     0
 90
        1
176
     0
 40
0.0
176
     0
 90
        0
176
     0
290
     0
176
     0
290
     1
176
     0
290
     1
176
     0
290
     0
176
     0
290
     0
176
     0
290
     0
176
     0
290
     0
176
     0
290
     0
176
     0
290
     0
176
     0
 90
       50
176
     0
 40
0.0
176
     0
 40
1.0
176
     0
 90
        0
176
     0
 62
    18
420
        0
176
     0
 90
       50
176
     0
 90
        3
176
     0
 62
     5
420
      255
176
     0
290
     0
176
     0
 90
       50
176
     0
 90
       50
176
     0
 90
       50
176
     0
290
     0
176
     0
 90
       50
176
     0
 62
   256
176
     0
 40
1.0
176
     0
 90
        2
176
     0
  1
strokes_ogs.tif
176
     0
290
     0
176
     0
 40
1.0
176
     0
 40
1.0
176
     0
  0
VISUALSTYLE
  5
38
102
{ACAD_REACTORS
330
2A
102
}
330
2A
100
AcDbVisualStyle
  2
Linepattern
 70
    14
177
     3
291
     1
 70
    58
 90
        2
176
     1
 90
        2
176
     1
 90
        0
176
     1
 90
        0
176
     1
 40
0.6
176
     1
 40
30.0
176
     1
 62
     7
420
 16777215
176
     1
 90
        1
176
     1
 90
        4
176
     1
 62
     7
176
     1
 62
   257
176
     1
 90
        7
176
     1
 90
        7
176
     1
 40
1.0
176
     1
 90
        8
176
     1
 62
     7
176
     1
 40
1.0
176
     1
 90
        1
176
     1
 90
        6
176
     1
 90
        2
176
     1
 62
     7
176
     1
 90
        5
176
     1
 90
        0
176
     1
 90
        0
176
     1
290
     0
176
     1
 90
        1
176
     1
 40
0.0
176
     1
 90
        0
176
     1
290
     0
176
     1
290
     1
176
     1
290
     1
176
     1
290
     0
176
     1
290
     0
176
     1
290
     0
176
     1
290
     0
176
     1
290
     0
176
     1
290
     0
176
     1
 90
       50
176
     1
 40
0.0
176
     1
 40
1.0
176
     1
 90
        0
176
     1
 62
    18
420
        0
176
     1
 90
       50
176
     1
 90
        3
176
     1
 62
     5
420
      255
176
     1
290
     0
176
     1
 90
       50
176
     1
 90
       50
176
     1
 90
       50
176
     1
290
     0
176
     1
 90
       50
176
     1
 62
   256
176
     0
 40
1.0
176
     0
 90
        2
176
     1
  1
strokes_ogs.tif
176
     1
290
     0
176
     1
 40
1.0
176
     1
 40
1.0
176
     1
  0
VISUALSTYLE
  5
3C
102
{ACAD_REACTORS
330
2A
102
}
330
2A
100
AcDbVisualStyle
  2
OverhangOff
 70
    21
177
     3
291
     1
 70
    58
 90
        2
176
     0
 90
        2
176
     0
 90
        0
176
     0
 90
        0
176
     0
 40
0.6
176
     0
 40
30.0
176
     0
 62
     7
420
 16777215
176
     0
 90
        1
176
     0
 90
        4
176
     0
 62
     7
176
     0
 62
   257
176
     0
 90
        1
176
     0
 90
        1
176
     0
 40
1.0
176
     0
 90
        9
176
     2
 62
     7
176
     0
 40
1.0
176
     0
 90
        1
176
     0
 90
        6
176
     0
 90
        2
176
     0
 62
     7
176
     0
 90
        5
176
     0
 90
        0
176
     0
 90
        0
176
     0
290
     0
176
     0
 90
        1
176
     0
 40
0.0
176
     0
 90
        0
176
     0
290
     0
176
     0
290
     1
176
     0
290
     1
176
     0
290
     0
176
     0
290
     0
176
     0
290
     0
176
     0
290
     0
176
     0
290
     0
176
     0
290
     0
176
     0
 90
       50
176
     0
 40
0.0
176
     0
 40
1.0
176
     0
 90
        0
176
     0
 62
    18
420
        0
176
     0
 90
       50
176
     0
 90
        3
176
     0
 62
     5
420
      255
176
     0
290
     0
176
     0
 90
       50
176
     0
 90
       50
176
     0
 90
       50
176
     0
290
     0
176
     0
 90
       50
176
     0
 62
   256
176
     0
 40
1.0
176
     0
 90
        2
176
     0
  1
strokes_ogs.tif
176
     0
290
     0
176
     0
 40
1.0
176
     0
 40
1.0
176
     0
  0
VISUALSTYLE
  5
33
102
{ACAD_REACTORS
330
2A
102
}
330
2A
100
AcDbVisualStyle
  2
Realistic
 70
     8
177
     3
291
     0
 70
    58
 90
        2
176
     1
 90
        3
176
     1
 90
        0
176
     1
 90
        2
176
     1
 40
0.6
176
     1
 40
30.0
176
     1
 62
     7
420
 16777215
176
     1
 90
        0
176
     1
 90
        0
176
     1
 62
     7
176
     1
 62
   257
176
     1
 90
        1
176
     1
 90
        1
176
     1
 40
1.0
176
     1
 90
        8
176
     1
 62
   257
176
     1
 40
1.0
176
     1
 90
        1
176
     1
 90
        6
176
     1
 90
        2
176
     1
 62
     7
176
     1
 90
        3
176
     1
 90
        0
176
     1
 90
        0
176
     1
290
     0
176
     1
 90
       13
176
     1
 40
0.0
176
     1
 90
        0
176
     1
290
     0
176
     1
290
     1
176
     1
290
     1
176
     1
290
     0
176
     1
290
     0
176
     1
290
     0
176
     1
290
     0
176
     1
290
     0
176
     1
290
     0
176
     1
 90
       50
176
     1
 40
0.0
176
     1
 40
1.0
176
     1
 90
        0
176
     1
 62
    18
420
        0
176
     1
 90
       50
176
     1
 90
        3
176
     1
 62
     5
420
      255
176
     1
290
     0
176
     1
 90
       50
176
     1
 90
       50
176
     1
 90
       50
176
     1
290
     0
176
     1
 90
       50
176
     1
 62
   256
176
     0
 40
1.0
176
     0
 90
        2
176
     1
  1
strokes_ogs.tif
176
     1
290
     0
176
     1
 40
1.0
176
     1
 40
1.0
176
     1
  0
VISUALSTYLE
  5
42
102
{ACAD_REACTORS
330
2A
102
}
330
2A
100
AcDbVisualStyle
  2
Shaded
 70
    27
177
     3
291
     0
 70
    58
 90
        2
176
     1
 90
        2
176
     1
 90
        1
176
     1
 90
        2
176
     1
 40
0.6
176
     1
 40
30.0
176
     1
 62
     7
420
 16777215
176
     1
 90
        0
176
     1
 90
        4
176
     1
 62
     7
176
     1
 62
   257
176
     1
 90
        1
176
     1
 90
        1
176
     1
 40
1.0
176
     1
 90
        8
176
     1
 62
   257
176
     1
 40
1.0
176
     1
 90
        1
176
     1
 90
        6
176
     1
 90
        2
176
     1
 62
     8
420
  7895160
176
     1
 90
        3
176
     1
 90
        0
176
     1
 90
        0
176
     1
290
     0
176
     1
 90
        5
176
     1
 40
0.0
176
     1
 90
        0
176
     1
290
     0
176
     1
290
     1
176
     1
290
     1
176
     1
290
     0
176
     1
290
     0
176
     1
290
     0
176
     1
290
     0
176
     1
290
     0
176
     1
290
     0
176
     1
 90
       50
176
     1
 40
0.0
176
     1
 40
1.0
176
     1
 90
        0
176
     1
 62
    18
420
        0
176
     1
 90
       50
176
     1
 90
        3
176
     1
 62
     5
420
      255
176
     1
290
     0
176
     1
 90
       50
176
     1
 90
       50
176
     1
 90
       50
176
     1
290
     0
176
     1
 90
       50
176
     1
 62
   256
176
     0
 40
1.0
176
     0
 90
        2
176
     1
  1
strokes_ogs.tif
176
     1
290
     0
176
     1
 40
1.0
176
     1
 40
1.0
176
     1
  0
VISUALSTYLE
  5
41
102
{ACAD_REACTORS
330
2A
102
}
330
2A
100
AcDbVisualStyle
  2
Shaded with edges
 70
    26
177
     3
291
     0
 70
    58
 90
        2
176
     1
 90
        2
176
     1
 90
        1
176
     1
 90
        2
176
     1
 40
0.6
176
     1
 40
30.0
176
     1
 62
     7
420
 16777215
176
     1
 90
        1
176
     1
 90
       10
176
     1
 62
     7
176
     1
 62
   257
176
     1
 90
        2
176
     1
 90
        1
176
     1
 40
1.0
176
     1
 90
        8
176
     1
 62
   257
176
     1
 40
1.0
176
     1
 90
        1
176
     1
 90
        6
176
     1
 90
        2
176
     1
 62
     7
176
     1
 90
        3
176
     1
 90
        0
176
     1
 90
        0
176
     1
290
     0
176
     1
 90
        5
176
     1
 40
0.0
176
     1
 90
        0
176
     1
290
     0
176
     1
290
     1
176
     1
290
     1
176
     1
290
     0
176
     1
290
     0
176
     1
290
     0
176
     1
290
     0
176
     1
290
     0
176
     1
290
     0
176
     1
 90
       50
176
     1
 40
0.0
176
     1
 40
1.0
176
     1
 90
        0
176
     1
 62
    18
420
        0
176
     1
 90
       50
176
     1
 90
        3
176
     1
 62
     5
420
      255
176
     1
290
     0
176
     1
 90
       50
176
     1
 90
       50
176
     1
 90
       50
176
     1
290
     0
176
     1
 90
       50
176
     1
 62
   256
176
     0
 40
1.0
176
     0
 90
        2
176
     1
  1
strokes_ogs.tif
176
     1
290
     0
176
     1
 40
1.0
176
     1
 40
1.0
176
     1
  0
VISUALSTYLE
  5
3E
102
{ACAD_REACTORS
330
2A
102
}
330
2A
100
AcDbVisualStyle
  2
Shades of Gray
 70
    23
177
     3
291
     0
 70
    58
 90
        2
176
     1
 90
        2
176
     1
 90
        3
176
     1
 90
        0
176
     1
 40
0.6
176
     1
 40
30.0
176
     1
 62
     7
420
 16777215
176
     1
 90
        2
176
     1
 90
        2
176
     1
 62
     7
176
     1
 62
     7
176
     1
 90
        1
176
     1
 90
        1
176
     1
 40
40.0
176
     1
 90
        8
176
     1
 62
     7
176
     1
 40
1.0
176
     1
 90
        1
176
     1
 90
        6
176
     1
 90
        2
176
     1
 62
     7
176
     1
 90
        3
176
     1
 90
        0
176
     1
 90
        0
176
     1
290
     0
176
     1
 90
        1
176
     1
 40
0.0
176
     1
 90
        0
176
     1
290
     0
176
     1
290
     1
176
     1
290
     1
176
     1
290
     0
176
     1
290
     0
176
     1
290
     0
176
     1
290
     0
176
     1
290
     0
176
     1
290
     0
176
     1
 90
       50
176
     1
 40
0.0
176
     1
 40
1.0
176
     1
 90
        0
176
     1
 62
    18
420
        0
176
     1
 90
       50
176
     1
 90
        3
176
     1
 62
     5
420
      255
176
     1
290
     0
176
     1
 90
       50
176
     1
 90
       50
176
     1
 90
       50
176
     1
290
     0
176
     1
 90
       50
176
     1
 62
   256
176
     0
 40
1.0
176
     0
 90
        2
176
     1
  1
strokes_ogs.tif
176
     1
290
     0
176
     1
 40
1.0
176
     1
 40
1.0
176
     1
  0
VISUALSTYLE
  5
3F
102
{ACAD_REACTORS
330
2A
102
}
330
2A
100
AcDbVisualStyle
  2
Sketchy
 70
    24
177
     3
291
     0
 70
    58
 90
        1
176
     1
 90
        2
176
     1
 90
        2
176
     1
 90
        0
176
     1
 40
0.6
176
     1
 40
30.0
176
     1
 62
     7
420
 16777215
176
     1
 90
        2
176
     1
 90
        2
176
     1
 62
     7
176
     1
 62
     7
176
     1
 90
        1
176
     1
 90
        1
176
     1
 40
40.0
176
     1
 90
       11
176
     1
 62
     7
176
     1
 40
1.0
176
     1
 90
        1
176
     1
 90
        6
176
     1
 90
        2
176
     1
 62
     7
176
     1
 90
        6
176
     1
 90
        0
176
     1
 90
        0
176
     1
290
     0
176
     1
 90
        1
176
     1
 40
0.0
176
     1
 90
        0
176
     1
290
     0
176
     1
290
     1
176
     1
290
     1
176
     1
290
     0
176
     1
290
     0
176
     1
290
     0
176
     1
290
     0
176
     1
290
     0
176
     1
290
     0
176
     1
 90
       50
176
     1
 40
0.0
176
     1
 40
1.0
176
     1
 90
        0
176
     1
 62
    18
420
        0
176
     1
 90
       50
176
     1
 90
        3
176
     1
 62
     5
420
      255
176
     1
290
     0
176
     1
 90
       50
176
     1
 90
       50
176
     1
 90
       50
176
     1
290
     0
176
     1
 90
       50
176
     1
 62
   256
176
     0
 40
1.0
176
     0
 90
        2
176
     1
  1
strokes_ogs.tif
176
     1
290
     0
176
     1
 40
1.0
176
     1
 40
1.0
176
     1
  0
VISUALSTYLE
  5
37
102
{ACAD_REACTORS
330
2A
102
}
330
2A
100
AcDbVisualStyle
  2
Thicken
 70
    13
177
     3
291
     1
 70
    58
 90
        2
176
     1
 90
        2
176
     1
 90
        0
176
     1
 90
        0
176
     1
 40
0.6
176
     1
 40
30.0
176
     1
 62
     7
420
 16777215
176
     1
 90
        1
176
     1
 90
        4
176
     1
 62
     7
176
     1
 62
   257
176
     1
 90
        1
176
     1
 90
        1
176
     1
 40
1.0
176
     1
 90
       12
176
     1
 62
     7
176
     1
 40
1.0
176
     1
 90
        1
176
     1
 90
        6
176
     1
 90
        2
176
     1
 62
     7
176
     1
 90
        5
176
     1
 90
        0
176
     1
 90
        0
176
     1
290
     0
176
     1
 90
        1
176
     1
 40
0.0
176
     1
 90
        0
176
     1
290
     0
176
     1
290
     1
176
     1
290
     1
176
     1
290
     0
176
     1
290
     0
176
     1
290
     0
176
     1
290
     0
176
     1
290
     0
176
     1
290
     0
176
     1
 90
       50
176
     1
 40
0.0
176
     1
 40
1.0
176
     1
 90
        0
176
     1
 62
    18
420
        0
176
     1
 90
       50
176
     1
 90
        3
176
     1
 62
     5
420
      255
176
     1
290
     0
176
     1
 90
       50
176
     1
 90
       50
176
     1
 90
       50
176
     1
290
     0
176
     1
 90
       50
176
     1
 62
   256
176
     0
 40
1.0
176
     0
 90
        2
176
     1
  1
strokes_ogs.tif
176
     1
290
     0
176
     1
 40
1.0
176
     1
 40
1.0
176
     1
  0
VISUALSTYLE
  5
30
102
{ACAD_REACTORS
330
2A
102
}
330
2A
100
AcDbVisualStyle
  2
Wireframe
 70
     5
177
     3
291
     0
 70
    58
 90
        0
176
     1
 90
        2
176
     1
 90
        0
176
     1
 90
        0
176
     1
 40
0.6
176
     1
 40
30.0
176
     1
 62
     7
420
 16777215
176
     1
 90
        1
176
     1
 90
        4
176
     1
 62
     7
176
     1
 62
   257
176
     1
 90
        1
176
     1
 90
        1
176
     1
 40
1.0
176
     1
 90
        0
176
     1
 62
   257
176
     1
 40
1.0
176
     1
 90
        1
176
     1
 90
        6
176
     1
 90
        2
176
     1
 62
     7
176
     1
 90
        3
176
     1
 90
        0
176
     1
 90
        0
176
     1
290
     0
176
     1
 90
        1
176
     1
 40
0.0
176
     1
 90
        0
176
     1
290
     0
176
     1
290
     1
176
     1
290
     1
176
     1
290
     0
176
     1
290
     0
176
     1
290
     0
176
     1
290
     0
176
     1
290
     0
176
     1
290
     0
176
     1
 90
       50
176
     1
 40
0.0
176
     1
 40
1.0
176
     1
 90
        0
176
     1
 62
    18
420
        0
176
     1
 90
       50
176
     1
 90
        3
176
     1
 62
     5
420
      255
176
     1
290
     0
176
     1
 90
       50
176
     1
 90
       50
176
     1
 90
       50
176
     1
290
     0
176
     1
 90
       50
176
     1
 62
   256
176
     0
 40
1.0
176
     0
 90
        2
176
     1
  1
strokes_ogs.tif
176
     1
290
     0
176
     1
 40
1.0
176
     1
 40
1.0
176
     1
  0
VISUALSTYLE
  5
40
102
{ACAD_REACTORS
330
2A
102
}
330
2A
100
AcDbVisualStyle
  2
X-Ray
 70
    25
177
     3
291
     0
 70
    58
 90
        2
176
     1
 90
        2
176
     1
 90
        1
176
     1
 90
        1
176
     1
 40
0.5
176
     1
 40
30.0
176
     1
 62
     7
420
 16777215
176
     1
 90
        1
176
     1
 90
        0
176
     1
 62
     7
176
     1
 62
   257
176
     1
 90
        1
176
     1
 90
        1
176
     1
 40
1.0
176
     1
 90
        8
176
     1
 62
     7
176
     1
 40
1.0
176
     1
 90
        1
176
     1
 90
        6
176
     1
 90
        2
176
     1
 62
     7
176
     1
 90
        3
176
     1
 90
        0
176
     1
 90
        0
176
     1
290
     0
176
     1
 90
       13
176
     1
 40
0.0
176
     1
 90
        0
176
     1
290
     0
176
     1
290
     1
176
     1
290
     1
176
     1
290
     0
176
     1
290
     0
176
     1
290
     0
176
     1
290
     0
176
     1
290
     0
176
     1
290
     0
176
     1
 90
       50
176
     1
 40
0.0
176
     1
 40
1.0
176
     1
 90
        0
176
     1
 62
    18
420
        0
176
     1
 90
       50
176
     1
 90
        3
176
     1
 62
     5
420
      255
176
     1
290
     0
176
     1
 90
       50
176
     1
 90
       50
176
     1
 90
       50
176
     1
290
     0
176
     1
 90
       50
176
     1
 62
   256
176
     0
 40
1.0
176
     0
 90
        2
176
     1
  1
strokes_ogs.tif
176
     1
290
     0
176
     1
 40
1.0
176
     1
 40
1.0
176
     1
  0
DICTIONARYVAR
  5
1A3
102
{ACAD_REACTORS
330
1A2
102
}
330
1A2
100
DictionaryVariables
280
     0
  1
1:1
  0
DICTIONARYVAR
  5
1A8
102
{ACAD_REACTORS
330
1A2
102
}
330
1A2
100
DictionaryVariables
280
     0
  1
Standard
  0
DICTIONARYVAR
  5
1A7
102
{ACAD_REACTORS
330
1A2
102
}
330
1A2
100
DictionaryVariables
280
     0
  1
Standard
  0
DICTIONARY
  5
1A4
330
6A
100
AcDbDictionary
280
     1
281
     1
  3
ACAD_ROUNDTRIP_2008_TABLESTYLE_CELLSTYLEMAP
360
1A5
  0
CELLSTYLEMAP
  5
1A5
102
{ACAD_REACTORS
330
1A4
102
}
330
1A4
100
AcDbCellStyleMap
 90
        3
300
CELLSTYLE
  1
TABLEFORMAT_BEGIN
 90
        5
170
     1
 91
        0
 92
    32768
 62
   257
 93
        1
300
CONTENTFORMAT
  1
CONTENTFORMAT_BEGIN
 90
        0
 91
        0
 92
        4
 93
        0
300

 40
0.0
140
1.0
 94
        5
 62
     0
340
11
144
6.0
309
CONTENTFORMAT_END
171
     1
301
MARGIN
  1
CELLMARGIN_BEGIN
 40
1.5
 40
1.5
 40
1.5
 40
1.5
 40
1.5
 40
1.5
309
CELLMARGIN_END
 94
        6
 95
        1
302
GRIDFORMAT
  1
GRIDFORMAT_BEGIN
 90
        0
 91
        1
 62
     0
 92
       -2
340
14
 93
        0
 40
0.045
309
GRIDFORMAT_END
 95
        2
302
GRIDFORMAT
  1
GRIDFORMAT_BEGIN
 90
        0
 91
        1
 62
     0
 92
       -2
340
14
 93
        0
 40
0.045
309
GRIDFORMAT_END
 95
        4
302
GRIDFORMAT
  1
GRIDFORMAT_BEGIN
 90
        0
 91
        1
 62
     0
 92
       -2
340
14
 93
        0
 40
0.045
309
GRIDFORMAT_END
 95
        8
302
GRIDFORMAT
  1
GRIDFORMAT_BEGIN
 90
        0
 91
        1
 62
     0
 92
       -2
340
14
 93
        0
 40
0.045
309
GRIDFORMAT_END
 95
       16
302
GRIDFORMAT
  1
GRIDFORMAT_BEGIN
 90
        0
 91
        1
 62
     0
 92
       -2
340
14
 93
        0
 40
0.045
309
GRIDFORMAT_END
 95
       32
302
GRIDFORMAT
  1
GRIDFORMAT_BEGIN
 90
        0
 91
        1
 62
     0
 92
       -2
340
14
 93
        0
 40
0.045
309
GRIDFORMAT_END
309
TABLEFORMAT_END
  1
CELLSTYLE_BEGIN
 90
        1
 91
        1
300
_TITLE
309
CELLSTYLE_END
300
CELLSTYLE
  1
TABLEFORMAT_BEGIN
 90
        5
170
     1
 91
        0
 92
        0
 62
   257
 93
        1
300
CONTENTFORMAT
  1
CONTENTFORMAT_BEGIN
 90
        0
 91
        0
 92
        4
 93
        0
300

 40
0.0
140
1.0
 94
        5
 62
     0
340
11
144
4.5
309
CONTENTFORMAT_END
171
     1
301
MARGIN
  1
CELLMARGIN_BEGIN
 40
1.5
 40
1.5
 40
1.5
 40
1.5
 40
1.5
 40
1.5
309
CELLMARGIN_END
 94
        6
 95
        1
302
GRIDFORMAT
  1
GRIDFORMAT_BEGIN
 90
        0
 91
        1
 62
     0
 92
       -2
340
14
 93
        0
 40
0.045
309
GRIDFORMAT_END
 95
        2
302
GRIDFORMAT
  1
GRIDFORMAT_BEGIN
 90
        0
 91
        1
 62
     0
 92
       -2
340
14
 93
        0
 40
0.045
309
GRIDFORMAT_END
 95
        4
302
GRIDFORMAT
  1
GRIDFORMAT_BEGIN
 90
        0
 91
        1
 62
     0
 92
       -2
340
14
 93
        0
 40
0.045
309
GRIDFORMAT_END
 95
        8
302
GRIDFORMAT
  1
GRIDFORMAT_BEGIN
 90
        0
 91
        1
 62
     0
 92
       -2
340
14
 93
        0
 40
0.045
309
GRIDFORMAT_END
 95
       16
302
GRIDFORMAT
  1
GRIDFORMAT_BEGIN
 90
        0
 91
        1
 62
     0
 92
       -2
340
14
 93
        0
 40
0.045
309
GRIDFORMAT_END
 95
       32
302
GRIDFORMAT
  1
GRIDFORMAT_BEGIN
 90
        0
 91
        1
 62
     0
 92
       -2
340
14
 93
        0
 40
0.045
309
GRIDFORMAT_END
309
TABLEFORMAT_END
  1
CELLSTYLE_BEGIN
 90
        2
 91
        1
300
_HEADER
309
CELLSTYLE_END
300
CELLSTYLE
  1
TABLEFORMAT_BEGIN
 90
        5
170
     1
 91
        0
 92
        0
 62
   257
 93
        1
300
CONTENTFORMAT
  1
CONTENTFORMAT_BEGIN
 90
        0
 91
        0
 92
        4
 93
        0
300

 40
0.0
140
1.0
 94
        2
 62
     0
340
11
144
4.5
309
CONTENTFORMAT_END
171
     1
301
MARGIN
  1
CELLMARGIN_BEGIN
 40
1.5
 40
1.5
 40
1.5
 40
1.5
 40
1.5
 40
1.5
309
CELLMARGIN_END
 94
        6
 95
        1
302
GRIDFORMAT
  1
GRIDFORMAT_BEGIN
 90
        0
 91
        1
 62
     0
 92
       -2
340
14
 93
        0
 40
0.045
309
GRIDFORMAT_END
 95
        2
302
GRIDFORMAT
  1
GRIDFORMAT_BEGIN
 90
        0
 91
        1
 62
     0
 92
       -2
340
14
 93
        0
 40
0.045
309
GRIDFORMAT_END
 95
        4
302
GRIDFORMAT
  1
GRIDFORMAT_BEGIN
 90
        0
 91
        1
 62
     0
 92
       -2
340
14
 93
        0
 40
0.045
309
GRIDFORMAT_END
 95
        8
302
GRIDFORMAT
  1
GRIDFORMAT_BEGIN
 90
        0
 91
        1
 62
     0
 92
       -2
340
14
 93
        0
 40
0.045
309
GRIDFORMAT_END
 95
       16
302
GRIDFORMAT
  1
GRIDFORMAT_BEGIN
 90
        0
 91
        1
 62
     0
 92
       -2
340
14
 93
        0
 40
0.045
309
GRIDFORMAT_END
 95
       32
302
GRIDFORMAT
  1
GRIDFORMAT_BEGIN
 90
        0
 91
        1
 62
     0
 92
       -2
340
14
 93
        0
 40
0.045
309
GRIDFORMAT_END
309
TABLEFORMAT_END
  1
CELLSTYLE_BEGIN
 90
        3
 91
        2
300
_DATA
309
CELLSTYLE_END
  0
ENDSEC
  0
EOF