0
SECTION
  2
HEADER
  9
$ACADVER
  1
AC1027
  9
$ACADMAINTVER
 70
     8
  9
$DWGCODEPAGE
  3
ANSI_1252
  9
$REQUIREDVERSIONS
160
                 0
  9
$COMMENTS
  1
File was created by Cadenas
  9
$CUSTOMPROPERTYTAG
  1
NN
  9
$CUSTOMPROPERTY
  1
Set Screw Narrow Slot Take Up Inch Bore
  9
$CUSTOMPROPERTYTAG
  1
NT
  9
$CUSTOMPROPERTY
  1
SC Take-Up Bearings -Narrow Slot -(Normal Duty)
  9
$CUSTOMPROPERTYTAG
  1
NB
  9
$CUSTOMPROPERTY
  1
125370
  9
$CUSTOMPROPERTYTAG
  1
NBSYN
  9
$CUSTOMPROPERTY
  1
$PN.
  9
$CUSTOMPROPERTYTAG
  1
LINA
  9
$CUSTOMPROPERTY
  1
125370
  9
$CUSTOMPROPERTYTAG
  1
SERIES
  9
$CUSTOMPROPERTY
  1
208
  9
$CUSTOMPROPERTYTAG
  1
SS
  9
$CUSTOMPROPERTY
  1
1-5/8
  9
$CUSTOMPROPERTYTAG
  1
PN
  9
$CUSTOMPROPERTY
  1
125370
  9
$CUSTOMPROPERTYTAG
  1
DESCRIPTION
  9
$CUSTOMPROPERTY
  1
NSTU-SC-110
  9
$CUSTOMPROPERTYTAG
  1
W
  9
$CUSTOMPROPERTY
  1
4.6
  9
$CUSTOMPROPERTYTAG
  1
FS
  9
$CUSTOMPROPERTY
  1
NS400
  9
$CUSTOMPROPERTYTAG
  1
LF
  9
$CUSTOMPROPERTY
  1
RE-LUBE
  9
$CUSTOMPROPERTYTAG
  1
A
  9
$CUSTOMPROPERTY
  1
1.94
  9
$CUSTOMPROPERTYTAG
  1
B
  9
$CUSTOMPROPERTY
  1
5.38
  9
$CUSTOMPROPERTYTAG
  1
C
  9
$CUSTOMPROPERTY
  1
0.313
  9
$CUSTOMPROPERTYTAG
  1
D
  9
$CUSTOMPROPERTY
  1
3.00
  9
$CUSTOMPROPERTYTAG
  1
E
  9
$CUSTOMPROPERTY
  1
3.25
  9
$CUSTOMPROPERTYTAG
  1
F
  9
$CUSTOMPROPERTY
  1
7/8
  9
$CUSTOMPROPERTYTAG
  1
G
  9
$CUSTOMPROPERTY
  1
0.66
  9
$CUSTOMPROPERTYTAG
  1
H
  9
$CUSTOMPROPERTY
  1
1.16
  9
$CUSTOMPROPERTYTAG
  1
J
  9
$CUSTOMPROPERTY
  1
1.63
  9
$CUSTOMPROPERTYTAG
  1
L
  9
$CUSTOMPROPERTY
  1
2.05
  9
$CUSTOMPROPERTYTAG
  1
M
  9
$CUSTOMPROPERTY
  1
4.015 / 3.985
  9
$CUSTOMPROPERTYTAG
  1
N
  9
$CUSTOMPROPERTY
  1
4.75
  9
$CUSTOMPROPERTYTAG
  1
P
  9
$CUSTOMPROPERTY
  1
0.38
  9
$CUSTOMPROPERTYTAG
  1
R
  9
$CUSTOMPROPERTY
  1
0.75
  9
$CUSTOMPROPERTYTAG
  1
S
  9
$CUSTOMPROPERTY
  1
1.19
  9
$CUSTOMPROPERTYTAG
  1
COMPANY
  9
$CUSTOMPROPERTY
  1
baldor
  9
$INSBASE
 10
0.0
 20
0.0
 30
0.0
  9
$EXTMIN
 10
1.000000000000000E+20
 20
1.000000000000000E+20
 30
1.000000000000000E+20
  9
$EXTMAX
 10
-1.000000000000000E+20
 20
-1.000000000000000E+20
 30
-1.000000000000000E+20
  9
$LIMMIN
 10
0.0
 20
0.0
  9
$LIMMAX
 10
12.0
 20
9.0
  9
$ORTHOMODE
 70
     0
  9
$REGENMODE
 70
     1
  9
$FILLMODE
 70
     1
  9
$QTEXTMODE
 70
     0
  9
$MIRRTEXT
 70
     1
  9
$LTSCALE
 40
1.0
  9
$ATTMODE
 70
     1
  9
$TEXTSIZE
 40
0.2
  9
$TRACEWID
 40
0.05
  9
$TEXTSTYLE
  7
Standard
  9
$CLAYER
  8
0
  9
$CELTYPE
  6
ByLayer
  9
$CECOLOR
 62
   256
  9
$CELTSCALE
 40
1.0
  9
$DISPSILH
 70
     0
  9
$DIMSCALE
 40
1.0
  9
$DIMASZ
 40
0.18
  9
$DIMEXO
 40
0.0625
  9
$DIMDLI
 40
0.38
  9
$DIMRND
 40
0.0
  9
$DIMDLE
 40
0.0
  9
$DIMEXE
 40
0.18
  9
$DIMTP
 40
0.0
  9
$DIMTM
 40
0.0
  9
$DIMTXT
 40
0.18
  9
$DIMCEN
 40
0.09
  9
$DIMTSZ
 40
0.0
  9
$DIMTOL
 70
     0
  9
$DIMLIM
 70
     0
  9
$DIMTIH
 70
     1
  9
$DIMTOH
 70
     1
  9
$DIMSE1
 70
     0
  9
$DIMSE2
 70
     0
  9
$DIMTAD
 70
     0
  9
$DIMZIN
 70
     0
  9
$DIMBLK
  1

  9
$DIMASO
 70
     1
  9
$DIMSHO
 70
     1
  9
$DIMPOST
  1

  9
$DIMAPOST
  1

  9
$DIMALT
 70
     0
  9
$DIMALTD
 70
     2
  9
$DIMALTF
 40
25.4
  9
$DIMLFAC
 40
1.0
  9
$DIMTOFL
 70
     0
  9
$DIMTVP
 40
0.0
  9
$DIMTIX
 70
     0
  9
$DIMSOXD
 70
     0
  9
$DIMSAH
 70
     0
  9
$DIMBLK1
  1

  9
$DIMBLK2
  1

  9
$DIMSTYLE
  2
Standard
  9
$DIMCLRD
 70
     0
  9
$DIMCLRE
 70
     0
  9
$DIMCLRT
 70
     0
  9
$DIMTFAC
 40
1.0
  9
$DIMGAP
 40
0.09
  9
$DIMJUST
 70
     0
  9
$DIMSD1
 70
     0
  9
$DIMSD2
 70
     0
  9
$DIMTOLJ
 70
     1
  9
$DIMTZIN
 70
     0
  9
$DIMALTZ
 70
     0
  9
$DIMALTTZ
 70
     0
  9
$DIMUPT
 70
     0
  9
$DIMDEC
 70
     4
  9
$DIMTDEC
 70
     4
  9
$DIMALTU
 70
     2
  9
$DIMALTTD
 70
     2
  9
$DIMTXSTY
  7
Standard
  9
$DIMAUNIT
 70
     0
  9
$DIMADEC
 70
     0
  9
$DIMALTRND
 40
0.0
  9
$DIMAZIN
 70
     0
  9
$DIMDSEP
 70
    46
  9
$DIMATFIT
 70
     3
  9
$DIMFRAC
 70
     0
  9
$DIMLDRBLK
  1

  9
$DIMLUNIT
 70
     2
  9
$DIMLWD
 70
    -2
  9
$DIMLWE
 70
    -2
  9
$DIMTMOVE
 70
     0
  9
$DIMFXL
 40
1.0
  9
$DIMFXLON
 70
     0
  9
$DIMJOGANG
 40
0.7853981633974483
  9
$DIMTFILL
 70
     0
  9
$DIMTFILLCLR
 70
     0
  9
$DIMARCSYM
 70
     0
  9
$DIMLTYPE
  6

  9
$DIMLTEX1
  6

  9
$DIMLTEX2
  6

  9
$DIMTXTDIRECTION
 70
     0
  9
$LUNITS
 70
     2
  9
$LUPREC
 70
     4
  9
$SKETCHINC
 40
0.1
  9
$FILLETRAD
 40
0.5
  9
$AUNITS
 70
     0
  9
$AUPREC
 70
     0
  9
$MENU
  1
.
  9
$ELEVATION
 40
0.0
  9
$PELEVATION
 40
0.0
  9
$THICKNESS
 40
0.0
  9
$LIMCHECK
 70
     0
  9
$CHAMFERA
 40
0.0
  9
$CHAMFERB
 40
0.0
  9
$CHAMFERC
 40
0.0
  9
$CHAMFERD
 40
0.0
  9
$SKPOLY
 70
     0
  9
$TDCREATE
 40
2458168.975293878
  9
$TDUCREATE
 40
2458168.933627211
  9
$TDUPDATE
 40
2458168.975294051
  9
$TDUUPDATE
 40
2458168.933627384
  9
$TDINDWG
 40
0.0000000116
  9
$TDUSRTIMER
 40
0.0000000116
  9
$USRTIMER
 70
     1
  9
$ANGBASE
 50
0.0
  9
$ANGDIR
 70
     0
  9
$PDMODE
 70
     0
  9
$PDSIZE
 40
0.0
  9
$PLINEWID
 40
0.0
  9
$SPLFRAME
 70
     0
  9
$SPLINETYPE
 70
     6
  9
$SPLINESEGS
 70
     8
  9
$HANDSEED
  5
1EF
  9
$SURFTAB1
 70
     6
  9
$SURFTAB2
 70
     6
  9
$SURFTYPE
 70
     6
  9
$SURFU
 70
     6
  9
$SURFV
 70
     6
  9
$UCSBASE
  2

  9
$UCSNAME
  2

  9
$UCSORG
 10
0.0
 20
0.0
 30
0.0
  9
$UCSXDIR
 10
1.0
 20
0.0
 30
0.0
  9
$UCSYDIR
 10
0.0
 20
1.0
 30
0.0
  9
$UCSORTHOREF
  2

  9
$UCSORTHOVIEW
 70
     0
  9
$UCSORGTOP
 10
0.0
 20
0.0
 30
0.0
  9
$UCSORGBOTTOM
 10
0.0
 20
0.0
 30
0.0
  9
$UCSORGLEFT
 10
0.0
 20
0.0
 30
0.0
  9
$UCSORGRIGHT
 10
0.0
 20
0.0
 30
0.0
  9
$UCSORGFRONT
 10
0.0
 20
0.0
 30
0.0
  9
$UCSORGBACK
 10
0.0
 20
0.0
 30
0.0
  9
$PUCSBASE
  2

  9
$PUCSNAME
  2

  9
$PUCSORG
 10
0.0
 20
0.0
 30
0.0
  9
$PUCSXDIR
 10
1.0
 20
0.0
 30
0.0
  9
$PUCSYDIR
 10
0.0
 20
1.0
 30
0.0
  9
$PUCSORTHOREF
  2

  9
$PUCSORTHOVIEW
 70
     0
  9
$PUCSORGTOP
 10
0.0
 20
0.0
 30
0.0
  9
$PUCSORGBOTTOM
 10
0.0
 20
0.0
 30
0.0
  9
$PUCSORGLEFT
 10
0.0
 20
0.0
 30
0.0
  9
$PUCSORGRIGHT
 10
0.0
 20
0.0
 30
0.0
  9
$PUCSORGFRONT
 10
0.0
 20
0.0
 30
0.0
  9
$PUCSORGBACK
 10
0.0
 20
0.0
 30
0.0
  9
$USERI1
 70
     0
  9
$USERI2
 70
     0
  9
$USERI3
 70
     0
  9
$USERI4
 70
     0
  9
$USERI5
 70
     0
  9
$USERR1
 40
0.0
  9
$USERR2
 40
0.0
  9
$USERR3
 40
0.0
  9
$USERR4
 40
0.0
  9
$USERR5
 40
0.0
  9
$WORLDVIEW
 70
     1
  9
$SHADEDGE
 70
     3
  9
$SHADEDIF
 70
    70
  9
$TILEMODE
 70
     1
  9
$MAXACTVP
 70
    64
  9
$PINSBASE
 10
0.0
 20
0.0
 30
0.0
  9
$PLIMCHECK
 70
     0
  9
$PEXTMIN
 10
1.000000000000000E+20
 20
1.000000000000000E+20
 30
1.000000000000000E+20
  9
$PEXTMAX
 10
-1.000000000000000E+20
 20
-1.000000000000000E+20
 30
-1.000000000000000E+20
  9
$PLIMMIN
 10
0.0
 20
0.0
  9
$PLIMMAX
 10
12.0
 20
9.0
  9
$UNITMODE
 70
     0
  9
$VISRETAIN
 70
     1
  9
$PLINEGEN
 70
     0
  9
$PSLTSCALE
 70
     1
  9
$TREEDEPTH
 70
  3020
  9
$CMLSTYLE
  2
Standard
  9
$CMLJUST
 70
     0
  9
$CMLSCALE
 40
1.0
  9
$PROXYGRAPHICS
 70
     1
  9
$MEASUREMENT
 70
     0
  9
$CELWEIGHT
370
    -1
  9
$ENDCAPS
280
     0
  9
$JOINSTYLE
280
     0
  9
$LWDISPLAY
290
     0
  9
$INSUNITS
 70
     1
  9
$HYPERLINKBASE
  1

  9
$STYLESHEET
  1

  9
$XEDIT
290
     1
  9
$CEPSNTYPE
380
     0
  9
$PSTYLEMODE
290
     1
  9
$FINGERPRINTGUID
  2
{454DBE99-DA83-42D9-B418-E32D71D11898}
  9
$VERSIONGUID
  2
{FAEB1C32-E019-11D5-929B-00C0DF256EC4}
  9
$EXTNAMES
290
     1
  9
$PSVPSCALE
 40
0.0
  9
$OLESTARTUP
290
     0
  9
$SORTENTS
280
   127
  9
$INDEXCTL
280
     0
  9
$HIDETEXT
280
     1
  9
$XCLIPFRAME
280
     2
  9
$HALOGAP
280
     0
  9
$OBSCOLOR
 70
   257
  9
$OBSLTYPE
280
     0
  9
$INTERSECTIONDISPLAY
280
     0
  9
$INTERSECTIONCOLOR
 70
   257
  9
$DIMASSOC
280
     2
  9
$PROJECTNAME
  1

  9
$CAMERADISPLAY
290
     0
  9
$LENSLENGTH
 40
50.0
  9
$CAMERAHEIGHT
 40
0.0
  9
$STEPSPERSEC
 40
2.0
  9
$STEPSIZE
 40
6.0
  9
$3DDWFPREC
 40
2.0
  9
$PSOLWIDTH
 40
0.25
  9
$PSOLHEIGHT
 40
4.0
  9
$LOFTANG1
 40
1.570796326794897
  9
$LOFTANG2
 40
1.570796326794897
  9
$LOFTMAG1
 40
0.0
  9
$LOFTMAG2
 40
0.0
  9
$LOFTPARAM
 70
     7
  9
$LOFTNORMALS
280
     1
  9
$LATITUDE
 40
37.795
  9
$LONGITUDE
 40
-122.394
  9
$NORTHDIRECTION
 40
0.0
  9
$TIMEZONE
 70
 -8000
  9
$LIGHTGLYPHDISPLAY
280
     1
  9
$TILEMODELIGHTSYNCH
280
     1
  9
$CMATERIAL
347
44
  9
$SOLIDHIST
280
     0
  9
$SHOWHIST
280
     1
  9
$DWFFRAME
280
     2
  9
$DGNFRAME
280
     2
  9
$REALWORLDSCALE
290
     1
  9
$INTERFERECOLOR
 62
   256
  9
$CSHADOW
280
     0
  9
$SHADOWPLANELOCATION
 40
0.0
  0
ENDSEC
  0
SECTION
  2
CLASSES
  0
CLASS
  1
ACDBDICTIONARYWDFLT
  2
AcDbDictionaryWithDefault
  3
ObjectDBX Classes
 90
        0
 91
        4
280
     0
281
     0
  0
CLASS
  1
VISUALSTYLE
  2
AcDbVisualStyle
  3
ObjectDBX Classes
 90
     4095
 91
        4
280
     0
281
     0
  0
CLASS
  1
MATERIAL
  2
AcDbMaterial
  3
ObjectDBX Classes
 90
     1153
 91
        4
280
     0
281
     0
  0
CLASS
  1
SCALE
  2
AcDbScale
  3
ObjectDBX Classes
 90
     1153
 91
        4
280
     0
281
     0
  0
CLASS
  1
TABLESTYLE
  2
AcDbTableStyle
  3
ObjectDBX Classes
 90
     4095
 91
        4
280
     0
281
     0
  0
CLASS
  1
MLEADERSTYLE
  2
AcDbMLeaderStyle
  3
ACDB_MLEADERSTYLE_CLASS
 90
     4095
 91
        4
280
     0
281
     0
  0
CLASS
  1
SUN
  2
AcDbSun
  3
SCENEOE
 90
     1153
 91
        4
280
     0
281
     0
  0
CLASS
  1
DICTIONARYVAR
  2
AcDbDictionaryVar
  3
ObjectDBX Classes
 90
        0
 91
        4
280
     0
281
     0
  0
CLASS
  1
CELLSTYLEMAP
  2
AcDbCellStyleMap
  3
ObjectDBX Classes
 90
     1152
 91
        4
280
     0
281
     0
  0
ENDSEC
  0
SECTION
  2
TABLES
  0
TABLE
  2
VPORT
  5
8
330
0
100
AcDbSymbolTable
 70
     1
  0
VPORT
  5
29
330
8
100
AcDbSymbolTableRecord
100
AcDbViewportTableRecord
  2
*Active
 70
     0
 10
0.0
 20
0.0
 11
1.0
 21
1.0
 12
0.4612990842876474
 22
-0.1952499999999997
 13
0.0
 23
0.0
 14
0.5
 24
0.5
 15
0.5
 25
0.5
 16
0.0
 26
0.0
 36
1.0
 17
0.0
 27
0.0
 37
0.0
 40
2.227170000000001
 41
2.626481260098331
 42
50.0
 43
0.0
 44
0.0
 50
0.0
 51
0.0
 71
     0
 72
   100
 73
     1
 74
     3
 75
     0
 76
     0
 77
     0
 78
     0
281
     0
 65
     1
110
0.0
120
0.0
130
0.0
111
1.0
121
0.0
131
0.0
112
0.0
122
1.0
132
0.0
 79
     0
146
0.0
348
2F
 60
     3
 61
     5
292
     1
282
     1
141
0.0
142
0.0
 63
   250
361
6D
  0
ENDTAB
  0
TABLE
  2
LTYPE
  5
5
330
0
100
AcDbSymbolTable
 70
     3
  0
LTYPE
  5
14
330
5
100
AcDbSymbolTableRecord
100
AcDbLinetypeTableRecord
  2
ByBlock
 70
     0
  3

 72
    65
 73
     0
 40
0.0
  0
LTYPE
  5
15
330
5
100
AcDbSymbolTableRecord
100
AcDbLinetypeTableRecord
  2
ByLayer
 70
     0
  3

 72
    65
 73
     0
 40
0.0
  0
LTYPE
  5
16
330
5
100
AcDbSymbolTableRecord
100
AcDbLinetypeTableRecord
  2
Continuous
 70
     0
  3
Solid line
 72
    65
 73
     0
 40
0.0
  0
LTYPE
  5
A0
330
5
100
AcDbSymbolTableRecord
100
AcDbLinetypeTableRecord
  2
Dashed
 70
     0
  3

 72
    65
 73
     2
 40
2.0
 49
1.0
 74
     0
 49
-1.0
 74
     0
  0
LTYPE
  5
164
330
5
100
AcDbSymbolTableRecord
100
AcDbLinetypeTableRecord
  2
Center
 70
     0
  3

 72
    65
 73
     4
 40
1.5
 49
0.45
 74
     0
 49
-0.5
 74
     0
 49
0.05
 74
     0
 49
-0.5
 74
     0
  0
ENDTAB
  0
TABLE
  2
LAYER
  5
2
330
0
100
AcDbSymbolTable
 70
     7
  0
LAYER
  5
10
330
2
100
AcDbSymbolTableRecord
100
AcDbLayerTableRecord
  2
0
 70
     0
 62
     7
  6
Continuous
370
    -3
390
F
347
46
348
0
  0
LAYER
  5
72
330
2
100
AcDbSymbolTableRecord
100
AcDbLayerTableRecord
  2
AM_6
 70
     0
 62
    -2
  6
Continuous
370
    35
390
F
347
46
348
0
  0
LAYER
  5
A1
330
2
100
AcDbSymbolTableRecord
100
AcDbLayerTableRecord
  2
AM_9
 70
     0
 62
     6
  6
Dashed
370
    25
390
F
347
46
348
0
  0
LAYER
  5
F4
330
2
100
AcDbSymbolTableRecord
100
AcDbLayerTableRecord
  2
AM_4
 70
     0
 62
     7
  6
Continuous
370
    50
390
F
347
46
348
0
  0
LAYER
  5
15F
330
2
100
AcDbSymbolTableRecord
100
AcDbLayerTableRecord
  2
AM_5
 70
     0
 62
     3
  6
Continuous
370
    25
390
F
347
46
348
0
  0
LAYER
  5
165
330
2
100
AcDbSymbolTableRecord
100
AcDbLayerTableRecord
  2
AM_7
 70
     0
 62
     7
  6
Center
370
    25
390
F
347
46
348
0
  0
LAYER
  5
1E1
330
2
100
AcDbSymbolTableRecord
100
AcDbLayerTableRecord
  2
ConnectionPoints
 70
     0
 62
     7
  6
Continuous
370
    50
390
F
347
46
348
0
  0
ENDTAB
  0
TABLE
  2
STYLE
  5
3
330
0
100
AcDbSymbolTable
 70
     1
  0
STYLE
  5
11
330
3
100
AcDbSymbolTableRecord
100
AcDbTextStyleTableRecord
  2
Standard
 70
     0
 40
0.0
 41
1.0
 50
0.0
 71
     0
 42
0.2
  3
txt
  4

  0
ENDTAB
  0
TABLE
  2
VIEW
  5
6
330
0
100
AcDbSymbolTable
 70
     0
  0
ENDTAB
  0
TABLE
  2
UCS
  5
7
330
0
100
AcDbSymbolTable
 70
     0
  0
ENDTAB
  0
TABLE
  2
APPID
  5
9
330
0
100
AcDbSymbolTable
 70
     1
  0
APPID
  5
12
330
9
100
AcDbSymbolTableRecord
100
AcDbRegAppTableRecord
  2
ACAD
 70
     0
  0
ENDTAB
  0
TABLE
  2
DIMSTYLE
  5
A
330
0
100
AcDbSymbolTable
 70
     1
100
AcDbDimStyleTable
  0
DIMSTYLE
105
27
330
A
100
AcDbSymbolTableRecord
100
AcDbDimStyleTableRecord
  2
Standard
 70
     0
178
     0
340
11
  0
ENDTAB
  0
TABLE
  2
BLOCK_RECORD
  5
1
330
0
100
AcDbSymbolTable
 70
     5
  0
BLOCK_RECORD
  5
1F
330
1
100
AcDbSymbolTableRecord
100
AcDbBlockTableRecord
  2
*Model_Space
340
22
 70
     0
280
     1
281
     0
  0
BLOCK_RECORD
  5
1B
330
1
100
AcDbSymbolTableRecord
100
AcDbBlockTableRecord
  2
*Paper_Space
340
1E
 70
     0
280
     1
281
     0
  0
BLOCK_RECORD
  5
23
330
1
100
AcDbSymbolTableRecord
100
AcDbBlockTableRecord
  2
*Paper_Space0
340
26
 70
     0
280
     1
281
     0
  0
BLOCK_RECORD
  5
6E
330
1
100
AcDbSymbolTableRecord
100
AcDbBlockTableRecord
  2
1_125370_4
340
0
102
{BLKREFS
331
6F
102
}
 70
     0
280
     1
281
     0
  0
BLOCK_RECORD
  5
8F
330
1
100
AcDbSymbolTableRecord
100
AcDbBlockTableRecord
  2
2_405016_Inch_0_in_125370_4
340
0
102
{BLKREFS
331
90
102
}
 70
     0
280
     1
281
     0
  0
BLOCK_RECORD
  5
118
330
1
100
AcDbSymbolTableRecord
100
AcDbBlockTableRecord
  2
3_123343_0_in_125370_4
340
0
102
{BLKREFS
331
119
102
}
 70
     0
280
     1
281
     0
  0
BLOCK_RECORD
  5
178
330
1
100
AcDbSymbolTableRecord
100
AcDbBlockTableRecord
  2
4_125370H_0_in_125370_4
340
0
102
{BLKREFS
331
179
102
}
 70
     0
280
     1
281
     0
  0
ENDTAB
  0
ENDSEC
  0
SECTION
  2
BLOCKS
  0
BLOCK
  5
20
330
1F
100
AcDbEntity
  8
0
100
AcDbBlockBegin
  2
*Model_Space
 70
     0
 10
0.0
 20
0.0
 30
0.0
  3
*Model_Space
  1

  0
ENDBLK
  5
21
330
1F
100
AcDbEntity
  8
0
100
AcDbBlockEnd
  0
BLOCK
  5
1C
330
1B
100
AcDbEntity
 67
     1
  8
0
100
AcDbBlockBegin
  2
*Paper_Space
 70
     0
 10
0.0
 20
0.0
 30
0.0
  3
*Paper_Space
  1

  0
ENDBLK
  5
1D
330
1B
100
AcDbEntity
 67
     1
  8
0
100
AcDbBlockEnd
  0
BLOCK
  5
24
330
23
100
AcDbEntity
  8
0
100
AcDbBlockBegin
  2
*Paper_Space0
 70
     0
 10
0.0
 20
0.0
 30
0.0
  3
*Paper_Space0
  1

  0
ENDBLK
  5
25
330
23
100
AcDbEntity
  8
0
100
AcDbBlockEnd
  0
BLOCK
  5
70
330
6E
100
AcDbEntity
  8
0
100
AcDbBlockBegin
  2
1_125370_4
 70
     2
 10
0.0
 20
0.0
 30
0.0
  3
1_125370_4
  1

  0
ATTDEF
  5
73
330
6E
100
AcDbEntity
  8
AM_6
100
AcDbText
 10
8.328759999999999
 20
0.8965
 30
0.0
 40
0.5
  1
Set Screw Narrow Slot Take Up Inch Bore
100
AcDbAttributeDefinition
  3

  2
NN
 70
     8
280
     0
  0
ATTDEF
  5
74
330
6E
100
AcDbEntity
  8
AM_6
100
AcDbText
 10
8.328759999999999
 20
0.3965
 30
0.0
 40
0.5
  1
SC Take-Up Bearings -Narrow Slot -(Normal Duty)
100
AcDbAttributeDefinition
  3

  2
NT
 70
     8
280
     0
  0
ATTDEF
  5
75
330
6E
100
AcDbEntity
  8
AM_6
100
AcDbText
 10
8.328759999999999
 20
-0.1035
 30
0.0
 40
0.5
  1
125370
100
AcDbAttributeDefinition
  3

  2
NB
 70
     8
280
     0
  0
ATTDEF
  5
76
330
6E
100
AcDbEntity
  8
AM_6
100
AcDbText
 10
8.328759999999999
 20
-0.6035
 30
0.0
 40
0.5
  1
$PN.
100
AcDbAttributeDefinition
  3

  2
NBSYN
 70
     8
280
     0
  0
ATTDEF
  5
77
330
6E
100
AcDbEntity
  8
AM_6
100
AcDbText
 10
8.328759999999999
 20
-1.1035
 30
0.0
 40
0.5
  1
125370
100
AcDbAttributeDefinition
  3

  2
LINA
 70
     8
280
     0
  0
ATTDEF
  5
78
330
6E
100
AcDbEntity
  8
AM_6
100
AcDbText
 10
8.328759999999999
 20
-1.6035
 30
0.0
 40
0.5
  1
208
100
AcDbAttributeDefinition
  3

  2
SERIES
 70
     8
280
     0
  0
ATTDEF
  5
79
330
6E
100
AcDbEntity
  8
AM_6
100
AcDbText
 10
8.328759999999999
 20
-2.1035
 30
0.0
 40
0.5
  1
1-5/8
100
AcDbAttributeDefinition
  3

  2
SS
 70
     8
280
     0
  0
ATTDEF
  5
7A
330
6E
100
AcDbEntity
  8
AM_6
100
AcDbText
 10
8.328759999999999
 20
-2.6035
 30
0.0
 40
0.5
  1
125370
100
AcDbAttributeDefinition
  3

  2
PN
 70
     8
280
     0
  0
ATTDEF
  5
7B
330
6E
100
AcDbEntity
  8
AM_6
100
AcDbText
 10
8.328759999999999
 20
-3.1035
 30
0.0
 40
0.5
  1
NSTU-SC-110
100
AcDbAttributeDefinition
  3

  2
DESCRIPTION
 70
     8
280
     0
  0
ATTDEF
  5
7C
330
6E
100
AcDbEntity
  8
AM_6
100
AcDbText
 10
8.328759999999999
 20
-3.6035
 30
0.0
 40
0.5
  1
4.6
100
AcDbAttributeDefinition
  3

  2
W
 70
     8
280
     0
  0
ATTDEF
  5
7D
330
6E
100
AcDbEntity
  8
AM_6
100
AcDbText
 10
8.328759999999999
 20
-4.1035
 30
0.0
 40
0.5
  1
NS400
100
AcDbAttributeDefinition
  3

  2
FS
 70
     8
280
     0
  0
ATTDEF
  5
7E
330
6E
100
AcDbEntity
  8
AM_6
100
AcDbText
 10
8.328759999999999
 20
-4.6035
 30
0.0
 40
0.5
  1
RE-LUBE
100
AcDbAttributeDefinition
  3

  2
LF
 70
     8
280
     0
  0
ATTDEF
  5
7F
330
6E
100
AcDbEntity
  8
AM_6
100
AcDbText
 10
8.328759999999999
 20
-5.1035
 30
0.0
 40
0.5
  1
1.94
100
AcDbAttributeDefinition
  3

  2
A
 70
     8
280
     0
  0
ATTDEF
  5
80
330
6E
100
AcDbEntity
  8
AM_6
100
AcDbText
 10
8.328759999999999
 20
-5.6035
 30
0.0
 40
0.5
  1
5.38
100
AcDbAttributeDefinition
  3

  2
B
 70
     8
280
     0
  0
ATTDEF
  5
81
330
6E
100
AcDbEntity
  8
AM_6
100
AcDbText
 10
8.328759999999999
 20
-6.1035
 30
0.0
 40
0.5
  1
0.313
100
AcDbAttributeDefinition
  3

  2
C
 70
     8
280
     0
  0
ATTDEF
  5
82
330
6E
100
AcDbEntity
  8
AM_6
100
AcDbText
 10
8.328759999999999
 20
-6.6035
 30
0.0
 40
0.5
  1
3.00
100
AcDbAttributeDefinition
  3

  2
D
 70
     8
280
     0
  0
ATTDEF
  5
83
330
6E
100
AcDbEntity
  8
AM_6
100
AcDbText
 10
8.328759999999999
 20
-7.1035
 30
0.0
 40
0.5
  1
3.25
100
AcDbAttributeDefinition
  3

  2
E
 70
     8
280
     0
  0
ATTDEF
  5
84
330
6E
100
AcDbEntity
  8
AM_6
100
AcDbText
 10
8.328759999999999
 20
-7.6035
 30
0.0
 40
0.5
  1
7/8
100
AcDbAttributeDefinition
  3

  2
F
 70
     8
280
     0
  0
ATTDEF
  5
85
330
6E
100
AcDbEntity
  8
AM_6
100
AcDbText
 10
8.328759999999999
 20
-8.1035
 30
0.0
 40
0.5
  1
0.66
100
AcDbAttributeDefinition
  3

  2
G
 70
     8
280
     0
  0
ATTDEF
  5
86
330
6E
100
AcDbEntity
  8
AM_6
100
AcDbText
 10
8.328759999999999
 20
-8.6035
 30
0.0
 40
0.5
  1
1.16
100
AcDbAttributeDefinition
  3

  2
H
 70
     8
280
     0
  0
ATTDEF
  5
87
330
6E
100
AcDbEntity
  8
AM_6
100
AcDbText
 10
8.328759999999999
 20
-9.1035
 30
0.0
 40
0.5
  1
1.63
100
AcDbAttributeDefinition
  3

  2
J
 70
     8
280
     0
  0
ATTDEF
  5
88
330
6E
100
AcDbEntity
  8
AM_6
100
AcDbText
 10
8.328759999999999
 20
-9.6035
 30
0.0
 40
0.5
  1
2.05
100
AcDbAttributeDefinition
  3

  2
L
 70
     8
280
     0
  0
ATTDEF
  5
89
330
6E
100
AcDbEntity
  8
AM_6
100
AcDbText
 10
8.328759999999999
 20
-10.1035
 30
0.0
 40
0.5
  1
4.015 / 3.985
100
AcDbAttributeDefinition
  3

  2
M
 70
     8
280
     0
  0
ATTDEF
  5
8A
330
6E
100
AcDbEntity
  8
AM_6
100
AcDbText
 10
8.328759999999999
 20
-10.6035
 30
0.0
 40
0.5
  1
4.75
100
AcDbAttributeDefinition
  3

  2
N
 70
     8
280
     0
  0
ATTDEF
  5
8B
330
6E
100
AcDbEntity
  8
AM_6
100
AcDbText
 10
8.328759999999999
 20
-11.1035
 30
0.0
 40
0.5
  1
0.38
100
AcDbAttributeDefinition
  3

  2
P
 70
     8
280
     0
  0
ATTDEF
  5
8C
330
6E
100
AcDbEntity
  8
AM_6
100
AcDbText
 10
8.328759999999999
 20
-11.6035
 30
0.0
 40
0.5
  1
0.75
100
AcDbAttributeDefinition
  3

  2
R
 70
     8
280
     0
  0
ATTDEF
  5
8D
330
6E
100
AcDbEntity
  8
AM_6
100
AcDbText
 10
8.328759999999999
 20
-12.1035
 30
0.0
 40
0.5
  1
1.19
100
AcDbAttributeDefinition
  3

  2
S
 70
     8
280
     0
  0
ATTDEF
  5
8E
330
6E
100
AcDbEntity
  8
AM_6
100
AcDbText
 10
8.328759999999999
 20
-12.6035
 30
0.0
 40
0.5
  1
baldor
100
AcDbAttributeDefinition
  3

  2
COMPANY
 70
     8
280
     0
  0
INSERT
  5
90
330
6E
100
AcDbEntity
  8
0
100
AcDbBlockReference
  2
2_405016_Inch_0_in_125370_4
 10
0.0
 20
0.0
 30
0.0
  0
INSERT
  5
119
330
6E
100
AcDbEntity
  8
0
100
AcDbBlockReference
  2
3_123343_0_in_125370_4
 10
0.0
 20
0.0
 30
0.0
  0
INSERT
  5
179
330
6E
100
AcDbEntity
  8
0
100
AcDbBlockReference
  2
4_125370H_0_in_125370_4
 10
0.0
 20
0.0
 30
0.0
  0
ENDBLK
  5
71
330
6E
100
AcDbEntity
  8
0
100
AcDbBlockEnd
  0
BLOCK
  5
91
330
8F
100
AcDbEntity
  8
0
100
AcDbBlockBegin
  2
2_405016_Inch_0_in_125370_4
 70
     2
 10
0.0
 20
0.0
 30
0.0
  3
2_405016_Inch_0_in_125370_4
  1

  0
ATTDEF
  5
93
330
8F
100
AcDbEntity
  8
AM_6
100
AcDbText
 10
3.425640809955603
 20
0.2187499999999999
 30
0.0
 40
0.5
  1
405016 -Inch
100
AcDbAttributeDefinition
  3

  2
NN
 70
     8
280
     0
  0
ATTDEF
  5
94
330
8F
100
AcDbEntity
  8
AM_6
100
AcDbText
 10
3.425640809955603
 20
-0.2812500000000001
 30
0.0
 40
0.5
  1
Grease Fitting
100
AcDbAttributeDefinition
  3

  2
NT
 70
     8
280
     0
  0
ATTDEF
  5
95
330
8F
100
AcDbEntity
  8
AM_6
100
AcDbText
 10
3.425640809955603
 20
-0.7812500000000001
 30
0.0
 40
0.5
  1
405016-Inch
100
AcDbAttributeDefinition
  3

  2
NB
 70
     8
280
     0
  0
ATTDEF
  5
96
330
8F
100
AcDbEntity
  8
AM_6
100
AcDbText
 10
3.425640809955603
 20
-1.28125
 30
0.0
 40
0.5
  1
$MN.-Inch
100
AcDbAttributeDefinition
  3

  2
NBSYN
 70
     8
280
     0
  0
ATTDEF
  5
97
330
8F
100
AcDbEntity
  8
AM_6
100
AcDbText
 10
3.425640809955603
 20
-1.78125
 30
0.0
 40
0.5
  1
405016
100
AcDbAttributeDefinition
  3

  2
LINA
 70
     8
280
     0
  0
ATTDEF
  5
98
330
8F
100
AcDbEntity
  8
AM_6
100
AcDbText
 10
3.425640809955603
 20
-2.28125
 30
0.0
 40
0.5
  1
405016
100
AcDbAttributeDefinition
  3

  2
MN
 70
     8
280
     0
  0
ATTDEF
  5
99
330
8F
100
AcDbEntity
  8
AM_6
100
AcDbText
 10
3.425640809955603
 20
-2.78125
 30
0.0
 40
0.5
  1
7/16 HEX
100
AcDbAttributeDefinition
  3

  2
H
 70
     8
280
     0
  0
ATTDEF
  5
9A
330
8F
100
AcDbEntity
  8
AM_6
100
AcDbText
 10
3.425640809955603
 20
-3.28125
 30
0.0
 40
0.5
  1
0.383
100
AcDbAttributeDefinition
  3

  2
NDR
 70
     8
280
     0
  0
ATTDEF
  5
9B
330
8F
100
AcDbEntity
  8
AM_6
100
AcDbText
 10
3.425640809955603
 20
-3.78125
 30
0.0
 40
0.5
  1
0.337
100
AcDbAttributeDefinition
  3

  2
KDR
 70
     8
280
     0
  0
ATTDEF
  5
9C
330
8F
100
AcDbEntity
  8
AM_6
100
AcDbText
 10
3.425640809955603
 20
-4.28125
 30
0.0
 40
0.5
  1
0.1575
100
AcDbAttributeDefinition
  3

  2
BZE
 70
     8
280
     0
  0
ATTDEF
  5
9D
330
8F
100
AcDbEntity
  8
AM_6
100
AcDbText
 10
3.425640809955603
 20
-4.78125
 30
0.0
 40
0.5
  1
0.4375
100
AcDbAttributeDefinition
  3

  2
HEX
 70
     8
280
     0
  0
ATTDEF
  5
9E
330
8F
100
AcDbEntity
  8
AM_6
100
AcDbText
 10
3.425640809955603
 20
-5.28125
 30
0.0
 40
0.5
  1
0.281250
100
AcDbAttributeDefinition
  3

  2
HEX2
 70
     8
280
     0
  0
ATTDEF
  5
9F
330
8F
100
AcDbEntity
  8
AM_6
100
AcDbText
 10
3.425640809955603
 20
-5.78125
 30
0.0
 40
0.5
  1
baldor
100
AcDbAttributeDefinition
  3

  2
COMPANY
 70
     8
280
     0
  0
LINE
  5
A2
330
8F
100
AcDbEntity
  8
AM_9
100
AcDbLine
 10
-2.271502007874938
 20
-0.151074129835757
 30
0.0
 11
-2.282823581098814
 21
-0.1791093260592887
 31
0.0
  0
LINE
  5
A3
330
8F
100
AcDbEntity
  8
AM_9
100
AcDbLine
 10
-2.12032716183644
 20
-0.2099962668917053
 30
0.0
 11
-2.132014408055985
 21
-0.2389369657326276
 31
0.0
  0
LWPOLYLINE
  5
A4
330
8F
100
AcDbEntity
  8
AM_9
100
AcDbPolyline
 90
        3
 70
     0
 43
0.0
 10
-1.864746742036111
 20
-0.0000000000000001
 10
-1.886224412953733
 20
-0.0544416102741497
 10
-1.904173356571034
 20
-0.109375
  0
LWPOLYLINE
  5
A5
330
8F
100
AcDbEntity
  8
AM_9
100
AcDbPolyline
 90
        3
 70
     0
 43
0.0
 10
-1.904173356571034
 20
0.1093749999999999
 10
-1.886313706587111
 20
0.0546874999999999
 10
-1.864746742036111
 20
-0.0000000000000001
  0
LWPOLYLINE
  5
A6
330
8F
100
AcDbEntity
  8
AM_9
100
AcDbPolyline
 90
        3
 70
     0
 43
0.0
 10
-2.06239631341435
 20
-0.2987675689889718
 10
-2.078283597977446
 20
-0.2912216284034024
 10
-2.093493599675461
 20
-0.2813919000363599
  0
LWPOLYLINE
  5
A7
330
8F
100
AcDbEntity
  8
AM_9
100
AcDbPolyline
 90
        3
 70
     0
 43
0.0
 10
-1.817570816192591
 20
-0.1093750000000001
 10
-1.803856623330206
 20
-0.0546875000000001
 10
-1.793849745034899
 20
-0.0000000000000001
  0
LWPOLYLINE
  5
A8
330
8F
100
AcDbEntity
  8
AM_9
100
AcDbPolyline
 90
        3
 70
     0
 43
0.0
 10
-1.793849745034899
 20
-0.0000000000000001
 10
-1.803803952464173
 20
0.0544416102741495
 10
-1.817570816192591
 20
0.1093749999999999
  0
LWPOLYLINE
  5
A9
330
8F
100
AcDbEntity
  8
AM_9
100
AcDbPolyline
 90
        3
 70
     0
 43
0.0
 10
-2.075193692136927
 20
-0.2360765106845277
 10
-2.066028705560369
 20
-0.2462091938631851
 10
-2.050340664103372
 20
-0.2689146070947222
  0
LWPOLYLINE
  5
AA
330
8F
100
AcDbEntity
  8
AM_9
100
AcDbPolyline
 90
        3
 70
     0
 43
0.0
 10
-1.927894427728726
 20
0.2187499999999999
 10
-1.917940220299451
 20
0.1643083897258503
 10
-1.904173356571034
 20
0.1093749999999999
  0
LINE
  5
AB
330
8F
100
AcDbEntity
  8
AM_9
100
AcDbLine
 10
-1.864746742036111
 20
-0.0000000000000001
 30
0.0
 11
-1.793849745034899
 21
-0.0000000000000001
 31
0.0
  0
LWPOLYLINE
  5
AC
330
8F
100
AcDbEntity
  8
AM_9
100
AcDbPolyline
 90
        3
 70
     0
 43
0.0
 10
-1.904173356571034
 20
-0.109375
 10
-1.917887549433419
 20
-0.1640625
 10
-1.927894427728726
 20
-0.2187500000000001
  0
LWPOLYLINE
  5
AD
330
8F
100
AcDbEntity
  8
AM_9
100
AcDbPolyline
 90
        3
 70
     0
 43
0.0
 10
-2.050340664103372
 20
-0.2689146070947222
 10
-2.063336551952983
 20
-0.2634308483997528
 10
-2.077550452067223
 20
-0.2602304684431305
  0
LWPOLYLINE
  5
AE
330
8F
100
AcDbEntity
  8
AM_9
100
AcDbPolyline
 90
        3
 70
     0
 43
0.0
 10
-2.095850359605757
 20
-0.3055458577949631
 10
-2.079468404986779
 20
-0.3030753670497808
 10
-2.06239631341435
 20
-0.2987675689889718
  0
LINE
  5
AF
330
8F
100
AcDbEntity
  8
AM_9
100
AcDbLine
 10
-2.050340664103372
 20
-0.2689146070947222
 30
0.0
 11
-2.06239631341435
 21
-0.2987675689889718
 31
0.0
  0
ELLIPSE
  5
B0
330
8F
100
AcDbEntity
  8
AM_9
100
AcDbEllipse
 10
-2.304677956263441
 20
-0.4687500000000001
 30
0.0
 11
-0.09595382955731811
 21
0.03874944547499715
 31
0.0
210
0.0
220
0.0
230
1.0
 40
0.2113091308703532
 41
3.040609649696545
 42
6.384168311072827
  0
ELLIPSE
  5
B1
330
8F
100
AcDbEntity
  8
AM_9
100
AcDbEllipse
 10
-2.276684294065958
 20
-0.399430321788976
 30
0.0
 11
-0.1290248947933272
 21
0.05210467522533585
 31
0.0
210
0.0
220
0.0
230
1.0
 40
0.2113091308703501
 41
3.037870331134946
 42
5.80110563949218
  0
ELLIPSE
  5
B2
330
8F
100
AcDbEntity
  8
AM_9
100
AcDbEllipse
 10
-2.266009312588649
 20
-0.3729962569746436
 30
0.0
 11
-0.1235034625625557
 21
0.04987493162721679
 31
0.0
210
0.0
220
0.0
230
1.0
 40
0.2113091308703492
 41
3.385272093877592
 42
6.026074145945167
  0
LINE
  5
B3
330
8F
100
AcDbEntity
  8
AM_9
100
AcDbLine
 10
-2.130001698000719
 20
-0.3030733067052191
 30
0.0
 11
-2.116493644893766
 21
-0.305456396233367
 31
0.0
  0
ELLIPSE
  5
B4
330
8F
100
AcDbEntity
  8
AM_9
100
AcDbEllipse
 10
-2.215008409324674
 20
-0.2467045921759436
 30
0.0
 11
-0.1303939210192509
 21
0.05265753494279918
 31
0.0
210
0.0
220
0.0
230
1.0
 40
0.2113091308705409
 41
-3.920236551117117
 42
-3.764628581859201
  0
LWPOLYLINE
  5
B5
330
8F
100
AcDbEntity
  8
AM_9
100
AcDbPolyline
 90
        5
 70
     0
 43
0.0
 10
-2.282823581098814
 20
-0.1791093260592887
 10
-2.30468596959744
 20
-0.1842540823997054
 10
-2.325582056527433
 20
-0.1862220679364951
 10
-2.345499676082343
 20
-0.1844124966919381
 10
-2.364013462703605
 20
-0.1791093260592887
  0
LWPOLYLINE
  5
B6
330
8F
100
AcDbEntity
  8
AM_9
100
AcDbPolyline
 90
        5
 70
     0
 43
0.0
 10
-2.132014408055985
 20
-0.2389369657326276
 10
-2.170855696743414
 20
-0.2295338871417796
 10
-2.208990743455333
 20
-0.216687117104632
 10
-2.246609537816516
 20
-0.1996402057054678
 10
-2.282823581098814
 20
-0.1791093260592887
  0
LWPOLYLINE
  5
B7
330
8F
100
AcDbEntity
  8
AM_9
100
AcDbPolyline
 90
        3
 70
     0
 43
0.0
 10
-2.105515129857268
 20
-0.2711532636537956
 10
-2.119250307621841
 20
-0.2561815527589921
 10
-2.132014408055985
 20
-0.2389369657326276
  0
ELLIPSE
  5
B8
330
8F
100
AcDbEntity
  8
AM_9
100
AcDbEllipse
 10
-2.215008409324636
 20
-0.2467045921760083
 30
0.0
 11
-0.1303939210191651
 21
0.05265753494272036
 31
0.0
210
0.0
220
0.0
230
1.0
 40
0.2113091308703788
 41
3.806340372002293
 42
6.919181903097281
  0
LWPOLYLINE
  5
B9
330
8F
100
AcDbEntity
  8
AM_9
100
AcDbPolyline
 90
        3
 70
     0
 43
0.0
 10
-2.097306852020492
 20
-0.2602304684431209
 10
-2.106555487434385
 20
-0.2616913382589203
 10
-2.129966863658589
 20
-0.2683525194984375
  0
LINE
  5
BA
330
8F
100
AcDbEntity
  8
AM_9
100
AcDbLine
 10
-1.829355249443534
 20
-0.1467991696449259
 30
0.0
 11
-1.817570816192591
 21
-0.1093750000000001
 31
0.0
  0
LWPOLYLINE
  5
BB
330
8F
100
AcDbEntity
  8
AM_9
100
AcDbPolyline
 90
        3
 70
     0
 43
0.0
 10
-1.849257790638864
 20
-0.2000409996967266
 10
-1.835519759809892
 20
-0.1643083897258505
 10
-1.829355249443534
 20
-0.1467991696449259
  0
LINE
  5
BC
330
8F
100
AcDbEntity
  8
AM_9
100
AcDbLine
 10
-1.856997430727514
 20
-0.2187500000000001
 30
0.0
 11
-1.849257790638864
 21
-0.2000409996967266
 31
0.0
  0
LINE
  5
BD
330
8F
100
AcDbEntity
  8
AM_9
100
AcDbLine
 10
-1.84925791272083
 20
0.2000413016192557
 30
0.0
 11
-1.856997430727514
 21
0.2187499999999999
 31
0.0
  0
LWPOLYLINE
  5
BE
330
8F
100
AcDbEntity
  8
AM_9
100
AcDbPolyline
 90
        3
 70
     0
 43
0.0
 10
-1.829281332158082
 20
0.1465820592679457
 10
-1.835430466176514
 20
0.1640624999999999
 10
-1.84925791272083
 20
0.2000413016192557
  0
LINE
  5
BF
330
8F
100
AcDbEntity
  8
AM_9
100
AcDbLine
 10
-1.817570816192591
 20
0.1093749999999999
 30
0.0
 11
-1.829281332158082
 21
0.1465820592679457
 31
0.0
  0
LINE
  5
C0
330
8F
100
AcDbEntity
  8
AM_9
100
AcDbLine
 10
-2.282636808726827
 20
-0.1204089378707286
 30
0.0
 11
-2.283722253716539
 21
-0.1230967854582223
 31
0.0
  0
LINE
  5
C1
330
8F
100
AcDbEntity
  8
AM_9
100
AcDbLine
 10
-2.094711479122206
 20
-0.2425790968238377
 30
0.0
 11
-2.074848100956248
 21
-0.193392142543456
 31
0.0
  0
ELLIPSE
  5
C2
330
8F
100
AcDbEntity
  8
AM_9
100
AcDbEllipse
 10
-2.196708501786095
 20
-0.2013892028241863
 30
0.0
 11
-0.1019970226638863
 21
0.04118989399964779
 31
0.0
210
0.0
220
0.0
230
1.0
 40
0.2113091308703476
 41
2.365689151970807
 42
6.283185307179586
  0
LWPOLYLINE
  5
C3
330
8F
100
AcDbEntity
  8
AM_9
100
AcDbPolyline
 90
        4
 70
     0
 43
0.0
 10
-2.282641538381847
 20
-0.1204206514110939
 10
-2.282780704366376
 20
-0.1208367673933812
 10
-2.282203120409249
 20
-0.1245107513506023
 10
-2.280294654739913
 20
-0.1273642150533289
  0
LWPOLYLINE
  5
C4
330
8F
100
AcDbEntity
  8
AM_9
100
AcDbPolyline
 90
        5
 70
     0
 43
0.0
 10
-2.07484715675476
 20
-0.1933898041312626
 10
-2.074940492885912
 20
-0.1936098952159724
 10
-2.07815602983855
 20
-0.1971856748420371
 10
-2.084174393081333
 20
-0.1994144431868155
 10
-2.091038363661776
 20
-0.1999999999699529
  0
LWPOLYLINE
  5
C5
330
8F
100
AcDbEntity
  8
AM_9
100
AcDbPolyline
 90
        3
 70
     0
 43
0.0
 10
-2.184335494874214
 20
-0.1745741884610188
 10
-2.156946419500783
 20
-0.1876759562813858
 10
-2.12032716183644
 20
-0.2099962668917053
  0
LWPOLYLINE
  5
C6
330
8F
100
AcDbEntity
  8
AM_9
100
AcDbPolyline
 90
        3
 70
     0
 43
0.0
 10
-2.271502007874938
 20
-0.151074129835757
 10
-2.242297400375414
 20
-0.1564222384464442
 10
-2.21362690143312
 20
-0.1639312493177431
  0
LWPOLYLINE
  5
C7
330
8F
100
AcDbEntity
  8
AM_9
100
AcDbPolyline
 90
        3
 70
     0
 43
0.0
 10
-2.12032716183644
 20
-0.2099962668917053
 10
-2.103353479502917
 20
-0.2163479371246913
 10
-2.087215222318734
 20
-0.2258378743019629
  0
LWPOLYLINE
  5
C8
330
8F
100
AcDbEntity
  8
AM_9
100
AcDbPolyline
 90
        4
 70
     0
 43
0.0
 10
-2.308412888219432
 20
-0.141958509815605
 10
-2.304537768773383
 20
-0.1420496512545706
 10
-2.290048853658633
 20
-0.1441228263802214
 10
-2.271502007874938
 20
-0.151074129835757
  0
ELLIPSE
  5
C9
330
8F
100
AcDbEntity
  8
AM_9
100
AcDbEllipse
 10
-2.196708501786094
 20
-0.2013892028241883
 30
0.0
 11
-0.1303939210191749
 21
0.05265753494273395
 31
0.0
210
0.0
220
0.0
230
1.0
 40
0.2113091308703517
 41
3.814164134970078
 42
4.695491533954584
  0
ELLIPSE
  5
CA
330
8F
100
AcDbEntity
  8
AM_9
100
AcDbEllipse
 10
-2.196708501786092
 20
-0.2013892028241888
 30
0.0
 11
-0.1303939210191775
 21
0.05265753494273475
 31
0.0
210
0.0
220
0.0
230
1.0
 40
0.2113091308703455
 41
-1.271482605274985
 42
-0.672571481380289
  0
LINE
  5
CB
330
8F
100
AcDbEntity
  8
AM_9
100
AcDbLine
 10
-2.093493599675461
 20
-0.2813919000363599
 30
0.0
 11
-2.105515129857268
 21
-0.2711532636537956
 31
0.0
  0
ELLIPSE
  5
CC
330
8F
100
AcDbEntity
  8
AM_9
100
AcDbEllipse
 10
-2.215008409324626
 20
-0.2467045921760224
 30
0.0
 11
-0.1303939210191731
 21
0.05265753494273229
 31
0.0
210
0.0
220
0.0
230
1.0
 40
0.2113091308703511
 41
2.800469246484367
 42
3.607080702195138
  0
LWPOLYLINE
  5
CD
330
8F
100
AcDbEntity
  8
AM_9
100
AcDbPolyline
 90
        3
 70
     0
 43
0.0
 10
-2.115606759559026
 20
-0.3055458577949631
 10
-2.106156560672718
 20
-0.3064767622622302
 10
-2.095850359605757
 20
-0.3055458577949631
  0
LWPOLYLINE
  5
CE
330
8F
100
AcDbEntity
  8
AM_9
100
AcDbPolyline
 90
        8
 70
     0
 43
0.0
 10
-2.130018193304335
 20
-0.3266417991264722
 10
-2.126253775744301
 20
-0.3228593116242414
 10
-2.119355243601991
 20
-0.3170972105590581
 10
-2.112570429267989
 20
-0.3126205243359917
 10
-2.106289065288113
 20
-0.3093597163299729
 10
-2.100826402129337
 20
-0.307152640176647
 10
-2.096367587256238
 20
-0.305777426449809
 10
-2.093998944445943
 20
-0.3052112900945482
  0
LWPOLYLINE
  5
CF
330
8F
100
AcDbEntity
  8
AM_9
100
AcDbPolyline
 90
        3
 70
     0
 43
0.0
 10
-2.342588283296916
 20
-0.2049561374822047
 10
-2.342323686026476
 20
-0.2053568615059314
 10
-2.341691925614927
 20
-0.2063491458730684
  0
ELLIPSE
  5
D0
330
8F
100
AcDbEntity
  8
AM_9
100
AcDbEllipse
 10
-2.196708501786099
 20
-0.20138920282419
 30
0.0
 11
-0.1303939210191927
 21
0.05265753494270799
 31
0.0
210
0.0
220
0.0
230
1.0
 40
0.2113091308704539
 41
-4.092379306815618
 42
-3.764628581859283
  0
LINE
  5
D1
330
8F
100
AcDbEntity
  8
AM_9
100
AcDbLine
 10
-2.077550452067223
 20
-0.2602304684431305
 30
0.0
 11
-2.097306852020492
 21
-0.2602304684431209
 31
0.0
  0
ELLIPSE
  5
D2
330
8F
100
AcDbEntity
  8
AM_9
100
AcDbEllipse
 10
-2.196708501786095
 20
-0.2013892028241865
 30
0.0
 11
-0.1303939210191753
 21
0.05265753494273567
 31
0.0
210
0.0
220
0.0
230
1.0
 40
0.2113091308703486
 41
2.800469246484373
 42
3.607080702195122
  0
LINE
  5
D3
330
8F
100
AcDbEntity
  8
AM_9
100
AcDbLine
 10
-2.087215222318734
 20
-0.2258378743019629
 30
0.0
 11
-2.075193692136927
 21
-0.2360765106845277
 31
0.0
  0
LWPOLYLINE
  5
D4
330
8F
100
AcDbEntity
  8
AM_9
100
AcDbPolyline
 90
       17
 70
     0
 43
0.0
 10
-2.081523266106836
 20
-0.1790373738501779
 10
-2.089490731183029
 20
-0.1733931390117467
 10
-2.100246804617211
 20
-0.1670729780242511
 10
-2.112889856139655
 20
-0.1606047421316795
 10
-2.127780279285496
 20
-0.1538031670974777
 10
-2.143682156092376
 20
-0.1472336073736393
 10
-2.161043125914095
 20
-0.1407130262602576
 10
-2.178398603044339
 20
-0.1347930597680667
 10
-2.196256314628628
 20
-0.1293028157827817
 10
-2.213086076128703
 20
-0.1247141396218192
 10
-2.229402820029407
 20
-0.1208880884981781
 10
-2.243801870889241
 20
-0.1181545989145989
 10
-2.256734223754989
 20
-0.1164278875396128
 10
-2.267093951914689
 20
-0.1158549073091554
 10
-2.275204126731386
 20
-0.1164156227038168
 10
-2.280380767922228
 20
-0.1180609686233502
 10
-2.282641538381847
 20
-0.1204206514110939
  0
LINE
  5
D5
330
8F
100
AcDbEntity
  8
AM_9
100
AcDbLine
 10
-2.126092366290797
 20
0.1999999999999999
 30
0.0
 11
-2.13
 21
0.1999618223531549
 31
0.0
  0
ELLIPSE
  5
D6
330
8F
100
AcDbEntity
  8
AM_9
100
AcDbEllipse
 10
-2.126092366291333
 20
-0.0000000000000858
 30
0.0
 11
1.224646799147879E-17
 21
0.2000000000000858
 31
0.0
210
0.0
220
0.0
230
1.0
 40
0.4999999999999393
 41
0.0
 42
0.0390862885942441
  0
LWPOLYLINE
  5
D7
330
8F
100
AcDbEntity
  8
AM_9
100
AcDbPolyline
 90
        4
 70
     0
 43
0.0
 10
-2.081523266106837
 20
-0.1790373738501784
 10
-2.076568605634769
 20
-0.1842628795203941
 10
-2.074460721168026
 20
-0.1891729979031393
 10
-2.07484715675476
 20
-0.1933898041312626
  0
LINE
  5
D8
330
8F
100
AcDbEntity
  8
AM_9
100
AcDbLine
 10
-1.998894885109957
 20
0.1999999999999999
 30
0.0
 11
-2.126092366290797
 21
0.1999999999999999
 31
0.0
  0
LINE
  5
D9
330
8F
100
AcDbEntity
  8
AM_9
100
AcDbLine
 10
-2.091186147888683
 20
-0.2
 30
0.0
 11
-1.998894885109957
 21
-0.2
 31
0.0
  0
LWPOLYLINE
  5
DA
330
8F
100
AcDbEntity
  8
AM_9
100
AcDbPolyline
 90
        5
 70
     0
 43
0.0
 10
-2.091038363661776
 20
-0.1999999999699529
 10
-2.092525480901079
 20
-0.1999786710855128
 10
-2.103399081377828
 20
-0.1988321115509053
 10
-2.11579740309181
 20
-0.1961649429984259
 10
-2.129989723695204
 20
-0.1921403875019762
  0
LINE
  5
DB
330
8F
100
AcDbEntity
  8
AM_9
100
AcDbLine
 10
-1.844634110060854
 20
0.1999999999999999
 30
0.0
 11
-1.912292344731513
 21
0.1999999999999999
 31
0.0
  0
LINE
  5
DC
330
8F
100
AcDbEntity
  8
AM_9
100
AcDbLine
 10
-1.912292344731513
 20
-0.2
 30
0.0
 11
-1.844634110060854
 21
-0.2
 31
0.0
  0
LINE
  5
DD
330
8F
100
AcDbEntity
  8
AM_9
100
AcDbLine
 10
-2.054189799113957
 20
0.2187499999999999
 30
0.0
 11
-1.856997430727514
 21
0.2187499999999999
 31
0.0
  0
LWPOLYLINE
  5
DE
330
8F
100
AcDbEntity
  8
AM_9
100
AcDbPolyline
 90
        3
 70
     0
 43
0.0
 10
-2.09361641364888
 20
0.1093749999999999
 10
-2.075756763664957
 20
0.1640624999999999
 10
-2.054189799113957
 20
0.2187499999999999
  0
LWPOLYLINE
  5
DF
330
8F
100
AcDbEntity
  8
AM_9
100
AcDbPolyline
 90
        3
 70
     0
 43
0.0
 10
-2.117337484806572
 20
-0.0000000000000001
 10
-2.107383277377297
 20
0.0544416102741495
 10
-2.09361641364888
 20
0.1093749999999999
  0
LWPOLYLINE
  5
E0
330
8F
100
AcDbEntity
  8
AM_9
100
AcDbPolyline
 90
        3
 70
     0
 43
0.0
 10
-2.007013873270437
 20
0.1093749999999999
 10
-2.02487352325436
 20
0.0546874999999999
 10
-2.04644048780536
 20
-0.0000000000000001
  0
LWPOLYLINE
  5
E1
330
8F
100
AcDbEntity
  8
AM_9
100
AcDbPolyline
 90
        3
 70
     0
 43
0.0
 10
-1.983292802112745
 20
0.2187499999999999
 10
-1.99324700954202
 20
0.1643083897258503
 10
-2.007013873270437
 20
0.1093749999999999
  0
LINE
  5
E2
330
8F
100
AcDbEntity
  8
AM_9
100
AcDbLine
 10
-2.117337484806572
 20
-0.0000000000000001
 30
0.0
 11
-2.04644048780536
 21
-0.0000000000000001
 31
0.0
  0
LWPOLYLINE
  5
E3
330
8F
100
AcDbEntity
  8
AM_9
100
AcDbPolyline
 90
        3
 70
     0
 43
0.0
 10
-2.09361641364888
 20
-0.109375
 10
-2.107330606511264
 20
-0.0546875
 10
-2.117337484806572
 20
-0.0000000000000001
  0
LWPOLYLINE
  5
E4
330
8F
100
AcDbEntity
  8
AM_9
100
AcDbPolyline
 90
        3
 70
     0
 43
0.0
 10
-2.054189799113957
 20
-0.2187500000000001
 10
-2.075667470031579
 20
-0.1643083897258504
 10
-2.09361641364888
 20
-0.109375
  0
LINE
  5
E5
330
8F
100
AcDbEntity
  8
AM_9
100
AcDbLine
 10
-2.054189799113957
 20
-0.2187500000000001
 30
0.0
 11
-1.856997430727514
 21
-0.2187500000000001
 31
0.0
  0
LWPOLYLINE
  5
E6
330
8F
100
AcDbEntity
  8
AM_9
100
AcDbPolyline
 90
        3
 70
     0
 43
0.0
 10
-2.007013873270437
 20
-0.109375
 10
-1.993299680408052
 20
-0.1640625
 10
-1.983292802112745
 20
-0.2187500000000001
  0
LWPOLYLINE
  5
E7
330
8F
100
AcDbEntity
  8
AM_9
100
AcDbPolyline
 90
        3
 70
     0
 43
0.0
 10
-2.04644048780536
 20
-0.0000000000000001
 10
-2.024962816887738
 20
-0.0544416102741496
 10
-2.007013873270437
 20
-0.109375
  0
LINE
  5
E8
330
8F
100
AcDbEntity
  8
AM_9
100
AcDbLine
 10
-1.674089492438451
 20
0.1853871066562612
 30
0.0
 11
-1.842903955567095
 21
0.1914799701694893
 31
0.0
  0
LINE
  5
E9
330
8F
100
AcDbEntity
  8
AM_9
100
AcDbLine
 10
-1.842903955567095
 20
-0.1914799701694894
 30
0.0
 11
-1.674089492438451
 21
-0.1853871066562613
 31
0.0
  0
LINE
  5
EA
330
8F
100
AcDbEntity
  8
AM_9
100
AcDbLine
 10
-1.608522755156301
 20
0.1319978794387896
 30
0.0
 11
-1.62223688221537
 21
0.1513925839218323
 31
0.0
  0
LINE
  5
EB
330
8F
100
AcDbEntity
  8
AM_9
100
AcDbLine
 10
-1.62223688221537
 20
-0.1513925839218325
 30
0.0
 11
-1.608522755156301
 21
-0.1319978794387897
 31
0.0
  0
ELLIPSE
  5
EC
330
8F
100
AcDbEntity
  8
AM_9
100
AcDbEllipse
 10
-1.998894885109958
 20
0.0
 30
0.0
 11
1.339457436567417E-17
 21
0.2187499999999998
 31
0.0
210
0.0
220
0.0
230
1.0
 40
0.4999999999999994
 41
0.0
 42
6.283185307179586
  0
ELLIPSE
  5
ED
330
8F
100
AcDbEntity
  8
AM_9
100
AcDbEllipse
 10
-1.998894885109957
 20
0.0000000000000002
 30
0.0
 11
1.224646799147355E-17
 21
0.2000000000000002
 31
0.0
210
0.0
220
0.0
230
1.0
 40
0.4999999999999988
 41
0.0
 42
6.283185307179586
  0
ELLIPSE
  5
EE
330
8F
100
AcDbEntity
  8
AM_9
100
AcDbEllipse
 10
-1.912292344731513
 20
-0.0000000000000057
 30
0.0
 11
1.339457436567377E-17
 21
0.2187499999999933
 31
0.0
210
0.0
220
0.0
230
1.0
 40
0.5000000000000041
 41
0.0
 42
6.283185307179586
  0
ELLIPSE
  5
EF
330
8F
100
AcDbEntity
  8
AM_9
100
AcDbEllipse
 10
-1.912292344731514
 20
0.0000000000000001
 30
0.0
 11
1.224646799147354E-17
 21
0.2000000000000001
 31
0.0
210
0.0
220
0.0
230
1.0
 40
0.5000000000000001
 41
0.0
 42
6.283185307179586
  0
ELLIPSE
  5
F0
330
8F
100
AcDbEntity
  8
AM_9
100
AcDbEllipse
 10
-1.844634110060845
 20
-0.000000000000002
 30
0.0
 11
1.224646799147364E-17
 21
0.2000000000000018
 31
0.0
210
0.0
220
0.0
230
1.0
 40
0.4999999999999915
 41
0.0
 42
6.283185307179586
  0
ELLIPSE
  5
F1
330
8F
100
AcDbEntity
  8
AM_9
100
AcDbEllipse
 10
-1.844634110059828
 20
-0.0000000000002328
 30
0.0
 11
1.172668097678644E-17
 21
0.1915112338504621
 31
0.0
210
0.0
220
0.0
230
1.0
 40
0.4999999999999587
 41
0.0
 42
6.283185307179586
  0
ELLIPSE
  5
F2
330
8F
100
AcDbEntity
  8
AM_9
100
AcDbEllipse
 10
-1.675762243571612
 20
0.0000000000000007
 30
0.0
 11
1.135353457964650E-17
 21
0.1854172907249874
 31
0.0
210
0.0
220
0.0
230
1.0
 40
0.4999999999999999
 41
0.0
 42
6.283185307179586
  0
ELLIPSE
  5
F3
330
8F
100
AcDbEntity
  8
AM_9
100
AcDbEllipse
 10
-1.655191052983008
 20
0.0
 30
0.0
 11
9.899048221688848E-18
 21
0.1616637258772236
 31
0.0
210
0.0
220
0.0
230
1.0
 40
0.4999999999999973
 41
0.0
 42
6.283185307179586
  0
LINE
  5
F5
330
8F
100
AcDbEntity
  8
AM_4
100
AcDbLine
 10
-2.210038414392094
 20
-0.5093460834378319
 30
0.0
 11
-2.149426664124831
 21
-0.4540180898723598
 31
0.0
  0
LINE
  5
F6
330
8F
100
AcDbEntity
  8
AM_4
100
AcDbLine
 10
-2.406161831424706
 20
-0.3503396289636352
 30
0.0
 11
-2.400968409133975
 21
-0.4322420068738781
 31
0.0
  0
ELLIPSE
  5
F7
330
8F
100
AcDbEntity
  8
AM_4
100
AcDbEllipse
 10
-2.30467795626344
 20
-0.4687500000000001
 30
0.0
 11
-0.09595382955731768
 21
0.03874944547499708
 31
0.0
210
0.0
220
0.0
230
1.0
 40
0.211309130870343
 41
0.1009830038932567
 42
3.040609649696539
  0
LINE
  5
F8
330
8F
100
AcDbEntity
  8
AM_4
100
AcDbLine
 10
-2.352691889479729
 20
-0.151074129835757
 30
0.0
 11
-2.364013462703605
 21
-0.1791093260592887
 31
0.0
  0
LWPOLYLINE
  5
F9
330
8F
100
AcDbEntity
  8
AM_4
100
AcDbPolyline
 90
        9
 70
     0
 43
0.0
 10
-2.38213731811748
 20
-0.3179230459640588
 10
-2.383586215387274
 20
-0.3183872639251271
 10
-2.389214252591513
 20
-0.3207993868474786
 10
-2.394288006226483
 20
-0.3240712559193342
 10
-2.398726159730661
 20
-0.3282675065978962
 10
-2.402309867615525
 20
-0.3333343432553498
 10
-2.404970349483933
 20
-0.3396130441054312
 10
-2.406133699060719
 20
-0.3459374699799345
 10
-2.406129741528197
 20
-0.3507944273485551
  0
LWPOLYLINE
  5
FA
330
8F
100
AcDbEntity
  8
AM_4
100
AcDbPolyline
 90
        9
 70
     0
 43
0.0
 10
-2.149697430766972
 20
-0.4542624406402095
 10
-2.148231447584237
 20
-0.4528685770124755
 10
-2.144350823579598
 20
-0.4480626691741241
 10
-2.141247595809423
 20
-0.4418650735250929
 10
-2.139684592732972
 20
-0.435510862211325
 10
-2.139472787147056
 20
-0.4293713935418924
 10
-2.14036310578322
 20
-0.4235934609222364
 10
-2.142164202639925
 20
-0.418170877115801
 10
-2.143688961351314
 20
-0.414954118773104
  0
ELLIPSE
  5
FB
330
8F
100
AcDbEntity
  8
AM_4
100
AcDbEllipse
 10
-2.276684294065958
 20
-0.399430321788976
 30
0.0
 11
-0.1290248947933268
 21
0.05210467522533573
 31
0.0
210
0.0
220
0.0
230
1.0
 40
0.2113091308703515
 41
0.1045665397752762
 42
3.037870331134948
  0
LWPOLYLINE
  5
FC
330
8F
100
AcDbEntity
  8
AM_4
100
AcDbPolyline
 90
        3
 70
     0
 43
0.0
 10
-2.143586195019141
 20
-0.2987675689889718
 10
-2.130052929518751
 20
-0.3030606061861223
 10
-2.130001698000719
 20
-0.3030733067052191
  0
ELLIPSE
  5
FD
330
8F
100
AcDbEntity
  8
AM_4
100
AcDbEllipse
 10
-2.215008409324627
 20
-0.2467045921760211
 30
0.0
 11
-0.1303939210191744
 21
0.05265753494273377
 31
0.0
210
0.0
220
0.0
230
1.0
 40
0.2113091308703473
 41
1.711945269609632
 42
2.362948756062378
  0
LWPOLYLINE
  5
FE
330
8F
100
AcDbEntity
  8
AM_4
100
AcDbPolyline
 90
        4
 70
     0
 43
0.0
 10
-2.364013462703605
 20
-0.1791093260592887
 10
-2.34913634466053
 20
-0.1988355121406939
 10
-2.332707072417855
 20
-0.2156330920108724
 10
-2.327210053806512
 20
-0.2201680623457971
  0
LWPOLYLINE
  5
FF
330
8F
100
AcDbEntity
  8
AM_4
100
AcDbPolyline
 90
        3
 70
     0
 43
0.0
 10
-2.327210053806512
 20
-0.2201680623457971
 10
-2.314269532207884
 20
-0.2290462109660021
 10
-2.294394171265568
 20
-0.2389369657326275
  0
LINE
  5
100
330
8F
100
AcDbEntity
  8
AM_4
100
AcDbLine
 10
-2.129966863658589
 20
-0.2683525194984375
 30
0.0
 11
-2.131530545708163
 21
-0.2689146070947223
 31
0.0
  0
LINE
  5
101
330
8F
100
AcDbEntity
  8
AM_4
100
AcDbLine
 10
-2.283722253716539
 20
-0.1230967854582223
 30
0.0
 11
-2.298705524449982
 21
-0.1601993088245384
 31
0.0
  0
ELLIPSE
  5
102
330
8F
100
AcDbEntity
  8
AM_4
100
AcDbEllipse
 10
-2.196708501786094
 20
-0.201389202824188
 30
0.0
 11
-0.1019970226638876
 21
0.04118989399964965
 31
0.0
210
0.0
220
0.0
230
1.0
 40
0.2113091308703491
 41
0.0
 42
2.365689151970846
  0
LWPOLYLINE
  5
103
330
8F
100
AcDbEntity
  8
AM_4
100
AcDbPolyline
 90
        4
 70
     0
 43
0.0
 10
-2.352691889479729
 20
-0.1510741298357571
 10
-2.3360760474922
 20
-0.145877822676052
 10
-2.320021434837067
 20
-0.1427138007556462
 10
-2.308412888219432
 20
-0.141958509815605
  0
LWPOLYLINE
  5
104
330
8F
100
AcDbEntity
  8
AM_4
100
AcDbPolyline
 90
        6
 70
     0
 43
0.0
 10
-2.282706925046023
 20
-0.2099962668917053
 10
-2.293016061403351
 20
-0.1943573015029059
 10
-2.304359888237562
 20
-0.1805491420332303
 10
-2.317073862814369
 20
-0.1688997677199809
 10
-2.330969789004061
 20
-0.1598729403210871
 10
-2.352691889479729
 20
-0.151074129835757
  0
LINE
  5
105
330
8F
100
AcDbEntity
  8
AM_4
100
AcDbLine
 10
-2.307083034676603
 20
-0.1419585097669023
 30
0.0
 11
-2.308521511324757
 21
-0.1419585097669023
 31
0.0
  0
ELLIPSE
  5
106
330
8F
100
AcDbEntity
  8
AM_4
100
AcDbEllipse
 10
-2.196708501786079
 20
-0.201389202824196
 30
0.0
 11
-0.1303939210191931
 21
0.05265753494274096
 31
0.0
210
0.0
220
0.0
230
1.0
 40
0.21130913087035
 41
5.610613825799319
 42
7.795870906981394
  0
ELLIPSE
  5
107
330
8F
100
AcDbEntity
  8
AM_4
100
AcDbEllipse
 10
-2.215008409324628
 20
-0.246704592176021
 30
0.0
 11
-0.130393921019174
 21
0.05265753494273399
 31
0.0
210
0.0
220
0.0
230
1.0
 40
0.2113091308703476
 41
0.635996595917689
 42
1.512685599801937
  0
LWPOLYLINE
  5
108
330
8F
100
AcDbEntity
  8
AM_4
100
AcDbPolyline
 90
       12
 70
     0
 43
0.0
 10
-2.143579414330871
 20
-0.4151628714484857
 10
-2.145716475064231
 20
-0.4106524929631533
 10
-2.148049932053665
 20
-0.4043564879283491
 10
-2.150017091504673
 20
-0.3967536249004808
 10
-2.151265631819501
 20
-0.3880422428008116
 10
-2.151498357070595
 20
-0.3785640194911243
 10
-2.150530383789049
 20
-0.3687001993929139
 10
-2.147982979957687
 20
-0.3577884812143667
 10
-2.144028547532483
 20
-0.3474986611216092
 10
-2.138905970135151
 20
-0.3381442369468958
 10
-2.132883055458417
 20
-0.3298961464072122
 10
-2.130018193304335
 20
-0.3266417991264722
  0
LWPOLYLINE
  5
109
330
8F
100
AcDbEntity
  8
AM_4
100
AcDbPolyline
 90
       18
 70
     0
 43
0.0
 10
-2.341691925614927
 20
-0.2063491458730684
 10
-2.34020297164532
 20
-0.2088990891844962
 10
-2.337842104777958
 20
-0.213675857418725
 10
-2.335483849553646
 20
-0.2197768334086487
 10
-2.333441607907549
 20
-0.2271981899884157
 10
-2.332068244821709
 20
-0.2357677137873869
 10
-2.331673945207507
 20
-0.2451585736602722
 10
-2.33246090125908
 20
-0.2549892573061749
 10
-2.334813757962553
 20
-0.2659554013681491
 10
-2.338599460968727
 20
-0.2763494256126855
 10
-2.34358535175117
 20
-0.2858355546886173
 10
-2.349507734511224
 20
-0.2942335110567081
 10
-2.356076559145618
 20
-0.3014313461654802
 10
-2.362961027261246
 20
-0.3073601641233539
 10
-2.369783030502086
 20
-0.3120010422362088
 10
-2.376149629478764
 20
-0.3154117138812878
 10
-2.38173136822998
 20
-0.3177431912693089
 10
-2.383030091873912
 20
-0.3182001175757717
  0
ELLIPSE
  5
10A
330
8F
100
AcDbEntity
  8
AM_4
100
AcDbEllipse
 10
-2.266009312588612
 20
-0.3729962569746643
 30
0.0
 11
-0.1235034625625957
 21
0.04987493162723568
 31
0.0
210
0.0
220
0.0
230
1.0
 40
0.2113091308703495
 41
6.042290731675565
 42
9.668457401057527
  0
ELLIPSE
  5
10B
330
8F
100
AcDbEntity
  8
AM_4
100
AcDbEllipse
 10
-2.196708501786094
 20
-0.2013892028241921
 30
0.0
 11
-0.1303939210191723
 21
0.05265753494273128
 31
0.0
210
0.0
220
0.0
230
1.0
 40
0.2113091308703291
 41
1.711945269609626
 42
2.190806000364018
  0
LWPOLYLINE
  5
10C
330
8F
100
AcDbEntity
  8
AM_4
100
AcDbPolyline
 90
        3
 70
     0
 43
0.0
 10
-2.131530545708163
 20
-0.2689146070947222
 10
-2.159592845677007
 20
-0.251275593729576
 10
-2.189380950514993
 20
-0.2360765106845275
  0
LINE
  5
10D
330
8F
100
AcDbEntity
  8
AM_4
100
AcDbLine
 10
-2.189380950514993
 20
-0.2360765106845275
 30
0.0
 11
-2.215389759540977
 21
-0.2258378743019627
 31
0.0
  0
LWPOLYLINE
  5
10E
330
8F
100
AcDbEntity
  8
AM_4
100
AcDbPolyline
 90
        3
 70
     0
 43
0.0
 10
-2.215389759540977
 20
-0.2258378743019627
 10
-2.238379794233218
 20
-0.2189176876709014
 10
-2.282706925046023
 20
-0.2099962668917053
  0
LINE
  5
10F
330
8F
100
AcDbEntity
  8
AM_4
100
AcDbLine
 10
-2.282706925046023
 20
-0.2099962668917053
 30
0.0
 11
-2.294394171265567
 21
-0.2389369657326276
 31
0.0
  0
LWPOLYLINE
  5
110
330
8F
100
AcDbEntity
  8
AM_4
100
AcDbPolyline
 90
        3
 70
     0
 43
0.0
 10
-2.294394171265567
 20
-0.2389369657326276
 10
-2.264714350031765
 20
-0.2560939713202353
 10
-2.23368966707951
 20
-0.2711532636537956
  0
LINE
  5
111
330
8F
100
AcDbEntity
  8
AM_4
100
AcDbLine
 10
-2.23368966707951
 20
-0.2711532636537956
 30
0.0
 11
-2.207680858053527
 21
-0.2813919000363599
 31
0.0
  0
LWPOLYLINE
  5
112
330
8F
100
AcDbEntity
  8
AM_4
100
AcDbPolyline
 90
        3
 70
     0
 43
0.0
 10
-2.207680858053527
 20
-0.2813919000363599
 10
-2.176030307199503
 20
-0.2911775952746243
 10
-2.143586195019141
 20
-0.2987675689889718
  0
LINE
  5
113
330
8F
100
AcDbEntity
  8
AM_4
100
AcDbLine
 10
-2.131530545708163
 20
-0.2689146070947222
 30
0.0
 11
-2.143586195019141
 21
-0.2987675689889718
 31
0.0
  0
ARC
  5
114
330
8F
100
AcDbEntity
  8
AM_4
100
AcDbCircle
 10
-2.126092366290797
 20
0.0000000000000002
 30
0.0
 40
0.1999999999999998
100
AcDbArc
 50
91.11952583277834
 51
219.6380599385532
  0
LWPOLYLINE
  5
115
330
8F
100
AcDbEntity
  8
AM_4
100
AcDbPolyline
 90
       10
 70
     0
 43
0.0
 10
-2.280294654739913
 20
-0.1273642150533289
 10
-2.278631416600126
 20
-0.1291842652280562
 10
-2.272353869332462
 20
-0.1344729790611519
 10
-2.263196270269741
 20
-0.1405186270901959
 10
-2.25190008110773
 20
-0.1468270783017121
 10
-2.23815892996698
 20
-0.1535654953592165
 10
-2.223097440227499
 20
-0.1601799433259583
 10
-2.206304017407839
 20
-0.1668493358980661
 10
-2.188904681253843
 20
-0.1731116383367606
 10
-2.17066146647474
 20
-0.1790373738502115
  0
ELLIPSE
  5
116
330
8F
100
AcDbEntity
  8
AM_4
100
AcDbEllipse
 10
-2.126092366290797
 20
-0.0000000000000001
 30
0.0
 11
1.224646799147353E-17
 21
0.2
 31
0.0
210
0.0
220
0.0
230
1.0
 40
0.5000000000000006
 41
0.0390862885996137
 42
2.679646633022831
  0
LINE
  5
117
330
8F
100
AcDbEntity
  8
AM_4
100
AcDbLine
 10
-2.129989723695204
 20
-0.1921403875019762
 30
0.0
 11
-2.170661466474757
 21
-0.1790373738501784
 31
0.0
  0
ENDBLK
  5
92
330
8F
100
AcDbEntity
  8
0
100
AcDbBlockEnd
  0
BLOCK
  5
11A
330
118
100
AcDbEntity
  8
0
100
AcDbBlockBegin
  2
3_123343_0_in_125370_4
 70
     2
 10
0.0
 20
0.0
 30
0.0
  3
3_123343_0_in_125370_4
  1

  0
ATTDEF
  5
11C
330
118
100
AcDbEntity
  8
AM_6
100
AcDbText
 10
6.573772989122471
 20
0.8469999999999999
 30
0.0
 40
0.5
  1
Set Screw Insert Inch Bore
100
AcDbAttributeDefinition
  3

  2
NN
 70
     8
280
     0
  0
ATTDEF
  5
11D
330
118
100
AcDbEntity
  8
AM_6
100
AcDbText
 10
6.573772989122471
 20
0.3469999999999999
 30
0.0
 40
0.5
  1
SC Normal Duty Bearing Inserts
100
AcDbAttributeDefinition
  3

  2
NT
 70
     8
280
     0
  0
ATTDEF
  5
11E
330
118
100
AcDbEntity
  8
AM_6
100
AcDbText
 10
6.573772989122471
 20
-0.1530000000000001
 30
0.0
 40
0.5
  1
123343
100
AcDbAttributeDefinition
  3

  2
NB
 70
     8
280
     0
  0
ATTDEF
  5
11F
330
118
100
AcDbEntity
  8
AM_6
100
AcDbText
 10
6.573772989122471
 20
-0.6530000000000001
 30
0.0
 40
0.5
  1
$PN.
100
AcDbAttributeDefinition
  3

  2
NBSYN
 70
     8
280
     0
  0
ATTDEF
  5
120
330
118
100
AcDbEntity
  8
AM_6
100
AcDbText
 10
6.573772989122471
 20
-1.153
 30
0.0
 40
0.5
  1
123343
100
AcDbAttributeDefinition
  3

  2
LINA
 70
     8
280
     0
  0
ATTDEF
  5
121
330
118
100
AcDbEntity
  8
AM_6
100
AcDbText
 10
6.573772989122471
 20
-1.653
 30
0.0
 40
0.5
  1
208
100
AcDbAttributeDefinition
  3

  2
SERIES
 70
     8
280
     0
  0
ATTDEF
  5
122
330
118
100
AcDbEntity
  8
AM_6
100
AcDbText
 10
6.573772989122471
 20
-2.153
 30
0.0
 40
0.5
  1
1-5/8
100
AcDbAttributeDefinition
  3

  2
SS
 70
     8
280
     0
  0
ATTDEF
  5
123
330
118
100
AcDbEntity
  8
AM_6
100
AcDbText
 10
6.573772989122471
 20
-2.653
 30
0.0
 40
0.5
  1
123343
100
AcDbAttributeDefinition
  3

  2
PN
 70
     8
280
     0
  0
ATTDEF
  5
124
330
118
100
AcDbEntity
  8
AM_6
100
AcDbText
 10
6.573772989122471
 20
-3.153
 30
0.0
 40
0.5
  1
INS-SC-110
100
AcDbAttributeDefinition
  3

  2
DESCRIPTION
 70
     8
280
     0
  0
ATTDEF
  5
125
330
118
100
AcDbEntity
  8
AM_6
100
AcDbText
 10
6.573772989122471
 20
-3.653
 30
0.0
 40
0.5
  1
1.94
100
AcDbAttributeDefinition
  3

  2
A
 70
     8
280
     0
  0
ATTDEF
  5
126
330
118
100
AcDbEntity
  8
AM_6
100
AcDbText
 10
6.573772989122471
 20
-4.153
 30
0.0
 40
0.5
  1
0.87
100
AcDbAttributeDefinition
  3

  2
C
 70
     8
280
     0
  0
ATTDEF
  5
127
330
118
100
AcDbEntity
  8
AM_6
100
AcDbText
 10
6.573772989122471
 20
-4.653
 30
0.0
 40
0.5
  1
3.1496
100
AcDbAttributeDefinition
  3

  2
D
 70
     8
280
     0
  0
ATTDEF
  5
128
330
118
100
AcDbEntity
  8
AM_6
100
AcDbText
 10
6.573772989122471
 20
-5.153
 30
0.0
 40
0.5
  1
0.22
100
AcDbAttributeDefinition
  3

  2
J
 70
     8
280
     0
  0
ATTDEF
  5
129
330
118
100
AcDbEntity
  8
AM_6
100
AcDbText
 10
6.573772989122471
 20
-5.653
 30
0.0
 40
0.5
  1
2.05
100
AcDbAttributeDefinition
  3

  2
L
 70
     8
280
     0
  0
ATTDEF
  5
12A
330
118
100
AcDbEntity
  8
AM_6
100
AcDbText
 10
6.573772989122471
 20
-6.153
 30
0.0
 40
0.5
  1
5/16 - 24
100
AcDbAttributeDefinition
  3

  2
N
 70
     8
280
     0
  0
ATTDEF
  5
12B
330
118
100
AcDbEntity
  8
AM_6
100
AcDbText
 10
6.573772989122471
 20
-6.653
 30
0.0
 40
0.5
  1
0.75
100
AcDbAttributeDefinition
  3

  2
W
 70
     8
280
     0
  0
ATTDEF
  5
12C
330
118
100
AcDbEntity
  8
AM_6
100
AcDbText
 10
6.573772989122471
 20
-7.153
 30
0.0
 40
0.5
  1
1.19
100
AcDbAttributeDefinition
  3

  2
Y
 70
     8
280
     0
  0
ATTDEF
  5
12D
330
118
100
AcDbEntity
  8
AM_6
100
AcDbText
 10
6.573772989122471
 20
-7.653
 30
0.0
 40
0.5
  1
baldor
100
AcDbAttributeDefinition
  3

  2
COMPANY
 70
     8
280
     0
  0
ELLIPSE
  5
12E
330
118
100
AcDbEntity
  8
AM_9
100
AcDbEllipse
 10
0.340137726268247
 20
-0.8125
 30
0.0
 11
-2.318256390785939E-17
 21
-0.1262
 31
0.0
210
0.0
220
0.0
230
1.0
 40
0.9063077870366515
 41
4.222304537301364
 42
5.202473423468014
  0
LINE
  5
12F
330
118
100
AcDbEntity
  8
AM_9
100
AcDbLine
 10
0.3433490279020543
 20
-0.9387
 30
0.0
 11
0.4249514101428963
 21
-0.9387
 31
0.0
  0
LINE
  5
130
330
118
100
AcDbEntity
  8
AM_9
100
AcDbLine
 10
0.4249514101428963
 20
-0.6863
 30
0.0
 11
0.3433490279020543
 21
-0.6863
 31
0.0
  0
LWPOLYLINE
  5
131
330
118
100
AcDbEntity
  8
AM_9
100
AcDbPolyline
 90
        8
 70
     0
 43
0.0
 10
0.3433843526018762
 20
-0.9386999997626836
 10
0.331788071491746
 20
-0.9380424833081499
 10
0.3127486132198287
 20
-0.9341797925238825
 10
0.2944358651088571
 20
-0.9269313429610868
 10
0.2773182405180272
 20
-0.9165452101681568
 10
0.2617973625549526
 20
-0.9031393608562263
 10
0.2484911362939123
 20
-0.887203045939818
 10
0.2392245313247188
 20
-0.8719023896471102
  0
LWPOLYLINE
  5
132
330
118
100
AcDbEntity
  8
AM_9
100
AcDbPolyline
 90
        8
 70
     0
 43
0.0
 10
0.3433703226956043
 20
-0.6863000002373164
 10
0.3548789929225556
 20
-0.6869575166918505
 10
0.3734230081077979
 20
-0.6908202074761177
 10
0.3908434967458802
 20
-0.6980686570389136
 10
0.4067780091552914
 20
-0.708454789831844
 10
0.4209353793508245
 20
-0.7218606391437746
 10
0.4328609168855778
 20
-0.7377969540601828
 10
0.4410509212117754
 20
-0.7530976103528907
  0
ELLIPSE
  5
133
330
118
100
AcDbEntity
  8
AM_9
100
AcDbEllipse
 10
0.3401377262682463
 20
-0.8125
 30
0.0
 11
-2.318256390785943E-17
 21
-0.1262000000000002
 31
0.0
210
0.0
220
0.0
230
1.0
 40
0.9063077870366522
 41
1.08071188371158
 42
2.060880769878213
  0
LINE
  5
134
330
118
100
AcDbEntity
  8
AM_9
100
AcDbLine
 10
0.8048344263858168
 20
-0.7530976103528924
 30
0.0
 11
0.8048344263858168
 21
-0.8719023896471076
 31
0.0
  0
LINE
  5
135
330
118
100
AcDbEntity
  8
AM_9
100
AcDbLine
 10
0.8125
 20
-0.9387
 30
0.0
 11
1.005520699443008
 21
-0.9387
 31
0.0
  0
LINE
  5
136
330
118
100
AcDbEntity
  8
AM_9
100
AcDbLine
 10
1.005520699443008
 20
-0.6863
 30
0.0
 11
0.8125
 21
-0.6863
 31
0.0
  0
LINE
  5
137
330
118
100
AcDbEntity
  8
AM_9
100
AcDbLine
 10
1.005520699443008
 20
-0.9387
 30
0.0
 11
1.025
 21
-0.9581793005569921
 31
0.0
  0
LINE
  5
138
330
118
100
AcDbEntity
  8
AM_9
100
AcDbLine
 10
1.025
 20
-0.666820699443008
 30
0.0
 11
1.005520699443008
 21
-0.6863
 31
0.0
  0
LINE
  5
139
330
118
100
AcDbEntity
  8
AM_9
100
AcDbLine
 10
1.005520699443008
 20
-0.6863
 30
0.0
 11
1.005520699443008
 21
-0.9387
 31
0.0
  0
LWPOLYLINE
  5
13A
330
118
100
AcDbEntity
  8
AM_9
100
AcDbPolyline
 90
        8
 70
     0
 43
0.0
 10
0.8048344263858168
 20
-0.7530976103528924
 10
0.803498055683774
 20
-0.7711048160519844
 10
0.8025842023938708
 20
-0.7904860958531456
 10
0.8022362379658874
 20
-0.8093434332144949
 10
0.8024098433424711
 20
-0.8282984194134602
 10
0.8030522518893646
 20
-0.8458549547017511
 10
0.8040767670149978
 20
-0.8625144431760258
 10
0.8048344263858168
 20
-0.8719023896471076
  0
LWPOLYLINE
  5
13B
330
118
100
AcDbEntity
  8
AM_9
100
AcDbPolyline
 90
        8
 70
     0
 43
0.0
 10
0.8048344263858168
 20
-0.8719023896471076
 10
0.8063290418088366
 20
-0.889550072448744
 10
0.8080057941693863
 20
-0.9054707126535062
 10
0.8095869242206024
 20
-0.9183356172041124
 10
0.8109809819910133
 20
-0.9285187189685705
 10
0.8119555490705287
 20
-0.935145846511097
 10
0.8124570280687
 20
-0.938423041808179
 10
0.8124999999999906
 20
-0.9386999999999398
  0
LWPOLYLINE
  5
13C
330
118
100
AcDbEntity
  8
AM_9
100
AcDbPolyline
 90
        9
 70
     0
 43
0.0
 10
0.2392245313247187
 20
-0.8719023896471102
 10
0.2350406797616335
 20
-0.8644609423590224
 10
0.227345398623684
 20
-0.8456229137945278
 10
0.2230736464072207
 20
-0.8256426125042157
 10
0.2224445850951382
 20
-0.8070020029339849
 10
0.2249069477002486
 20
-0.7885255216574403
 10
0.2301581351752332
 20
-0.7713368618582392
 10
0.2379514194399203
 20
-0.7552328800780224
 10
0.2392245313247187
 20
-0.7530976103528898
  0
LWPOLYLINE
  5
13D
330
118
100
AcDbEntity
  8
AM_9
100
AcDbPolyline
 90
        8
 70
     0
 43
0.0
 10
0.2392245313247188
 20
-0.7530976103528898
 10
0.2503736297334269
 20
-0.7352157035572566
 10
0.2641338517122223
 20
-0.7195292873464918
 10
0.2800944480647483
 20
-0.7065079813842747
 10
0.2977282993161712
 20
-0.6964812810314283
 10
0.3164755909835458
 20
-0.6897936948770262
 10
0.3357858084555993
 20
-0.6865769581918206
 10
0.3433703226956043
 20
-0.6863000002373164
  0
LWPOLYLINE
  5
13E
330
118
100
AcDbEntity
  8
AM_9
100
AcDbPolyline
 90
        7
 70
     0
 43
0.0
 10
0.4410509212117753
 20
-0.7530976103528907
 10
0.4497355816135162
 20
-0.773609322907216
 10
0.4542226334394636
 20
-0.7926497195742855
 10
0.4557760343304931
 20
-0.812346629608565
 10
0.454494598182505
 20
-0.8305504470320529
 10
0.4506982697990458
 20
-0.848242416710615
 10
0.4410509212117753
 20
-0.8719023896471093
  0
LWPOLYLINE
  5
13F
330
118
100
AcDbEntity
  8
AM_9
100
AcDbPolyline
 90
        8
 70
     0
 43
0.0
 10
0.4410509212117754
 20
-0.8719023896471093
 10
0.4311854513687117
 20
-0.8897842964427425
 10
0.4188221567043373
 20
-0.9054707126535075
 10
0.4042150623064552
 20
-0.9184920186157247
 10
0.3877424465114447
 20
-0.9285187189685714
 10
0.3698252581241652
 20
-0.9352063051229736
 10
0.3509325454272189
 20
-0.9384230418081794
 10
0.3433843526018762
 20
-0.9386999997626836
  0
LINE
  5
140
330
118
100
AcDbEntity
  8
AM_9
100
AcDbLine
 10
0.8125
 20
-1.149
 30
0.0
 11
0.8125
 21
-0.9386999999999999
 31
0.0
  0
LINE
  5
141
330
118
100
AcDbEntity
  8
AM_9
100
AcDbLine
 10
0.8125000000000001
 20
-0.6863000000000001
 30
0.0
 11
0.8125
 21
0.7089999999999997
 31
0.0
  0
LINE
  5
142
330
118
100
AcDbEntity
  8
AM_9
100
AcDbLine
 10
-0.8125
 20
0.7089999999999997
 30
0.0
 11
-0.8125
 21
-1.149
 31
0.0
  0
LWPOLYLINE
  5
143
330
118
100
AcDbEntity
  8
AM_9
100
AcDbPolyline
 90
        8
 70
     0
 43
0.0
 10
0.8124999999999906
 20
-0.6863000000000602
 10
0.8124048018151785
 20
-0.6869143638294596
 10
0.8118101883498724
 20
-0.690820207476117
 10
0.810774498012773
 20
-0.6979335274704516
 10
0.809354814502846
 20
-0.7084547898318422
 10
0.8077651686765341
 20
-0.7216443027266327
 10
0.8061081534587569
 20
-0.7377969540601803
 10
0.8048344263858167
 20
-0.7530976103528924
  0
LINE
  5
144
330
118
100
AcDbEntity
  8
AM_9
100
AcDbLine
 10
0.8125
 20
0.7089999999999997
 30
0.0
 11
0.8535
 21
0.7499999999999999
 31
0.0
  0
LINE
  5
145
330
118
100
AcDbEntity
  8
AM_9
100
AcDbLine
 10
-0.8535
 20
0.7499999999999999
 30
0.0
 11
-0.8125
 21
0.7089999999999997
 31
0.0
  0
LINE
  5
146
330
118
100
AcDbEntity
  8
AM_9
100
AcDbLine
 10
-0.8125
 20
-1.149
 30
0.0
 11
-0.8535
 21
-1.19
 31
0.0
  0
LINE
  5
147
330
118
100
AcDbEntity
  8
AM_9
100
AcDbLine
 10
0.8535
 20
-1.19
 30
0.0
 11
0.8125
 21
-1.149
 31
0.0
  0
LINE
  5
148
330
118
100
AcDbEntity
  8
AM_9
100
AcDbLine
 10
1.024999999999999
 20
0.435
 30
0.0
 11
1.024999999999999
 21
0.6260000000000001
 31
0.0
  0
LINE
  5
149
330
118
100
AcDbEntity
  8
AM_9
100
AcDbLine
 10
-1.024999999999999
 20
0.6260000000000001
 30
0.0
 11
-1.024999999999999
 21
0.435
 31
0.0
  0
LWPOLYLINE
  5
14A
330
118
100
AcDbEntity
  8
AM_9
100
AcDbPolyline
 90
       39
 70
     0
 43
0.0
 10
0.4275995592815832
 20
-0.6669691821600464
 10
0.4079416321390921
 20
-0.6698695297863883
 10
0.3888273561044444
 20
-0.67631210391323
 10
0.3709328640766227
 20
-0.6860190267592975
 10
0.3545664435697722
 20
-0.698645010942042
 10
0.3394588325960994
 20
-0.7146708166515868
 10
0.3268253747343178
 20
-0.7330120294088804
 10
0.3164402744665056
 20
-0.7545549151991746
 10
0.3094183209518493
 20
-0.7775663455333436
 10
0.3058891372281863
 20
-0.8026200050620462
 10
0.3063154425723864
 20
-0.8279421026254264
 10
0.3108673430249875
 20
-0.8533263353730571
 10
0.3194041100468916
 20
-0.8775440082872361
 10
0.3316540082437869
 20
-0.8996919303001615
 10
0.3472786967924644
 20
-0.9192578457041041
 10
0.3651185513906368
 20
-0.934945089601883
 10
0.3851318632332872
 20
-0.9469940594030872
 10
0.4052517827064921
 20
-0.9544418172962621
 10
0.4260691366329379
 20
-0.9579383981470371
 10
0.4456876159574324
 20
-0.9574110228782176
 10
0.4647598716088672
 20
-0.9532620935730186
 10
0.4825260512471
 20
-0.9457244580912653
 10
0.4988414148782703
 20
-0.9350882701776976
 10
0.513874512501491
 20
-0.9210941477139774
 10
0.5267109313504469
 20
-0.9045682077260031
 10
0.5377089073993991
 20
-0.8846914626821395
 10
0.5458349712973879
 20
-0.8630296176078154
 10
0.5511468475489523
 20
-0.8388253435877777
 10
0.5530681263403717
 20
-0.8139207029691913
 10
0.551438778757446
 20
-0.7882540383078661
 10
0.5462147143115421
 20
-0.7632700687182167
 10
0.5374083028097669
 20
-0.73966707959229
 10
0.5252064905605082
 20
-0.7181994457299203
 10
0.5102386877062806
 20
-0.7000878219951007
 10
0.4925661359141442
 20
-0.6853336672343706
 10
0.4738021334105185
 20
-0.6751118241100638
 10
0.4535199767323221
 20
-0.6688284450176325
 10
0.4406498318819031
 20
-0.6670909995573033
 10
0.4275995528559907
 20
-0.6669691750064606
  0
LINE
  5
14B
330
118
100
AcDbEntity
  8
AM_9
100
AcDbLine
 10
1.025
 20
-0.6259999999999998
 30
0.0
 11
1.025
 21
-0.435
 31
0.0
  0
LINE
  5
14C
330
118
100
AcDbEntity
  8
AM_9
100
AcDbLine
 10
-1.025
 20
-0.435
 30
0.0
 11
-1.025
 21
-0.6259999999999998
 31
0.0
  0
LINE
  5
14D
330
118
100
AcDbEntity
  8
AM_9
100
AcDbLine
 10
1.020398004032454
 20
-0.7100798237472677
 30
0.0
 11
1.019556206657229
 21
-0.7201103035132748
 31
0.0
  0
LINE
  5
14E
330
118
100
AcDbEntity
  8
AM_9
100
AcDbLine
 10
1.501466666666667
 20
-0.2640000000000001
 30
0.0
 11
1.501466666666667
 21
-0.176
 31
0.0
  0
LINE
  5
14F
330
118
100
AcDbEntity
  8
AM_9
100
AcDbLine
 10
-1.501466666666667
 20
-0.176
 30
0.0
 11
-1.501466666666667
 21
-0.2640000000000001
 31
0.0
  0
LINE
  5
150
330
118
100
AcDbEntity
  8
AM_9
100
AcDbLine
 10
-1.480022851174941
 20
-0.4349999999999997
 30
0.0
 11
1.480022851174941
 21
-0.4349999999999997
 31
0.0
  0
ARC
  5
151
330
118
100
AcDbEntity
  8
AM_9
100
AcDbCircle
 10
1.48002285117494
 20
-0.3909999999999994
 30
0.0
 40
0.0440000000000003
100
AcDbArc
 50
270.0
 51
345.201407842652
  0
ARC
  5
152
330
118
100
AcDbEntity
  8
AM_9
100
AcDbCircle
 10
-1.480022851174941
 20
-0.3909999999999999
 30
0.0
 40
0.044
100
AcDbArc
 50
194.7985921573474
 51
270.0
  0
LINE
  5
153
330
118
100
AcDbEntity
  8
AM_9
100
AcDbLine
 10
-1.48002285117494
 20
0.435
 30
0.0
 11
1.48002285117494
 21
0.435
 31
0.0
  0
ARC
  5
154
330
118
100
AcDbEntity
  8
AM_9
100
AcDbCircle
 10
1.48002285117494
 20
0.3910000000000003
 30
0.0
 40
0.0439999999999998
100
AcDbArc
 50
14.79859014623451
 51
90.0
  0
ARC
  5
155
330
118
100
AcDbEntity
  8
AM_9
100
AcDbCircle
 10
-1.480022851174941
 20
0.3910000000000006
 30
0.0
 40
0.0439999999999994
100
AcDbArc
 50
90.0
 51
165.2014098537659
  0
ARC
  5
156
330
118
100
AcDbEntity
  8
AM_9
100
AcDbCircle
 10
0.0000000000002101
 20
-0.000000000000047
 30
0.0
 40
1.574799999999785
100
AcDbArc
 50
345.2014078426521
 51
350.349348593101
  0
ARC
  5
157
330
118
100
AcDbEntity
  8
AM_9
100
AcDbCircle
 10
0.0000000001421296
 20
0.0000000000307593
 30
0.0
 40
1.574800000145127
100
AcDbArc
 50
189.6506514071368
 51
194.7985921571102
  0
LINE
  5
158
330
118
100
AcDbEntity
  8
AM_9
100
AcDbLine
 10
-1.522563356434588
 20
-0.4022385680689833
 30
0.0
 11
1.522563356434738
 21
-0.4022385680689833
 31
0.0
  0
LINE
  5
159
330
118
100
AcDbEntity
  8
AM_9
100
AcDbLine
 10
-1.552513780937075
 20
-0.264
 30
0.0
 11
1.552513780937226
 21
-0.264
 31
0.0
  0
ARC
  5
15A
330
118
100
AcDbEntity
  8
AM_9
100
AcDbCircle
 10
-0.0000000000000038
 20
-0.0000000000000008
 30
0.0
 40
1.574800000000003
100
AcDbArc
 50
353.5832052965275
 51
14.79859210115698
  0
ARC
  5
15B
330
118
100
AcDbEntity
  8
AM_9
100
AcDbCircle
 10
0.0000000000040401
 20
-0.0000000000002955
 30
0.0
 40
1.57480000000399
100
AcDbArc
 50
165.2014078988703
 51
186.4167947034454
  0
LINE
  5
15C
330
118
100
AcDbEntity
  8
AM_9
100
AcDbLine
 10
-1.564934196699665
 20
-0.1759999999999997
 30
0.0
 11
1.564934196699657
 21
-0.1759999999999997
 31
0.0
  0
LINE
  5
15D
330
118
100
AcDbEntity
  8
AM_9
100
AcDbLine
 10
-1.522563356829226
 20
0.4022385665757888
 30
0.0
 11
1.522563356829217
 21
0.4022385665757888
 31
0.0
  0
CIRCLE
  5
15E
330
118
100
AcDbEntity
  8
AM_9
100
AcDbCircle
 10
-0.0000000000000001
 20
0.2200000000000001
 30
0.0
 40
0.0250757575757546
  0
LINE
  5
160
330
118
100
AcDbEntity
  8
AM_5
100
AcDbLine
 10
0.8125
 20
-0.65625
 30
0.0
 11
1.025
 21
-0.65625
 31
0.0
  0
LINE
  5
161
330
118
100
AcDbEntity
  8
AM_5
100
AcDbLine
 10
0.8125
 20
-0.96875
 30
0.0
 11
1.025
 21
-0.96875
 31
0.0
  0
ELLIPSE
  5
162
330
118
100
AcDbEntity
  8
AM_9
100
AcDbEllipse
 10
0.4249514101428952
 20
-0.8124999999999956
 30
0.0
 11
-2.318256390785858E-17
 21
-0.1261999999999955
 31
0.0
210
0.0
220
0.0
230
1.0
 40
0.906307787036649
 41
0.0
 42
6.283185307179586
  0
CIRCLE
  5
163
330
118
100
AcDbEntity
  8
AM_9
100
AcDbCircle
 10
-0.0000000000000001
 20
0.2200000000000001
 30
0.0
 40
0.104166666666662
  0
LINE
  5
166
330
118
100
AcDbEntity
  8
AM_7
100
AcDbLine
 10
0.0
 20
-1.287
 30
0.0
 11
0.0
 21
0.8469999999999999
 31
0.0
  0
LINE
  5
167
330
118
100
AcDbEntity
  8
AM_7
100
AcDbLine
 10
1.048610013095867
 20
-0.8125
 30
0.0
 11
0.7617451127329571
 21
-0.8125
 31
0.0
  0
LINE
  5
168
330
118
100
AcDbEntity
  8
AM_7
100
AcDbLine
 10
-0.1093749999999949
 20
0.2199999999999999
 30
0.0
 11
0.1093749999999949
 21
0.2199999999999999
 31
0.0
  0
LINE
  5
169
330
118
100
AcDbEntity
  8
AM_4
100
AcDbLine
 10
1.024999999999999
 20
0.6260000000000001
 30
0.0
 11
1.024999999999999
 21
0.709
 31
0.0
  0
LINE
  5
16A
330
118
100
AcDbEntity
  8
AM_4
100
AcDbLine
 10
-1.024999999999999
 20
0.709
 30
0.0
 11
-1.024999999999999
 21
0.6260000000000001
 31
0.0
  0
LINE
  5
16B
330
118
100
AcDbEntity
  8
AM_4
100
AcDbLine
 10
-1.025
 20
0.709
 30
0.0
 11
1.025
 21
0.709
 31
0.0
  0
LINE
  5
16C
330
118
100
AcDbEntity
  8
AM_4
100
AcDbLine
 10
-0.9839999999999998
 20
0.7499999999999999
 30
0.0
 11
0.9839999999999998
 21
0.7499999999999999
 31
0.0
  0
LINE
  5
16D
330
118
100
AcDbEntity
  8
AM_4
100
AcDbLine
 10
-0.9839999999999998
 20
0.7499999999999999
 30
0.0
 11
-1.025
 21
0.709
 31
0.0
  0
LINE
  5
16E
330
118
100
AcDbEntity
  8
AM_4
100
AcDbLine
 10
1.025
 20
0.709
 30
0.0
 11
0.9839999999999998
 21
0.7499999999999999
 31
0.0
  0
LINE
  5
16F
330
118
100
AcDbEntity
  8
AM_4
100
AcDbLine
 10
-0.9839999999999998
 20
-1.19
 30
0.0
 11
0.9839999999999998
 21
-1.19
 31
0.0
  0
LINE
  5
170
330
118
100
AcDbEntity
  8
AM_4
100
AcDbLine
 10
0.9839999999999998
 20
-1.19
 30
0.0
 11
1.025
 21
-1.149
 31
0.0
  0
LINE
  5
171
330
118
100
AcDbEntity
  8
AM_4
100
AcDbLine
 10
-1.025
 20
-1.149
 30
0.0
 11
-0.9839999999999998
 21
-1.19
 31
0.0
  0
LINE
  5
172
330
118
100
AcDbEntity
  8
AM_4
100
AcDbLine
 10
-1.025
 20
-1.149
 30
0.0
 11
1.025
 21
-1.149
 31
0.0
  0
LWPOLYLINE
  5
173
330
118
100
AcDbEntity
  8
AM_4
100
AcDbPolyline
 90
        7
 70
     0
 43
0.0
 10
1.020247733536849
 20
-0.711798129483285
 10
1.021576275573361
 20
-0.6974794116059303
 10
1.022843693607953
 20
-0.6852872985601263
 10
1.023980451456635
 20
-0.6752505598627906
 10
1.024747249072286
 20
-0.6688657219940329
 10
1.024999351497016
 20
-0.6668259109052824
 10
1.024999999999993
 20
-0.6668206994430609
  0
LINE
  5
174
330
118
100
AcDbEntity
  8
AM_4
100
AcDbLine
 10
1.025
 20
-1.149
 30
0.0
 11
1.025
 21
-0.9581793005569921
 31
0.0
  0
LINE
  5
175
330
118
100
AcDbEntity
  8
AM_4
100
AcDbLine
 10
1.025
 20
-0.6668206994430081
 30
0.0
 11
1.025
 21
-0.6259999999999998
 31
0.0
  0
LINE
  5
176
330
118
100
AcDbEntity
  8
AM_4
100
AcDbLine
 10
-1.025
 20
-0.6259999999999998
 30
0.0
 11
-1.025
 21
-1.149
 31
0.0
  0
LWPOLYLINE
  5
177
330
118
100
AcDbEntity
  8
AM_4
100
AcDbPolyline
 90
       16
 70
     0
 43
0.0
 10
1.024999999999973
 20
-0.9581793005567754
 10
1.024976298469001
 20
-0.9579887141699828
 10
1.024619710174366
 20
-0.9550915600493703
 10
1.023844026620378
 20
-0.9485830002044605
 10
1.022764687047735
 20
-0.9389862943239196
 10
1.021442965051538
 20
-0.9261638431295552
 10
1.020001469124752
 20
-0.910321653916198
 10
1.018581090681412
 20
-0.8917205457038043
 10
1.017319320525189
 20
-0.8704415165008237
 10
1.016384016862419
 20
-0.8471095754871287
 10
1.015906997823399
 20
-0.8223916698190472
 10
1.015972636360615
 20
-0.7967155235477027
 10
1.016586324885621
 20
-0.7717003937199638
 10
1.017714882639329
 20
-0.7471430394819233
 10
1.018896003512407
 20
-0.7288021417262059
 10
1.020247733536849
 20
-0.711798129483285
  0
ENDBLK
  5
11B
330
118
100
AcDbEntity
  8
0
100
AcDbBlockEnd
  0
BLOCK
  5
17A
330
178
100
AcDbEntity
  8
0
100
AcDbBlockBegin
  2
4_125370H_0_in_125370_4
 70
     2
 10
0.0
 20
0.0
 30
0.0
  3
4_125370H_0_in_125370_4
  1

  0
ATTDEF
  5
17C
330
178
100
AcDbEntity
  8
AM_6
100
AcDbText
 10
8.328759999999999
 20
0.8965
 30
0.0
 40
0.5
  1
NSTU-SC -Inch - HOUSING
100
AcDbAttributeDefinition
  3

  2
NN
 70
     8
280
     0
  0
ATTDEF
  5
17D
330
178
100
AcDbEntity
  8
AM_6
100
AcDbText
 10
8.328759999999999
 20
0.3965
 30
0.0
 40
0.5
  1
SC Take-Up Bearings -Narrow Slot -(Normal Duty)
100
AcDbAttributeDefinition
  3

  2
NT
 70
     8
280
     0
  0
ATTDEF
  5
17E
330
178
100
AcDbEntity
  8
AM_6
100
AcDbText
 10
8.328759999999999
 20
-0.1035
 30
0.0
 40
0.5
  1
125370H
100
AcDbAttributeDefinition
  3

  2
NB
 70
     8
280
     0
  0
ATTDEF
  5
17F
330
178
100
AcDbEntity
  8
AM_6
100
AcDbText
 10
8.328759999999999
 20
-0.6035
 30
0.0
 40
0.5
  1
$PN.H
100
AcDbAttributeDefinition
  3

  2
NBSYN
 70
     8
280
     0
  0
ATTDEF
  5
180
330
178
100
AcDbEntity
  8
AM_6
100
AcDbText
 10
8.328759999999999
 20
-1.1035
 30
0.0
 40
0.5
  1
125370
100
AcDbAttributeDefinition
  3

  2
LINA
 70
     8
280
     0
  0
ATTDEF
  5
181
330
178
100
AcDbEntity
  8
AM_6
100
AcDbText
 10
8.328759999999999
 20
-1.6035
 30
0.0
 40
0.5
  1
208
100
AcDbAttributeDefinition
  3

  2
SERIES
 70
     8
280
     0
  0
ATTDEF
  5
182
330
178
100
AcDbEntity
  8
AM_6
100
AcDbText
 10
8.328759999999999
 20
-2.1035
 30
0.0
 40
0.5
  1
1-5/8
100
AcDbAttributeDefinition
  3

  2
SS
 70
     8
280
     0
  0
ATTDEF
  5
183
330
178
100
AcDbEntity
  8
AM_6
100
AcDbText
 10
8.328759999999999
 20
-2.6035
 30
0.0
 40
0.5
  1
125370
100
AcDbAttributeDefinition
  3

  2
PN
 70
     8
280
     0
  0
ATTDEF
  5
184
330
178
100
AcDbEntity
  8
AM_6
100
AcDbText
 10
8.328759999999999
 20
-3.1035
 30
0.0
 40
0.5
  1
NSTU-SC-110
100
AcDbAttributeDefinition
  3

  2
DESCRIPTION
 70
     8
280
     0
  0
ATTDEF
  5
185
330
178
100
AcDbEntity
  8
AM_6
100
AcDbText
 10
8.328759999999999
 20
-3.6035
 30
0.0
 40
0.5
  1
4.6
100
AcDbAttributeDefinition
  3

  2
W
 70
     8
280
     0
  0
ATTDEF
  5
186
330
178
100
AcDbEntity
  8
AM_6
100
AcDbText
 10
8.328759999999999
 20
-4.1035
 30
0.0
 40
0.5
  1
NS400
100
AcDbAttributeDefinition
  3

  2
FS
 70
     8
280
     0
  0
ATTDEF
  5
187
330
178
100
AcDbEntity
  8
AM_6
100
AcDbText
 10
8.328759999999999
 20
-4.6035
 30
0.0
 40
0.5
  1
1.94
100
AcDbAttributeDefinition
  3

  2
A
 70
     8
280
     0
  0
ATTDEF
  5
188
330
178
100
AcDbEntity
  8
AM_6
100
AcDbText
 10
8.328759999999999
 20
-5.1035
 30
0.0
 40
0.5
  1
5.38
100
AcDbAttributeDefinition
  3

  2
B
 70
     8
280
     0
  0
ATTDEF
  5
189
330
178
100
AcDbEntity
  8
AM_6
100
AcDbText
 10
8.328759999999999
 20
-5.6035
 30
0.0
 40
0.5
  1
0.313
100
AcDbAttributeDefinition
  3

  2
C
 70
     8
280
     0
  0
ATTDEF
  5
18A
330
178
100
AcDbEntity
  8
AM_6
100
AcDbText
 10
8.328759999999999
 20
-6.1035
 30
0.0
 40
0.5
  1
3.00
100
AcDbAttributeDefinition
  3

  2
D
 70
     8
280
     0
  0
ATTDEF
  5
18B
330
178
100
AcDbEntity
  8
AM_6
100
AcDbText
 10
8.328759999999999
 20
-6.6035
 30
0.0
 40
0.5
  1
3.25
100
AcDbAttributeDefinition
  3

  2
E
 70
     8
280
     0
  0
ATTDEF
  5
18C
330
178
100
AcDbEntity
  8
AM_6
100
AcDbText
 10
8.328759999999999
 20
-7.1035
 30
0.0
 40
0.5
  1
7/8
100
AcDbAttributeDefinition
  3

  2
F
 70
     8
280
     0
  0
ATTDEF
  5
18D
330
178
100
AcDbEntity
  8
AM_6
100
AcDbText
 10
8.328759999999999
 20
-7.6035
 30
0.0
 40
0.5
  1
0.66
100
AcDbAttributeDefinition
  3

  2
G
 70
     8
280
     0
  0
ATTDEF
  5
18E
330
178
100
AcDbEntity
  8
AM_6
100
AcDbText
 10
8.328759999999999
 20
-8.1035
 30
0.0
 40
0.5
  1
1.16
100
AcDbAttributeDefinition
  3

  2
H
 70
     8
280
     0
  0
ATTDEF
  5
18F
330
178
100
AcDbEntity
  8
AM_6
100
AcDbText
 10
8.328759999999999
 20
-8.6035
 30
0.0
 40
0.5
  1
1.63
100
AcDbAttributeDefinition
  3

  2
J
 70
     8
280
     0
  0
ATTDEF
  5
190
330
178
100
AcDbEntity
  8
AM_6
100
AcDbText
 10
8.328759999999999
 20
-9.1035
 30
0.0
 40
0.5
  1
2.05
100
AcDbAttributeDefinition
  3

  2
L
 70
     8
280
     0
  0
ATTDEF
  5
191
330
178
100
AcDbEntity
  8
AM_6
100
AcDbText
 10
8.328759999999999
 20
-9.6035
 30
0.0
 40
0.5
  1
4.015 / 3.985
100
AcDbAttributeDefinition
  3

  2
M
 70
     8
280
     0
  0
ATTDEF
  5
192
330
178
100
AcDbEntity
  8
AM_6
100
AcDbText
 10
8.328759999999999
 20
-10.1035
 30
0.0
 40
0.5
  1
4.75
100
AcDbAttributeDefinition
  3

  2
N
 70
     8
280
     0
  0
ATTDEF
  5
193
330
178
100
AcDbEntity
  8
AM_6
100
AcDbText
 10
8.328759999999999
 20
-10.6035
 30
0.0
 40
0.5
  1
0.38
100
AcDbAttributeDefinition
  3

  2
P
 70
     8
280
     0
  0
ATTDEF
  5
194
330
178
100
AcDbEntity
  8
AM_6
100
AcDbText
 10
8.328759999999999
 20
-11.1035
 30
0.0
 40
0.5
  1
0.75
100
AcDbAttributeDefinition
  3

  2
R
 70
     8
280
     0
  0
ATTDEF
  5
195
330
178
100
AcDbEntity
  8
AM_6
100
AcDbText
 10
8.328759999999999
 20
-11.6035
 30
0.0
 40
0.5
  1
1.19
100
AcDbAttributeDefinition
  3

  2
S
 70
     8
280
     0
  0
ATTDEF
  5
196
330
178
100
AcDbEntity
  8
AM_6
100
AcDbText
 10
8.328759999999999
 20
-12.1035
 30
0.0
 40
0.5
  1
4005
100
AcDbAttributeDefinition
  3

  2
CAPS
 70
     8
280
     0
  0
ATTDEF
  5
197
330
178
100
AcDbEntity
  8
AM_6
100
AcDbText
 10
8.328759999999999
 20
-12.6035
 30
0.0
 40
0.5
  1
7332
100
AcDbAttributeDefinition
  3

  2
CAPD
 70
     8
280
     0
  0
ATTDEF
  5
198
330
178
100
AcDbEntity
  8
AM_6
100
AcDbText
 10
8.328759999999999
 20
-13.1035
 30
0.0
 40
0.5
  1
baldor
100
AcDbAttributeDefinition
  3

  2
COMPANY
 70
     8
280
     0
  0
LINE
  5
199
330
178
100
AcDbEntity
  8
AM_9
100
AcDbLine
 10
-1.844629007667953
 20
-0.15
 30
0.0
 11
-1.541525218736301
 21
-0.15
 31
0.0
  0
LINE
  5
19A
330
178
100
AcDbEntity
  8
AM_9
100
AcDbLine
 10
-1.541525218736301
 20
0.1499999999999999
 30
0.0
 11
-1.844604708629392
 21
0.1499999999999999
 31
0.0
  0
LWPOLYLINE
  5
19B
330
178
100
AcDbEntity
  8
AM_9
100
AcDbPolyline
 90
       10
 70
     0
 43
0.0
 10
-1.766947514284603
 20
-0.0316540038265213
 10
-1.76725282798709
 20
-0.0340830971418054
 10
-1.771510783857275
 20
-0.0577311478869177
 10
-1.778054892513849
 20
-0.080399943862942
 10
-1.78630080119674
 20
-0.1002276527153211
 10
-1.79641234295655
 20
-0.1177451103509718
 10
-1.807501018803721
 20
-0.1315085821315085
 10
-1.819810153502872
 20
-0.1418797242963596
 10
-1.832246131501101
 20
-0.147980460331982
 10
-1.844637432564593
 20
-0.1499999998528136
  0
LWPOLYLINE
  5
19C
330
178
100
AcDbEntity
  8
AM_9
100
AcDbPolyline
 90
        4
 70
     0
 43
0.0
 10
-1.766690137900597
 20
0.0294440716292386
 10
-1.76554175804575
 20
0.016121740382638
 10
-1.765197601129641
 20
-0.0087481073086186
 10
-1.766947514284603
 20
-0.0316540038265213
  0
LWPOLYLINE
  5
19D
330
178
100
AcDbEntity
  8
AM_9
100
AcDbPolyline
 90
       10
 70
     0
 43
0.0
 10
-1.844641224723773
 20
0.1499999993250797
 10
-1.835979347011464
 20
0.1490118281313888
 10
-1.823504526355799
 20
0.144128487676394
 10
-1.811048565155904
 20
0.1349774359581117
 10
-1.799686016905324
 20
0.122313671678124
 10
-1.789158386277595
 20
0.1057812961127491
 10
-1.780389903435631
 20
0.0867180254586561
 10
-1.773217828933481
 20
0.0646057570781304
 10
-1.768300477909636
 20
0.0412981785498477
 10
-1.766690137900597
 20
0.0294440716292386
  0
LWPOLYLINE
  5
19E
330
178
100
AcDbEntity
  8
AM_9
100
AcDbPolyline
 90
       12
 70
     0
 43
0.0
 10
-1.844637432564593
 20
-0.1499999998528136
 10
-1.845148626927682
 20
-0.1499964673003112
 10
-1.857394382863947
 20
-0.1477661125389432
 10
-1.869376567488109
 20
-0.141235396404352
 10
-1.880121446747438
 20
-0.130953940862587
 10
-1.889988479668215
 20
-0.1166284056213908
 10
-1.898228743417891
 20
-0.0994166399607138
 10
-1.90512282626342
 20
-0.0788498638778718
 10
-1.910157917578438
 20
-0.0566277069358853
 10
-1.913524367868544
 20
-0.0321257786197653
 10
-1.914666674539743
 20
-0.0162517572759354
 10
-1.915054347023478
 20
-0.0000000000000001
  0
LINE
  5
19F
330
178
100
AcDbEntity
  8
AM_9
100
AcDbLine
 10
2.779999999999999
 20
0.4374999999999999
 30
0.0
 11
2.78
 21
0.815
 31
0.0
  0
LINE
  5
1A0
330
178
100
AcDbEntity
  8
AM_9
100
AcDbLine
 10
2.4
 20
0.815
 30
0.0
 11
2.4
 21
0.4374999999999999
 31
0.0
  0
LINE
  5
1A1
330
178
100
AcDbEntity
  8
AM_9
100
AcDbLine
 10
2.78
 20
-0.815
 30
0.0
 11
2.78
 21
-0.4375
 31
0.0
  0
LINE
  5
1A2
330
178
100
AcDbEntity
  8
AM_9
100
AcDbLine
 10
2.4
 20
-0.4375
 30
0.0
 11
2.4
 21
-0.815
 31
0.0
  0
LINE
  5
1A3
330
178
100
AcDbEntity
  8
AM_9
100
AcDbLine
 10
2.09
 20
0.4375
 30
0.0
 11
2.09
 21
-0.4375
 31
0.0
  0
LINE
  5
1A4
330
178
100
AcDbEntity
  8
AM_9
100
AcDbLine
 10
2.7725289551474
 20
-0.4343075747292482
 30
0.0
 11
2.779999999957922
 21
-0.4374999999817263
 31
0.0
  0
LWPOLYLINE
  5
1A5
330
178
100
AcDbEntity
  8
AM_9
100
AcDbPolyline
 90
       23
 70
     0
 43
0.0
 10
2.4
 20
0.4375
 10
2.402363644030205
 20
0.4364786960226391
 10
2.409640336198768
 20
0.4334003441697912
 10
2.421115504538842
 20
0.428751936213902
 10
2.437028090717782
 20
0.4227370991874819
 10
2.45717276618975
 20
0.4158717639389368
 10
2.481431848440419
 20
0.4087704655831487
 10
2.509521755550933
 20
0.40222257250135
 10
2.525087696503876
 20
0.3994004740715735
 10
2.541237527318412
 20
0.3970944833940943
 10
2.571968178644008
 20
0.3945014532057067
 10
2.604377892488519
 20
0.3943513329410862
 10
2.632740799421123
 20
0.3964000831674441
 10
2.660695774855737
 20
0.4003799977302226
 10
2.686678303524212
 20
0.4057744994110887
 10
2.710822114978087
 20
0.4121944122228954
 10
2.733288687710617
 20
0.4193302970521337
 10
2.752354507186296
 20
0.42622205011438
 10
2.766771567915388
 20
0.4319194800229145
 10
2.772252447605871
 20
0.4341910322055229
 10
2.776311988137637
 20
0.4359110080323724
 10
2.7798780291814
 20
0.4374470436130667
 10
2.779999999957922
 20
0.4374999999817263
  0
LINE
  5
1A6
330
178
100
AcDbEntity
  8
AM_9
100
AcDbLine
 10
2.09
 20
-0.4375
 30
0.0
 11
2.4
 21
-0.4375
 31
0.0
  0
LINE
  5
1A7
330
178
100
AcDbEntity
  8
AM_9
100
AcDbLine
 10
2.779999999999999
 20
-0.4375
 30
0.0
 11
3.25
 21
-0.4375
 31
0.0
  0
LINE
  5
1A8
330
178
100
AcDbEntity
  8
AM_9
100
AcDbLine
 10
3.25
 20
0.4375
 30
0.0
 11
2.78
 21
0.4375
 31
0.0
  0
LINE
  5
1A9
330
178
100
AcDbEntity
  8
AM_9
100
AcDbLine
 10
2.4
 20
0.4375
 30
0.0
 11
2.09
 21
0.4375
 31
0.0
  0
LWPOLYLINE
  5
1AA
330
178
100
AcDbEntity
  8
AM_9
100
AcDbPolyline
 90
       23
 70
     0
 43
0.0
 10
2.779999999957922
 20
-0.4374999999817263
 10
2.778369014107484
 20
-0.4367941568700586
 10
2.772403499781197
 20
-0.4342548637982415
 10
2.761943517491277
 20
-0.4299660721583426
 10
2.747357724482931
 20
-0.4243438504967948
 10
2.7285889783805
 20
-0.4177477168442105
 10
2.705198664254667
 20
-0.4105812736183415
 10
2.677759086386524
 20
-0.4037423773192473
 10
2.647855620647321
 20
-0.3983133475550207
 10
2.631562066797565
 20
-0.3962762658627121
 10
2.614878391460193
 20
-0.3948736308765712
 10
2.58476893096015
 20
-0.3941238562727454
 10
2.553854906724466
 20
-0.3957432472802246
 10
2.526462015841218
 20
-0.3991783128264381
 10
2.500038058716592
 20
-0.4042269175592829
 10
2.475007062355172
 20
-0.4105235994534143
 10
2.452356472686628
 20
-0.4174350136383709
 10
2.432280586365519
 20
-0.4244781071353439
 10
2.416227789613639
 20
-0.4307006281659708
 10
2.405796833327489
 20
-0.4350138579541817
 10
2.402427990202502
 20
-0.43645058131146
 10
2.400493517647827
 20
-0.4372858983016651
 10
2.4
 20
-0.4375
  0
LINE
  5
1AB
330
178
100
AcDbEntity
  8
AM_9
100
AcDbLine
 10
2.779999999957922
 20
0.4374999999817263
 30
0.0
 11
2.772517532850464
 21
0.434302774338157
 31
0.0
  0
LWPOLYLINE
  5
1AC
330
178
100
AcDbEntity
  8
AM_9
100
AcDbPolyline
 90
       11
 70
     0
 43
0.0
 10
-1.915054347023478
 20
-0.0000000000000001
 10
-1.914148215770963
 20
0.0247905282765331
 10
-1.911339661302353
 20
0.0495810565530662
 10
-1.906834909854981
 20
0.0722889370869976
 10
-1.900456123066853
 20
0.0935713431618939
 10
-1.892665406062007
 20
0.1116759837798386
 10
-1.883181043103026
 20
0.1270895588999027
 10
-1.872724913260367
 20
0.138530133075696
 10
-1.860949405846347
 20
0.1463079523174977
 10
-1.848830110602716
 20
0.1497634454184409
 10
-1.844641224723773
 20
0.1499999993250797
  0
LINE
  5
1AD
330
178
100
AcDbEntity
  8
AM_9
100
AcDbLine
 10
0.5416666666666666
 20
-0.1878
 30
0.0
 11
0.5416666666666666
 21
0.6260000000000001
 31
0.0
  0
LINE
  5
1AE
330
178
100
AcDbEntity
  8
AM_9
100
AcDbLine
 10
-0.5416666666666666
 20
-0.1878
 30
0.0
 11
-0.5416666666666666
 21
0.6260000000000001
 31
0.0
  0
LINE
  5
1AF
330
178
100
AcDbEntity
  8
AM_9
100
AcDbLine
 10
1.5748
 20
-0.626
 30
0.0
 11
1.5748
 21
0.626
 31
0.0
  0
LINE
  5
1B0
330
178
100
AcDbEntity
  8
AM_9
100
AcDbLine
 10
-1.5748
 20
0.626
 30
0.0
 11
-1.5748
 21
-0.626
 31
0.0
  0
LINE
  5
1B1
330
178
100
AcDbEntity
  8
AM_9
100
AcDbLine
 10
0.5416666666666666
 20
-0.1878
 30
0.0
 11
-0.5416666666666666
 21
-0.1878
 31
0.0
  0
ELLIPSE
  5
1B2
330
178
100
AcDbEntity
  8
AM_9
100
AcDbEllipse
 10
-1.541525218736301
 20
-0.0000000000000002
 30
0.0
 11
-2.755455298081540E-17
 21
-0.1499999999999997
 31
0.0
210
0.0
220
0.0
230
1.0
 40
0.4999999999999991
 41
0.0
 42
6.283185307179586
  0
LINE
  5
1B3
330
178
100
AcDbEntity
  8
AM_7
100
AcDbLine
 10
1.59604
 20
0.0
 30
0.0
 11
3.32876
 21
0.0
 31
0.0
  0
LINE
  5
1B4
330
178
100
AcDbEntity
  8
AM_7
100
AcDbLine
 10
2.59
 20
0.8965
 30
0.0
 11
2.59
 21
-0.8965
 31
0.0
  0
LINE
  5
1B5
330
178
100
AcDbEntity
  8
AM_4
100
AcDbLine
 10
1.6748
 20
-0.626
 30
0.0
 11
1.6748
 21
-0.7106666666666666
 31
0.0
  0
ARC
  5
1B6
330
178
100
AcDbEntity
  8
AM_4
100
AcDbCircle
 10
1.779133333333333
 20
-0.7106666666666666
 30
0.0
 40
0.1043333333333334
100
AcDbArc
 50
180.0
 51
270.0
  0
LINE
  5
1B7
330
178
100
AcDbEntity
  8
AM_4
100
AcDbLine
 10
1.6748
 20
0.7106666666666666
 30
0.0
 11
1.6748
 21
0.626
 31
0.0
  0
ARC
  5
1B8
330
178
100
AcDbEntity
  8
AM_4
100
AcDbCircle
 10
1.779133333333333
 20
0.7106666666666666
 30
0.0
 40
0.1043333333333334
100
AcDbArc
 50
90.0
 51
180.0
  0
LINE
  5
1B9
330
178
100
AcDbEntity
  8
AM_4
100
AcDbLine
 10
3.25
 20
0.7106666666666669
 30
0.0
 11
3.25
 21
-0.7106666666621272
 31
0.0
  0
ARC
  5
1BA
330
178
100
AcDbEntity
  8
AM_4
100
AcDbCircle
 10
3.145666666666667
 20
-0.7106666666666666
 30
0.0
 40
0.1043333333333334
100
AcDbArc
 50
270.0
 51
0.0
  0
ARC
  5
1BB
330
178
100
AcDbEntity
  8
AM_4
100
AcDbCircle
 10
3.145666666666666
 20
0.7106666666666666
 30
0.0
 40
0.1043333333333334
100
AcDbArc
 50
0.0
 51
90.0
  0
LINE
  5
1BC
330
178
100
AcDbEntity
  8
AM_4
100
AcDbLine
 10
3.145666666666667
 20
0.815
 30
0.0
 11
3.145666666666667
 21
-0.815
 31
0.0
  0
LINE
  5
1BD
330
178
100
AcDbEntity
  8
AM_4
100
AcDbLine
 10
1.779133333333333
 20
-0.626
 30
0.0
 11
1.779133333333333
 21
-0.815
 31
0.0
  0
LWPOLYLINE
  5
1BE
330
178
100
AcDbEntity
  8
AM_4
100
AcDbPolyline
 90
       20
 70
     0
 43
0.0
 10
2.4
 20
0.815
 10
2.402541257477882
 20
0.8144113089514251
 10
2.410380623005494
 20
0.8126426770677838
 10
2.422826419992774
 20
0.8099827194776643
 10
2.440208047790988
 20
0.806574627016364
 10
2.461479236737303
 20
0.8028963735063359
 10
2.48700812944216
 20
0.7992073106528761
 10
2.51508036894905
 20
0.7960765987747725
 10
2.546256144214704
 20
0.7937496613662047
 10
2.577270741092897
 20
0.7926455916942475
 10
2.609599285164008
 20
0.7927856784648295
 10
2.639805216860343
 20
0.7941067684049203
 10
2.669451679705899
 20
0.7965158940084552
 10
2.696366489065989
 20
0.7996491918311586
 10
2.721057289126574
 20
0.8033063008798116
 10
2.742033925430227
 20
0.8069939990369962
 10
2.759245802352114
 20
0.8104129451173708
 10
2.771261454518656
 20
0.8130072047000684
 10
2.778354241256741
 20
0.8146178982807843
 10
2.779999999996878
 20
0.8149999999992723
  0
LINE
  5
1BF
330
178
100
AcDbEntity
  8
AM_4
100
AcDbLine
 10
1.779133333333333
 20
-0.815
 30
0.0
 11
2.4
 21
-0.815
 31
0.0
  0
LINE
  5
1C0
330
178
100
AcDbEntity
  8
AM_4
100
AcDbLine
 10
2.78
 20
-0.815
 30
0.0
 11
3.145666666666667
 21
-0.815
 31
0.0
  0
LINE
  5
1C1
330
178
100
AcDbEntity
  8
AM_4
100
AcDbLine
 10
3.145666666666667
 20
0.815
 30
0.0
 11
2.78
 21
0.815
 31
0.0
  0
LINE
  5
1C2
330
178
100
AcDbEntity
  8
AM_4
100
AcDbLine
 10
2.4
 20
0.815
 30
0.0
 11
1.779133333333333
 21
0.815
 31
0.0
  0
LINE
  5
1C3
330
178
100
AcDbEntity
  8
AM_4
100
AcDbLine
 10
1.779133333333333
 20
0.815
 30
0.0
 11
1.779133333333333
 21
0.626
 31
0.0
  0
LWPOLYLINE
  5
1C4
330
178
100
AcDbEntity
  8
AM_4
100
AcDbPolyline
 90
       21
 70
     0
 43
0.0
 10
2.779999999996878
 20
-0.8149999999992723
 10
2.779900381845982
 20
-0.8149767818933553
 10
2.776162302836151
 20
-0.8141138759395142
 10
2.767606990381754
 20
-0.8122002481115506
 10
2.754007786407544
 20
-0.809335254392333
 10
2.736171217371024
 20
-0.8059100599866755
 10
2.71378546014332
 20
-0.8021520056341526
 10
2.688085560587035
 20
-0.7985898679520501
 10
2.658727517801449
 20
-0.7955177381448816
 10
2.628383866247935
 20
-0.7934723191064318
 10
2.595953731630071
 20
-0.7925657366555299
 10
2.565067306475173
 20
-0.7929354571504561
 10
2.534007324737186
 20
-0.7945188353230443
 10
2.505487958517131
 20
-0.7970365645035377
 10
2.478537401954433
 20
-0.8003429956981365
 10
2.454784226127884
 20
-0.8039952148513292
 10
2.434191835697082
 20
-0.8077135532250559
 10
2.418240158816296
 20
-0.8109417013839225
 10
2.406823582032558
 20
-0.8134362913586919
 10
2.4017478820875
 20
-0.8145942915946205
 10
2.4
 20
-0.815
  0
LWPOLYLINE
  5
1C5
330
178
100
AcDbEntity
  8
AM_4
100
AcDbPolyline
 90
       16
 70
     0
 43
0.0
 10
2.006646968760899
 20
0.3923736194461883
 10
1.99832107170685
 20
0.3472881507911045
 10
1.990760734261073
 20
0.3007545528760759
 10
1.983996874574072
 20
0.2521188185228392
 10
1.978287022074004
 20
0.2023475764777812
 10
1.972670807299184
 20
0.1368869385742374
 10
1.969168880859652
 20
0.0703639207694994
 10
1.968064545008579
 20
0.0242035993021105
 10
1.968039699500645
 20
-0.0220911450774913
 10
1.96909480316291
 20
-0.0682593864840614
 10
1.972256429475692
 20
-0.1307936776190981
 10
1.977297250484076
 20
-0.1924302906818159
 10
1.984293809840217
 20
-0.2544322313354393
 10
1.992909802657421
 20
-0.314665666268251
 10
1.99950765701359
 20
-0.354054113103759
 10
2.006646968760899
 20
-0.3923736194461881
  0
LINE
  5
1C6
330
178
100
AcDbEntity
  8
AM_4
100
AcDbLine
 10
-2.13
 20
0.3923736194461882
 30
0.0
 11
-2.13
 21
-0.3923736194461882
 31
0.0
  0
LWPOLYLINE
  5
1C7
330
178
100
AcDbEntity
  8
AM_4
100
AcDbPolyline
 90
        9
 70
     0
 43
0.0
 10
2.006646968760899
 20
-0.3923736194461881
 10
2.004068054562183
 20
-0.424467743531013
 10
2.002083320532715
 20
-0.4557137288456164
 10
2.000645269156549
 20
-0.4863129854137206
 10
1.999730690048773
 20
-0.515896142338507
 10
1.999287333766221
 20
-0.5452014369414717
 10
1.999294073599753
 20
-0.5732856007536554
 10
1.999700437117733
 20
-0.6003307508407446
 10
2.000448389736661
 20
-0.626
  0
LINE
  5
1C8
330
178
100
AcDbEntity
  8
AM_4
100
AcDbLine
 10
1.5
 20
-0.3923736194461881
 30
0.0
 11
2.006646968760899
 21
-0.3923736194461881
 31
0.0
  0
LINE
  5
1C9
330
178
100
AcDbEntity
  8
AM_4
100
AcDbLine
 10
-2.13
 20
-0.3923736194461882
 30
0.0
 11
-2.0674
 21
-0.626
 31
0.0
  0
LINE
  5
1CA
330
178
100
AcDbEntity
  8
AM_4
100
AcDbLine
 10
-2.13
 20
-0.3923736194461882
 30
0.0
 11
-1.5
 21
-0.3923736194461881
 31
0.0
  0
LINE
  5
1CB
330
178
100
AcDbEntity
  8
AM_4
100
AcDbLine
 10
-2.0674
 20
-0.626
 30
0.0
 11
2.000448389736661
 21
-0.626
 31
0.0
  0
LWPOLYLINE
  5
1CC
330
178
100
AcDbEntity
  8
AM_4
100
AcDbPolyline
 90
        9
 70
     0
 43
0.0
 10
2.000448389736661
 20
0.626
 10
1.999727687816879
 20
0.6015377811437846
 10
1.999315499937321
 20
0.5758202277282675
 10
1.999265341885335
 20
0.5486582410380291
 10
1.99963393089916
 20
0.5203351240165563
 10
2.000503587768383
 20
0.4900595583972879
 10
2.001920941312783
 20
0.4586997008611749
 10
2.003958322261048
 20
0.4260049413370417
 10
2.006646968760899
 20
0.3923736194461883
  0
LINE
  5
1CD
330
178
100
AcDbEntity
  8
AM_4
100
AcDbLine
 10
1.5
 20
0.3923736194461883
 30
0.0
 11
2.006646968760899
 21
0.3923736194461883
 31
0.0
  0
LINE
  5
1CE
330
178
100
AcDbEntity
  8
AM_4
100
AcDbLine
 10
-2.0674
 20
0.626
 30
0.0
 11
-2.13
 21
0.3923736194461882
 31
0.0
  0
LINE
  5
1CF
330
178
100
AcDbEntity
  8
AM_4
100
AcDbLine
 10
-2.0674
 20
0.626
 30
0.0
 11
2.000448389736661
 21
0.626
 31
0.0
  0
LINE
  5
1D0
330
178
100
AcDbEntity
  8
AM_4
100
AcDbLine
 10
-2.13
 20
0.3923736194461882
 30
0.0
 11
-1.5
 21
0.3923736194461883
 31
0.0
  0
LINE
  5
1D1
330
178
100
AcDbEntity
  8
AM_4
100
AcDbLine
 10
1.5
 20
0.4695000000000001
 30
0.0
 11
-1.5
 21
0.4695000000000001
 31
0.0
  0
LINE
  5
1D2
330
178
100
AcDbEntity
  8
AM_4
100
AcDbLine
 10
1.4374
 20
0.4069000000000005
 30
0.0
 11
-1.437400000000001
 21
0.4069000000000005
 31
0.0
  0
LINE
  5
1D3
330
178
100
AcDbEntity
  8
AM_4
100
AcDbLine
 10
1.5
 20
0.1565000000000001
 30
0.0
 11
-1.5
 21
0.1565000000000001
 31
0.0
  0
LINE
  5
1D4
330
178
100
AcDbEntity
  8
AM_4
100
AcDbLine
 10
-1.437399999999999
 20
0.1565000000000001
 30
0.0
 11
-1.437400000000001
 21
0.4069000000000005
 31
0.0
  0
LINE
  5
1D5
330
178
100
AcDbEntity
  8
AM_4
100
AcDbLine
 10
-1.499999999999999
 20
0.4695000000000004
 30
0.0
 11
-1.4374
 21
0.4069000000000012
 31
0.0
  0
LINE
  5
1D6
330
178
100
AcDbEntity
  8
AM_4
100
AcDbLine
 10
1.5
 20
-0.4694999999999999
 30
0.0
 11
-1.5
 21
-0.4694999999999999
 31
0.0
  0
LINE
  5
1D7
330
178
100
AcDbEntity
  8
AM_4
100
AcDbLine
 10
1.4374
 20
0.4069000000000005
 30
0.0
 11
1.5
 21
0.4695000000000004
 31
0.0
  0
LINE
  5
1D8
330
178
100
AcDbEntity
  8
AM_4
100
AcDbLine
 10
1.4374
 20
0.1565000000000001
 30
0.0
 11
1.4374
 21
0.4069000000000005
 31
0.0
  0
LINE
  5
1D9
330
178
100
AcDbEntity
  8
AM_4
100
AcDbLine
 10
-1.5
 20
0.4695000000000001
 30
0.0
 11
-1.5
 21
-0.4694999999999999
 31
0.0
  0
LINE
  5
1DA
330
178
100
AcDbEntity
  8
AM_4
100
AcDbLine
 10
-1.4374
 20
-0.4069000000000002
 30
0.0
 11
-1.5
 21
-0.4694999999999996
 31
0.0
  0
LINE
  5
1DB
330
178
100
AcDbEntity
  8
AM_4
100
AcDbLine
 10
-1.437400000000001
 20
-0.4068999999999998
 30
0.0
 11
-1.437399999999999
 21
-0.1564999999999999
 31
0.0
  0
LINE
  5
1DC
330
178
100
AcDbEntity
  8
AM_4
100
AcDbLine
 10
1.4374
 20
-0.4068999999999998
 30
0.0
 11
-1.437400000000001
 21
-0.4068999999999998
 31
0.0
  0
LINE
  5
1DD
330
178
100
AcDbEntity
  8
AM_4
100
AcDbLine
 10
-1.5
 20
-0.1564999999999998
 30
0.0
 11
1.5
 21
-0.1564999999999999
 31
0.0
  0
LINE
  5
1DE
330
178
100
AcDbEntity
  8
AM_4
100
AcDbLine
 10
1.4374
 20
-0.4068999999999998
 30
0.0
 11
1.4374
 21
-0.1564999999999998
 31
0.0
  0
LINE
  5
1DF
330
178
100
AcDbEntity
  8
AM_4
100
AcDbLine
 10
1.5
 20
-0.4694999999999996
 30
0.0
 11
1.4374
 21
-0.4068999999999995
 31
0.0
  0
LINE
  5
1E0
330
178
100
AcDbEntity
  8
AM_4
100
AcDbLine
 10
1.5
 20
0.4695000000000001
 30
0.0
 11
1.5
 21
-0.4694999999999999
 31
0.0
  0
ENDBLK
  5
17B
330
178
100
AcDbEntity
  8
0
100
AcDbBlockEnd
  0
ENDSEC
  0
SECTION
  2
ENTITIES
  0
INSERT
  5
6F
330
1F
100
AcDbEntity
  8
0
100
AcDbBlockReference
  2
1_125370_4
 10
0.0
 20
0.0
 30
0.0
  0
POINT
  5
1E2
330
1F
100
AcDbEntity
  8
ConnectionPoints
100
AcDbPoint
 10
0.0
 20
0.75
 30
0.0
  0
POINT
  5
1E3
330
1F
100
AcDbEntity
  8
ConnectionPoints
100
AcDbPoint
 10
0.0
 20
-1.19
 30
0.0000000000000001
  0
POINT
  5
1E4
330
1F
100
AcDbEntity
  8
ConnectionPoints
100
AcDbPoint
 10
-1.844634110060854
 20
-0.0000000000000001
 30
-1.065
  0
POINT
  5
1E5
330
1F
100
AcDbEntity
  8
ConnectionPoints
100
AcDbPoint
 10
0.0
 20
-1.19
 30
0.0000000000000001
  0
ENDSEC
  0
SECTION
  2
OBJECTS
  0
DICTIONARY
  5
C
330
0
100
AcDbDictionary
281
     1
  3
ACAD_DETAILVIEWSTYLE
350
1ED
  3
ACAD_GROUP
350
D
  3
ACAD_LAYOUT
350
1A
  3
ACAD_MATERIAL
350
43
  3
ACAD_MLEADERSTYLE
350
6B
  3
ACAD_MLINESTYLE
350
17
  3
ACAD_PLOTSETTINGS
350
19
  3
ACAD_PLOTSTYLENAME
350
E
  3
ACAD_SCALELIST
350
47
  3
ACAD_SECTIONVIEWSTYLE
350
1EE
  3
ACAD_TABLESTYLE
350
69
  3
ACAD_VISUALSTYLE
350
2A
  3
ACDB_RECOMPOSE_DATA
350
1EA
  3
AcDbVariableDictionary
350
1E6
  0
SUN
  5
6D
330
29
100
AcDbSun
 90
        1
290
     0
 63
     7
421
 16777215
 40
1.0
291
     1
 91
  2455826
 92
 54000000
292
     0
 70
     2
 71
   256
280
     1
  0
DICTIONARY
  5
1ED
102
{ACAD_REACTORS
330
C
102
}
330
C
100
AcDbDictionary
281
     1
  0
DICTIONARY
  5
D
102
{ACAD_REACTORS
330
C
102
}
330
C
100
AcDbDictionary
281
     1
  0
DICTIONARY
  5
1A
102
{ACAD_REACTORS
330
C
102
}
330
C
100
AcDbDictionary
281
     1
  3
Layout1
350
1E
  3
Layout2
350
26
  3
Model
350
22
  0
DICTIONARY
  5
43
102
{ACAD_REACTORS
330
C
102
}
330
C
100
AcDbDictionary
281
     1
  3
ByBlock
350
45
  3
ByLayer
350
44
  3
Global
350
46
  0
DICTIONARY
  5
6B
102
{ACAD_REACTORS
330
C
102
}
330
C
100
AcDbDictionary
281
     1
  3
Standard
350
6C
  0
DICTIONARY
  5
17
102
{ACAD_REACTORS
330
C
102
}
330
C
100
AcDbDictionary
281
     1
  3
Standard
350
18
  0
DICTIONARY
  5
19
102
{ACAD_REACTORS
330
C
102
}
330
C
100
AcDbDictionary
281
     1
  0
ACDBDICTIONARYWDFLT
  5
E
102
{ACAD_REACTORS
330
C
102
}
330
C
100
AcDbDictionary
281
     1
  3
Normal
350
F
100
AcDbDictionaryWithDefault
340
F
  0
DICTIONARY
  5
47
102
{ACAD_REACTORS
330
C
102
}
330
C
100
AcDbDictionary
281
     1
  3
A0
350
48
  3
A1
350
49
  3
A2
350
4A
  3
A3
350
4B
  3
A4
350
4C
  3
A5
350
4D
  3
A6
350
4E
  3
A7
350
4F
  3
A8
350
50
  3
A9
350
51
  3
B0
350
52
  3
B1
350
53
  3
B2
350
54
  3
B3
350
55
  3
B4
350
56
  3
B5
350
57
  3
B6
350
58
  3
B7
350
59
  3
B8
350
5A
  3
B9
350
5B
  3
C0
350
5C
  3
C1
350
5D
  3
C2
350
5E
  3
C3
350
5F
  3
C4
350
60
  3
C5
350
61
  3
C6
350
62
  3
C7
350
63
  3
C8
350
64
  3
C9
350
65
  3
D0
350
66
  3
D1
350
67
  3
D2
350
68
  0
DICTIONARY
  5
1EE
102
{ACAD_REACTORS
330
C
102
}
330
C
100
AcDbDictionary
281
     1
  0
DICTIONARY
  5
69
102
{ACAD_REACTORS
330
C
102
}
330
C
100
AcDbDictionary
281
     1
  3
Standard
350
6A
  0
DICTIONARY
  5
2A
102
{ACAD_REACTORS
330
C
102
}
330
C
100
AcDbDictionary
281
     1
  3
2dWireframe
350
2F
  3
Basic
350
32
  3
Brighten
350
36
  3
ColorChange
350
3A
  3
Conceptual
350
34
  3
Dim
350
35
  3
EdgeColorOff
350
3D
  3
Facepattern
350
39
  3
Flat
350
2B
  3
FlatWithEdges
350
2C
  3
Gouraud
350
2D
  3
GouraudWithEdges
350
2E
  3
Hidden
350
31
  3
JitterOff
350
3B
  3
Linepattern
350
38
  3
OverhangOff
350
3C
  3
Realistic
350
33
  3
Shaded
350
42
  3
Shaded with edges
350
41
  3
Shades of Gray
350
3E
  3
Sketchy
350
3F
  3
Thicken
350
37
  3
Wireframe
350
30
  3
X-Ray
350
40
  0
XRECORD
  5
1EA
102
{ACAD_REACTORS
330
C
102
}
330
C
100
AcDbXrecord
280
     1
 90
        1
330
6A
  0
DICTIONARY
  5
1E6
102
{ACAD_REACTORS
330
C
102
}
330
C
100
AcDbDictionary
281
     1
  3
CANNOSCALE
350
1E7
  3
CMLEADERSTYLE
350
1EC
  3
CTABLESTYLE
350
1EB
  0
LAYOUT
  5
1E
102
{ACAD_REACTORS
330
1A
102
}
330
1A
100
AcDbPlotSettings
  1

  2
none_device
  4

  6

 40
0.0
 41
0.0
 42
0.0
 43
0.0
 44
0.0
 45
0.0
 46
0.0
 47
0.0
 48
0.0
 49
0.0
140
0.0
141
0.0
142
1.0
143
1.0
 70
   688
 72
     0
 73
     0
 74
     5
  7

 75
    16
 76
     0
 77
     2
 78
   300
147
1.0
148
0.0
149
0.0
100
AcDbLayout
  1
Layout1
 70
     1
 71
     1
 10
0.0
 20
0.0
 11
12.0
 21
9.0
 12
0.0
 22
0.0
 32
0.0
 14
1.000000000000000E+20
 24
1.000000000000000E+20
 34
1.000000000000000E+20
 15
-1.000000000000000E+20
 25
-1.000000000000000E+20
 35
-1.000000000000000E+20
146
0.0
 13
0.0
 23
0.0
 33
0.0
 16
1.0
 26
0.0
 36
0.0
 17
0.0
 27
1.0
 37
0.0
 76
     0
330
1B
  0
LAYOUT
  5
26
102
{ACAD_REACTORS
330
1A
102
}
330
1A
100
AcDbPlotSettings
  1

  2
none_device
  4

  6

 40
0.0
 41
0.0
 42
0.0
 43
0.0
 44
0.0
 45
0.0
 46
0.0
 47
0.0
 48
0.0
 49
0.0
140
0.0
141
0.0
142
1.0
143
1.0
 70
   688
 72
     0
 73
     0
 74
     5
  7

 75
    16
 76
     0
 77
     2
 78
   300
147
1.0
148
0.0
149
0.0
100
AcDbLayout
  1
Layout2
 70
     1
 71
     2
 10
0.0
 20
0.0
 11
0.0
 21
0.0
 12
0.0
 22
0.0
 32
0.0
 14
0.0
 24
0.0
 34
0.0
 15
0.0
 25
0.0
 35
0.0
146
0.0
 13
0.0
 23
0.0
 33
0.0
 16
1.0
 26
0.0
 36
0.0
 17
0.0
 27
1.0
 37
0.0
 76
     0
330
23
  0
LAYOUT
  5
22
102
{ACAD_REACTORS
330
1A
102
}
330
1A
100
AcDbPlotSettings
  1

  2
none_device
  4
Letter_(8.50_x_11.00_Inches)
  6

 40
6.35
 41
6.35
 42
6.35000508
 43
6.35000508
 44
215.9
 45
279.4
 46
0.0
 47
0.0
 48
0.0
 49
0.0
140
0.0
141
0.0
142
1.0
143
1.0
 70
  1712
 72
     0
 73
     0
 74
     0
  7

 75
     0
 76
     0
 77
     2
 78
   300
147
1.0
148
0.0
149
0.0
100
AcDbLayout
  1
Model
 70
     1
 71
     0
 10
0.0
 20
0.0
 11
12.0
 21
9.0
 12
0.0
 22
0.0
 32
0.0
 14
1.000000000000000E+20
 24
1.000000000000000E+20
 34
1.000000000000000E+20
 15
-1.000000000000000E+20
 25
-1.000000000000000E+20
 35
-1.000000000000000E+20
146
0.0
 13
0.0
 23
0.0
 33
0.0
 16
1.0
 26
0.0
 36
0.0
 17
0.0
 27
1.0
 37
0.0
 76
     0
330
1F
331
29
  0
MATERIAL
  5
45
102
{ACAD_REACTORS
330
43
102
}
330
43
100
AcDbMaterial
  1
ByBlock
 72
     1
 94
      127
  0
MATERIAL
  5
44
102
{ACAD_REACTORS
330
43
102
}
330
43
100
AcDbMaterial
  1
ByLayer
 72
     1
 94
      127
  0
MATERIAL
  5
46
102
{ACAD_REACTORS
330
43
102
}
330
43
100
AcDbMaterial
  1
Global
 72
     1
 94
      127
  0
MLEADERSTYLE
  5
6C
102
{ACAD_REACTORS
330
6B
102
}
330
6B
100
AcDbMLeaderStyle
179
     2
170
     2
171
     1
172
     0
 90
        2
 40
0.0
 41
0.0
173
     1
 91
-1056964608
340
14
 92
       -2
290
     1
 42
0.09
291
     1
 43
0.36
  3
Standard
341
0
 44
0.18
300

342
11
174
     1
178
     6
175
     1
176
     0
 93
-1056964608
 45
0.18
292
     0
297
     0
 46
0.18
343
0
 94
-1056964608
 47
1.0
 49
1.0
140
1.0
293
     1
141
0.0
294
     1
177
     0
142
1.0
295
     0
296
     0
143
0.125
271
     0
272
     9
273
     9
298
     0
  0
MLINESTYLE
  5
18
102
{ACAD_REACTORS
330
17
102
}
330
17
100
AcDbMlineStyle
  2
Standard
 70
     0
  3

 62
   256
 51
90.0
 52
90.0
 71
     2
 49
0.5
 62
   256
  6
BYLAYER
 49
-0.5
 62
   256
  6
BYLAYER
  0
ACDBPLACEHOLDER
  5
F
102
{ACAD_REACTORS
330
E
102
}
330
E
  0
SCALE
  5
48
102
{ACAD_REACTORS
330
47
102
}
330
47
100
AcDbScale
 70
     0
300
1:1
140
1.0
141
1.0
290
     1
  0
SCALE
  5
49
102
{ACAD_REACTORS
330
47
102
}
330
47
100
AcDbScale
 70
     0
300
1:2
140
1.0
141
2.0
290
     0
  0
SCALE
  5
4A
102
{ACAD_REACTORS
330
47
102
}
330
47
100
AcDbScale
 70
     0
300
1:4
140
1.0
141
4.0
290
     0
  0
SCALE
  5
4B
102
{ACAD_REACTORS
330
47
102
}
330
47
100
AcDbScale
 70
     0
300
1:5
140
1.0
141
5.0
290
     0
  0
SCALE
  5
4C
102
{ACAD_REACTORS
330
47
102
}
330
47
100
AcDbScale
 70
     0
300
1:8
140
1.0
141
8.0
290
     0
  0
SCALE
  5
4D
102
{ACAD_REACTORS
330
47
102
}
330
47
100
AcDbScale
 70
     0
300
1:10
140
1.0
141
10.0
290
     0
  0
SCALE
  5
4E
102
{ACAD_REACTORS
330
47
102
}
330
47
100
AcDbScale
 70
     0
300
1:16
140
1.0
141
16.0
290
     0
  0
SCALE
  5
4F
102
{ACAD_REACTORS
330
47
102
}
330
47
100
AcDbScale
 70
     0
300
1:20
140
1.0
141
20.0
290
     0
  0
SCALE
  5
50
102
{ACAD_REACTORS
330
47
102
}
330
47
100
AcDbScale
 70
     0
300
1:30
140
1.0
141
30.0
290
     0
  0
SCALE
  5
51
102
{ACAD_REACTORS
330
47
102
}
330
47
100
AcDbScale
 70
     0
300
1:40
140
1.0
141
40.0
290
     0
  0
SCALE
  5
52
102
{ACAD_REACTORS
330
47
102
}
330
47
100
AcDbScale
 70
     0
300
1:50
140
1.0
141
50.0
290
     0
  0
SCALE
  5
53
102
{ACAD_REACTORS
330
47
102
}
330
47
100
AcDbScale
 70
     0
300
1:100
140
1.0
141
100.0
290
     0
  0
SCALE
  5
54
102
{ACAD_REACTORS
330
47
102
}
330
47
100
AcDbScale
 70
     0
300
2:1
140
2.0
141
1.0
290
     0
  0
SCALE
  5
55
102
{ACAD_REACTORS
330
47
102
}
330
47
100
AcDbScale
 70
     0
300
4:1
140
4.0
141
1.0
290
     0
  0
SCALE
  5
56
102
{ACAD_REACTORS
330
47
102
}
330
47
100
AcDbScale
 70
     0
300
8:1
140
8.0
141
1.0
290
     0
  0
SCALE
  5
57
102
{ACAD_REACTORS
330
47
102
}
330
47
100
AcDbScale
 70
     0
300
10:1
140
10.0
141
1.0
290
     0
  0
SCALE
  5
58
102
{ACAD_REACTORS
330
47
102
}
330
47
100
AcDbScale
 70
     0
300
100:1
140
100.0
141
1.0
290
     0
  0
SCALE
  5
59
102
{ACAD_REACTORS
330
47
102
}
330
47
100
AcDbScale
 70
     0
300
1/128" = 1'-0"
140
0.0078125
141
12.0
290
     0
  0
SCALE
  5
5A
102
{ACAD_REACTORS
330
47
102
}
330
47
100
AcDbScale
 70
     0
300
1/64" = 1'-0"
140
0.015625
141
12.0
290
     0
  0
SCALE
  5
5B
102
{ACAD_REACTORS
330
47
102
}
330
47
100
AcDbScale
 70
     0
300
1/32" = 1'-0"
140
0.03125
141
12.0
290
     0
  0
SCALE
  5
5C
102
{ACAD_REACTORS
330
47
102
}
330
47
100
AcDbScale
 70
     0
300
1/16" = 1'-0"
140
0.0625
141
12.0
290
     0
  0
SCALE
  5
5D
102
{ACAD_REACTORS
330
47
102
}
330
47
100
AcDbScale
 70
     0
300
3/32" = 1'-0"
140
0.09375
141
12.0
290
     0
  0
SCALE
  5
5E
102
{ACAD_REACTORS
330
47
102
}
330
47
100
AcDbScale
 70
     0
300
1/8" = 1'-0"
140
0.125
141
12.0
290
     0
  0
SCALE
  5
5F
102
{ACAD_REACTORS
330
47
102
}
330
47
100
AcDbScale
 70
     0
300
3/16" = 1'-0"
140
0.1875
141
12.0
290
     0
  0
SCALE
  5
60
102
{ACAD_REACTORS
330
47
102
}
330
47
100
AcDbScale
 70
     0
300
1/4" = 1'-0"
140
0.25
141
12.0
290
     0
  0
SCALE
  5
61
102
{ACAD_REACTORS
330
47
102
}
330
47
100
AcDbScale
 70
     0
300
3/8" = 1'-0"
140
0.375
141
12.0
290
     0
  0
SCALE
  5
62
102
{ACAD_REACTORS
330
47
102
}
330
47
100
AcDbScale
 70
     0
300
1/2" = 1'-0"
140
0.5
141
12.0
290
     0
  0
SCALE
  5
63
102
{ACAD_REACTORS
330
47
102
}
330
47
100
AcDbScale
 70
     0
300
3/4" = 1'-0"
140
0.75
141
12.0
290
     0
  0
SCALE
  5
64
102
{ACAD_REACTORS
330
47
102
}
330
47
100
AcDbScale
 70
     0
300
1" = 1'-0"
140
1.0
141
12.0
290
     0
  0
SCALE
  5
65
102
{ACAD_REACTORS
330
47
102
}
330
47
100
AcDbScale
 70
     0
300
1-1/2" = 1'-0"
140
1.5
141
12.0
290
     0
  0
SCALE
  5
66
102
{ACAD_REACTORS
330
47
102
}
330
47
100
AcDbScale
 70
     0
300
3" = 1'-0"
140
3.0
141
12.0
290
     0
  0
SCALE
  5
67
102
{ACAD_REACTORS
330
47
102
}
330
47
100
AcDbScale
 70
     0
300
6" = 1'-0"
140
6.0
141
12.0
290
     0
  0
SCALE
  5
68
102
{ACAD_REACTORS
330
47
102
}
330
47
100
AcDbScale
 70
     0
300
1'-0" = 1'-0"
140
12.0
141
12.0
290
     0
  0
TABLESTYLE
  5
6A
102
{ACAD_REACTORS
330
69
102
}
102
{ACAD_XDICTIONARY
360
1E8
102
}
330
69
100
AcDbTableStyle
  3
Standard
 70
     0
 71
     0
 40
0.06
 41
0.06
280
     0
281
     0
  7
Standard
140
0.18
170
     2
 62
     0
 63
   257
283
     0
 90
        4
 91
        0
  1

274
    -2
284
     1
 64
     0
275
    -2
285
     1
 65
     0
276
    -2
286
     1
 66
     0
277
    -2
287
     1
 67
     0
278
    -2
288
     1
 68
     0
279
    -2
289
     1
 69
     0
  7
Standard
140
0.25
170
     5
 62
     0
 63
   257
283
     0
 90
        4
 91
        0
  1

274
    -2
284
     1
 64
     0
275
    -2
285
     1
 65
     0
276
    -2
286
     1
 66
     0
277
    -2
287
     1
 67
     0
278
    -2
288
     1
 68
     0
279
    -2
289
     1
 69
     0
  7
Standard
140
0.18
170
     5
 62
     0
 63
   257
283
     0
 90
        4
 91
        0
  1

274
    -2
284
     1
 64
     0
275
    -2
285
     1
 65
     0
276
    -2
286
     1
 66
     0
277
    -2
287
     1
 67
     0
278
    -2
288
     1
 68
     0
279
    -2
289
     1
 69
     0
  0
VISUALSTYLE
  5
2F
102
{ACAD_REACTORS
330
2A
102
}
330
2A
100
AcDbVisualStyle
  2
2dWireframe
 70
     4
177
     3
291
     0
 70
    58
 90
        0
176
     1
 90
        2
176
     1
 90
        0
176
     1
 90
        0
176
     1
 40
0.6
176
     1
 40
30.0
176
     1
 62
     7
420
 16777215
176
     1
 90
        1
176
     1
 90
        4
176
     1
 62
     7
176
     1
 62
   257
176
     1
 90
        1
176
     1
 90
        1
176
     1
 40
1.0
176
     1
 90
        0
176
     1
 62
   257
176
     1
 40
1.0
176
     1
 90
        1
176
     1
 90
        6
176
     1
 90
        2
176
     1
 62
     7
176
     1
 90
        5
176
     1
 90
        0
176
     1
 90
        0
176
     1
290
     0
176
     1
 90
        1
176
     1
 40
0.0
176
     1
 90
        0
176
     1
290
     1
176
     1
290
     1
176
     1
290
     0
176
     1
290
     0
176
     1
290
     0
176
     1
290
     0
176
     1
290
     0
176
     1
290
     0
176
     1
290
     0
176
     1
 90
       50
176
     1
 40
0.0
176
     1
 40
1.0
176
     1
 90
        0
176
     1
 62
    18
420
        0
176
     1
 90
       50
176
     1
 90
        3
176
     1
 62
     5
420
      255
176
     1
290
     0
176
     1
 90
       50
176
     1
 90
       50
176
     1
 90
       50
176
     1
290
     0
176
     1
 90
       50
176
     1
 62
   256
176
     0
 40
1.0
176
     0
 90
        2
176
     1
  1
strokes_ogs.tif
176
     1
290
     0
176
     1
 40
1.0
176
     1
 40
1.0
176
     1
  0
VISUALSTYLE
  5
32
102
{ACAD_REACTORS
330
2A
102
}
330
2A
100
AcDbVisualStyle
  2
Basic
 70
     7
177
     3
291
     1
 70
    58
 90
        1
176
     1
 90
        0
176
     1
 90
        1
176
     1
 90
        0
176
     1
 40
0.6
176
     1
 40
30.0
176
     1
 62
     7
420
 16777215
176
     1
 90
        0
176
     1
 90
        4
176
     1
 62
     7
176
     1
 62
   257
176
     1
 90
        1
176
     1
 90
        1
176
     1
 40
1.0
176
     1
 90
        8
176
     1
 62
     7
176
     1
 40
1.0
176
     1
 90
        1
176
     1
 90
        6
176
     1
 90
        2
176
     1
 62
     7
176
     1
 90
        5
176
     1
 90
        0
176
     1
 90
        0
176
     1
290
     0
176
     1
 90
        1
176
     1
 40
0.0
176
     1
 90
        0
176
     1
290
     0
176
     1
290
     1
176
     1
290
     1
176
     1
290
     0
176
     1
290
     0
176
     1
290
     0
176
     1
290
     0
176
     1
290
     0
176
     1
290
     0
176
     1
 90
       50
176
     1
 40
0.0
176
     1
 40
1.0
176
     1
 90
        0
176
     1
 62
    18
420
        0
176
     1
 90
       50
176
     1
 90
        3
176
     1
 62
     5
420
      255
176
     1
290
     0
176
     1
 90
       50
176
     1
 90
       50
176
     1
 90
       50
176
     1
290
     0
176
     1
 90
       50
176
     1
 62
   256
176
     0
 40
1.0
176
     0
 90
        2
176
     1
  1
strokes_ogs.tif
176
     1
290
     0
176
     1
 40
1.0
176
     1
 40
1.0
176
     1
  0
VISUALSTYLE
  5
36
102
{ACAD_REACTORS
330
2A
102
}
330
2A
100
AcDbVisualStyle
  2
Brighten
 70
    12
177
     3
291
     1
 70
    58
 90
        2
176
     1
 90
        2
176
     1
 90
        0
176
     1
 90
        0
176
     1
 40
0.6
176
     1
 40
30.0
176
     1
 62
     7
420
 16777215
176
     1
 90
        1
176
     1
 90
        4
176
     1
 62
     7
176
     1
 62
   257
176
     1
 90
        1
176
     1
 90
        1
176
     1
 40
1.0
176
     1
 90
        8
176
     1
 62
     7
176
     1
 40
1.0
176
     1
 90
        1
176
     1
 90
        6
176
     1
 90
        2
176
     1
 62
     7
176
     1
 90
        5
176
     1
 90
        0
176
     1
 90
        0
176
     1
290
     0
176
     1
 90
        1
176
     1
 40
50.0
176
     1
 90
        0
176
     1
290
     0
176
     1
290
     1
176
     1
290
     1
176
     1
290
     0
176
     1
290
     0
176
     1
290
     0
176
     1
290
     0
176
     1
290
     0
176
     1
290
     0
176
     1
 90
       50
176
     1
 40
0.0
176
     1
 40
1.0
176
     1
 90
        0
176
     1
 62
    18
420
        0
176
     1
 90
       50
176
     1
 90
        3
176
     1
 62
     5
420
      255
176
     1
290
     0
176
     1
 90
       50
176
     1
 90
       50
176
     1
 90
       50
176
     1
290
     0
176
     1
 90
       50
176
     1
 62
   256
176
     0
 40
1.0
176
     0
 90
        2
176
     1
  1
strokes_ogs.tif
176
     1
290
     0
176
     1
 40
1.0
176
     1
 40
1.0
176
     1
  0
VISUALSTYLE
  5
3A
102
{ACAD_REACTORS
330
2A
102
}
330
2A
100
AcDbVisualStyle
  2
ColorChange
 70
    16
177
     3
291
     1
 70
    58
 90
        2
176
     1
 90
        2
176
     1
 90
        3
176
     1
 90
        0
176
     1
 40
0.6
176
     1
 40
30.0
176
     1
 62
     8
420
  8421504
176
     1
 90
        1
176
     1
 90
        4
176
     1
 62
     7
176
     1
 62
   257
176
     1
 90
        1
176
     1
 90
        1
176
     1
 40
1.0
176
     1
 90
        8
176
     1
 62
     8
420
  8421504
176
     1
 40
1.0
176
     1
 90
        1
176
     1
 90
        6
176
     1
 90
        2
176
     1
 62
     7
176
     1
 90
        5
176
     1
 90
        0
176
     1
 90
        0
176
     1
290
     0
176
     1
 90
        1
176
     1
 40
0.0
176
     1
 90
        0
176
     1
290
     0
176
     1
290
     1
176
     1
290
     1
176
     1
290
     0
176
     1
290
     0
176
     1
290
     0
176
     1
290
     0
176
     1
290
     0
176
     1
290
     0
176
     1
 90
       50
176
     1
 40
0.0
176
     1
 40
1.0
176
     1
 90
        0
176
     1
 62
    18
420
        0
176
     1
 90
       50
176
     1
 90
        3
176
     1
 62
     5
420
      255
176
     1
290
     0
176
     1
 90
       50
176
     1
 90
       50
176
     1
 90
       50
176
     1
290
     0
176
     1
 90
       50
176
     1
 62
   256
176
     0
 40
1.0
176
     0
 90
        2
176
     1
  1
strokes_ogs.tif
176
     1
290
     0
176
     1
 40
1.0
176
     1
 40
1.0
176
     1
  0
VISUALSTYLE
  5
34
102
{ACAD_REACTORS
330
2A
102
}
330
2A
100
AcDbVisualStyle
  2
Conceptual
 70
     9
177
     3
291
     0
 70
    58
 90
        3
176
     1
 90
        2
176
     1
 90
        0
176
     1
 90
        0
176
     1
 40
0.6
176
     1
 40
30.0
176
     1
 62
     7
420
 16777215
176
     1
 90
        2
176
     1
 90
        2
176
     1
 62
     7
176
     1
 62
   257
176
     1
 90
        1
176
     1
 90
        1
176
     1
 40
179.0
176
     1
 90
        8
176
     1
 62
     7
176
     1
 40
1.0
176
     1
 90
        1
176
     1
 90
        6
176
     1
 90
        2
176
     1
 62
     7
176
     1
 90
        3
176
     1
 90
        0
176
     1
 90
        0
176
     1
290
     0
176
     1
 90
        1
176
     1
 40
0.0
176
     1
 90
        0
176
     1
290
     0
176
     1
290
     1
176
     1
290
     1
176
     1
290
     0
176
     1
290
     0
176
     1
290
     0
176
     1
290
     0
176
     1
290
     0
176
     1
290
     0
176
     1
 90
       50
176
     1
 40
0.0
176
     1
 40
1.0
176
     1
 90
        0
176
     1
 62
    18
420
        0
176
     1
 90
       50
176
     1
 90
        3
176
     1
 62
     5
420
      255
176
     1
290
     0
176
     1
 90
       50
176
     1
 90
       50
176
     1
 90
       50
176
     1
290
     0
176
     1
 90
       50
176
     1
 62
   256
176
     0
 40
1.0
176
     0
 90
        2
176
     1
  1
strokes_ogs.tif
176
     1
290
     0
176
     1
 40
1.0
176
     1
 40
1.0
176
     1
  0
VISUALSTYLE
  5
35
102
{ACAD_REACTORS
330
2A
102
}
330
2A
100
AcDbVisualStyle
  2
Dim
 70
    11
177
     3
291
     1
 70
    58
 90
        2
176
     1
 90
        2
176
     1
 90
        0
176
     1
 90
        0
176
     1
 40
0.6
176
     1
 40
30.0
176
     1
 62
     7
420
 16777215
176
     1
 90
        1
176
     1
 90
        4
176
     1
 62
     7
176
     1
 62
   257
176
     1
 90
        1
176
     1
 90
        1
176
     1
 40
1.0
176
     1
 90
        8
176
     1
 62
     7
176
     1
 40
1.0
176
     1
 90
        1
176
     1
 90
        6
176
     1
 90
        2
176
     1
 62
     7
176
     1
 90
        5
176
     1
 90
        0
176
     1
 90
        0
176
     1
290
     0
176
     1
 90
        1
176
     1
 40
-50.0
176
     1
 90
        0
176
     1
290
     0
176
     1
290
     1
176
     1
290
     1
176
     1
290
     0
176
     1
290
     0
176
     1
290
     0
176
     1
290
     0
176
     1
290
     0
176
     1
290
     0
176
     1
 90
       50
176
     1
 40
0.0
176
     1
 40
1.0
176
     1
 90
        0
176
     1
 62
    18
420
        0
176
     1
 90
       50
176
     1
 90
        3
176
     1
 62
     5
420
      255
176
     1
290
     0
176
     1
 90
       50
176
     1
 90
       50
176
     1
 90
       50
176
     1
290
     0
176
     1
 90
       50
176
     1
 62
   256
176
     0
 40
1.0
176
     0
 90
        2
176
     1
  1
strokes_ogs.tif
176
     1
290
     0
176
     1
 40
1.0
176
     1
 40
1.0
176
     1
  0
VISUALSTYLE
  5
3D
102
{ACAD_REACTORS
330
2A
102
}
330
2A
100
AcDbVisualStyle
  2
EdgeColorOff
 70
    22
177
     3
291
     1
 70
    58
 90
        2
176
     0
 90
        2
176
     0
 90
        0
176
     0
 90
        0
176
     0
 40
0.6
176
     0
 40
30.0
176
     0
 62
     7
420
 16777215
176
     0
 90
        1
176
     0
 90
        4
176
     0
 62
     7
176
     0
 62
   257
176
     0
 90
        1
176
     0
 90
        1
176
     0
 40
1.0
176
     0
 90
        8
176
     2
 62
     7
176
     0
 40
1.0
176
     0
 90
        1
176
     0
 90
        6
176
     0
 90
        2
176
     0
 62
     7
176
     0
 90
        5
176
     0
 90
        0
176
     0
 90
        0
176
     0
290
     0
176
     0
 90
        1
176
     0
 40
0.0
176
     0
 90
        0
176
     0
290
     0
176
     0
290
     1
176
     0
290
     1
176
     0
290
     0
176
     0
290
     0
176
     0
290
     0
176
     0
290
     0
176
     0
290
     0
176
     0
290
     0
176
     0
 90
       50
176
     0
 40
0.0
176
     0
 40
1.0
176
     0
 90
        0
176
     0
 62
    18
420
        0
176
     0
 90
       50
176
     0
 90
        3
176
     0
 62
     5
420
      255
176
     0
290
     0
176
     0
 90
       50
176
     0
 90
       50
176
     0
 90
       50
176
     0
290
     0
176
     0
 90
       50
176
     0
 62
   256
176
     0
 40
1.0
176
     0
 90
        2
176
     0
  1
strokes_ogs.tif
176
     0
290
     0
176
     0
 40
1.0
176
     0
 40
1.0
176
     0
  0
VISUALSTYLE
  5
39
102
{ACAD_REACTORS
330
2A
102
}
330
2A
100
AcDbVisualStyle
  2
Facepattern
 70
    15
177
     3
291
     1
 70
    58
 90
        2
176
     1
 90
        2
176
     1
 90
        0
176
     1
 90
        0
176
     1
 40
0.6
176
     1
 40
30.0
176
     1
 62
     7
420
 16777215
176
     1
 90
        1
176
     1
 90
        4
176
     1
 62
     7
176
     1
 62
   257
176
     1
 90
        1
176
     1
 90
        1
176
     1
 40
1.0
176
     1
 90
        8
176
     1
 62
     7
176
     1
 40
1.0
176
     1
 90
        1
176
     1
 90
        6
176
     1
 90
        2
176
     1
 62
     7
176
     1
 90
        5
176
     1
 90
        0
176
     1
 90
        0
176
     1
290
     0
176
     1
 90
        1
176
     1
 40
0.0
176
     1
 90
        0
176
     1
290
     0
176
     1
290
     1
176
     1
290
     1
176
     1
290
     0
176
     1
290
     0
176
     1
290
     0
176
     1
290
     0
176
     1
290
     0
176
     1
290
     0
176
     1
 90
       50
176
     1
 40
0.0
176
     1
 40
1.0
176
     1
 90
        0
176
     1
 62
    18
420
        0
176
     1
 90
       50
176
     1
 90
        3
176
     1
 62
     5
420
      255
176
     1
290
     0
176
     1
 90
       50
176
     1
 90
       50
176
     1
 90
       50
176
     1
290
     0
176
     1
 90
       50
176
     1
 62
   256
176
     0
 40
1.0
176
     0
 90
        2
176
     1
  1
strokes_ogs.tif
176
     1
290
     0
176
     1
 40
1.0
176
     1
 40
1.0
176
     1
  0
VISUALSTYLE
  5
2B
102
{ACAD_REACTORS
330
2A
102
}
330
2A
100
AcDbVisualStyle
  2
Flat
 70
     0
177
     3
291
     1
 70
    58
 90
        2
176
     1
 90
        1
176
     1
 90
        1
176
     1
 90
        2
176
     1
 40
0.6
176
     1
 40
30.0
176
     1
 62
     7
420
 16777215
176
     1
 90
        0
176
     1
 90
        0
176
     1
 62
     7
176
     1
 62
   257
176
     1
 90
        1
176
     1
 90
        1
176
     1
 40
1.0
176
     1
 90
        8
176
     1
 62
     7
176
     1
 40
1.0
176
     1
 90
        1
176
     1
 90
        6
176
     1
 90
        2
176
     1
 62
     7
176
     1
 90
        5
176
     1
 90
        0
176
     1
 90
        0
176
     1
290
     0
176
     1
 90
       13
176
     1
 40
0.0
176
     1
 90
        0
176
     1
290
     0
176
     1
290
     1
176
     1
290
     1
176
     1
290
     0
176
     1
290
     0
176
     1
290
     0
176
     1
290
     0
176
     1
290
     0
176
     1
290
     0
176
     1
 90
       50
176
     1
 40
0.0
176
     1
 40
1.0
176
     1
 90
        0
176
     1
 62
    18
420
        0
176
     1
 90
       50
176
     1
 90
        3
176
     1
 62
     5
420
      255
176
     1
290
     0
176
     1
 90
       50
176
     1
 90
       50
176
     1
 90
       50
176
     1
290
     0
176
     1
 90
       50
176
     1
 62
   256
176
     0
 40
1.0
176
     0
 90
        2
176
     1
  1
strokes_ogs.tif
176
     1
290
     0
176
     1
 40
1.0
176
     1
 40
1.0
176
     1
  0
VISUALSTYLE
  5
2C
102
{ACAD_REACTORS
330
2A
102
}
330
2A
100
AcDbVisualStyle
  2
FlatWithEdges
 70
     1
177
     3
291
     1
 70
    58
 90
        2
176
     1
 90
        1
176
     1
 90
        1
176
     1
 90
        2
176
     1
 40
0.6
176
     1
 40
30.0
176
     1
 62
     7
420
 16777215
176
     1
 90
        1
176
     1
 90
        0
176
     1
 62
     7
176
     1
 62
   257
176
     1
 90
        1
176
     1
 90
        1
176
     1
 40
1.0
176
     1
 90
        0
176
     1
 62
   257
176
     1
 40
1.0
176
     1
 90
        1
176
     1
 90
        6
176
     1
 90
        2
176
     1
 62
     7
176
     1
 90
        5
176
     1
 90
        0
176
     1
 90
        0
176
     1
290
     0
176
     1
 90
       13
176
     1
 40
0.0
176
     1
 90
        0
176
     1
290
     0
176
     1
290
     1
176
     1
290
     1
176
     1
290
     0
176
     1
290
     0
176
     1
290
     0
176
     1
290
     0
176
     1
290
     0
176
     1
290
     0
176
     1
 90
       50
176
     1
 40
0.0
176
     1
 40
1.0
176
     1
 90
        0
176
     1
 62
    18
420
        0
176
     1
 90
       50
176
     1
 90
        3
176
     1
 62
     5
420
      255
176
     1
290
     0
176
     1
 90
       50
176
     1
 90
       50
176
     1
 90
       50
176
     1
290
     0
176
     1
 90
       50
176
     1
 62
   256
176
     0
 40
1.0
176
     0
 90
        2
176
     1
  1
strokes_ogs.tif
176
     1
290
     0
176
     1
 40
1.0
176
     1
 40
1.0
176
     1
  0
VISUALSTYLE
  5
2D
102
{ACAD_REACTORS
330
2A
102
}
330
2A
100
AcDbVisualStyle
  2
Gouraud
 70
     2
177
     3
291
     1
 70
    58
 90
        2
176
     1
 90
        2
176
     1
 90
        1
176
     1
 90
        2
176
     1
 40
0.6
176
     1
 40
30.0
176
     1
 62
     7
420
 16777215
176
     1
 90
        0
176
     1
 90
        0
176
     1
 62
     7
176
     1
 62
   257
176
     1
 90
        1
176
     1
 90
        1
176
     1
 40
1.0
176
     1
 90
        0
176
     1
 62
     7
176
     1
 40
1.0
176
     1
 90
        1
176
     1
 90
        6
176
     1
 90
        2
176
     1
 62
     7
176
     1
 90
        5
176
     1
 90
        0
176
     1
 90
        0
176
     1
290
     0
176
     1
 90
       13
176
     1
 40
0.0
176
     1
 90
        0
176
     1
290
     0
176
     1
290
     1
176
     1
290
     1
176
     1
290
     0
176
     1
290
     0
176
     1
290
     0
176
     1
290
     0
176
     1
290
     0
176
     1
290
     0
176
     1
 90
       50
176
     1
 40
0.0
176
     1
 40
1.0
176
     1
 90
        0
176
     1
 62
    18
420
        0
176
     1
 90
       50
176
     1
 90
        3
176
     1
 62
     5
420
      255
176
     1
290
     0
176
     1
 90
       50
176
     1
 90
       50
176
     1
 90
       50
176
     1
290
     0
176
     1
 90
       50
176
     1
 62
   256
176
     0
 40
1.0
176
     0
 90
        2
176
     1
  1
strokes_ogs.tif
176
     1
290
     0
176
     1
 40
1.0
176
     1
 40
1.0
176
     1
  0
VISUALSTYLE
  5
2E
102
{ACAD_REACTORS
330
2A
102
}
330
2A
100
AcDbVisualStyle
  2
GouraudWithEdges
 70
     3
177
     3
291
     1
 70
    58
 90
        2
176
     1
 90
        2
176
     1
 90
        1
176
     1
 90
        2
176
     1
 40
0.6
176
     1
 40
30.0
176
     1
 62
     7
420
 16777215
176
     1
 90
        1
176
     1
 90
        0
176
     1
 62
     7
176
     1
 62
   257
176
     1
 90
        1
176
     1
 90
        1
176
     1
 40
1.0
176
     1
 90
        0
176
     1
 62
   257
176
     1
 40
1.0
176
     1
 90
        1
176
     1
 90
        6
176
     1
 90
        2
176
     1
 62
     7
176
     1
 90
        5
176
     1
 90
        0
176
     1
 90
        0
176
     1
290
     0
176
     1
 90
       13
176
     1
 40
0.0
176
     1
 90
        0
176
     1
290
     0
176
     1
290
     1
176
     1
290
     1
176
     1
290
     0
176
     1
290
     0
176
     1
290
     0
176
     1
290
     0
176
     1
290
     0
176
     1
290
     0
176
     1
 90
       50
176
     1
 40
0.0
176
     1
 40
1.0
176
     1
 90
        0
176
     1
 62
    18
420
        0
176
     1
 90
       50
176
     1
 90
        3
176
     1
 62
     5
420
      255
176
     1
290
     0
176
     1
 90
       50
176
     1
 90
       50
176
     1
 90
       50
176
     1
290
     0
176
     1
 90
       50
176
     1
 62
   256
176
     0
 40
1.0
176
     0
 90
        2
176
     1
  1
strokes_ogs.tif
176
     1
290
     0
176
     1
 40
1.0
176
     1
 40
1.0
176
     1
  0
VISUALSTYLE
  5
31
102
{ACAD_REACTORS
330
2A
102
}
330
2A
100
AcDbVisualStyle
  2
Hidden
 70
     6
177
     3
291
     0
 70
    58
 90
        1
176
     1
 90
        2
176
     1
 90
        2
176
     1
 90
        0
176
     1
 40
0.6
176
     1
 40
30.0
176
     1
 62
     7
420
 16777215
176
     1
 90
        2
176
     1
 90
        2
176
     1
 62
     7
176
     1
 62
   257
176
     1
 90
        2
176
     1
 90
        1
176
     1
 40
40.0
176
     1
 90
        0
176
     1
 62
   257
176
     1
 40
1.0
176
     1
 90
        1
176
     1
 90
        6
176
     1
 90
        2
176
     1
 62
     7
176
     1
 90
        3
176
     1
 90
        0
176
     1
 90
        0
176
     1
290
     0
176
     1
 90
        1
176
     1
 40
0.0
176
     1
 90
        0
176
     1
290
     0
176
     1
290
     1
176
     1
290
     1
176
     1
290
     0
176
     1
290
     0
176
     1
290
     0
176
     1
290
     0
176
     1
290
     0
176
     1
290
     0
176
     1
 90
       50
176
     1
 40
0.0
176
     1
 40
1.0
176
     1
 90
        0
176
     1
 62
    18
420
        0
176
     1
 90
       50
176
     1
 90
        3
176
     1
 62
     5
420
      255
176
     1
290
     0
176
     1
 90
       50
176
     1
 90
       50
176
     1
 90
       50
176
     1
290
     0
176
     1
 90
       50
176
     1
 62
   256
176
     0
 40
1.0
176
     0
 90
        2
176
     1
  1
strokes_ogs.tif
176
     1
290
     0
176
     1
 40
1.0
176
     1
 40
1.0
176
     1
  0
VISUALSTYLE
  5
3B
102
{ACAD_REACTORS
330
2A
102
}
330
2A
100
AcDbVisualStyle
  2
JitterOff
 70
    20
177
     3
291
     1
 70
    58
 90
        2
176
     0
 90
        2
176
     0
 90
        0
176
     0
 90
        0
176
     0
 40
0.6
176
     0
 40
30.0
176
     0
 62
     7
420
 16777215
176
     0
 90
        1
176
     0
 90
        4
176
     0
 62
     7
176
     0
 62
   257
176
     0
 90
        1
176
     0
 90
        1
176
     0
 40
1.0
176
     0
 90
       10
176
     2
 62
     7
176
     0
 40
1.0
176
     0
 90
        1
176
     0
 90
        6
176
     0
 90
        2
176
     0
 62
     7
176
     0
 90
        5
176
     0
 90
        0
176
     0
 90
        0
176
     0
290
     0
176
     0
 90
        1
176
     0
 40
0.0
176
     0
 90
        0
176
     0
290
     0
176
     0
290
     1
176
     0
290
     1
176
     0
290
     0
176
     0
290
     0
176
     0
290
     0
176
     0
290
     0
176
     0
290
     0
176
     0
290
     0
176
     0
 90
       50
176
     0
 40
0.0
176
     0
 40
1.0
176
     0
 90
        0
176
     0
 62
    18
420
        0
176
     0
 90
       50
176
     0
 90
        3
176
     0
 62
     5
420
      255
176
     0
290
     0
176
     0
 90
       50
176
     0
 90
       50
176
     0
 90
       50
176
     0
290
     0
176
     0
 90
       50
176
     0
 62
   256
176
     0
 40
1.0
176
     0
 90
        2
176
     0
  1
strokes_ogs.tif
176
     0
290
     0
176
     0
 40
1.0
176
     0
 40
1.0
176
     0
  0
VISUALSTYLE
  5
38
102
{ACAD_REACTORS
330
2A
102
}
330
2A
100
AcDbVisualStyle
  2
Linepattern
 70
    14
177
     3
291
     1
 70
    58
 90
        2
176
     1
 90
        2
176
     1
 90
        0
176
     1
 90
        0
176
     1
 40
0.6
176
     1
 40
30.0
176
     1
 62
     7
420
 16777215
176
     1
 90
        1
176
     1
 90
        4
176
     1
 62
     7
176
     1
 62
   257
176
     1
 90
        7
176
     1
 90
        7
176
     1
 40
1.0
176
     1
 90
        8
176
     1
 62
     7
176
     1
 40
1.0
176
     1
 90
        1
176
     1
 90
        6
176
     1
 90
        2
176
     1
 62
     7
176
     1
 90
        5
176
     1
 90
        0
176
     1
 90
        0
176
     1
290
     0
176
     1
 90
        1
176
     1
 40
0.0
176
     1
 90
        0
176
     1
290
     0
176
     1
290
     1
176
     1
290
     1
176
     1
290
     0
176
     1
290
     0
176
     1
290
     0
176
     1
290
     0
176
     1
290
     0
176
     1
290
     0
176
     1
 90
       50
176
     1
 40
0.0
176
     1
 40
1.0
176
     1
 90
        0
176
     1
 62
    18
420
        0
176
     1
 90
       50
176
     1
 90
        3
176
     1
 62
     5
420
      255
176
     1
290
     0
176
     1
 90
       50
176
     1
 90
       50
176
     1
 90
       50
176
     1
290
     0
176
     1
 90
       50
176
     1
 62
   256
176
     0
 40
1.0
176
     0
 90
        2
176
     1
  1
strokes_ogs.tif
176
     1
290
     0
176
     1
 40
1.0
176
     1
 40
1.0
176
     1
  0
VISUALSTYLE
  5
3C
102
{ACAD_REACTORS
330
2A
102
}
330
2A
100
AcDbVisualStyle
  2
OverhangOff
 70
    21
177
     3
291
     1
 70
    58
 90
        2
176
     0
 90
        2
176
     0
 90
        0
176
     0
 90
        0
176
     0
 40
0.6
176
     0
 40
30.0
176
     0
 62
     7
420
 16777215
176
     0
 90
        1
176
     0
 90
        4
176
     0
 62
     7
176
     0
 62
   257
176
     0
 90
        1
176
     0
 90
        1
176
     0
 40
1.0
176
     0
 90
        9
176
     2
 62
     7
176
     0
 40
1.0
176
     0
 90
        1
176
     0
 90
        6
176
     0
 90
        2
176
     0
 62
     7
176
     0
 90
        5
176
     0
 90
        0
176
     0
 90
        0
176
     0
290
     0
176
     0
 90
        1
176
     0
 40
0.0
176
     0
 90
        0
176
     0
290
     0
176
     0
290
     1
176
     0
290
     1
176
     0
290
     0
176
     0
290
     0
176
     0
290
     0
176
     0
290
     0
176
     0
290
     0
176
     0
290
     0
176
     0
 90
       50
176
     0
 40
0.0
176
     0
 40
1.0
176
     0
 90
        0
176
     0
 62
    18
420
        0
176
     0
 90
       50
176
     0
 90
        3
176
     0
 62
     5
420
      255
176
     0
290
     0
176
     0
 90
       50
176
     0
 90
       50
176
     0
 90
       50
176
     0
290
     0
176
     0
 90
       50
176
     0
 62
   256
176
     0
 40
1.0
176
     0
 90
        2
176
     0
  1
strokes_ogs.tif
176
     0
290
     0
176
     0
 40
1.0
176
     0
 40
1.0
176
     0
  0
VISUALSTYLE
  5
33
102
{ACAD_REACTORS
330
2A
102
}
330
2A
100
AcDbVisualStyle
  2
Realistic
 70
     8
177
     3
291
     0
 70
    58
 90
        2
176
     1
 90
        3
176
     1
 90
        0
176
     1
 90
        2
176
     1
 40
0.6
176
     1
 40
30.0
176
     1
 62
     7
420
 16777215
176
     1
 90
        0
176
     1
 90
        0
176
     1
 62
     7
176
     1
 62
   257
176
     1
 90
        1
176
     1
 90
        1
176
     1
 40
1.0
176
     1
 90
        8
176
     1
 62
   257
176
     1
 40
1.0
176
     1
 90
        1
176
     1
 90
        6
176
     1
 90
        2
176
     1
 62
     7
176
     1
 90
        3
176
     1
 90
        0
176
     1
 90
        0
176
     1
290
     0
176
     1
 90
       13
176
     1
 40
0.0
176
     1
 90
        0
176
     1
290
     0
176
     1
290
     1
176
     1
290
     1
176
     1
290
     0
176
     1
290
     0
176
     1
290
     0
176
     1
290
     0
176
     1
290
     0
176
     1
290
     0
176
     1
 90
       50
176
     1
 40
0.0
176
     1
 40
1.0
176
     1
 90
        0
176
     1
 62
    18
420
        0
176
     1
 90
       50
176
     1
 90
        3
176
     1
 62
     5
420
      255
176
     1
290
     0
176
     1
 90
       50
176
     1
 90
       50
176
     1
 90
       50
176
     1
290
     0
176
     1
 90
       50
176
     1
 62
   256
176
     0
 40
1.0
176
     0
 90
        2
176
     1
  1
strokes_ogs.tif
176
     1
290
     0
176
     1
 40
1.0
176
     1
 40
1.0
176
     1
  0
VISUALSTYLE
  5
42
102
{ACAD_REACTORS
330
2A
102
}
330
2A
100
AcDbVisualStyle
  2
Shaded
 70
    27
177
     3
291
     0
 70
    58
 90
        2
176
     1
 90
        2
176
     1
 90
        1
176
     1
 90
        2
176
     1
 40
0.6
176
     1
 40
30.0
176
     1
 62
     7
420
 16777215
176
     1
 90
        0
176
     1
 90
        4
176
     1
 62
     7
176
     1
 62
   257
176
     1
 90
        1
176
     1
 90
        1
176
     1
 40
1.0
176
     1
 90
        8
176
     1
 62
   257
176
     1
 40
1.0
176
     1
 90
        1
176
     1
 90
        6
176
     1
 90
        2
176
     1
 62
     8
420
  7895160
176
     1
 90
        3
176
     1
 90
        0
176
     1
 90
        0
176
     1
290
     0
176
     1
 90
        5
176
     1
 40
0.0
176
     1
 90
        0
176
     1
290
     0
176
     1
290
     1
176
     1
290
     1
176
     1
290
     0
176
     1
290
     0
176
     1
290
     0
176
     1
290
     0
176
     1
290
     0
176
     1
290
     0
176
     1
 90
       50
176
     1
 40
0.0
176
     1
 40
1.0
176
     1
 90
        0
176
     1
 62
    18
420
        0
176
     1
 90
       50
176
     1
 90
        3
176
     1
 62
     5
420
      255
176
     1
290
     0
176
     1
 90
       50
176
     1
 90
       50
176
     1
 90
       50
176
     1
290
     0
176
     1
 90
       50
176
     1
 62
   256
176
     0
 40
1.0
176
     0
 90
        2
176
     1
  1
strokes_ogs.tif
176
     1
290
     0
176
     1
 40
1.0
176
     1
 40
1.0
176
     1
  0
VISUALSTYLE
  5
41
102
{ACAD_REACTORS
330
2A
102
}
330
2A
100
AcDbVisualStyle
  2
Shaded with edges
 70
    26
177
     3
291
     0
 70
    58
 90
        2
176
     1
 90
        2
176
     1
 90
        1
176
     1
 90
        2
176
     1
 40
0.6
176
     1
 40
30.0
176
     1
 62
     7
420
 16777215
176
     1
 90
        1
176
     1
 90
       10
176
     1
 62
     7
176
     1
 62
   257
176
     1
 90
        2
176
     1
 90
        1
176
     1
 40
1.0
176
     1
 90
        8
176
     1
 62
   257
176
     1
 40
1.0
176
     1
 90
        1
176
     1
 90
        6
176
     1
 90
        2
176
     1
 62
     7
176
     1
 90
        3
176
     1
 90
        0
176
     1
 90
        0
176
     1
290
     0
176
     1
 90
        5
176
     1
 40
0.0
176
     1
 90
        0
176
     1
290
     0
176
     1
290
     1
176
     1
290
     1
176
     1
290
     0
176
     1
290
     0
176
     1
290
     0
176
     1
290
     0
176
     1
290
     0
176
     1
290
     0
176
     1
 90
       50
176
     1
 40
0.0
176
     1
 40
1.0
176
     1
 90
        0
176
     1
 62
    18
420
        0
176
     1
 90
       50
176
     1
 90
        3
176
     1
 62
     5
420
      255
176
     1
290
     0
176
     1
 90
       50
176
     1
 90
       50
176
     1
 90
       50
176
     1
290
     0
176
     1
 90
       50
176
     1
 62
   256
176
     0
 40
1.0
176
     0
 90
        2
176
     1
  1
strokes_ogs.tif
176
     1
290
     0
176
     1
 40
1.0
176
     1
 40
1.0
176
     1
  0
VISUALSTYLE
  5
3E
102
{ACAD_REACTORS
330
2A
102
}
330
2A
100
AcDbVisualStyle
  2
Shades of Gray
 70
    23
177
     3
291
     0
 70
    58
 90
        2
176
     1
 90
        2
176
     1
 90
        3
176
     1
 90
        0
176
     1
 40
0.6
176
     1
 40
30.0
176
     1
 62
     7
420
 16777215
176
     1
 90
        2
176
     1
 90
        2
176
     1
 62
     7
176
     1
 62
     7
176
     1
 90
        1
176
     1
 90
        1
176
     1
 40
40.0
176
     1
 90
        8
176
     1
 62
     7
176
     1
 40
1.0
176
     1
 90
        1
176
     1
 90
        6
176
     1
 90
        2
176
     1
 62
     7
176
     1
 90
        3
176
     1
 90
        0
176
     1
 90
        0
176
     1
290
     0
176
     1
 90
        1
176
     1
 40
0.0
176
     1
 90
        0
176
     1
290
     0
176
     1
290
     1
176
     1
290
     1
176
     1
290
     0
176
     1
290
     0
176
     1
290
     0
176
     1
290
     0
176
     1
290
     0
176
     1
290
     0
176
     1
 90
       50
176
     1
 40
0.0
176
     1
 40
1.0
176
     1
 90
        0
176
     1
 62
    18
420
        0
176
     1
 90
       50
176
     1
 90
        3
176
     1
 62
     5
420
      255
176
     1
290
     0
176
     1
 90
       50
176
     1
 90
       50
176
     1
 90
       50
176
     1
290
     0
176
     1
 90
       50
176
     1
 62
   256
176
     0
 40
1.0
176
     0
 90
        2
176
     1
  1
strokes_ogs.tif
176
     1
290
     0
176
     1
 40
1.0
176
     1
 40
1.0
176
     1
  0
VISUALSTYLE
  5
3F
102
{ACAD_REACTORS
330
2A
102
}
330
2A
100
AcDbVisualStyle
  2
Sketchy
 70
    24
177
     3
291
     0
 70
    58
 90
        1
176
     1
 90
        2
176
     1
 90
        2
176
     1
 90
        0
176
     1
 40
0.6
176
     1
 40
30.0
176
     1
 62
     7
420
 16777215
176
     1
 90
        2
176
     1
 90
        2
176
     1
 62
     7
176
     1
 62
     7
176
     1
 90
        1
176
     1
 90
        1
176
     1
 40
40.0
176
     1
 90
       11
176
     1
 62
     7
176
     1
 40
1.0
176
     1
 90
        1
176
     1
 90
        6
176
     1
 90
        2
176
     1
 62
     7
176
     1
 90
        6
176
     1
 90
        0
176
     1
 90
        0
176
     1
290
     0
176
     1
 90
        1
176
     1
 40
0.0
176
     1
 90
        0
176
     1
290
     0
176
     1
290
     1
176
     1
290
     1
176
     1
290
     0
176
     1
290
     0
176
     1
290
     0
176
     1
290
     0
176
     1
290
     0
176
     1
290
     0
176
     1
 90
       50
176
     1
 40
0.0
176
     1
 40
1.0
176
     1
 90
        0
176
     1
 62
    18
420
        0
176
     1
 90
       50
176
     1
 90
        3
176
     1
 62
     5
420
      255
176
     1
290
     0
176
     1
 90
       50
176
     1
 90
       50
176
     1
 90
       50
176
     1
290
     0
176
     1
 90
       50
176
     1
 62
   256
176
     0
 40
1.0
176
     0
 90
        2
176
     1
  1
strokes_ogs.tif
176
     1
290
     0
176
     1
 40
1.0
176
     1
 40
1.0
176
     1
  0
VISUALSTYLE
  5
37
102
{ACAD_REACTORS
330
2A
102
}
330
2A
100
AcDbVisualStyle
  2
Thicken
 70
    13
177
     3
291
     1
 70
    58
 90
        2
176
     1
 90
        2
176
     1
 90
        0
176
     1
 90
        0
176
     1
 40
0.6
176
     1
 40
30.0
176
     1
 62
     7
420
 16777215
176
     1
 90
        1
176
     1
 90
        4
176
     1
 62
     7
176
     1
 62
   257
176
     1
 90
        1
176
     1
 90
        1
176
     1
 40
1.0
176
     1
 90
       12
176
     1
 62
     7
176
     1
 40
1.0
176
     1
 90
        1
176
     1
 90
        6
176
     1
 90
        2
176
     1
 62
     7
176
     1
 90
        5
176
     1
 90
        0
176
     1
 90
        0
176
     1
290
     0
176
     1
 90
        1
176
     1
 40
0.0
176
     1
 90
        0
176
     1
290
     0
176
     1
290
     1
176
     1
290
     1
176
     1
290
     0
176
     1
290
     0
176
     1
290
     0
176
     1
290
     0
176
     1
290
     0
176
     1
290
     0
176
     1
 90
       50
176
     1
 40
0.0
176
     1
 40
1.0
176
     1
 90
        0
176
     1
 62
    18
420
        0
176
     1
 90
       50
176
     1
 90
        3
176
     1
 62
     5
420
      255
176
     1
290
     0
176
     1
 90
       50
176
     1
 90
       50
176
     1
 90
       50
176
     1
290
     0
176
     1
 90
       50
176
     1
 62
   256
176
     0
 40
1.0
176
     0
 90
        2
176
     1
  1
strokes_ogs.tif
176
     1
290
     0
176
     1
 40
1.0
176
     1
 40
1.0
176
     1
  0
VISUALSTYLE
  5
30
102
{ACAD_REACTORS
330
2A
102
}
330
2A
100
AcDbVisualStyle
  2
Wireframe
 70
     5
177
     3
291
     0
 70
    58
 90
        0
176
     1
 90
        2
176
     1
 90
        0
176
     1
 90
        0
176
     1
 40
0.6
176
     1
 40
30.0
176
     1
 62
     7
420
 16777215
176
     1
 90
        1
176
     1
 90
        4
176
     1
 62
     7
176
     1
 62
   257
176
     1
 90
        1
176
     1
 90
        1
176
     1
 40
1.0
176
     1
 90
        0
176
     1
 62
   257
176
     1
 40
1.0
176
     1
 90
        1
176
     1
 90
        6
176
     1
 90
        2
176
     1
 62
     7
176
     1
 90
        3
176
     1
 90
        0
176
     1
 90
        0
176
     1
290
     0
176
     1
 90
        1
176
     1
 40
0.0
176
     1
 90
        0
176
     1
290
     0
176
     1
290
     1
176
     1
290
     1
176
     1
290
     0
176
     1
290
     0
176
     1
290
     0
176
     1
290
     0
176
     1
290
     0
176
     1
290
     0
176
     1
 90
       50
176
     1
 40
0.0
176
     1
 40
1.0
176
     1
 90
        0
176
     1
 62
    18
420
        0
176
     1
 90
       50
176
     1
 90
        3
176
     1
 62
     5
420
      255
176
     1
290
     0
176
     1
 90
       50
176
     1
 90
       50
176
     1
 90
       50
176
     1
290
     0
176
     1
 90
       50
176
     1
 62
   256
176
     0
 40
1.0
176
     0
 90
        2
176
     1
  1
strokes_ogs.tif
176
     1
290
     0
176
     1
 40
1.0
176
     1
 40
1.0
176
     1
  0
VISUALSTYLE
  5
40
102
{ACAD_REACTORS
330
2A
102
}
330
2A
100
AcDbVisualStyle
  2
X-Ray
 70
    25
177
     3
291
     0
 70
    58
 90
        2
176
     1
 90
        2
176
     1
 90
        1
176
     1
 90
        1
176
     1
 40
0.5
176
     1
 40
30.0
176
     1
 62
     7
420
 16777215
176
     1
 90
        1
176
     1
 90
        0
176
     1
 62
     7
176
     1
 62
   257
176
     1
 90
        1
176
     1
 90
        1
176
     1
 40
1.0
176
     1
 90
        8
176
     1
 62
     7
176
     1
 40
1.0
176
     1
 90
        1
176
     1
 90
        6
176
     1
 90
        2
176
     1
 62
     7
176
     1
 90
        3
176
     1
 90
        0
176
     1
 90
        0
176
     1
290
     0
176
     1
 90
       13
176
     1
 40
0.0
176
     1
 90
        0
176
     1
290
     0
176
     1
290
     1
176
     1
290
     1
176
     1
290
     0
176
     1
290
     0
176
     1
290
     0
176
     1
290
     0
176
     1
290
     0
176
     1
290
     0
176
     1
 90
       50
176
     1
 40
0.0
176
     1
 40
1.0
176
     1
 90
        0
176
     1
 62
    18
420
        0
176
     1
 90
       50
176
     1
 90
        3
176
     1
 62
     5
420
      255
176
     1
290
     0
176
     1
 90
       50
176
     1
 90
       50
176
     1
 90
       50
176
     1
290
     0
176
     1
 90
       50
176
     1
 62
   256
176
     0
 40
1.0
176
     0
 90
        2
176
     1
  1
strokes_ogs.tif
176
     1
290
     0
176
     1
 40
1.0
176
     1
 40
1.0
176
     1
  0
DICTIONARYVAR
  5
1E7
102
{ACAD_REACTORS
330
1E6
102
}
330
1E6
100
DictionaryVariables
280
     0
  1
1:1
  0
DICTIONARYVAR
  5
1EC
102
{ACAD_REACTORS
330
1E6
102
}
330
1E6
100
DictionaryVariables
280
     0
  1
Standard
  0
DICTIONARYVAR
  5
1EB
102
{ACAD_REACTORS
330
1E6
102
}
330
1E6
100
DictionaryVariables
280
     0
  1
Standard
  0
DICTIONARY
  5
1E8
330
6A
100
AcDbDictionary
280
     1
281
     1
  3
ACAD_ROUNDTRIP_2008_TABLESTYLE_CELLSTYLEMAP
360
1E9
  0
CELLSTYLEMAP
  5
1E9
102
{ACAD_REACTORS
330
1E8
102
}
330
1E8
100
AcDbCellStyleMap
 90
        3
300
CELLSTYLE
  1
TABLEFORMAT_BEGIN
 90
        5
170
     1
 91
        0
 92
    32768
 62
   257
 93
        1
300
CONTENTFORMAT
  1
CONTENTFORMAT_BEGIN
 90
        0
 91
        0
 92
        4
 93
        0
300

 40
0.0
140
1.0
 94
        5
 62
     0
340
11
144
0.25
309
CONTENTFORMAT_END
171
     1
301
MARGIN
  1
CELLMARGIN_BEGIN
 40
0.06
 40
0.06
 40
0.06
 40
0.06
 40
0.06
 40
0.06
309
CELLMARGIN_END
 94
        6
 95
        1
302
GRIDFORMAT
  1
GRIDFORMAT_BEGIN
 90
        0
 91
        1
 62
     0
 92
       -2
340
14
 93
        0
 40
0.045
309
GRIDFORMAT_END
 95
        2
302
GRIDFORMAT
  1
GRIDFORMAT_BEGIN
 90
        0
 91
        1
 62
     0
 92
       -2
340
14
 93
        0
 40
0.045
309
GRIDFORMAT_END
 95
        4
302
GRIDFORMAT
  1
GRIDFORMAT_BEGIN
 90
        0
 91
        1
 62
     0
 92
       -2
340
14
 93
        0
 40
0.045
309
GRIDFORMAT_END
 95
        8
302
GRIDFORMAT
  1
GRIDFORMAT_BEGIN
 90
        0
 91
        1
 62
     0
 92
       -2
340
14
 93
        0
 40
0.045
309
GRIDFORMAT_END
 95
       16
302
GRIDFORMAT
  1
GRIDFORMAT_BEGIN
 90
        0
 91
        1
 62
     0
 92
       -2
340
14
 93
        0
 40
0.045
309
GRIDFORMAT_END
 95
       32
302
GRIDFORMAT
  1
GRIDFORMAT_BEGIN
 90
        0
 91
        1
 62
     0
 92
       -2
340
14
 93
        0
 40
0.045
309
GRIDFORMAT_END
309
TABLEFORMAT_END
  1
CELLSTYLE_BEGIN
 90
        1
 91
        1
300
_TITLE
309
CELLSTYLE_END
300
CELLSTYLE
  1
TABLEFORMAT_BEGIN
 90
        5
170
     1
 91
        0
 92
        0
 62
   257
 93
        1
300
CONTENTFORMAT
  1
CONTENTFORMAT_BEGIN
 90
        0
 91
        0
 92
        4
 93
        0
300

 40
0.0
140
1.0
 94
        5
 62
     0
340
11
144
0.18
309
CONTENTFORMAT_END
171
     1
301
MARGIN
  1
CELLMARGIN_BEGIN
 40
0.06
 40
0.06
 40
0.06
 40
0.06
 40
0.06
 40
0.06
309
CELLMARGIN_END
 94
        6
 95
        1
302
GRIDFORMAT
  1
GRIDFORMAT_BEGIN
 90
        0
 91
        1
 62
     0
 92
       -2
340
14
 93
        0
 40
0.045
309
GRIDFORMAT_END
 95
        2
302
GRIDFORMAT
  1
GRIDFORMAT_BEGIN
 90
        0
 91
        1
 62
     0
 92
       -2
340
14
 93
        0
 40
0.045
309
GRIDFORMAT_END
 95
        4
302
GRIDFORMAT
  1
GRIDFORMAT_BEGIN
 90
        0
 91
        1
 62
     0
 92
       -2
340
14
 93
        0
 40
0.045
309
GRIDFORMAT_END
 95
        8
302
GRIDFORMAT
  1
GRIDFORMAT_BEGIN
 90
        0
 91
        1
 62
     0
 92
       -2
340
14
 93
        0
 40
0.045
309
GRIDFORMAT_END
 95
       16
302
GRIDFORMAT
  1
GRIDFORMAT_BEGIN
 90
        0
 91
        1
 62
     0
 92
       -2
340
14
 93
        0
 40
0.045
309
GRIDFORMAT_END
 95
       32
302
GRIDFORMAT
  1
GRIDFORMAT_BEGIN
 90
        0
 91
        1
 62
     0
 92
       -2
340
14
 93
        0
 40
0.045
309
GRIDFORMAT_END
309
TABLEFORMAT_END
  1
CELLSTYLE_BEGIN
 90
        2
 91
        1
300
_HEADER
309
CELLSTYLE_END
300
CELLSTYLE
  1
TABLEFORMAT_BEGIN
 90
        5
170
     1
 91
        0
 92
        0
 62
   257
 93
        1
300
CONTENTFORMAT
  1
CONTENTFORMAT_BEGIN
 90
        0
 91
        0
 92
        4
 93
        0
300

 40
0.0
140
1.0
 94
        2
 62
     0
340
11
144
0.18
309
CONTENTFORMAT_END
171
     1
301
MARGIN
  1
CELLMARGIN_BEGIN
 40
0.06
 40
0.06
 40
0.06
 40
0.06
 40
0.06
 40
0.06
309
CELLMARGIN_END
 94
        6
 95
        1
302
GRIDFORMAT
  1
GRIDFORMAT_BEGIN
 90
        0
 91
        1
 62
     0
 92
       -2
340
14
 93
        0
 40
0.045
309
GRIDFORMAT_END
 95
        2
302
GRIDFORMAT
  1
GRIDFORMAT_BEGIN
 90
        0
 91
        1
 62
     0
 92
       -2
340
14
 93
        0
 40
0.045
309
GRIDFORMAT_END
 95
        4
302
GRIDFORMAT
  1
GRIDFORMAT_BEGIN
 90
        0
 91
        1
 62
     0
 92
       -2
340
14
 93
        0
 40
0.045
309
GRIDFORMAT_END
 95
        8
302
GRIDFORMAT
  1
GRIDFORMAT_BEGIN
 90
        0
 91
        1
 62
     0
 92
       -2
340
14
 93
        0
 40
0.045
309
GRIDFORMAT_END
 95
       16
302
GRIDFORMAT
  1
GRIDFORMAT_BEGIN
 90
        0
 91
        1
 62
     0
 92
       -2
340
14
 93
        0
 40
0.045
309
GRIDFORMAT_END
 95
       32
302
GRIDFORMAT
  1
GRIDFORMAT_BEGIN
 90
        0
 91
        1
 62
     0
 92
       -2
340
14
 93
        0
 40
0.045
309
GRIDFORMAT_END
309
TABLEFORMAT_END
  1
CELLSTYLE_BEGIN
 90
        3
 91
        2
300
_DATA
309
CELLSTYLE_END
  0
ENDSEC
  0
EOF