0
SECTION
  2
HEADER
  9
$ACADVER
  1
AC1027
  9
$ACADMAINTVER
 70
     8
  9
$DWGCODEPAGE
  3
ANSI_1252
  9
$REQUIREDVERSIONS
160
                 0
  9
$COMMENTS
  1
File was created by Cadenas
  9
$CUSTOMPROPERTYTAG
  1
NN
  9
$CUSTOMPROPERTY
  1
Set Screw Narrow Slot Take Up Inch Bore
  9
$CUSTOMPROPERTYTAG
  1
NT
  9
$CUSTOMPROPERTY
  1
SC Take-Up Bearings -Narrow Slot -(Normal Duty)
  9
$CUSTOMPROPERTYTAG
  1
NB
  9
$CUSTOMPROPERTY
  1
125368
  9
$CUSTOMPROPERTYTAG
  1
NBSYN
  9
$CUSTOMPROPERTY
  1
$PN.
  9
$CUSTOMPROPERTYTAG
  1
LINA
  9
$CUSTOMPROPERTY
  1
125368
  9
$CUSTOMPROPERTYTAG
  1
SERIES
  9
$CUSTOMPROPERTY
  1
207
  9
$CUSTOMPROPERTYTAG
  1
SS
  9
$CUSTOMPROPERTY
  1
1-5/16
  9
$CUSTOMPROPERTYTAG
  1
PN
  9
$CUSTOMPROPERTY
  1
125368
  9
$CUSTOMPROPERTYTAG
  1
DESCRIPTION
  9
$CUSTOMPROPERTY
  1
NSTU-SC-105
  9
$CUSTOMPROPERTYTAG
  1
W
  9
$CUSTOMPROPERTY
  1
2.7
  9
$CUSTOMPROPERTYTAG
  1
FS
  9
$CUSTOMPROPERTY
  1
NS308
  9
$CUSTOMPROPERTYTAG
  1
LF
  9
$CUSTOMPROPERTY
  1
RE-LUBE
  9
$CUSTOMPROPERTYTAG
  1
A
  9
$CUSTOMPROPERTY
  1
1.71
  9
$CUSTOMPROPERTYTAG
  1
B
  9
$CUSTOMPROPERTY
  1
4.50
  9
$CUSTOMPROPERTYTAG
  1
C
  9
$CUSTOMPROPERTY
  1
0.250
  9
$CUSTOMPROPERTYTAG
  1
D
  9
$CUSTOMPROPERTY
  1
2.50
  9
$CUSTOMPROPERTYTAG
  1
E
  9
$CUSTOMPROPERTY
  1
2.69
  9
$CUSTOMPROPERTYTAG
  1
F
  9
$CUSTOMPROPERTY
  1
3/4
  9
$CUSTOMPROPERTYTAG
  1
G
  9
$CUSTOMPROPERTY
  1
0.50
  9
$CUSTOMPROPERTYTAG
  1
H
  9
$CUSTOMPROPERTY
  1
0.94
  9
$CUSTOMPROPERTYTAG
  1
J
  9
$CUSTOMPROPERTY
  1
1.38
  9
$CUSTOMPROPERTYTAG
  1
L
  9
$CUSTOMPROPERTY
  1
1.84
  9
$CUSTOMPROPERTYTAG
  1
M
  9
$CUSTOMPROPERTY
  1
3.510 / 3.480
  9
$CUSTOMPROPERTYTAG
  1
N
  9
$CUSTOMPROPERTY
  1
4.13
  9
$CUSTOMPROPERTYTAG
  1
P
  9
$CUSTOMPROPERTY
  1
0.32
  9
$CUSTOMPROPERTYTAG
  1
R
  9
$CUSTOMPROPERTY
  1
0.67
  9
$CUSTOMPROPERTYTAG
  1
S
  9
$CUSTOMPROPERTY
  1
1.04
  9
$CUSTOMPROPERTYTAG
  1
COMPANY
  9
$CUSTOMPROPERTY
  1
baldor
  9
$INSBASE
 10
0.0
 20
0.0
 30
0.0
  9
$EXTMIN
 10
1.000000000000000E+20
 20
1.000000000000000E+20
 30
1.000000000000000E+20
  9
$EXTMAX
 10
-1.000000000000000E+20
 20
-1.000000000000000E+20
 30
-1.000000000000000E+20
  9
$LIMMIN
 10
0.0
 20
0.0
  9
$LIMMAX
 10
12.0
 20
9.0
  9
$ORTHOMODE
 70
     0
  9
$REGENMODE
 70
     1
  9
$FILLMODE
 70
     1
  9
$QTEXTMODE
 70
     0
  9
$MIRRTEXT
 70
     1
  9
$LTSCALE
 40
1.0
  9
$ATTMODE
 70
     1
  9
$TEXTSIZE
 40
0.2
  9
$TRACEWID
 40
0.05
  9
$TEXTSTYLE
  7
Standard
  9
$CLAYER
  8
0
  9
$CELTYPE
  6
ByLayer
  9
$CECOLOR
 62
   256
  9
$CELTSCALE
 40
1.0
  9
$DISPSILH
 70
     0
  9
$DIMSCALE
 40
1.0
  9
$DIMASZ
 40
0.18
  9
$DIMEXO
 40
0.0625
  9
$DIMDLI
 40
0.38
  9
$DIMRND
 40
0.0
  9
$DIMDLE
 40
0.0
  9
$DIMEXE
 40
0.18
  9
$DIMTP
 40
0.0
  9
$DIMTM
 40
0.0
  9
$DIMTXT
 40
0.18
  9
$DIMCEN
 40
0.09
  9
$DIMTSZ
 40
0.0
  9
$DIMTOL
 70
     0
  9
$DIMLIM
 70
     0
  9
$DIMTIH
 70
     1
  9
$DIMTOH
 70
     1
  9
$DIMSE1
 70
     0
  9
$DIMSE2
 70
     0
  9
$DIMTAD
 70
     0
  9
$DIMZIN
 70
     0
  9
$DIMBLK
  1

  9
$DIMASO
 70
     1
  9
$DIMSHO
 70
     1
  9
$DIMPOST
  1

  9
$DIMAPOST
  1

  9
$DIMALT
 70
     0
  9
$DIMALTD
 70
     2
  9
$DIMALTF
 40
25.4
  9
$DIMLFAC
 40
1.0
  9
$DIMTOFL
 70
     0
  9
$DIMTVP
 40
0.0
  9
$DIMTIX
 70
     0
  9
$DIMSOXD
 70
     0
  9
$DIMSAH
 70
     0
  9
$DIMBLK1
  1

  9
$DIMBLK2
  1

  9
$DIMSTYLE
  2
Standard
  9
$DIMCLRD
 70
     0
  9
$DIMCLRE
 70
     0
  9
$DIMCLRT
 70
     0
  9
$DIMTFAC
 40
1.0
  9
$DIMGAP
 40
0.09
  9
$DIMJUST
 70
     0
  9
$DIMSD1
 70
     0
  9
$DIMSD2
 70
     0
  9
$DIMTOLJ
 70
     1
  9
$DIMTZIN
 70
     0
  9
$DIMALTZ
 70
     0
  9
$DIMALTTZ
 70
     0
  9
$DIMUPT
 70
     0
  9
$DIMDEC
 70
     4
  9
$DIMTDEC
 70
     4
  9
$DIMALTU
 70
     2
  9
$DIMALTTD
 70
     2
  9
$DIMTXSTY
  7
Standard
  9
$DIMAUNIT
 70
     0
  9
$DIMADEC
 70
     0
  9
$DIMALTRND
 40
0.0
  9
$DIMAZIN
 70
     0
  9
$DIMDSEP
 70
    46
  9
$DIMATFIT
 70
     3
  9
$DIMFRAC
 70
     0
  9
$DIMLDRBLK
  1

  9
$DIMLUNIT
 70
     2
  9
$DIMLWD
 70
    -2
  9
$DIMLWE
 70
    -2
  9
$DIMTMOVE
 70
     0
  9
$DIMFXL
 40
1.0
  9
$DIMFXLON
 70
     0
  9
$DIMJOGANG
 40
0.7853981633974483
  9
$DIMTFILL
 70
     0
  9
$DIMTFILLCLR
 70
     0
  9
$DIMARCSYM
 70
     0
  9
$DIMLTYPE
  6

  9
$DIMLTEX1
  6

  9
$DIMLTEX2
  6

  9
$DIMTXTDIRECTION
 70
     0
  9
$LUNITS
 70
     2
  9
$LUPREC
 70
     4
  9
$SKETCHINC
 40
0.1
  9
$FILLETRAD
 40
0.5
  9
$AUNITS
 70
     0
  9
$AUPREC
 70
     0
  9
$MENU
  1
.
  9
$ELEVATION
 40
0.0
  9
$PELEVATION
 40
0.0
  9
$THICKNESS
 40
0.0
  9
$LIMCHECK
 70
     0
  9
$CHAMFERA
 40
0.0
  9
$CHAMFERB
 40
0.0
  9
$CHAMFERC
 40
0.0
  9
$CHAMFERD
 40
0.0
  9
$SKPOLY
 70
     0
  9
$TDCREATE
 40
2458169.011599306
  9
$TDUCREATE
 40
2458168.969932639
  9
$TDUPDATE
 40
2458169.011599491
  9
$TDUUPDATE
 40
2458168.969932824
  9
$TDINDWG
 40
0.0000000116
  9
$TDUSRTIMER
 40
0.0000000116
  9
$USRTIMER
 70
     1
  9
$ANGBASE
 50
0.0
  9
$ANGDIR
 70
     0
  9
$PDMODE
 70
     0
  9
$PDSIZE
 40
0.0
  9
$PLINEWID
 40
0.0
  9
$SPLFRAME
 70
     0
  9
$SPLINETYPE
 70
     6
  9
$SPLINESEGS
 70
     8
  9
$HANDSEED
  5
1E5
  9
$SURFTAB1
 70
     6
  9
$SURFTAB2
 70
     6
  9
$SURFTYPE
 70
     6
  9
$SURFU
 70
     6
  9
$SURFV
 70
     6
  9
$UCSBASE
  2

  9
$UCSNAME
  2

  9
$UCSORG
 10
0.0
 20
0.0
 30
0.0
  9
$UCSXDIR
 10
1.0
 20
0.0
 30
0.0
  9
$UCSYDIR
 10
0.0
 20
1.0
 30
0.0
  9
$UCSORTHOREF
  2

  9
$UCSORTHOVIEW
 70
     0
  9
$UCSORGTOP
 10
0.0
 20
0.0
 30
0.0
  9
$UCSORGBOTTOM
 10
0.0
 20
0.0
 30
0.0
  9
$UCSORGLEFT
 10
0.0
 20
0.0
 30
0.0
  9
$UCSORGRIGHT
 10
0.0
 20
0.0
 30
0.0
  9
$UCSORGFRONT
 10
0.0
 20
0.0
 30
0.0
  9
$UCSORGBACK
 10
0.0
 20
0.0
 30
0.0
  9
$PUCSBASE
  2

  9
$PUCSNAME
  2

  9
$PUCSORG
 10
0.0
 20
0.0
 30
0.0
  9
$PUCSXDIR
 10
1.0
 20
0.0
 30
0.0
  9
$PUCSYDIR
 10
0.0
 20
1.0
 30
0.0
  9
$PUCSORTHOREF
  2

  9
$PUCSORTHOVIEW
 70
     0
  9
$PUCSORGTOP
 10
0.0
 20
0.0
 30
0.0
  9
$PUCSORGBOTTOM
 10
0.0
 20
0.0
 30
0.0
  9
$PUCSORGLEFT
 10
0.0
 20
0.0
 30
0.0
  9
$PUCSORGRIGHT
 10
0.0
 20
0.0
 30
0.0
  9
$PUCSORGFRONT
 10
0.0
 20
0.0
 30
0.0
  9
$PUCSORGBACK
 10
0.0
 20
0.0
 30
0.0
  9
$USERI1
 70
     0
  9
$USERI2
 70
     0
  9
$USERI3
 70
     0
  9
$USERI4
 70
     0
  9
$USERI5
 70
     0
  9
$USERR1
 40
0.0
  9
$USERR2
 40
0.0
  9
$USERR3
 40
0.0
  9
$USERR4
 40
0.0
  9
$USERR5
 40
0.0
  9
$WORLDVIEW
 70
     1
  9
$SHADEDGE
 70
     3
  9
$SHADEDIF
 70
    70
  9
$TILEMODE
 70
     1
  9
$MAXACTVP
 70
    64
  9
$PINSBASE
 10
0.0
 20
0.0
 30
0.0
  9
$PLIMCHECK
 70
     0
  9
$PEXTMIN
 10
1.000000000000000E+20
 20
1.000000000000000E+20
 30
1.000000000000000E+20
  9
$PEXTMAX
 10
-1.000000000000000E+20
 20
-1.000000000000000E+20
 30
-1.000000000000000E+20
  9
$PLIMMIN
 10
0.0
 20
0.0
  9
$PLIMMAX
 10
12.0
 20
9.0
  9
$UNITMODE
 70
     0
  9
$VISRETAIN
 70
     1
  9
$PLINEGEN
 70
     0
  9
$PSLTSCALE
 70
     1
  9
$TREEDEPTH
 70
  3020
  9
$CMLSTYLE
  2
Standard
  9
$CMLJUST
 70
     0
  9
$CMLSCALE
 40
1.0
  9
$PROXYGRAPHICS
 70
     1
  9
$MEASUREMENT
 70
     0
  9
$CELWEIGHT
370
    -1
  9
$ENDCAPS
280
     0
  9
$JOINSTYLE
280
     0
  9
$LWDISPLAY
290
     0
  9
$INSUNITS
 70
     1
  9
$HYPERLINKBASE
  1

  9
$STYLESHEET
  1

  9
$XEDIT
290
     1
  9
$CEPSNTYPE
380
     0
  9
$PSTYLEMODE
290
     1
  9
$FINGERPRINTGUID
  2
{F8DD9EAC-D7C3-453F-AB33-E5CFB86CD5DA}
  9
$VERSIONGUID
  2
{FAEB1C32-E019-11D5-929B-00C0DF256EC4}
  9
$EXTNAMES
290
     1
  9
$PSVPSCALE
 40
0.0
  9
$OLESTARTUP
290
     0
  9
$SORTENTS
280
   127
  9
$INDEXCTL
280
     0
  9
$HIDETEXT
280
     1
  9
$XCLIPFRAME
280
     2
  9
$HALOGAP
280
     0
  9
$OBSCOLOR
 70
   257
  9
$OBSLTYPE
280
     0
  9
$INTERSECTIONDISPLAY
280
     0
  9
$INTERSECTIONCOLOR
 70
   257
  9
$DIMASSOC
280
     2
  9
$PROJECTNAME
  1

  9
$CAMERADISPLAY
290
     0
  9
$LENSLENGTH
 40
50.0
  9
$CAMERAHEIGHT
 40
0.0
  9
$STEPSPERSEC
 40
2.0
  9
$STEPSIZE
 40
6.0
  9
$3DDWFPREC
 40
2.0
  9
$PSOLWIDTH
 40
0.25
  9
$PSOLHEIGHT
 40
4.0
  9
$LOFTANG1
 40
1.570796326794897
  9
$LOFTANG2
 40
1.570796326794897
  9
$LOFTMAG1
 40
0.0
  9
$LOFTMAG2
 40
0.0
  9
$LOFTPARAM
 70
     7
  9
$LOFTNORMALS
280
     1
  9
$LATITUDE
 40
37.795
  9
$LONGITUDE
 40
-122.394
  9
$NORTHDIRECTION
 40
0.0
  9
$TIMEZONE
 70
 -8000
  9
$LIGHTGLYPHDISPLAY
280
     1
  9
$TILEMODELIGHTSYNCH
280
     1
  9
$CMATERIAL
347
44
  9
$SOLIDHIST
280
     0
  9
$SHOWHIST
280
     1
  9
$DWFFRAME
280
     2
  9
$DGNFRAME
280
     2
  9
$REALWORLDSCALE
290
     1
  9
$INTERFERECOLOR
 62
   256
  9
$CSHADOW
280
     0
  9
$SHADOWPLANELOCATION
 40
0.0
  0
ENDSEC
  0
SECTION
  2
CLASSES
  0
CLASS
  1
ACDBDICTIONARYWDFLT
  2
AcDbDictionaryWithDefault
  3
ObjectDBX Classes
 90
        0
 91
        4
280
     0
281
     0
  0
CLASS
  1
VISUALSTYLE
  2
AcDbVisualStyle
  3
ObjectDBX Classes
 90
     4095
 91
        4
280
     0
281
     0
  0
CLASS
  1
MATERIAL
  2
AcDbMaterial
  3
ObjectDBX Classes
 90
     1153
 91
        4
280
     0
281
     0
  0
CLASS
  1
SCALE
  2
AcDbScale
  3
ObjectDBX Classes
 90
     1153
 91
        4
280
     0
281
     0
  0
CLASS
  1
TABLESTYLE
  2
AcDbTableStyle
  3
ObjectDBX Classes
 90
     4095
 91
        4
280
     0
281
     0
  0
CLASS
  1
MLEADERSTYLE
  2
AcDbMLeaderStyle
  3
ACDB_MLEADERSTYLE_CLASS
 90
     4095
 91
        4
280
     0
281
     0
  0
CLASS
  1
SUN
  2
AcDbSun
  3
SCENEOE
 90
     1153
 91
        4
280
     0
281
     0
  0
CLASS
  1
DICTIONARYVAR
  2
AcDbDictionaryVar
  3
ObjectDBX Classes
 90
        0
 91
        4
280
     0
281
     0
  0
CLASS
  1
CELLSTYLEMAP
  2
AcDbCellStyleMap
  3
ObjectDBX Classes
 90
     1152
 91
        4
280
     0
281
     0
  0
ENDSEC
  0
SECTION
  2
TABLES
  0
TABLE
  2
VPORT
  5
8
330
0
100
AcDbSymbolTable
 70
     1
  0
VPORT
  5
29
330
8
100
AcDbSymbolTableRecord
100
AcDbViewportTableRecord
  2
*Active
 70
     0
 10
0.0
 20
0.0
 11
1.0
 21
1.0
 12
-0.183250000000001
 22
0.0
 13
0.0
 23
0.0
 14
0.5
 24
0.5
 15
0.5
 25
0.5
 16
0.0
 26
0.0
 36
1.0
 17
0.0
 27
0.0
 37
0.0
 40
4.212599999999999
 41
0.4562953995157392
 42
50.0
 43
0.0
 44
0.0
 50
0.0
 51
0.0
 71
     0
 72
   100
 73
     1
 74
     3
 75
     0
 76
     0
 77
     0
 78
     0
281
     0
 65
     1
110
0.0
120
0.0
130
0.0
111
1.0
121
0.0
131
0.0
112
0.0
122
1.0
132
0.0
 79
     0
146
0.0
348
2F
 60
     3
 61
     5
292
     1
282
     1
141
0.0
142
0.0
 63
   250
361
6D
  0
ENDTAB
  0
TABLE
  2
LTYPE
  5
5
330
0
100
AcDbSymbolTable
 70
     3
  0
LTYPE
  5
14
330
5
100
AcDbSymbolTableRecord
100
AcDbLinetypeTableRecord
  2
ByBlock
 70
     0
  3

 72
    65
 73
     0
 40
0.0
  0
LTYPE
  5
15
330
5
100
AcDbSymbolTableRecord
100
AcDbLinetypeTableRecord
  2
ByLayer
 70
     0
  3

 72
    65
 73
     0
 40
0.0
  0
LTYPE
  5
16
330
5
100
AcDbSymbolTableRecord
100
AcDbLinetypeTableRecord
  2
Continuous
 70
     0
  3
Solid line
 72
    65
 73
     0
 40
0.0
  0
LTYPE
  5
A0
330
5
100
AcDbSymbolTableRecord
100
AcDbLinetypeTableRecord
  2
Dashed
 70
     0
  3

 72
    65
 73
     2
 40
2.0
 49
1.0
 74
     0
 49
-1.0
 74
     0
  0
LTYPE
  5
157
330
5
100
AcDbSymbolTableRecord
100
AcDbLinetypeTableRecord
  2
Center
 70
     0
  3

 72
    65
 73
     4
 40
1.5
 49
0.45
 74
     0
 49
-0.5
 74
     0
 49
0.05
 74
     0
 49
-0.5
 74
     0
  0
ENDTAB
  0
TABLE
  2
LAYER
  5
2
330
0
100
AcDbSymbolTable
 70
     7
  0
LAYER
  5
10
330
2
100
AcDbSymbolTableRecord
100
AcDbLayerTableRecord
  2
0
 70
     0
 62
     7
  6
Continuous
370
    -3
390
F
347
46
348
0
  0
LAYER
  5
72
330
2
100
AcDbSymbolTableRecord
100
AcDbLayerTableRecord
  2
AM_6
 70
     0
 62
    -2
  6
Continuous
370
    35
390
F
347
46
348
0
  0
LAYER
  5
A1
330
2
100
AcDbSymbolTableRecord
100
AcDbLayerTableRecord
  2
AM_9
 70
     0
 62
     6
  6
Dashed
370
    25
390
F
347
46
348
0
  0
LAYER
  5
107
330
2
100
AcDbSymbolTableRecord
100
AcDbLayerTableRecord
  2
AM_4
 70
     0
 62
     7
  6
Continuous
370
    50
390
F
347
46
348
0
  0
LAYER
  5
154
330
2
100
AcDbSymbolTableRecord
100
AcDbLayerTableRecord
  2
AM_5
 70
     0
 62
     3
  6
Continuous
370
    25
390
F
347
46
348
0
  0
LAYER
  5
158
330
2
100
AcDbSymbolTableRecord
100
AcDbLayerTableRecord
  2
AM_7
 70
     0
 62
     7
  6
Center
370
    25
390
F
347
46
348
0
  0
LAYER
  5
1D7
330
2
100
AcDbSymbolTableRecord
100
AcDbLayerTableRecord
  2
ConnectionPoints
 70
     0
 62
     7
  6
Continuous
370
    50
390
F
347
46
348
0
  0
ENDTAB
  0
TABLE
  2
STYLE
  5
3
330
0
100
AcDbSymbolTable
 70
     1
  0
STYLE
  5
11
330
3
100
AcDbSymbolTableRecord
100
AcDbTextStyleTableRecord
  2
Standard
 70
     0
 40
0.0
 41
1.0
 50
0.0
 71
     0
 42
0.2
  3
txt
  4

  0
ENDTAB
  0
TABLE
  2
VIEW
  5
6
330
0
100
AcDbSymbolTable
 70
     0
  0
ENDTAB
  0
TABLE
  2
UCS
  5
7
330
0
100
AcDbSymbolTable
 70
     0
  0
ENDTAB
  0
TABLE
  2
APPID
  5
9
330
0
100
AcDbSymbolTable
 70
     1
  0
APPID
  5
12
330
9
100
AcDbSymbolTableRecord
100
AcDbRegAppTableRecord
  2
ACAD
 70
     0
  0
ENDTAB
  0
TABLE
  2
DIMSTYLE
  5
A
330
0
100
AcDbSymbolTable
 70
     1
100
AcDbDimStyleTable
  0
DIMSTYLE
105
27
330
A
100
AcDbSymbolTableRecord
100
AcDbDimStyleTableRecord
  2
Standard
 70
     0
178
     0
340
11
  0
ENDTAB
  0
TABLE
  2
BLOCK_RECORD
  5
1
330
0
100
AcDbSymbolTable
 70
     5
  0
BLOCK_RECORD
  5
1F
330
1
100
AcDbSymbolTableRecord
100
AcDbBlockTableRecord
  2
*Model_Space
340
22
 70
     0
280
     1
281
     0
  0
BLOCK_RECORD
  5
1B
330
1
100
AcDbSymbolTableRecord
100
AcDbBlockTableRecord
  2
*Paper_Space
340
1E
 70
     0
280
     1
281
     0
  0
BLOCK_RECORD
  5
23
330
1
100
AcDbSymbolTableRecord
100
AcDbBlockTableRecord
  2
*Paper_Space0
340
26
 70
     0
280
     1
281
     0
  0
BLOCK_RECORD
  5
6E
330
1
100
AcDbSymbolTableRecord
100
AcDbBlockTableRecord
  2
1_125368_2
340
0
102
{BLKREFS
331
6F
102
}
 70
     0
280
     1
281
     0
  0
BLOCK_RECORD
  5
8F
330
1
100
AcDbSymbolTableRecord
100
AcDbBlockTableRecord
  2
2_405016_Inch_0_in_125368_2
340
0
102
{BLKREFS
331
90
102
}
 70
     0
280
     1
281
     0
  0
BLOCK_RECORD
  5
109
330
1
100
AcDbSymbolTableRecord
100
AcDbBlockTableRecord
  2
3_123340_0_in_125368_2
340
0
102
{BLKREFS
331
10A
102
}
 70
     0
280
     1
281
     0
  0
BLOCK_RECORD
  5
171
330
1
100
AcDbSymbolTableRecord
100
AcDbBlockTableRecord
  2
4_125368H_0_in_125368_2
340
0
102
{BLKREFS
331
172
102
}
 70
     0
280
     1
281
     0
  0
ENDTAB
  0
ENDSEC
  0
SECTION
  2
BLOCKS
  0
BLOCK
  5
20
330
1F
100
AcDbEntity
  8
0
100
AcDbBlockBegin
  2
*Model_Space
 70
     0
 10
0.0
 20
0.0
 30
0.0
  3
*Model_Space
  1

  0
ENDBLK
  5
21
330
1F
100
AcDbEntity
  8
0
100
AcDbBlockEnd
  0
BLOCK
  5
1C
330
1B
100
AcDbEntity
 67
     1
  8
0
100
AcDbBlockBegin
  2
*Paper_Space
 70
     0
 10
0.0
 20
0.0
 30
0.0
  3
*Paper_Space
  1

  0
ENDBLK
  5
1D
330
1B
100
AcDbEntity
 67
     1
  8
0
100
AcDbBlockEnd
  0
BLOCK
  5
24
330
23
100
AcDbEntity
  8
0
100
AcDbBlockBegin
  2
*Paper_Space0
 70
     0
 10
0.0
 20
0.0
 30
0.0
  3
*Paper_Space0
  1

  0
ENDBLK
  5
25
330
23
100
AcDbEntity
  8
0
100
AcDbBlockEnd
  0
BLOCK
  5
70
330
6E
100
AcDbEntity
  8
0
100
AcDbBlockBegin
  2
1_125368_2
 70
     2
 10
0.0
 20
0.0
 30
0.0
  3
1_125368_2
  1

  0
ATTDEF
  5
73
330
6E
100
AcDbEntity
  8
AM_6
100
AcDbText
 10
5.759
 20
2.065
 30
0.0
 40
0.5
  1
Set Screw Narrow Slot Take Up Inch Bore
100
AcDbAttributeDefinition
  3

  2
NN
 70
     8
280
     0
  0
ATTDEF
  5
74
330
6E
100
AcDbEntity
  8
AM_6
100
AcDbText
 10
5.759
 20
1.565
 30
0.0
 40
0.5
  1
SC Take-Up Bearings -Narrow Slot -(Normal Duty)
100
AcDbAttributeDefinition
  3

  2
NT
 70
     8
280
     0
  0
ATTDEF
  5
75
330
6E
100
AcDbEntity
  8
AM_6
100
AcDbText
 10
5.759
 20
1.065
 30
0.0
 40
0.5
  1
125368
100
AcDbAttributeDefinition
  3

  2
NB
 70
     8
280
     0
  0
ATTDEF
  5
76
330
6E
100
AcDbEntity
  8
AM_6
100
AcDbText
 10
5.759
 20
0.565
 30
0.0
 40
0.5
  1
$PN.
100
AcDbAttributeDefinition
  3

  2
NBSYN
 70
     8
280
     0
  0
ATTDEF
  5
77
330
6E
100
AcDbEntity
  8
AM_6
100
AcDbText
 10
5.759
 20
0.0649999999999999
 30
0.0
 40
0.5
  1
125368
100
AcDbAttributeDefinition
  3

  2
LINA
 70
     8
280
     0
  0
ATTDEF
  5
78
330
6E
100
AcDbEntity
  8
AM_6
100
AcDbText
 10
5.759
 20
-0.4350000000000001
 30
0.0
 40
0.5
  1
207
100
AcDbAttributeDefinition
  3

  2
SERIES
 70
     8
280
     0
  0
ATTDEF
  5
79
330
6E
100
AcDbEntity
  8
AM_6
100
AcDbText
 10
5.759
 20
-0.935
 30
0.0
 40
0.5
  1
1-5/16
100
AcDbAttributeDefinition
  3

  2
SS
 70
     8
280
     0
  0
ATTDEF
  5
7A
330
6E
100
AcDbEntity
  8
AM_6
100
AcDbText
 10
5.759
 20
-1.435
 30
0.0
 40
0.5
  1
125368
100
AcDbAttributeDefinition
  3

  2
PN
 70
     8
280
     0
  0
ATTDEF
  5
7B
330
6E
100
AcDbEntity
  8
AM_6
100
AcDbText
 10
5.759
 20
-1.935
 30
0.0
 40
0.5
  1
NSTU-SC-105
100
AcDbAttributeDefinition
  3

  2
DESCRIPTION
 70
     8
280
     0
  0
ATTDEF
  5
7C
330
6E
100
AcDbEntity
  8
AM_6
100
AcDbText
 10
5.759
 20
-2.435
 30
0.0
 40
0.5
  1
2.7
100
AcDbAttributeDefinition
  3

  2
W
 70
     8
280
     0
  0
ATTDEF
  5
7D
330
6E
100
AcDbEntity
  8
AM_6
100
AcDbText
 10
5.759
 20
-2.935
 30
0.0
 40
0.5
  1
NS308
100
AcDbAttributeDefinition
  3

  2
FS
 70
     8
280
     0
  0
ATTDEF
  5
7E
330
6E
100
AcDbEntity
  8
AM_6
100
AcDbText
 10
5.759
 20
-3.435
 30
0.0
 40
0.5
  1
RE-LUBE
100
AcDbAttributeDefinition
  3

  2
LF
 70
     8
280
     0
  0
ATTDEF
  5
7F
330
6E
100
AcDbEntity
  8
AM_6
100
AcDbText
 10
5.759
 20
-3.935
 30
0.0
 40
0.5
  1
1.71
100
AcDbAttributeDefinition
  3

  2
A
 70
     8
280
     0
  0
ATTDEF
  5
80
330
6E
100
AcDbEntity
  8
AM_6
100
AcDbText
 10
5.759
 20
-4.435
 30
0.0
 40
0.5
  1
4.50
100
AcDbAttributeDefinition
  3

  2
B
 70
     8
280
     0
  0
ATTDEF
  5
81
330
6E
100
AcDbEntity
  8
AM_6
100
AcDbText
 10
5.759
 20
-4.935
 30
0.0
 40
0.5
  1
0.250
100
AcDbAttributeDefinition
  3

  2
C
 70
     8
280
     0
  0
ATTDEF
  5
82
330
6E
100
AcDbEntity
  8
AM_6
100
AcDbText
 10
5.759
 20
-5.435
 30
0.0
 40
0.5
  1
2.50
100
AcDbAttributeDefinition
  3

  2
D
 70
     8
280
     0
  0
ATTDEF
  5
83
330
6E
100
AcDbEntity
  8
AM_6
100
AcDbText
 10
5.759
 20
-5.935
 30
0.0
 40
0.5
  1
2.69
100
AcDbAttributeDefinition
  3

  2
E
 70
     8
280
     0
  0
ATTDEF
  5
84
330
6E
100
AcDbEntity
  8
AM_6
100
AcDbText
 10
5.759
 20
-6.435
 30
0.0
 40
0.5
  1
3/4
100
AcDbAttributeDefinition
  3

  2
F
 70
     8
280
     0
  0
ATTDEF
  5
85
330
6E
100
AcDbEntity
  8
AM_6
100
AcDbText
 10
5.759
 20
-6.935
 30
0.0
 40
0.5
  1
0.50
100
AcDbAttributeDefinition
  3

  2
G
 70
     8
280
     0
  0
ATTDEF
  5
86
330
6E
100
AcDbEntity
  8
AM_6
100
AcDbText
 10
5.759
 20
-7.435
 30
0.0
 40
0.5
  1
0.94
100
AcDbAttributeDefinition
  3

  2
H
 70
     8
280
     0
  0
ATTDEF
  5
87
330
6E
100
AcDbEntity
  8
AM_6
100
AcDbText
 10
5.759
 20
-7.935
 30
0.0
 40
0.5
  1
1.38
100
AcDbAttributeDefinition
  3

  2
J
 70
     8
280
     0
  0
ATTDEF
  5
88
330
6E
100
AcDbEntity
  8
AM_6
100
AcDbText
 10
5.759
 20
-8.435
 30
0.0
 40
0.5
  1
1.84
100
AcDbAttributeDefinition
  3

  2
L
 70
     8
280
     0
  0
ATTDEF
  5
89
330
6E
100
AcDbEntity
  8
AM_6
100
AcDbText
 10
5.759
 20
-8.935
 30
0.0
 40
0.5
  1
3.510 / 3.480
100
AcDbAttributeDefinition
  3

  2
M
 70
     8
280
     0
  0
ATTDEF
  5
8A
330
6E
100
AcDbEntity
  8
AM_6
100
AcDbText
 10
5.759
 20
-9.435
 30
0.0
 40
0.5
  1
4.13
100
AcDbAttributeDefinition
  3

  2
N
 70
     8
280
     0
  0
ATTDEF
  5
8B
330
6E
100
AcDbEntity
  8
AM_6
100
AcDbText
 10
5.759
 20
-9.935
 30
0.0
 40
0.5
  1
0.32
100
AcDbAttributeDefinition
  3

  2
P
 70
     8
280
     0
  0
ATTDEF
  5
8C
330
6E
100
AcDbEntity
  8
AM_6
100
AcDbText
 10
5.759
 20
-10.435
 30
0.0
 40
0.5
  1
0.67
100
AcDbAttributeDefinition
  3

  2
R
 70
     8
280
     0
  0
ATTDEF
  5
8D
330
6E
100
AcDbEntity
  8
AM_6
100
AcDbText
 10
5.759
 20
-10.935
 30
0.0
 40
0.5
  1
1.04
100
AcDbAttributeDefinition
  3

  2
S
 70
     8
280
     0
  0
ATTDEF
  5
8E
330
6E
100
AcDbEntity
  8
AM_6
100
AcDbText
 10
5.759
 20
-11.435
 30
0.0
 40
0.5
  1
baldor
100
AcDbAttributeDefinition
  3

  2
COMPANY
 70
     8
280
     0
  0
INSERT
  5
90
330
6E
100
AcDbEntity
  8
0
100
AcDbBlockReference
  2
2_405016_Inch_0_in_125368_2
 10
0.0
 20
0.0
 30
0.0
  0
INSERT
  5
10A
330
6E
100
AcDbEntity
  8
0
100
AcDbBlockReference
  2
3_123340_0_in_125368_2
 10
0.0
 20
0.0
 30
0.0
  0
INSERT
  5
172
330
6E
100
AcDbEntity
  8
0
100
AcDbBlockReference
  2
4_125368H_0_in_125368_2
 10
0.0
 20
0.0
 30
0.0
  0
ENDBLK
  5
71
330
6E
100
AcDbEntity
  8
0
100
AcDbBlockEnd
  0
BLOCK
  5
91
330
8F
100
AcDbEntity
  8
0
100
AcDbBlockBegin
  2
2_405016_Inch_0_in_125368_2
 70
     2
 10
0.0
 20
0.0
 30
0.0
  3
2_405016_Inch_0_in_125368_2
  1

  0
ATTDEF
  5
93
330
8F
100
AcDbEntity
  8
AM_6
100
AcDbText
 10
5.218750000000001
 20
-0.6469256983551602
 30
0.0
 40
0.5
  1
405016 -Inch
100
AcDbAttributeDefinition
  3

  2
NN
 70
     8
280
     0
  0
ATTDEF
  5
94
330
8F
100
AcDbEntity
  8
AM_6
100
AcDbText
 10
5.218750000000001
 20
-1.14692569835516
 30
0.0
 40
0.5
  1
Grease Fitting
100
AcDbAttributeDefinition
  3

  2
NT
 70
     8
280
     0
  0
ATTDEF
  5
95
330
8F
100
AcDbEntity
  8
AM_6
100
AcDbText
 10
5.218750000000001
 20
-1.64692569835516
 30
0.0
 40
0.5
  1
405016-Inch
100
AcDbAttributeDefinition
  3

  2
NB
 70
     8
280
     0
  0
ATTDEF
  5
96
330
8F
100
AcDbEntity
  8
AM_6
100
AcDbText
 10
5.218750000000001
 20
-2.14692569835516
 30
0.0
 40
0.5
  1
$MN.-Inch
100
AcDbAttributeDefinition
  3

  2
NBSYN
 70
     8
280
     0
  0
ATTDEF
  5
97
330
8F
100
AcDbEntity
  8
AM_6
100
AcDbText
 10
5.218750000000001
 20
-2.64692569835516
 30
0.0
 40
0.5
  1
405016
100
AcDbAttributeDefinition
  3

  2
LINA
 70
     8
280
     0
  0
ATTDEF
  5
98
330
8F
100
AcDbEntity
  8
AM_6
100
AcDbText
 10
5.218750000000001
 20
-3.14692569835516
 30
0.0
 40
0.5
  1
405016
100
AcDbAttributeDefinition
  3

  2
MN
 70
     8
280
     0
  0
ATTDEF
  5
99
330
8F
100
AcDbEntity
  8
AM_6
100
AcDbText
 10
5.218750000000001
 20
-3.64692569835516
 30
0.0
 40
0.5
  1
7/16 HEX
100
AcDbAttributeDefinition
  3

  2
H
 70
     8
280
     0
  0
ATTDEF
  5
9A
330
8F
100
AcDbEntity
  8
AM_6
100
AcDbText
 10
5.218750000000001
 20
-4.14692569835516
 30
0.0
 40
0.5
  1
0.383
100
AcDbAttributeDefinition
  3

  2
NDR
 70
     8
280
     0
  0
ATTDEF
  5
9B
330
8F
100
AcDbEntity
  8
AM_6
100
AcDbText
 10
5.218750000000001
 20
-4.64692569835516
 30
0.0
 40
0.5
  1
0.337
100
AcDbAttributeDefinition
  3

  2
KDR
 70
     8
280
     0
  0
ATTDEF
  5
9C
330
8F
100
AcDbEntity
  8
AM_6
100
AcDbText
 10
5.218750000000001
 20
-5.14692569835516
 30
0.0
 40
0.5
  1
0.1575
100
AcDbAttributeDefinition
  3

  2
BZE
 70
     8
280
     0
  0
ATTDEF
  5
9D
330
8F
100
AcDbEntity
  8
AM_6
100
AcDbText
 10
5.218750000000001
 20
-5.64692569835516
 30
0.0
 40
0.5
  1
0.4375
100
AcDbAttributeDefinition
  3

  2
HEX
 70
     8
280
     0
  0
ATTDEF
  5
9E
330
8F
100
AcDbEntity
  8
AM_6
100
AcDbText
 10
5.218750000000001
 20
-6.14692569835516
 30
0.0
 40
0.5
  1
0.281250
100
AcDbAttributeDefinition
  3

  2
HEX2
 70
     8
280
     0
  0
ATTDEF
  5
9F
330
8F
100
AcDbEntity
  8
AM_6
100
AcDbText
 10
5.218750000000001
 20
-6.64692569835516
 30
0.0
 40
0.5
  1
baldor
100
AcDbAttributeDefinition
  3

  2
COMPANY
 70
     8
280
     0
  0
LWPOLYLINE
  5
A2
330
8F
100
AcDbEntity
  8
AM_9
100
AcDbPolyline
 90
        5
 70
     0
 43
0.0
 10
-0.1791093260592888
 20
-1.251738809059826
 10
-0.1842540823997055
 20
-1.218670119967152
 10
-0.1862220679364952
 20
-1.184312409178914
 10
-0.1844124966919382
 20
-1.148126446285356
 10
-0.1791093260592888
 20
-1.111113809059826
  0
LINE
  5
A3
330
8F
100
AcDbEntity
  8
AM_9
100
AcDbLine
 10
-0.1510741298357571
 20
-1.10457729571137
 30
0.0
 11
-0.1791093260592888
 21
-1.111113809059826
 31
0.0
  0
LWPOLYLINE
  5
A4
330
8F
100
AcDbEntity
  8
AM_9
100
AcDbPolyline
 90
        5
 70
     0
 43
0.0
 10
-0.1791093260592888
 20
-1.111113809059826
 10
-0.1988355121406939
 20
-1.079688517736611
 10
-0.2156330920108725
 20
-1.046997724328328
 10
-0.2290462109660021
 20
-1.012506153690794
 10
-0.2389369657326277
 20
-0.9771690924072834
  0
LINE
  5
A5
330
8F
100
AcDbEntity
  8
AM_9
100
AcDbLine
 10
-0.2099962668917054
 20
-0.9704214576563437
 30
0.0
 11
-0.2389369657326277
 21
-0.9771690924072834
 31
0.0
  0
LINE
  5
A6
330
8F
100
AcDbEntity
  8
AM_9
100
AcDbLine
 10
-0.2389369657326277
 20
-0.9771690924072834
 30
0.0
 11
-0.2711532636537957
 21
-0.9816181234374057
 31
0.0
  0
LWPOLYLINE
  5
A7
330
8F
100
AcDbEntity
  8
AM_9
100
AcDbPolyline
 90
        3
 70
     0
 43
0.0
 10
-0.28139190003636
 20
-0.9827530489567841
 10
-0.2911775952746243
 20
-0.9835555934942602
 10
-0.2987675689889718
 20
-0.9838500667254667
  0
LWPOLYLINE
  5
A8
330
8F
100
AcDbEntity
  8
AM_9
100
AcDbPolyline
 90
        5
 70
     0
 43
0.0
 10
-0.2389369657326277
 20
-1.258419092407284
 10
-0.2295338871417797
 20
-1.25799806213629
 10
-0.2166871171046321
 20
-1.256802555641742
 10
-0.1996402057054679
 20
-1.254676787031713
 10
-0.1791093260592888
 20
-1.251738809059826
  0
LINE
  5
A9
330
8F
100
AcDbEntity
  8
AM_9
100
AcDbLine
 10
-0.1510741298357571
 20
-1.24520229571137
 30
0.0
 11
-0.1791093260592888
 21
-1.251738809059826
 31
0.0
  0
LINE
  5
AA
330
8F
100
AcDbEntity
  8
AM_9
100
AcDbLine
 10
-0.4524158089341449
 20
-1.271254016496842
 30
0.0
 11
-0.3774664534000949
 21
-1.289780662014441
 31
0.0
  0
LINE
  5
AB
330
8F
100
AcDbEntity
  8
AM_9
100
AcDbLine
 10
-0.4395859245204075
 20
-1.023349390582632
 30
0.0
 11
-0.4986131040655763
 21
-1.073113178260487
 31
0.0
  0
ELLIPSE
  5
AC
330
8F
100
AcDbEntity
  8
AM_9
100
AcDbEllipse
 10
-0.4687500000001177
 20
-1.170606438443778
 30
0.0
 11
-0.02349716402065169
 21
0.1007796617093461
 31
0.0
210
0.0
220
0.0
230
1.0
 40
0.3659981507706061
 41
1.778400841822089
 42
6.511962502476541
  0
LWPOLYLINE
  5
AD
330
8F
100
AcDbEntity
  8
AM_9
100
AcDbPolyline
 90
        3
 70
     0
 43
0.0
 10
-0.2689146070947223
 20
-0.9768897343505177
 10
-0.251275593729576
 20
-0.9742388430145477
 10
-0.2360765106845275
 20
-0.9721875924132666
  0
ELLIPSE
  5
AE
330
8F
100
AcDbEntity
  8
AM_9
100
AcDbEllipse
 10
-0.3994303217889752
 20
-1.154444290038775
 30
0.0
 11
-0.03159560311146556
 21
0.1355139790604245
 31
0.0
210
0.0
220
0.0
230
1.0
 40
0.3659981507706656
 41
0.1869239782622829
 42
4.145181672147555
  0
LWPOLYLINE
  5
AF
330
8F
100
AcDbEntity
  8
AM_9
100
AcDbPolyline
 90
       11
 70
     0
 43
0.0
 10
-0.3780759407629202
 20
-1.027948640445753
 10
-0.382247791625776
 20
-1.024543972536143
 10
-0.3891254000225154
 20
-1.019981367548948
 10
-0.3959546543505748
 20
-1.016671924876661
 10
-0.4027700595381293
 20
-1.014515799672574
 10
-0.4095872627689049
 20
-1.013465333375843
 10
-0.4163648847090701
 20
-1.013515483808388
 10
-0.4235354634929743
 20
-1.014811223231806
 10
-0.4301800987311176
 20
-1.017277581586443
 10
-0.4362032237804353
 20
-1.020760209372321
 10
-0.4397924320649751
 20
-1.023524532060553
  0
LWPOLYLINE
  5
B0
330
8F
100
AcDbEntity
  8
AM_9
100
AcDbPolyline
 90
        3
 70
     0
 43
0.0
 10
-0.3265307481889108
 20
-1.263273898086291
 10
-0.3249945366840452
 20
-1.259999350948788
 10
-0.3242764405109833
 20
-1.258314699947881
  0
LWPOLYLINE
  5
B1
330
8F
100
AcDbEntity
  8
AM_9
100
AcDbPolyline
 90
       10
 70
     0
 43
0.0
 10
-0.3750365951345541
 20
-1.290311266362507
 10
-0.3696973258579456
 20
-1.290987229547067
 10
-0.3629247922187366
 20
-1.290868172277918
 10
-0.3557820074417593
 20
-1.289502203517322
 10
-0.3491700850992929
 20
-1.286973824167486
 10
-0.3431831034363496
 20
-1.283437383607086
 10
-0.3378176109481897
 20
-1.27899459533944
 10
-0.3330284329444351
 20
-1.273666385474436
 10
-0.3287629438592588
 20
-1.267382748523498
 10
-0.3270719198731984
 20
-1.264334258030119
  0
LWPOLYLINE
  5
B2
330
8F
100
AcDbEntity
  8
AM_9
100
AcDbPolyline
 90
        3
 70
     0
 43
0.0
 10
-0.3776037428007971
 20
-1.28974650144527
 10
-0.3765138741252041
 20
-1.29000535072832
 10
-0.3750365951345541
 20
-1.290311266362507
  0
LWPOLYLINE
  5
B3
330
8F
100
AcDbEntity
  8
AM_9
100
AcDbPolyline
 90
        3
 70
     0
 43
0.0
 10
-0.109375
 20
-0.8299999999999998
 10
-0.0546875000000001
 20
-0.8014595596074826
 10
-0.0000000000000001
 20
-0.7707787001516928
  0
LWPOLYLINE
  5
B4
330
8F
100
AcDbEntity
  8
AM_9
100
AcDbPolyline
 90
        3
 70
     0
 43
0.0
 10
-0.0000000000000001
 20
-0.7707787001516928
 10
0.0544416102741495
 20
-0.8013260426622647
 10
0.1093749999999999
 20
-0.8299999999999998
  0
LWPOLYLINE
  5
B5
330
8F
100
AcDbEntity
  8
AM_9
100
AcDbPolyline
 90
        6
 70
     0
 43
0.0
 10
-0.1510741298357571
 20
-1.24520229571137
 10
-0.1564222384464443
 20
-1.245146258798399
 10
-0.1639940363880805
 20
-1.245585121917566
 10
-0.1744063212866123
 20
-1.246646289109958
 10
-0.1876759562813858
 20
-1.248363121169831
 10
-0.2099962668917054
 20
-1.251671457656344
  0
LINE
  5
B6
330
8F
100
AcDbEntity
  8
AM_9
100
AcDbLine
 10
-0.1423716544638492
 20
-1.158404952349777
 30
0.0
 11
-0.1419585098156051
 21
-1.172769408754154
 31
0.0
  0
LWPOLYLINE
  5
B7
330
8F
100
AcDbEntity
  8
AM_9
100
AcDbPolyline
 90
        3
 70
     0
 43
0.0
 10
-0.1510741298357571
 20
-1.10457729571137
 10
-0.1458778226760521
 20
-1.128510622598914
 10
-0.142852135356698
 20
-1.151670131300073
  0
LINE
  5
B8
330
8F
100
AcDbEntity
  8
AM_9
100
AcDbLine
 10
-0.1779186405383603
 20
-1.021525525759092
 30
0.0
 11
-0.1765789831125444
 21
-1.024205855542361
 31
0.0
  0
LWPOLYLINE
  5
B9
330
8F
100
AcDbEntity
  8
AM_9
100
AcDbPolyline
 90
        3
 70
     0
 43
0.0
 10
-0.2099962668917054
 20
-0.9704214576563437
 10
-0.1943573015029059
 20
-0.9929928542882338
 10
-0.1851083183288423
 20
-1.008195018089904
  0
LWPOLYLINE
  5
BA
330
8F
100
AcDbEntity
  8
AM_9
100
AcDbPolyline
 90
        4
 70
     0
 43
0.0
 10
-0.2258378743019628
 20
-0.9710526668938884
 10
-0.2189176876709015
 20
-0.9705103698475838
 10
-0.2138633349839128
 20
-0.9703309118621996
 10
-0.2099962668917054
 20
-0.9704214576563437
  0
LWPOLYLINE
  5
BB
330
8F
100
AcDbEntity
  8
AM_9
100
AcDbPolyline
 90
        3
 70
     0
 43
0.0
 10
-0.142906953325965
 20
-1.194936899891013
 10
-0.1441228263802215
 20
-1.206595324422914
 10
-0.1510741298357571
 20
-1.24520229571137
  0
LINE
  5
BC
330
8F
100
AcDbEntity
  8
AM_9
100
AcDbLine
 10
-0.1419585098156051
 20
-1.172769408754154
 30
0.0
 11
-0.1419694061620611
 21
-1.175110721043356
 31
0.0
  0
LWPOLYLINE
  5
BD
330
8F
100
AcDbEntity
  8
AM_9
100
AcDbPolyline
 90
        4
 70
     0
 43
0.0
 10
-0.1683746180143361
 20
-1.042498500799092
 10
-0.1598729403210871
 20
-1.066768689712644
 10
-0.1549033058439656
 20
-1.085607171961479
 10
-0.1510741298357571
 20
-1.10457729571137
  0
LINE
  5
BE
330
8F
100
AcDbEntity
  8
AM_9
100
AcDbLine
 10
-0.169003011759729
 20
-1.040959115859671
 30
0.0
 11
-0.1683746180143361
 21
-1.042498500799092
 31
0.0
  0
LINE
  5
BF
330
8F
100
AcDbEntity
  8
AM_9
100
AcDbLine
 10
-0.1765789831125444
 20
-1.024205855542361
 30
0.0
 11
-0.169003011759729
 21
-1.040959115859671
 31
0.0
  0
ELLIPSE
  5
C0
330
8F
100
AcDbEntity
  8
AM_9
100
AcDbEllipse
 10
-0.2013892028241718
 20
-1.108270244837313
 30
0.0
 11
-0.03193085011437622
 21
0.1369518580960465
 31
0.0
210
0.0
220
0.0
230
1.0
 40
0.3659981507706266
 41
2.150416404658019
 42
6.13994693963719
  0
LWPOLYLINE
  5
C1
330
8F
100
AcDbEntity
  8
AM_9
100
AcDbPolyline
 90
        3
 70
     0
 43
0.0
 10
-0.3055458577949631
 20
-1.072852494962034
 10
-0.3030753670497809
 20
-1.098922855181632
 10
-0.2987675689889718
 20
-1.124475066725467
  0
LWPOLYLINE
  5
C2
330
8F
100
AcDbEntity
  8
AM_9
100
AcDbPolyline
 90
        4
 70
     0
 43
0.0
 10
-0.2602304684431209
 20
-1.028067949924796
 10
-0.2616913382589204
 20
-1.0134112730526
 10
-0.2647402074337707
 20
-0.9949547701127598
 10
-0.2689146070947223
 20
-0.9768897343505177
  0
LINE
  5
C3
330
8F
100
AcDbEntity
  8
AM_9
100
AcDbLine
 10
-0.2689146070947223
 20
-0.9768897343505177
 30
0.0
 11
-0.2987675689889718
 21
-0.9838500667254667
 31
0.0
  0
LWPOLYLINE
  5
C4
330
8F
100
AcDbEntity
  8
AM_9
100
AcDbPolyline
 90
        3
 70
     0
 43
0.0
 10
-0.2987675689889718
 20
-0.9838500667254667
 10
-0.3030606061861223
 20
-1.011294122408012
 10
-0.3055458577949631
 20
-1.03863340646832
  0
LINE
  5
C5
330
8F
100
AcDbEntity
  8
AM_9
100
AcDbLine
 10
-0.2711532636537957
 20
-0.9816181234374057
 30
0.0
 11
-0.28139190003636
 21
-0.9827530489567841
 31
0.0
  0
ELLIPSE
  5
C6
330
8F
100
AcDbEntity
  8
AM_9
100
AcDbEllipse
 10
-0.2467045921760208
 20
-1.118835701380858
 30
0.0
 11
-0.03193085011438253
 21
0.1369518580960944
 31
0.0
210
0.0
220
0.0
230
1.0
 40
0.3659981507706636
 41
2.187505947947375
 42
6.139946939636896
  0
ELLIPSE
  5
C7
330
8F
100
AcDbEntity
  8
AM_9
100
AcDbEllipse
 10
-0.2467045921760205
 20
-1.118835701380858
 30
0.0
 11
-0.03193085011438315
 21
0.1369518580960956
 31
0.0
210
0.0
220
0.0
230
1.0
 40
0.3659981507706654
 41
1.177954301816471
 42
1.951156734850498
  0
LWPOLYLINE
  5
C8
330
8F
100
AcDbEntity
  8
AM_9
100
AcDbPolyline
 90
        3
 70
     0
 43
0.0
 10
-0.3055458577949631
 20
-1.03863340646832
 10
-0.3064767622622302
 20
-1.055869806845232
 10
-0.3055458577949631
 20
-1.072852494962034
  0
ELLIPSE
  5
C9
330
8F
100
AcDbEntity
  8
AM_9
100
AcDbEllipse
 10
-0.246704592176026
 20
-1.118835701380856
 30
0.0
 11
-0.03193085011437821
 21
0.1369518580960915
 31
0.0
210
0.0
220
0.0
230
1.0
 40
0.3659981507706493
 41
0.056021302264992
 42
0.8626327579757914
  0
LWPOLYLINE
  5
CA
330
8F
100
AcDbEntity
  8
AM_9
100
AcDbPolyline
 90
       18
 70
     0
 43
0.0
 10
-0.3250090428671646
 20
-1.260032362643878
 10
-0.324782072842153
 20
-1.25956371913153
 10
-0.323847857173943
 20
-1.257926664536009
 10
-0.3220305149765242
 20
-1.255296369463539
 10
-0.3191400530049064
 20
-1.251868506839517
 10
-0.3149918851807733
 20
-1.247892332248495
 10
-0.3094552266465641
 20
-1.243703264738314
 10
-0.3025447998124566
 20
-1.239735975906796
 10
-0.2945164682126555
 20
-1.236467632727759
 10
-0.2858630368992529
 20
-1.234279211650084
 10
-0.2771784411016439
 20
-1.233331956798707
 10
-0.2690625923651508
 20
-1.233546825521304
 10
-0.2619613795203246
 20
-1.234651025502365
 10
-0.2561539695877809
 20
-1.236273323415785
 10
-0.2517278012754557
 20
-1.238038948356935
 10
-0.2486179586550054
 20
-1.239640490833402
 10
-0.2466918437141045
 20
-1.240850918133261
 10
-0.2458119763457782
 20
-1.241500317430003
  0
LWPOLYLINE
  5
CB
330
8F
100
AcDbEntity
  8
AM_9
100
AcDbPolyline
 90
        4
 70
     0
 43
0.0
 10
-0.245724988250897
 20
-1.241571960916105
 10
-0.2458599270192076
 20
-1.241450262760128
 10
-0.2467321821612291
 20
-1.240583991490969
 10
-0.2472810542149995
 20
-1.239996654551657
  0
LWPOLYLINE
  5
CC
330
8F
100
AcDbEntity
  8
AM_9
100
AcDbPolyline
 90
        4
 70
     0
 43
0.0
 10
-0.3007245907850434
 20
-1.010143535950156
 10
-0.3005916689959203
 20
-1.009708651799323
 10
-0.3001632642428904
 20
-1.008460042514755
 10
-0.3001080482840255
 20
-1.008322263717043
  0
LWPOLYLINE
  5
CD
330
8F
100
AcDbEntity
  8
AM_9
100
AcDbPolyline
 90
       18
 70
     0
 43
0.0
 10
-0.3001878778947704
 20
-1.008496350982928
 10
-0.3008407686249239
 20
-1.00972163654387
 10
-0.3023080749126806
 20
-1.012003687578965
 10
-0.3047770680174882
 20
-1.015160559918066
 10
-0.3084379072482403
 20
-1.018966760381717
 10
-0.3134498515644949
 20
-1.023122402659541
 10
-0.3198650447331775
 20
-1.027227966794562
 10
-0.3275245429916618
 20
-1.030809311076738
 10
-0.3360132567862485
 20
-1.033431374686253
 10
-0.3447552972611322
 20
-1.034843147552604
 10
-0.3531437319491912
 20
-1.035037173226462
 10
-0.3606649169009849
 20
-1.034223902463244
 10
-0.3669744136725963
 20
-1.032748811267466
 10
-0.3719135549056834
 20
-1.030996128464292
 10
-0.3754997086396842
 20
-1.029303007879798
 10
-0.3778497763856114
 20
-1.027924726570742
 10
-0.3791040710343528
 20
-1.027049083997843
 10
-0.3793780099255553
 20
-1.026832577017956
  0
LINE
  5
CE
330
8F
100
AcDbEntity
  8
AM_9
100
AcDbLine
 10
-0.1771207715546619
 20
-0.9896616924073272
 30
0.0
 11
-0.2263662233581053
 21
-1.001143458059951
 31
0.0
  0
LINE
  5
CF
330
8F
100
AcDbEntity
  8
AM_9
100
AcDbLine
 10
-0.176412182290271
 20
-1.21539703161473
 30
0.0
 11
-0.1343592486638227
 21
-1.205592229115782
 31
0.0
  0
LWPOLYLINE
  5
D0
330
8F
100
AcDbEntity
  8
AM_9
100
AcDbPolyline
 90
       20
 70
     0
 43
0.0
 10
-0.1343659249938088
 20
-1.20559378540361
 10
-0.1293028157827817
 20
-1.202990967168627
 10
-0.1247141396218193
 20
-1.197417196040507
 10
-0.1208880884981782
 20
-1.188797239076489
 10
-0.1181545989145989
 20
-1.177880991490922
 10
-0.1164278875396128
 20
-1.164336212655024
 10
-0.1158549073091555
 20
-1.149330271317741
 10
-0.1164156227038168
 20
-1.132408286749774
 10
-0.1180609686233502
 20
-1.115004703027539
 10
-0.1208367673933812
 20
-1.096607393511457
 10
-0.1245107513506023
 20
-1.078747455120003
 10
-0.1291842652280563
 20
-1.060922481606625
 10
-0.134472979061152
 20
-1.0445960564441
 10
-0.140518627090196
 20
-1.029328872764631
 10
-0.1468270783017121
 20
-1.016370478489193
 10
-0.1535654953592165
 20
-1.005381372029879
 10
-0.1601799433259584
 20
-0.9972689428626642
 10
-0.1668493358980662
 20
-0.9918204774364152
 10
-0.1731116383367606
 20
-0.9894809397560725
 10
-0.1771125901748264
 20
-0.9896597853441619
  0
LINE
  5
D1
330
8F
100
AcDbEntity
  8
AM_9
100
AcDbLine
 10
-0.1771125901748264
 20
-0.9896597853441619
 30
0.0
 11
-0.1790373738502115
 21
-0.9903040540337612
 31
0.0
  0
LWPOLYLINE
  5
D2
330
8F
100
AcDbEntity
  8
AM_9
100
AcDbPolyline
 90
        3
 70
     0
 43
0.0
 10
-0.2689146070947223
 20
-1.117514734350518
 10
-0.2634308483997529
 20
-1.089890958955647
 10
-0.2602304684431306
 20
-1.062287038418517
  0
LWPOLYLINE
  5
D3
330
8F
100
AcDbEntity
  8
AM_9
100
AcDbPolyline
 90
        5
 70
     0
 43
0.0
 10
-0.179037373850178
 20
-1.144695945966246
 10
-0.1733931390117468
 20
-1.160209976006311
 10
-0.1670729780242511
 20
-1.17435797563067
 10
-0.1606047421316796
 20
-1.185955943415793
 10
-0.1545829921478057
 20
-1.194401885493194
  0
ARC
  5
D4
330
8F
100
AcDbEntity
  8
AM_9
100
AcDbCircle
 10
0.0000000000000001
 20
-1.0675
 30
0.0
 40
0.1999999999999999
100
AcDbArc
 50
219.3518532958487
 51
0.0
  0
LWPOLYLINE
  5
D5
330
8F
100
AcDbEntity
  8
AM_9
100
AcDbPolyline
 90
        6
 70
     0
 43
0.0
 10
-0.1545829921478057
 20
-1.194401885493194
 10
-0.1538031670974777
 20
-1.195334802540261
 10
-0.1472336073736393
 20
-1.201712011960484
 10
-0.1407130262602577
 20
-1.205261709638181
 10
-0.1347930597680667
 20
-1.205684256104104
 10
-0.1343659249938088
 20
-1.20559378540361
  0
LINE
  5
D6
330
8F
100
AcDbEntity
  8
AM_9
100
AcDbLine
 10
-0.2360765106845275
 20
-0.9721875924132666
 30
0.0
 11
-0.2258378743019628
 21
-0.9710526668938884
 31
0.0
  0
ELLIPSE
  5
D7
330
8F
100
AcDbEntity
  8
AM_9
100
AcDbEllipse
 10
-0.201389202824188
 20
-1.108270244837341
 30
0.0
 11
-0.03193085011438395
 21
0.1369518580960944
 31
0.0
210
0.0
220
0.0
230
1.0
 40
0.3659981507705711
 41
0.0560213022649982
 42
0.8626327579757331
  0
LINE
  5
D8
330
8F
100
AcDbEntity
  8
AM_9
100
AcDbLine
 10
-0.2602304684431306
 20
-1.062287038418517
 30
0.0
 11
-0.2602304684431209
 21
-1.028067949924796
 31
0.0
  0
ELLIPSE
  5
D9
330
8F
100
AcDbEntity
  8
AM_9
100
AcDbEllipse
 10
-0.2013892028241894
 20
-1.108270244837342
 30
0.0
 11
-0.0319308501143825
 21
0.1369518580960927
 31
0.0
210
0.0
220
0.0
230
1.0
 40
0.3659981507706614
 41
1.144545279139731
 42
1.951156734850497
  0
LWPOLYLINE
  5
DA
330
8F
100
AcDbEntity
  8
AM_9
100
AcDbPolyline
 90
        3
 70
     0
 43
0.0
 10
-0.2099962668917054
 20
-1.251671457656344
 10
-0.2163479371246913
 20
-1.222339189975666
 10
-0.2258378743019629
 20
-1.193057477599441
  0
LINE
  5
DB
330
8F
100
AcDbEntity
  8
AM_9
100
AcDbLine
 10
-0.2258378743019629
 20
-1.193057477599441
 30
0.0
 11
-0.2360765106845278
 21
-1.169965725501071
 31
0.0
  0
LWPOLYLINE
  5
DC
330
8F
100
AcDbEntity
  8
AM_9
100
AcDbPolyline
 90
        4
 70
     0
 43
0.0
 10
-0.2360765106845278
 20
-1.169965725501071
 10
-0.2462091938631852
 20
-1.151421611213501
 10
-0.2570505402207574
 20
-1.134284690571682
 10
-0.2689146070947223
 20
-1.117514734350518
  0
LINE
  5
DD
330
8F
100
AcDbEntity
  8
AM_9
100
AcDbLine
 10
-0.2689146070947223
 20
-1.117514734350518
 30
0.0
 11
-0.2987675689889718
 21
-1.124475066725467
 31
0.0
  0
LWPOLYLINE
  5
DE
330
8F
100
AcDbEntity
  8
AM_9
100
AcDbPolyline
 90
        3
 70
     0
 43
0.0
 10
-0.2987675689889718
 20
-1.124475066725467
 10
-0.2912216284034025
 20
-1.152576183495197
 10
-0.2813919000363599
 20
-1.180531182044589
  0
LINE
  5
DF
330
8F
100
AcDbEntity
  8
AM_9
100
AcDbLine
 10
-0.2813919000363599
 20
-1.180531182044589
 30
0.0
 11
-0.2711532636537957
 21
-1.203622934142958
 31
0.0
  0
LWPOLYLINE
  5
E0
330
8F
100
AcDbEntity
  8
AM_9
100
AcDbPolyline
 90
        3
 70
     0
 43
0.0
 10
-0.2711532636537957
 20
-1.203622934142958
 10
-0.2561815527589921
 20
-1.231327936735335
 10
-0.2389369657326277
 20
-1.258419092407284
  0
LINE
  5
E1
330
8F
100
AcDbEntity
  8
AM_9
100
AcDbLine
 10
-0.2099962668917054
 20
-1.251671457656344
 30
0.0
 11
-0.2389369657326277
 21
-1.258419092407284
 31
0.0
  0
LWPOLYLINE
  5
E2
330
8F
100
AcDbEntity
  8
AM_9
100
AcDbPolyline
 90
        3
 70
     0
 43
0.0
 10
-0.0000000000000001
 20
-0.7298462998483072
 10
-0.0544416102741497
 20
-0.7537405676118847
 10
-0.1093750000000001
 20
-0.7799999999999999
  0
LWPOLYLINE
  5
E3
330
8F
100
AcDbEntity
  8
AM_9
100
AcDbPolyline
 90
        3
 70
     0
 43
0.0
 10
0.1093749999999999
 20
-0.7799999999999999
 10
0.0546874999999999
 20
-0.7538529403925173
 10
-0.0000000000000001
 20
-0.7298462998483072
  0
LWPOLYLINE
  5
E4
330
8F
100
AcDbEntity
  8
AM_9
100
AcDbPolyline
 90
        3
 70
     0
 43
0.0
 10
0.1093749999999999
 20
-0.8299999999999998
 10
0.1640624999999999
 20
-0.8561470596074825
 10
0.2187499999999999
 20
-0.8801537001516926
  0
LWPOLYLINE
  5
E5
330
8F
100
AcDbEntity
  8
AM_9
100
AcDbPolyline
 90
        3
 70
     0
 43
0.0
 10
-0.2187500000000001
 20
-0.8801537001516926
 10
-0.1643083897258505
 20
-0.8562594323881151
 10
-0.109375
 20
-0.8299999999999998
  0
LINE
  5
E6
330
8F
100
AcDbEntity
  8
AM_9
100
AcDbLine
 10
-0.0000000000000001
 20
-0.7707787001516928
 30
0.0
 11
-0.0000000000000001
 21
-0.7298462998483072
 31
0.0
  0
LWPOLYLINE
  5
E7
330
8F
100
AcDbEntity
  8
AM_9
100
AcDbPolyline
 90
        3
 70
     0
 43
0.0
 10
0.2187499999999999
 20
-0.8392212998483071
 10
0.1643083897258503
 20
-0.8086739573377351
 10
0.1093749999999999
 20
-0.7799999999999999
  0
LWPOLYLINE
  5
E8
330
8F
100
AcDbEntity
  8
AM_9
100
AcDbPolyline
 90
        3
 70
     0
 43
0.0
 10
-0.1093750000000001
 20
-0.7799999999999999
 10
-0.1640625000000001
 20
-0.8085404403925173
 10
-0.2187500000000001
 20
-0.8392212998483071
  0
ELLIPSE
  5
E9
330
8F
100
AcDbEntity
  8
AM_9
100
AcDbEllipse
 10
-0.0000000000000002
 20
-1.0675
 30
0.0
 11
-0.1999999999999999
 21
2.449293598294706E-17
 31
0.0
210
0.0
220
0.0
230
1.0
 40
0.8660254037844392
 41
0.461946020566967
 42
5.82123928661262
  0
LWPOLYLINE
  5
EA
330
8F
100
AcDbEntity
  8
AM_9
100
AcDbPolyline
 90
        7
 70
     0
 43
0.0
 10
-0.1790373738501785
 20
-1.144695945966246
 10
-0.1842628795203941
 20
-1.128701216295605
 10
-0.1891729979031394
 20
-1.112644458256412
 10
-0.1936098952159724
 20
-1.095877825105295
 10
-0.1971856748420371
 20
-1.078429808725254
 10
-0.1994144431868155
 20
-1.060957633207593
 10
-0.1999999999699529
 20
-1.04725755900097
  0
LINE
  5
EB
330
8F
100
AcDbEntity
  8
AM_9
100
AcDbLine
 10
-0.2000000000000001
 20
-0.9940624999999998
 30
0.0
 11
-0.2000000000000001
 21
-1.047346885409148
 31
0.0
  0
LINE
  5
EC
330
8F
100
AcDbEntity
  8
AM_9
100
AcDbLine
 10
0.1999999999999998
 20
-1.0675
 30
0.0
 11
0.1999999999999999
 21
-0.9940624999999998
 31
0.0
  0
LWPOLYLINE
  5
ED
330
8F
100
AcDbEntity
  8
AM_9
100
AcDbPolyline
 90
        8
 70
     0
 43
0.0
 10
-0.1999999999699529
 20
-1.04725755900097
 10
-0.1999786710855128
 20
-1.044747492794572
 10
-0.1988321115509053
 20
-1.029477046299115
 10
-0.196164942998426
 20
-1.016547828583382
 10
-0.1920694300574958
 20
-1.005495849846331
 10
-0.1870948030566195
 20
-0.9972268040530577
 10
-0.181500594761393
 20
-0.9917034871441515
 10
-0.1790373738501784
 20
-0.9903040540337535
  0
LINE
  5
EE
330
8F
100
AcDbEntity
  8
AM_9
100
AcDbLine
 10
-0.2187500000000001
 20
-1.098903700151693
 30
0.0
 11
-0.2187500000000001
 21
-0.8392212998483071
 31
0.0
  0
LWPOLYLINE
  5
EF
330
8F
100
AcDbEntity
  8
AM_9
100
AcDbPolyline
 90
        3
 70
     0
 43
0.0
 10
-0.109375
 20
-1.158125
 10
-0.1640625000000001
 20
-1.129584559607483
 10
-0.2187500000000001
 20
-1.098903700151693
  0
LWPOLYLINE
  5
F0
330
8F
100
AcDbEntity
  8
AM_9
100
AcDbPolyline
 90
        3
 70
     0
 43
0.0
 10
-0.0000000000000001
 20
-1.208278700151693
 10
-0.0544416102741497
 20
-1.184384432388115
 10
-0.109375
 20
-1.158125
  0
LWPOLYLINE
  5
F1
330
8F
100
AcDbEntity
  8
AM_9
100
AcDbPolyline
 90
        3
 70
     0
 43
0.0
 10
-0.2187500000000001
 20
-1.057971299848307
 10
-0.1643083897258505
 20
-1.081865567611885
 10
-0.1093750000000001
 20
-1.108125
  0
LINE
  5
F2
330
8F
100
AcDbEntity
  8
AM_9
100
AcDbLine
 10
-0.0000000000000001
 20
-1.208278700151693
 30
0.0
 11
-0.0000000000000001
 21
-1.167346299848307
 31
0.0
  0
LWPOLYLINE
  5
F3
330
8F
100
AcDbEntity
  8
AM_9
100
AcDbPolyline
 90
        3
 70
     0
 43
0.0
 10
0.1093749999999999
 20
-1.158125
 10
0.0546874999999999
 20
-1.184272059607482
 10
-0.0000000000000001
 20
-1.208278700151693
  0
LWPOLYLINE
  5
F4
330
8F
100
AcDbEntity
  8
AM_9
100
AcDbPolyline
 90
        3
 70
     0
 43
0.0
 10
0.2187499999999999
 20
-1.098903700151693
 10
0.1643083897258503
 20
-1.129451042662265
 10
0.1093749999999999
 20
-1.158125
  0
LINE
  5
F5
330
8F
100
AcDbEntity
  8
AM_9
100
AcDbLine
 10
0.2187499999999999
 20
-1.098903700151693
 30
0.0
 11
0.2187499999999999
 21
-0.8392212998483071
 31
0.0
  0
LWPOLYLINE
  5
F6
330
8F
100
AcDbEntity
  8
AM_9
100
AcDbPolyline
 90
        3
 70
     0
 43
0.0
 10
0.1093749999999999
 20
-1.108125
 10
0.1640624999999999
 20
-1.081977940392517
 10
0.2187499999999999
 20
-1.057971299848307
  0
LWPOLYLINE
  5
F7
330
8F
100
AcDbEntity
  8
AM_9
100
AcDbPolyline
 90
        3
 70
     0
 43
0.0
 10
-0.1093750000000001
 20
-1.108125
 10
-0.0546875000000001
 20
-1.136665440392517
 10
-0.0000000000000001
 20
-1.167346299848307
  0
LWPOLYLINE
  5
F8
330
8F
100
AcDbEntity
  8
AM_9
100
AcDbPolyline
 90
        3
 70
     0
 43
0.0
 10
-0.0000000000000001
 20
-1.167346299848307
 10
0.0544416102741495
 20
-1.136798957337735
 10
0.1093749999999999
 20
-1.108125
  0
LINE
  5
F9
330
8F
100
AcDbEntity
  8
AM_9
100
AcDbLine
 10
-0.2
 20
-0.9049999999999999
 30
0.0
 11
-0.2
 21
-0.9440624999999998
 31
0.0
  0
LINE
  5
FA
330
8F
100
AcDbEntity
  8
AM_9
100
AcDbLine
 10
0.1999999999999998
 20
-0.9440625
 30
0.0
 11
0.1999999999999998
 21
-0.9049999999999999
 31
0.0
  0
LINE
  5
FB
330
8F
100
AcDbEntity
  8
AM_9
100
AcDbLine
 10
-0.1851454569549802
 20
-0.7988099125707269
 30
0.0
 11
-0.1912304659644924
 21
-0.896022462287446
 31
0.0
  0
LINE
  5
FC
330
8F
100
AcDbEntity
  8
AM_9
100
AcDbLine
 10
0.1912304659644922
 20
-0.896022462287446
 30
0.0
 11
0.18514545695498
 21
-0.7988099125707269
 31
0.0
  0
ELLIPSE
  5
FD
330
8F
100
AcDbEntity
  8
AM_9
100
AcDbEllipse
 10
-0.3729962569746643
 20
-1.148281086609234
 30
0.0
 11
-0.03024351534849274
 21
0.1297148559307582
 31
0.0
210
0.0
220
0.0
230
1.0
 40
0.3659981507706689
 41
0.0
 42
6.283185307179586
  0
ELLIPSE
  5
FE
330
8F
100
AcDbEntity
  8
AM_9
100
AcDbEllipse
 10
-0.2013892028241881
 20
-1.108270244837341
 30
0.0
 11
-0.0249770205339172
 21
0.1071267867773897
 31
0.0
210
0.0
220
0.0
230
1.0
 40
0.3659981507706668
 41
0.0
 42
6.283185307179586
  0
ELLIPSE
  5
FF
330
8F
100
AcDbEntity
  8
AM_9
100
AcDbEllipse
 10
-0.0000000000000001
 20
-0.9940624999999996
 30
0.0
 11
-0.2
 21
2.980232263262467E-9
 31
0.0
210
0.0
220
0.0
230
1.0
 40
0.8660254037844395
 41
0.0
 42
6.283185307179586
  0
ELLIPSE
  5
100
330
8F
100
AcDbEntity
  8
AM_9
100
AcDbEllipse
 10
-0.0000000000000001
 20
-0.9940624999999985
 30
0.0
 11
-0.2187500000000011
 21
2.678914873134849E-17
 31
0.0
210
0.0
220
0.0
230
1.0
 40
0.8660254037844395
 41
0.0
 42
6.283185307179586
  0
ELLIPSE
  5
101
330
8F
100
AcDbEntity
  8
AM_9
100
AcDbEllipse
 10
-0.0000000000000001
 20
-0.9440624999999986
 30
0.0
 11
-0.2187500000000012
 21
2.678914873134850E-17
 31
0.0
210
0.0
220
0.0
230
1.0
 40
0.8660254037844396
 41
0.0
 42
6.283185307179586
  0
ELLIPSE
  5
102
330
8F
100
AcDbEntity
  8
AM_9
100
AcDbEllipse
 10
-0.0000000000000005
 20
-0.9440625
 30
0.0
 11
-0.1999999999999997
 21
2.449293598294702E-17
 31
0.0
210
0.0
220
0.0
230
1.0
 40
0.866025403784438
 41
0.0
 42
6.283185307179586
  0
ELLIPSE
  5
103
330
8F
100
AcDbEntity
  8
AM_9
100
AcDbEllipse
 10
-0.0000000000000001
 20
-0.9049999999999998
 30
0.0
 11
-0.1999999999999999
 21
2.449293598294705E-17
 31
0.0
210
0.0
220
0.0
230
1.0
 40
0.8660254037844382
 41
0.0
 42
6.283185307179586
  0
ELLIPSE
  5
104
330
8F
100
AcDbEntity
  8
AM_9
100
AcDbEllipse
 10
-0.0000000000000001
 20
-0.905
 30
0.0
 11
-0.1915112338502295
 21
2.345336195354438E-17
 31
0.0
210
0.0
220
0.0
230
1.0
 40
0.8660254037844388
 41
0.0
 42
6.283185307179586
  0
ELLIPSE
  5
105
330
8F
100
AcDbEntity
  8
AM_9
100
AcDbEllipse
 10
-0.0000000000000007
 20
-0.8075017824238856
 30
0.0
 11
-0.1854172907249852
 21
2.762932959926587E-9
 31
0.0
210
0.0
220
0.0
230
1.0
 40
0.866025403784457
 41
0.0
 42
6.283185307179586
  0
ELLIPSE
  5
106
330
8F
100
AcDbEntity
  8
AM_9
100
AcDbEllipse
 10
-0.0000000000000016
 20
-0.7956249999999986
 30
0.0
 11
-0.1616637258772221
 21
1.979809644337752E-17
 31
0.0
210
0.0
220
0.0
230
1.0
 40
0.8660254037844369
 41
0.0
 42
6.283185307179586
  0
ELLIPSE
  5
108
330
8F
100
AcDbEntity
  8
AM_4
100
AcDbEllipse
 10
-0.4687500000000003
 20
-1.170606438444094
 30
0.0
 11
-0.02349716402074586
 21
0.1007796617096759
 31
0.0
210
0.0
220
0.0
230
1.0
 40
0.3659981507706653
 41
0.2287771952968578
 42
1.77840084181865
  0
ENDBLK
  5
92
330
8F
100
AcDbEntity
  8
0
100
AcDbBlockEnd
  0
BLOCK
  5
10B
330
109
100
AcDbEntity
  8
0
100
AcDbBlockBegin
  2
3_123340_0_in_125368_2
 70
     2
 10
0.0
 20
0.0
 30
0.0
  3
3_123340_0_in_125368_2
  1

  0
ATTDEF
  5
10D
330
109
100
AcDbEntity
  8
AM_6
100
AcDbText
 10
5.67
 20
1.51107125
 30
0.0
 40
0.5
  1
Set Screw Insert Inch Bore
100
AcDbAttributeDefinition
  3

  2
NN
 70
     8
280
     0
  0
ATTDEF
  5
10E
330
109
100
AcDbEntity
  8
AM_6
100
AcDbText
 10
5.67
 20
1.01107125
 30
0.0
 40
0.5
  1
SC Normal Duty Bearing Inserts
100
AcDbAttributeDefinition
  3

  2
NT
 70
     8
280
     0
  0
ATTDEF
  5
10F
330
109
100
AcDbEntity
  8
AM_6
100
AcDbText
 10
5.67
 20
0.5110712500000001
 30
0.0
 40
0.5
  1
123340
100
AcDbAttributeDefinition
  3

  2
NB
 70
     8
280
     0
  0
ATTDEF
  5
110
330
109
100
AcDbEntity
  8
AM_6
100
AcDbText
 10
5.67
 20
0.0110712500000001
 30
0.0
 40
0.5
  1
$PN.
100
AcDbAttributeDefinition
  3

  2
NBSYN
 70
     8
280
     0
  0
ATTDEF
  5
111
330
109
100
AcDbEntity
  8
AM_6
100
AcDbText
 10
5.67
 20
-0.4889287499999999
 30
0.0
 40
0.5
  1
123340
100
AcDbAttributeDefinition
  3

  2
LINA
 70
     8
280
     0
  0
ATTDEF
  5
112
330
109
100
AcDbEntity
  8
AM_6
100
AcDbText
 10
5.67
 20
-0.9889287499999999
 30
0.0
 40
0.5
  1
207
100
AcDbAttributeDefinition
  3

  2
SERIES
 70
     8
280
     0
  0
ATTDEF
  5
113
330
109
100
AcDbEntity
  8
AM_6
100
AcDbText
 10
5.67
 20
-1.48892875
 30
0.0
 40
0.5
  1
1-5/16
100
AcDbAttributeDefinition
  3

  2
SS
 70
     8
280
     0
  0
ATTDEF
  5
114
330
109
100
AcDbEntity
  8
AM_6
100
AcDbText
 10
5.67
 20
-1.98892875
 30
0.0
 40
0.5
  1
123340
100
AcDbAttributeDefinition
  3

  2
PN
 70
     8
280
     0
  0
ATTDEF
  5
115
330
109
100
AcDbEntity
  8
AM_6
100
AcDbText
 10
5.67
 20
-2.48892875
 30
0.0
 40
0.5
  1
INS-SC-105
100
AcDbAttributeDefinition
  3

  2
DESCRIPTION
 70
     8
280
     0
  0
ATTDEF
  5
116
330
109
100
AcDbEntity
  8
AM_6
100
AcDbText
 10
5.67
 20
-2.98892875
 30
0.0
 40
0.5
  1
1.71
100
AcDbAttributeDefinition
  3

  2
A
 70
     8
280
     0
  0
ATTDEF
  5
117
330
109
100
AcDbEntity
  8
AM_6
100
AcDbText
 10
5.67
 20
-3.48892875
 30
0.0
 40
0.5
  1
0.75
100
AcDbAttributeDefinition
  3

  2
C
 70
     8
280
     0
  0
ATTDEF
  5
118
330
109
100
AcDbEntity
  8
AM_6
100
AcDbText
 10
5.67
 20
-3.98892875
 30
0.0
 40
0.5
  1
2.8346
100
AcDbAttributeDefinition
  3

  2
D
 70
     8
280
     0
  0
ATTDEF
  5
119
330
109
100
AcDbEntity
  8
AM_6
100
AcDbText
 10
5.67
 20
-4.488928749999999
 30
0.0
 40
0.5
  1
0.2
100
AcDbAttributeDefinition
  3

  2
J
 70
     8
280
     0
  0
ATTDEF
  5
11A
330
109
100
AcDbEntity
  8
AM_6
100
AcDbText
 10
5.67
 20
-4.988928749999999
 30
0.0
 40
0.5
  1
1.84
100
AcDbAttributeDefinition
  3

  2
L
 70
     8
280
     0
  0
ATTDEF
  5
11B
330
109
100
AcDbEntity
  8
AM_6
100
AcDbText
 10
5.67
 20
-5.488928749999999
 30
0.0
 40
0.5
  1
5/16 - 24
100
AcDbAttributeDefinition
  3

  2
N
 70
     8
280
     0
  0
ATTDEF
  5
11C
330
109
100
AcDbEntity
  8
AM_6
100
AcDbText
 10
5.67
 20
-5.988928749999999
 30
0.0
 40
0.5
  1
0.67
100
AcDbAttributeDefinition
  3

  2
W
 70
     8
280
     0
  0
ATTDEF
  5
11D
330
109
100
AcDbEntity
  8
AM_6
100
AcDbText
 10
5.67
 20
-6.488928749999999
 30
0.0
 40
0.5
  1
1.04
100
AcDbAttributeDefinition
  3

  2
Y
 70
     8
280
     0
  0
ATTDEF
  5
11E
330
109
100
AcDbEntity
  8
AM_6
100
AcDbText
 10
5.67
 20
-6.988928749999999
 30
0.0
 40
0.5
  1
baldor
100
AcDbAttributeDefinition
  3

  2
COMPANY
 70
     8
280
     0
  0
LINE
  5
11F
330
109
100
AcDbEntity
  8
AM_9
100
AcDbLine
 10
0.2359848484848541
 20
1.482925
 30
0.0
 11
0.1640151515151459
 21
1.482925
 31
0.0
  0
ARC
  5
120
330
109
100
AcDbEntity
  8
AM_9
100
AcDbCircle
 10
0.1640151515151563
 20
1.414743181818182
 30
0.0
 40
0.0681818181818181
100
AcDbArc
 50
90.0
 51
180.0
  0
ARC
  5
121
330
109
100
AcDbEntity
  8
AM_9
100
AcDbCircle
 10
0.2359848484848435
 20
1.414743181818182
 30
0.0
 40
0.0681818181818183
100
AcDbArc
 50
0.0
 51
90.0
  0
LINE
  5
122
330
109
100
AcDbEntity
  8
AM_9
100
AcDbLine
 10
0.3041666666666619
 20
1.414743181818182
 30
0.0
 11
0.0958333333333381
 21
1.414743181818182
 31
0.0
  0
LINE
  5
123
330
109
100
AcDbEntity
  8
AM_9
100
AcDbLine
 10
0.3041666666666619
 20
1.384322648325798
 30
0.0
 11
0.3041666666666619
 21
1.414743181818182
 31
0.0
  0
ELLIPSE
  5
124
330
109
100
AcDbEntity
  8
AM_9
100
AcDbEllipse
 10
-0.7075000000000001
 20
-0.5844574448303977
 30
0.0
 11
-0.1262
 21
1.545504260523960E-17
 31
0.0
210
0.0
220
0.0
230
1.0
 40
0.4226182617406871
 41
1.30126173717098
 42
1.840330916418813
  0
ELLIPSE
  5
125
330
109
100
AcDbEntity
  8
AM_9
100
AcDbEllipse
 10
-0.7075000000000001
 20
-0.5844574448303962
 30
0.0
 11
-0.1262000000000006
 21
1.545504260523968E-17
 31
0.0
210
0.0
220
0.0
230
1.0
 40
0.4226182617406972
 41
4.442854390760786
 42
4.981923570008593
  0
LINE
  5
126
330
109
100
AcDbEntity
  8
AM_9
100
AcDbLine
 10
-0.8337
 20
-0.5946992648031381
 30
0.0
 11
-0.8337
 21
-0.8148925094304427
 31
0.0
  0
LINE
  5
127
330
109
100
AcDbEntity
  8
AM_9
100
AcDbLine
 10
-0.5812999999999999
 20
-0.8148925094304427
 30
0.0
 11
-0.5812999999999999
 21
-0.5946992648031381
 31
0.0
  0
LWPOLYLINE
  5
128
330
109
100
AcDbEntity
  8
AM_9
100
AcDbPolyline
 90
       10
 70
     0
 43
0.0
 10
-0.8336999992353807
 20
-0.5947703561570498
 10
-0.8335507258098921
 20
-0.5973318077887659
 10
-0.8308676233538148
 20
-0.6055123362905331
 10
-0.8246771175123331
 20
-0.6130505489764627
 10
-0.8154777401167964
 20
-0.6194177175530117
 10
-0.8030315264728659
 20
-0.6249005720216237
 10
-0.7880957823087564
 20
-0.629257654842463
 10
-0.770414407246651
 20
-0.6326761230572568
 10
-0.756273761454532
 20
-0.6345250951635367
 10
-0.7411048967858308
 20
-0.6358662264105379
  0
LWPOLYLINE
  5
129
330
109
100
AcDbEntity
  8
AM_9
100
AcDbPolyline
 90
       10
 70
     0
 43
0.0
 10
-0.5813000007646193
 20
-0.5947586140620265
 10
-0.5814492741901081
 20
-0.5921451591414603
 10
-0.5841323766461856
 20
-0.5830400179142025
 10
-0.5903228824876675
 20
-0.573441831773208
 10
-0.5995222598832044
 20
-0.564203340271673
 10
-0.6119684735271349
 20
-0.5551997245481234
 10
-0.6269042176912445
 20
-0.5471749614524678
 10
-0.6445855927533499
 20
-0.5402077984131564
 10
-0.6587262385454691
 20
-0.5361446462962648
 10
-0.6738951032141705
 20
-0.5330486632502545
  0
ELLIPSE
  5
12A
330
109
100
AcDbEntity
  8
AM_9
100
AcDbEllipse
 10
-0.7075000000000001
 20
-0.8148925094304426
 30
0.0
 11
-0.1261999999999998
 21
1.545504260523957E-17
 31
0.0
210
0.0
220
0.0
230
1.0
 40
0.4226182617407002
 41
3.500312579903955
 42
5.922055393978799
  0
LINE
  5
12B
330
109
100
AcDbEntity
  8
AM_9
100
AcDbLine
 10
-0.8191393737973387
 20
-0.7900222587814014
 30
0.0
 11
-0.8352235736553021
 21
-0.8029176110143219
 31
0.0
  0
LINE
  5
12C
330
109
100
AcDbEntity
  8
AM_9
100
AcDbLine
 10
-0.5796478687932644
 20
-0.8030206807922765
 30
0.0
 11
-0.5958606262026614
 21
-0.7900222587814014
 31
0.0
  0
LWPOLYLINE
  5
12D
330
109
100
AcDbEntity
  8
AM_9
100
AcDbPolyline
 90
        6
 70
     0
 43
0.0
 10
-0.6738951032141728
 20
0.1216435403628729
 10
-0.6741846149668966
 20
0.1217425135249753
 10
-0.6920745985821497
 20
0.1261208652893113
 10
-0.7111181376762932
 20
0.1272268088806478
 10
-0.7261534778457179
 20
0.1255764371324606
 10
-0.7411048967858272
 20
0.1216435403628729
  0
LWPOLYLINE
  5
12E
330
109
100
AcDbEntity
  8
AM_9
100
AcDbPolyline
 90
        6
 70
     0
 43
0.0
 10
-0.7411048967858272
 20
-0.1216435403628729
 10
-0.7408153850331035
 20
-0.1217425135249753
 10
-0.7229254014178503
 20
-0.1261208652893113
 10
-0.7038818623237069
 20
-0.1272268088806478
 10
-0.6888465221542821
 20
-0.1255764371324606
 10
-0.6738951032141728
 20
-0.1216435403628729
  0
LWPOLYLINE
  5
12F
330
109
100
AcDbEntity
  8
AM_9
100
AcDbPolyline
 90
        5
 70
     0
 43
0.0
 10
-0.7411048967858308
 20
-0.6358662264105378
 10
-0.7233969348056365
 20
-0.6369604975095932
 10
-0.7058126746232247
 20
-0.6372608102952128
 10
-0.6877152386336649
 20
-0.636791604954362
 10
-0.6738951032141695
 20
-0.6358662264105378
  0
LWPOLYLINE
  5
130
330
109
100
AcDbEntity
  8
AM_9
100
AcDbPolyline
 90
        9
 70
     0
 43
0.0
 10
-0.6738951032141692
 20
-0.6358662264105379
 10
-0.6542293605161208
 20
-0.634006719002436
 10
-0.6355519170257009
 20
-0.6311123607833838
 10
-0.619426490487105
 20
-0.6272947383359461
 10
-0.6053641576162129
 20
-0.6222852288909729
 10
-0.59445763040803
 20
-0.6162981785977385
 10
-0.5865120218439374
 20
-0.6090434704925032
 10
-0.5822445523563842
 20
-0.6011136160286907
 10
-0.5813000007646193
 20
-0.5947586140620265
  0
LWPOLYLINE
  5
131
330
109
100
AcDbEntity
  8
AM_9
100
AcDbPolyline
 90
        6
 70
     0
 43
0.0
 10
-0.6738951032141707
 20
-0.5330486632502545
 10
-0.6888830123537207
 20
-0.5306988811609844
 10
-0.7046786405418968
 20
-0.5296967274868928
 10
-0.7217353988837415
 20
-0.53027185877895
 10
-0.7388769683416496
 20
-0.5326103568536154
 10
-0.7411048967858295
 20
-0.5330486632502545
  0
LWPOLYLINE
  5
132
330
109
100
AcDbEntity
  8
AM_9
100
AcDbPolyline
 90
        9
 70
     0
 43
0.0
 10
-0.7411048967858296
 20
-0.5330486632502545
 10
-0.7607706394838784
 20
-0.5373067882831808
 10
-0.7794480829742982
 20
-0.5434767259574194
 10
-0.7955735095128943
 20
-0.5508978074657155
 10
-0.8096358423837865
 20
-0.559630965090118
 10
-0.8205423695919696
 20
-0.5688754930718993
 10
-0.8284879781560623
 20
-0.5787049050528563
 10
-0.8327554476436158
 20
-0.5880872943887272
 10
-0.8336999992353807
 20
-0.5947703561570498
  0
LINE
  5
133
330
109
100
AcDbEntity
  8
AM_9
100
AcDbLine
 10
-1.0032
 20
-0.65625
 30
0.0
 11
0.6332
 21
-0.65625
 31
0.0
  0
LINE
  5
134
330
109
100
AcDbEntity
  8
AM_9
100
AcDbLine
 10
0.6332
 20
0.65625
 30
0.0
 11
-1.0032
 21
0.65625
 31
0.0
  0
LINE
  5
135
330
109
100
AcDbEntity
  8
AM_9
100
AcDbLine
 10
0.6332
 20
-0.65625
 30
0.0
 11
0.67
 21
-0.69305
 31
0.0
  0
LINE
  5
136
330
109
100
AcDbEntity
  8
AM_9
100
AcDbLine
 10
0.67
 20
0.69305
 30
0.0
 11
0.6332
 21
0.65625
 31
0.0
  0
LINE
  5
137
330
109
100
AcDbEntity
  8
AM_9
100
AcDbLine
 10
-1.0032
 20
0.65625
 30
0.0
 11
-1.04
 21
0.69305
 31
0.0
  0
LINE
  5
138
330
109
100
AcDbEntity
  8
AM_9
100
AcDbLine
 10
-1.04
 20
-0.69305
 30
0.0
 11
-1.0032
 21
-0.65625
 31
0.0
  0
ARC
  5
139
330
109
100
AcDbEntity
  8
AM_9
100
AcDbCircle
 10
-0.7075000000000001
 20
0.0
 30
0.0
 40
0.1262
100
AcDbArc
 50
283.0699864827549
 51
76.93001351724507
  0
LWPOLYLINE
  5
13A
330
109
100
AcDbEntity
  8
AM_9
100
AcDbPolyline
 90
        5
 70
     0
 43
0.0
 10
-0.6766492240018737
 20
0.1337762598557113
 10
-0.6675558828582541
 20
0.1316545944302788
 10
-0.6429175251698679
 20
0.1228845007114305
 10
-0.623663235789157
 20
0.1123376132684437
 10
-0.6061814370042298
 20
0.0990834330639697
  0
LWPOLYLINE
  5
13B
330
109
100
AcDbEntity
  8
AM_9
100
AcDbPolyline
 90
       15
 70
     0
 43
0.0
 10
-0.6061814370042298
 20
0.0990834330639697
 10
-0.5915394078750822
 20
0.0840374929366208
 10
-0.5793139641116153
 20
0.0669681475490529
 10
-0.5689688256557147
 20
0.0457989188607532
 10
-0.5625562100249473
 20
0.0231139790003437
 10
-0.5604572607214222
 20
0.0012281334213104
 10
-0.5621328563835756
 20
-0.020694660079328
 10
-0.5673134775960736
 20
-0.0412435742351936
 10
-0.5757374011364823
 20
-0.0606773322778276
 10
-0.5874744868847158
 20
-0.0789456867897272
 10
-0.6019193796601766
 20
-0.0951532253816025
 10
-0.6198686973677594
 20
-0.1097961270516978
 10
-0.6398973282902162
 20
-0.1214666823348717
 10
-0.6630373735956747
 20
-0.1303930598059047
 10
-0.676396726467108
 20
-0.1337254452777456
  0
LINE
  5
13C
330
109
100
AcDbEntity
  8
AM_9
100
AcDbLine
 10
-0.5
 20
-0.92
 30
0.0
 11
-0.3749999999999999
 21
-0.92
 31
0.0
  0
LINE
  5
13D
330
109
100
AcDbEntity
  8
AM_9
100
AcDbLine
 10
-0.3749999999999999
 20
0.92
 30
0.0
 11
-0.5
 21
0.92
 31
0.0
  0
LINE
  5
13E
330
109
100
AcDbEntity
  8
AM_9
100
AcDbLine
 10
0.67
 20
0.1649242250247054
 30
0.0
 11
0.67
 21
-0.1649242250247054
 31
0.0
  0
LINE
  5
13F
330
109
100
AcDbEntity
  8
AM_9
100
AcDbLine
 10
0.6332
 20
0.2741491564823789
 30
0.0
 11
0.6332
 21
-0.2741491564823789
 31
0.0
  0
LINE
  5
140
330
109
100
AcDbEntity
  8
AM_9
100
AcDbLine
 10
0.3749999999999999
 20
-0.9199999999999997
 30
0.0
 11
0.5000000000000001
 21
-0.9199999999999997
 31
0.0
  0
LINE
  5
141
330
109
100
AcDbEntity
  8
AM_9
100
AcDbLine
 10
0.5000000000000001
 20
0.9199999999999997
 30
0.0
 11
0.3749999999999999
 21
0.9199999999999997
 31
0.0
  0
LINE
  5
142
330
109
100
AcDbEntity
  8
AM_9
100
AcDbLine
 10
-0.2399999999999999
 20
-1.350633333333333
 30
0.0
 11
-0.1599999999999999
 21
-1.350633333333333
 31
0.0
  0
LINE
  5
143
330
109
100
AcDbEntity
  8
AM_9
100
AcDbLine
 10
-0.1599999999999999
 20
1.350633333333333
 30
0.0
 11
-0.2399999999999999
 21
1.350633333333333
 31
0.0
  0
LINE
  5
144
330
109
100
AcDbEntity
  8
AM_9
100
AcDbLine
 10
0.3749999999999999
 20
1.286125759479469
 30
0.0
 11
0.3749999999999999
 21
-1.286125759479469
 31
0.0
  0
ARC
  5
145
330
109
100
AcDbEntity
  8
AM_9
100
AcDbCircle
 10
0.335
 20
-1.335937981344943
 30
0.0
 40
0.0399999999999997
100
AcDbArc
 50
284.0772302633403
 51
0.0
  0
ARC
  5
146
330
109
100
AcDbEntity
  8
AM_9
100
AcDbCircle
 10
0.335
 20
1.335937981344943
 30
0.0
 40
0.0399999999999999
100
AcDbArc
 50
0.0
 51
75.92276973665967
  0
LINE
  5
147
330
109
100
AcDbEntity
  8
AM_9
100
AcDbLine
 10
-0.3749999999999999
 20
1.286125759479468
 30
0.0
 11
-0.3749999999999999
 21
-1.286125759479468
 31
0.0
  0
ARC
  5
148
330
109
100
AcDbEntity
  8
AM_9
100
AcDbCircle
 10
-0.3349999999999994
 20
-1.335937981344942
 30
0.0
 40
0.0400000000000005
100
AcDbArc
 50
180.0
 51
255.9227727932858
  0
ARC
  5
149
330
109
100
AcDbEntity
  8
AM_9
100
AcDbCircle
 10
-0.3349999999999995
 20
1.335937981344942
 30
0.0
 40
0.0400000000000003
100
AcDbArc
 50
104.0772272067141
 51
180.0
  0
LINE
  5
14A
330
109
100
AcDbEntity
  8
AM_9
100
AcDbLine
 10
-0.24
 20
1.396831876068126
 30
0.0
 11
-0.24
 21
-1.396831876068094
 31
0.0
  0
LINE
  5
14B
330
109
100
AcDbEntity
  8
AM_9
100
AcDbLine
 10
-0.3447291802802586
 20
1.374736731983001
 30
0.0
 11
-0.3447291802802586
 21
-1.37473673198297
 31
0.0
  0
ARC
  5
14C
330
109
100
AcDbEntity
  8
AM_9
100
AcDbCircle
 10
0.0000000000087922
 20
0.0000000000417544
 30
0.0
 40
1.417300000042609
100
AcDbArc
 50
255.9227727933522
 51
260.2507814750213
  0
ARC
  5
14D
330
109
100
AcDbEntity
  8
AM_9
100
AcDbCircle
 10
0.0000000000088059
 20
-0.0000000000418185
 30
0.0
 40
1.417300000042674
100
AcDbArc
 50
99.74921852497883
 51
104.0772272066476
  0
LINE
  5
14E
330
109
100
AcDbEntity
  8
AM_9
100
AcDbLine
 10
-0.1599999999999999
 20
1.40823978426971
 30
0.0
 11
-0.1599999999999999
 21
-1.40823978426971
 31
0.0
  0
LINE
  5
14F
330
109
100
AcDbEntity
  8
AM_9
100
AcDbLine
 10
0.3447291823501022
 20
1.374736731463967
 30
0.0
 11
0.3447291823501021
 21
-1.374736731463966
 31
0.0
  0
ARC
  5
150
330
109
100
AcDbEntity
  8
AM_9
100
AcDbCircle
 10
-0.0000000000000008
 20
0.000000000000026
 30
0.0
 40
1.417300000000025
100
AcDbArc
 50
263.5180207994821
 51
284.0772272929792
  0
ARC
  5
151
330
109
100
AcDbEntity
  8
AM_9
100
AcDbCircle
 10
-0.0000000000013967
 20
-0.0000000000060285
 30
0.0
 40
1.417300000006187
100
AcDbArc
 50
75.92277270702509
 51
77.6203581647864
  0
ARC
  5
152
330
109
100
AcDbEntity
  8
AM_9
100
AcDbCircle
 10
0.0000000000000019
 20
-0.000000000000099
 30
0.0
 40
1.417300000000098
100
AcDbArc
 50
86.11028510568539
 51
96.48197920051764
  0
LINE
  5
153
330
109
100
AcDbEntity
  8
AM_9
100
AcDbLine
 10
0.3041666666660698
 20
1.384276680757545
 30
0.0
 11
0.0958333333486708
 21
1.414056315079455
 31
0.0
  0
ARC
  5
155
330
109
100
AcDbEntity
  8
AM_5
100
AcDbCircle
 10
-0.7075000000000002
 20
-0.0000000000000001
 30
0.0
 40
0.15625
100
AcDbArc
 50
75.0
 51
14.99999999999997
  0
ARC
  5
156
330
109
100
AcDbEntity
  8
AM_5
100
AcDbCircle
 10
-0.7275
 20
0.0
 30
0.0
 40
0.15625
100
AcDbArc
 50
75.00000000000001
 51
14.99999999999997
  0
LINE
  5
159
330
109
100
AcDbEntity
  8
AM_7
100
AcDbLine
 10
0.2
 20
1.51107125
 30
0.0
 11
0.2
 21
0.89185375
 31
0.0
  0
LINE
  5
15A
330
109
100
AcDbEntity
  8
AM_7
100
AcDbLine
 10
-0.7075
 20
-0.1325099999999999
 30
0.0
 11
-0.7075
 21
0.13251
 31
0.0
  0
ELLIPSE
  5
15B
330
109
100
AcDbEntity
  8
AM_4
100
AcDbEllipse
 10
-0.7074999999999999
 20
-0.8148925094304427
 30
0.0
 11
-0.1262
 21
1.545504260523960E-17
 31
0.0
210
0.0
220
0.0
230
1.0
 40
0.4226182617406994
 41
5.922055393978797
 42
9.783497887083543
  0
LWPOLYLINE
  5
15C
330
109
100
AcDbEntity
  8
AM_4
100
AcDbPolyline
 90
       14
 70
     0
 43
0.0
 10
-0.8353933021884347
 20
-0.8030536920670432
 10
-0.8312955586635274
 20
-0.799946475955041
 10
-0.8172836347978099
 20
-0.7912915877057912
 10
-0.8007671272814006
 20
-0.7836061445765111
 10
-0.7807722420046174
 20
-0.7767412176447328
 10
-0.7589882783813788
 20
-0.771521188565616
 10
-0.7345136270465196
 20
-0.7680136773610051
 10
-0.709323221429411
 20
-0.7667070585634598
 10
-0.683299974210065
 20
-0.7677560775678577
 10
-0.657957872439703
 20
-0.7711554158505997
 10
-0.6339984893613343
 20
-0.7768109492897658
 10
-0.6121991277220694
 20
-0.7844399761037789
 10
-0.5938345460575525
 20
-0.7934534387992556
 10
-0.5795928403116654
 20
-0.8030647993863769
  0
LWPOLYLINE
  5
15D
330
109
100
AcDbEntity
  8
AM_4
100
AcDbPolyline
 90
        6
 70
     0
 43
0.0
 10
-0.5795928403116654
 20
-0.8030647993863769
 10
-0.578887730866234
 20
-0.8036359003476897
 10
-0.5686260742809275
 20
-0.8138338949555558
 10
-0.5623590487133963
 20
-0.8242576997106629
 10
-0.5606862680881516
 20
-0.8304150206999563
 10
-0.5605878958336312
 20
-0.8364200418006986
  0
ARC
  5
15E
330
109
100
AcDbEntity
  8
AM_4
100
AcDbCircle
 10
-0.7074999999999999
 20
0.0
 30
0.0
 40
0.1262
100
AcDbArc
 50
76.93001351724517
 51
283.0699864827548
  0
LINE
  5
15F
330
109
100
AcDbEntity
  8
AM_4
100
AcDbLine
 10
-1.04
 20
0.8832
 30
0.0
 11
-1.04
 21
-0.8832
 31
0.0
  0
LINE
  5
160
330
109
100
AcDbEntity
  8
AM_4
100
AcDbLine
 10
-1.04
 20
-0.8832
 30
0.0
 11
-1.0032
 21
-0.92
 31
0.0
  0
LINE
  5
161
330
109
100
AcDbEntity
  8
AM_4
100
AcDbLine
 10
-1.0032
 20
0.92
 30
0.0
 11
-1.04
 21
0.8832
 31
0.0
  0
LINE
  5
162
330
109
100
AcDbEntity
  8
AM_4
100
AcDbLine
 10
-1.0032
 20
0.92
 30
0.0
 11
-1.0032
 21
-0.92
 31
0.0
  0
LWPOLYLINE
  5
163
330
109
100
AcDbEntity
  8
AM_4
100
AcDbPolyline
 90
       23
 70
     0
 43
0.0
 10
-0.676396726467108
 20
-0.1337254452777456
 10
-0.6873231601094075
 20
-0.1355338288805017
 10
-0.7131930881225923
 20
-0.1367167921933475
 10
-0.7389057595955514
 20
-0.1336639999275327
 10
-0.7640259393427402
 20
-0.1262679964264503
 10
-0.7875085961069854
 20
-0.1147418003498326
 10
-0.8082508596599404
 20
-0.0995611040119847
 10
-0.825973913522221
 20
-0.080963402422981
 10
-0.8392952453659654
 20
-0.0605746225470171
 10
-0.848724767186288
 20
-0.038108187957825
 10
-0.8535209113427465
 20
-0.0161048615811194
 10
-0.8544037989290799
 20
0.0064038383597319
 10
-0.8515343273380863
 20
0.0275196310014102
 10
-0.8452383994537461
 20
0.0478689225270828
 10
-0.8356491183957145
 20
0.0670079418213215
 10
-0.823172799736616
 20
0.0843932464781528
 10
-0.8072394677212081
 20
0.1004479803098776
 10
-0.7889932534545555
 20
0.1138322299328559
 10
-0.7673860853323994
 20
0.1249200745047226
 10
-0.7442781073396044
 20
0.1324680822367561
 10
-0.7189616017455025
 20
0.1364023855439378
 10
-0.6933348432201435
 20
0.1361941960916929
 10
-0.6766492240018737
 20
0.1337762598557113
  0
LWPOLYLINE
  5
164
330
109
100
AcDbEntity
  8
AM_4
100
AcDbPolyline
 90
       23
 70
     0
 43
0.0
 10
-0.5605878958336312
 20
-0.8364200418006986
 10
-0.5635680356699397
 20
-0.84523522179502
 10
-0.5701729415079198
 20
-0.8532824103906758
 10
-0.579923739369652
 20
-0.8602397306751867
 10
-0.5925453381619384
 20
-0.8662397807921377
 10
-0.6086345461053659
 20
-0.8715099360739705
 10
-0.6270200470031392
 20
-0.8756964721186201
 10
-0.648751955752624
 20
-0.879015258710987
 10
-0.6719593141783388
 20
-0.8811831958308243
 10
-0.6973312168221054
 20
-0.8822617265662864
 10
-0.7229788291470503
 20
-0.8821386239732293
 10
-0.748722166329964
 20
-0.8807631372408959
 10
-0.7732870748661603
 20
-0.8780978394089982
 10
-0.795751488410156
 20
-0.8741084630623616
 10
-0.8155921006122825
 20
-0.8687299636509869
 10
-0.8314358019562612
 20
-0.8622062848454316
 10
-0.8435713129913822
 20
-0.8543798591777444
 10
-0.8509628016037893
 20
-0.8460197404765809
 10
-0.8543649951509523
 20
-0.8367914119524856
 10
-0.8537283405896985
 20
-0.8276050497532312
 10
-0.849496834881177
 20
-0.818157690520508
 10
-0.8419214843032236
 20
-0.8088816593979681
 10
-0.8353933021884347
 20
-0.8030536920670432
  0
LINE
  5
165
330
109
100
AcDbEntity
  8
AM_4
100
AcDbLine
 10
-1.0032
 20
-0.92
 30
0.0
 11
-0.5
 21
-0.92
 31
0.0
  0
LINE
  5
166
330
109
100
AcDbEntity
  8
AM_4
100
AcDbLine
 10
-0.5
 20
0.92
 30
0.0
 11
-1.0032
 21
0.92
 31
0.0
  0
LINE
  5
167
330
109
100
AcDbEntity
  8
AM_4
100
AcDbLine
 10
0.67
 20
-0.1649242250247054
 30
0.0
 11
0.67
 21
-0.8832000000000002
 31
0.0
  0
LINE
  5
168
330
109
100
AcDbEntity
  8
AM_4
100
AcDbLine
 10
0.67
 20
0.8832000000000002
 30
0.0
 11
0.67
 21
0.1649242250247054
 31
0.0
  0
LINE
  5
169
330
109
100
AcDbEntity
  8
AM_4
100
AcDbLine
 10
0.67
 20
0.8832000000000002
 30
0.0
 11
0.6332
 21
0.9200000000000002
 31
0.0
  0
LINE
  5
16A
330
109
100
AcDbEntity
  8
AM_4
100
AcDbLine
 10
0.6332
 20
-0.9200000000000002
 30
0.0
 11
0.67
 21
-0.8832000000000002
 31
0.0
  0
LINE
  5
16B
330
109
100
AcDbEntity
  8
AM_4
100
AcDbLine
 10
0.6332
 20
-0.2741491564823789
 30
0.0
 11
0.6332
 21
-0.9199999999999997
 31
0.0
  0
LINE
  5
16C
330
109
100
AcDbEntity
  8
AM_4
100
AcDbLine
 10
0.6332
 20
0.9200000000000002
 30
0.0
 11
0.6332
 21
0.2741491564823789
 31
0.0
  0
LINE
  5
16D
330
109
100
AcDbEntity
  8
AM_4
100
AcDbLine
 10
0.5000000000000001
 20
-0.9199999999999997
 30
0.0
 11
0.6332
 21
-0.9199999999999997
 31
0.0
  0
LINE
  5
16E
330
109
100
AcDbEntity
  8
AM_4
100
AcDbLine
 10
0.6332
 20
0.9199999999999997
 30
0.0
 11
0.5000000000000001
 21
0.9199999999999997
 31
0.0
  0
ARC
  5
16F
330
109
100
AcDbEntity
  8
AM_5
100
AcDbCircle
 10
-0.7074999999999999
 20
0.0
 30
0.0
 40
0.1562499999999999
100
AcDbArc
 50
345.0
 51
284.9999999999999
  0
ARC
  5
170
330
109
100
AcDbEntity
  8
AM_5
100
AcDbCircle
 10
-0.7275
 20
0.0
 30
0.0
 40
0.15625
100
AcDbArc
 50
345.0
 51
285.0
  0
ENDBLK
  5
10C
330
109
100
AcDbEntity
  8
0
100
AcDbBlockEnd
  0
BLOCK
  5
173
330
171
100
AcDbEntity
  8
0
100
AcDbBlockBegin
  2
4_125368H_0_in_125368_2
 70
     2
 10
0.0
 20
0.0
 30
0.0
  3
4_125368H_0_in_125368_2
  1

  0
ATTDEF
  5
175
330
171
100
AcDbEntity
  8
AM_6
100
AcDbText
 10
5.759
 20
2.065
 30
0.0
 40
0.5
  1
NSTU-SC -Inch - HOUSING
100
AcDbAttributeDefinition
  3

  2
NN
 70
     8
280
     0
  0
ATTDEF
  5
176
330
171
100
AcDbEntity
  8
AM_6
100
AcDbText
 10
5.759
 20
1.565
 30
0.0
 40
0.5
  1
SC Take-Up Bearings -Narrow Slot -(Normal Duty)
100
AcDbAttributeDefinition
  3

  2
NT
 70
     8
280
     0
  0
ATTDEF
  5
177
330
171
100
AcDbEntity
  8
AM_6
100
AcDbText
 10
5.759
 20
1.065
 30
0.0
 40
0.5
  1
125368H
100
AcDbAttributeDefinition
  3

  2
NB
 70
     8
280
     0
  0
ATTDEF
  5
178
330
171
100
AcDbEntity
  8
AM_6
100
AcDbText
 10
5.759
 20
0.565
 30
0.0
 40
0.5
  1
$PN.H
100
AcDbAttributeDefinition
  3

  2
NBSYN
 70
     8
280
     0
  0
ATTDEF
  5
179
330
171
100
AcDbEntity
  8
AM_6
100
AcDbText
 10
5.759
 20
0.0649999999999999
 30
0.0
 40
0.5
  1
125368
100
AcDbAttributeDefinition
  3

  2
LINA
 70
     8
280
     0
  0
ATTDEF
  5
17A
330
171
100
AcDbEntity
  8
AM_6
100
AcDbText
 10
5.759
 20
-0.4350000000000001
 30
0.0
 40
0.5
  1
207
100
AcDbAttributeDefinition
  3

  2
SERIES
 70
     8
280
     0
  0
ATTDEF
  5
17B
330
171
100
AcDbEntity
  8
AM_6
100
AcDbText
 10
5.759
 20
-0.935
 30
0.0
 40
0.5
  1
1-5/16
100
AcDbAttributeDefinition
  3

  2
SS
 70
     8
280
     0
  0
ATTDEF
  5
17C
330
171
100
AcDbEntity
  8
AM_6
100
AcDbText
 10
5.759
 20
-1.435
 30
0.0
 40
0.5
  1
125368
100
AcDbAttributeDefinition
  3

  2
PN
 70
     8
280
     0
  0
ATTDEF
  5
17D
330
171
100
AcDbEntity
  8
AM_6
100
AcDbText
 10
5.759
 20
-1.935
 30
0.0
 40
0.5
  1
NSTU-SC-105
100
AcDbAttributeDefinition
  3

  2
DESCRIPTION
 70
     8
280
     0
  0
ATTDEF
  5
17E
330
171
100
AcDbEntity
  8
AM_6
100
AcDbText
 10
5.759
 20
-2.435
 30
0.0
 40
0.5
  1
2.7
100
AcDbAttributeDefinition
  3

  2
W
 70
     8
280
     0
  0
ATTDEF
  5
17F
330
171
100
AcDbEntity
  8
AM_6
100
AcDbText
 10
5.759
 20
-2.935
 30
0.0
 40
0.5
  1
NS308
100
AcDbAttributeDefinition
  3

  2
FS
 70
     8
280
     0
  0
ATTDEF
  5
180
330
171
100
AcDbEntity
  8
AM_6
100
AcDbText
 10
5.759
 20
-3.435
 30
0.0
 40
0.5
  1
1.71
100
AcDbAttributeDefinition
  3

  2
A
 70
     8
280
     0
  0
ATTDEF
  5
181
330
171
100
AcDbEntity
  8
AM_6
100
AcDbText
 10
5.759
 20
-3.935
 30
0.0
 40
0.5
  1
4.50
100
AcDbAttributeDefinition
  3

  2
B
 70
     8
280
     0
  0
ATTDEF
  5
182
330
171
100
AcDbEntity
  8
AM_6
100
AcDbText
 10
5.759
 20
-4.435
 30
0.0
 40
0.5
  1
0.250
100
AcDbAttributeDefinition
  3

  2
C
 70
     8
280
     0
  0
ATTDEF
  5
183
330
171
100
AcDbEntity
  8
AM_6
100
AcDbText
 10
5.759
 20
-4.935
 30
0.0
 40
0.5
  1
2.50
100
AcDbAttributeDefinition
  3

  2
D
 70
     8
280
     0
  0
ATTDEF
  5
184
330
171
100
AcDbEntity
  8
AM_6
100
AcDbText
 10
5.759
 20
-5.435
 30
0.0
 40
0.5
  1
2.69
100
AcDbAttributeDefinition
  3

  2
E
 70
     8
280
     0
  0
ATTDEF
  5
185
330
171
100
AcDbEntity
  8
AM_6
100
AcDbText
 10
5.759
 20
-5.935
 30
0.0
 40
0.5
  1
3/4
100
AcDbAttributeDefinition
  3

  2
F
 70
     8
280
     0
  0
ATTDEF
  5
186
330
171
100
AcDbEntity
  8
AM_6
100
AcDbText
 10
5.759
 20
-6.435
 30
0.0
 40
0.5
  1
0.50
100
AcDbAttributeDefinition
  3

  2
G
 70
     8
280
     0
  0
ATTDEF
  5
187
330
171
100
AcDbEntity
  8
AM_6
100
AcDbText
 10
5.759
 20
-6.935
 30
0.0
 40
0.5
  1
0.94
100
AcDbAttributeDefinition
  3

  2
H
 70
     8
280
     0
  0
ATTDEF
  5
188
330
171
100
AcDbEntity
  8
AM_6
100
AcDbText
 10
5.759
 20
-7.435
 30
0.0
 40
0.5
  1
1.38
100
AcDbAttributeDefinition
  3

  2
J
 70
     8
280
     0
  0
ATTDEF
  5
189
330
171
100
AcDbEntity
  8
AM_6
100
AcDbText
 10
5.759
 20
-7.935
 30
0.0
 40
0.5
  1
1.84
100
AcDbAttributeDefinition
  3

  2
L
 70
     8
280
     0
  0
ATTDEF
  5
18A
330
171
100
AcDbEntity
  8
AM_6
100
AcDbText
 10
5.759
 20
-8.435
 30
0.0
 40
0.5
  1
3.510 / 3.480
100
AcDbAttributeDefinition
  3

  2
M
 70
     8
280
     0
  0
ATTDEF
  5
18B
330
171
100
AcDbEntity
  8
AM_6
100
AcDbText
 10
5.759
 20
-8.935
 30
0.0
 40
0.5
  1
4.13
100
AcDbAttributeDefinition
  3

  2
N
 70
     8
280
     0
  0
ATTDEF
  5
18C
330
171
100
AcDbEntity
  8
AM_6
100
AcDbText
 10
5.759
 20
-9.435
 30
0.0
 40
0.5
  1
0.32
100
AcDbAttributeDefinition
  3

  2
P
 70
     8
280
     0
  0
ATTDEF
  5
18D
330
171
100
AcDbEntity
  8
AM_6
100
AcDbText
 10
5.759
 20
-9.935
 30
0.0
 40
0.5
  1
0.67
100
AcDbAttributeDefinition
  3

  2
R
 70
     8
280
     0
  0
ATTDEF
  5
18E
330
171
100
AcDbEntity
  8
AM_6
100
AcDbText
 10
5.759
 20
-10.435
 30
0.0
 40
0.5
  1
1.04
100
AcDbAttributeDefinition
  3

  2
S
 70
     8
280
     0
  0
ATTDEF
  5
18F
330
171
100
AcDbEntity
  8
AM_6
100
AcDbText
 10
5.759
 20
-10.935
 30
0.0
 40
0.5
  1
3065
100
AcDbAttributeDefinition
  3

  2
CAPS
 70
     8
280
     0
  0
ATTDEF
  5
190
330
171
100
AcDbEntity
  8
AM_6
100
AcDbText
 10
5.759
 20
-11.435
 30
0.0
 40
0.5
  1
5759
100
AcDbAttributeDefinition
  3

  2
CAPD
 70
     8
280
     0
  0
ATTDEF
  5
191
330
171
100
AcDbEntity
  8
AM_6
100
AcDbText
 10
5.759
 20
-11.935
 30
0.0
 40
0.5
  1
baldor
100
AcDbAttributeDefinition
  3

  2
COMPANY
 70
     8
280
     0
  0
ELLIPSE
  5
192
330
171
100
AcDbEntity
  8
AM_9
100
AcDbEllipse
 10
-0.0000000000000001
 20
-0.73
 30
0.0
 11
0.1499999999999998
 21
0.0
 31
0.0
210
0.0
220
0.0
230
1.0
 40
0.8660254037844394
 41
1.570796326794897
 42
6.283185307179586
  0
LWPOLYLINE
  5
193
330
171
100
AcDbEntity
  8
AM_9
100
AcDbPolyline
 90
       11
 70
     0
 43
0.0
 10
-0.0000000000000001
 20
-0.7719831003030931
 10
0.0247770871733312
 20
-0.7738526268452866
 10
0.0495541743466625
 20
-0.7796168820067843
 10
0.0722491900294251
 20
-0.7887679211108003
 10
0.0935202536247024
 20
-0.8015331731318271
 10
0.1116292667160455
 20
-0.8168414985351049
 10
0.1270497800805065
 20
-0.8350651024057324
 10
0.1385039756399077
 20
-0.8546670748350605
 10
0.1462950724025522
 20
-0.876154918126258
 10
0.1497598160738641
 20
-0.8976417144257769
 10
0.1499999993406577
 20
-0.9049878199903642
  0
LINE
  5
194
330
171
100
AcDbEntity
  8
AM_9
100
AcDbLine
 10
0.1499999999999998
 20
-0.9049799513073843
 30
0.0
 11
0.1499999999999999
 21
-0.73
 31
0.0
  0
LINE
  5
195
330
171
100
AcDbEntity
  8
AM_9
100
AcDbLine
 10
-0.15
 20
-0.73
 30
0.0
 11
-0.15
 21
-0.9049972686366604
 31
0.0
  0
ELLIPSE
  5
196
330
171
100
AcDbEntity
  8
AM_9
100
AcDbEllipse
 10
0.0
 20
-0.73
 30
0.0
 11
0.1499999999999998
 21
0.0
 31
0.0
210
0.0
220
0.0
230
1.0
 40
0.8660254037844395
 41
0.0
 42
1.570796326794897
  0
LWPOLYLINE
  5
197
330
171
100
AcDbEntity
  8
AM_9
100
AcDbPolyline
 90
       20
 70
     0
 43
0.0
 10
0.1499999993406577
 20
-0.9049878199903642
 10
0.1490197393218888
 20
-0.9197864471957566
 10
0.1441539402238337
 20
-0.9406752762112559
 10
0.1350287153179318
 20
-0.9609827924227576
 10
0.1223919730923839
 20
-0.9790616575631966
 10
0.105891853745494
 20
-0.9954461367798103
 10
0.0868441680963068
 20
-1.008849342682326
 10
0.0647430027886491
 20
-1.019648129640124
 10
0.0414396823619892
 20
-1.026973053003818
 10
0.0162600900296781
 20
-1.031061879672229
 10
-0.0085962574743319
 20
-1.031587469409736
 10
-0.0339221386665101
 20
-1.028584782278537
 10
-0.0575562040765737
 20
-1.022306184936564
 10
-0.0802163923870957
 20
-1.01254623166426
 10
-0.1000573392514285
 20
-1.000053563997028
 10
-0.1175950418596672
 20
-0.9844461175243845
 10
-0.1313946740187181
 20
-0.9669390106222799
 10
-0.1418053818766732
 20
-0.9470185106671427
 10
-0.1479429545404568
 20
-0.9263550651483663
 10
-0.1499999999050612
 20
-0.9049953781348185
  0
LWPOLYLINE
  5
198
330
171
100
AcDbEntity
  8
AM_9
100
AcDbPolyline
 90
       12
 70
     0
 43
0.0
 10
-0.1499999999050612
 20
-0.9049953781348185
 10
-0.1499978457500319
 20
-0.904303704759261
 10
-0.1478079411734521
 20
-0.8827827090473861
 10
-0.1413244251685359
 20
-0.8611128697837772
 10
-0.1310937236234826
 20
-0.8411322598496004
 10
-0.1168248945347198
 20
-0.8222967275362684
 10
-0.0996541725470951
 20
-0.8061706466097
 10
-0.0791240131803266
 20
-0.7923932373421537
 10
-0.0569199884142482
 20
-0.7821481294244832
 10
-0.0324245554702278
 20
-0.7752001024778541
 10
-0.0164068866318494
 20
-0.7727998192861365
 10
-0.0000000000000001
 20
-0.7719831003030931
  0
LINE
  5
199
330
171
100
AcDbEntity
  8
AM_9
100
AcDbLine
 10
-0.15
 20
-1.482925
 30
0.0
 11
0.5
 21
-1.482925
 31
0.0
  0
LINE
  5
19A
330
171
100
AcDbEntity
  8
AM_9
100
AcDbLine
 10
-0.15
 20
-1.482925
 30
0.0
 11
-0.15
 21
-1.348084952812693
 31
0.0
  0
LINE
  5
19B
330
171
100
AcDbEntity
  8
AM_9
100
AcDbLine
 10
-0.15
 20
1.348084952812693
 30
0.0
 11
-0.15
 21
1.482925
 31
0.0
  0
LINE
  5
19C
330
171
100
AcDbEntity
  8
AM_9
100
AcDbLine
 10
0.164015151515146
 20
1.482925
 30
0.0
 11
-0.15
 21
1.482925
 31
0.0
  0
LINE
  5
19D
330
171
100
AcDbEntity
  8
AM_9
100
AcDbLine
 10
0.5
 20
1.482925
 30
0.0
 11
0.2359848484848542
 21
1.482925
 31
0.0
  0
LINE
  5
19E
330
171
100
AcDbEntity
  8
AM_9
100
AcDbLine
 10
-0.15
 20
1.348084952812693
 30
0.0
 11
0.5
 21
1.348084952812693
 31
0.0
  0
LINE
  5
19F
330
171
100
AcDbEntity
  8
AM_9
100
AcDbLine
 10
0.5
 20
-1.348084952812693
 30
0.0
 11
-0.15
 21
-1.348084952812693
 31
0.0
  0
LINE
  5
1A0
330
171
100
AcDbEntity
  8
AM_9
100
AcDbLine
 10
-0.5
 20
-1.4173
 30
0.0
 11
0.5
 21
-1.416919301027762
 31
0.0
  0
LINE
  5
1A1
330
171
100
AcDbEntity
  8
AM_9
100
AcDbLine
 10
0.5
 20
1.416919301027761
 30
0.0
 11
-0.5
 21
1.4173
 31
0.0
  0
LINE
  5
1A2
330
171
100
AcDbEntity
  8
AM_9
100
AcDbLine
 10
-0.4999999999999999
 20
-0.4754997371187493
 30
0.0
 11
-0.4999999999999999
 21
0.4754997371187493
 31
0.0
  0
LINE
  5
1A3
330
171
100
AcDbEntity
  8
AM_9
100
AcDbLine
 10
0.5000000000000001
 20
0.4754997371187493
 30
0.0
 11
0.5000000000000001
 21
-0.475499737118749
 31
0.0
  0
LINE
  5
1A4
330
171
100
AcDbEntity
  8
AM_9
100
AcDbLine
 10
-0.3133974596215561
 20
-0.614721101234336
 30
0.0
 11
-0.3133974596215561
 21
0.614721101234336
 31
0.0
  0
LINE
  5
1A5
330
171
100
AcDbEntity
  8
AM_9
100
AcDbLine
 10
0.313397459621556
 20
-0.614721101234336
 30
0.0
 11
0.313397459621556
 21
0.614721101234336
 31
0.0
  0
LINE
  5
1A6
330
171
100
AcDbEntity
  8
AM_9
100
AcDbLine
 10
0.3393323807048855
 20
-0.16
 30
0.0
 11
0.6712730744512556
 21
-0.16
 31
0.0
  0
LINE
  5
1A7
330
171
100
AcDbEntity
  8
AM_9
100
AcDbLine
 10
0.6713246106433578
 20
0.16
 30
0.0
 11
0.3394250865993074
 21
0.16
 31
0.0
  0
LINE
  5
1A8
330
171
100
AcDbEntity
  8
AM_9
100
AcDbLine
 10
-0.6713246106433577
 20
-0.16
 30
0.0
 11
-0.3394250865993071
 21
-0.16
 31
0.0
  0
LINE
  5
1A9
330
171
100
AcDbEntity
  8
AM_9
100
AcDbLine
 10
-0.3393323807048853
 20
0.16
 30
0.0
 11
-0.6712730744512555
 21
0.16
 31
0.0
  0
LINE
  5
1AA
330
171
100
AcDbEntity
  8
AM_7
100
AcDbLine
 10
0.0000000000000002
 20
-0.7244999999999998
 30
0.0
 11
0.0000000000000002
 21
0.7244999999999998
 31
0.0
  0
LINE
  5
1AB
330
171
100
AcDbEntity
  8
AM_7
100
AcDbLine
 10
0.759
 20
0.0
 30
0.0
 11
-1.1255
 21
0.0
 31
0.0
  0
LWPOLYLINE
  5
1AC
330
171
100
AcDbEntity
  8
AM_4
100
AcDbPolyline
 90
       19
 70
     0
 43
0.0
 10
0.3750000000000004
 20
-2.015
 10
0.3748097349045877
 20
-2.019357787137383
 10
0.3742403876506108
 20
-2.023682408883347
 10
0.3732962913144539
 20
-2.027940952255126
 10
0.3719846310392959
 20
-2.032101007166284
 10
0.3703153893518329
 20
-2.036130913087035
 10
0.3683012701892224
 20
-2.04
 10
0.3659576022144501
 20
-2.043678821817552
 10
0.3633022221559494
 20
-2.047139380484327
 10
0.3603553390593279
 20
-2.050355339059327
 10
0.3571393804843275
 20
-2.053302222155949
 10
0.3536788218175529
 20
-2.05595760221445
 10
0.3500000000000006
 20
-2.058301270189222
 10
0.3461309130870356
 20
-2.060315389351832
 10
0.3421010071662841
 20
-2.061984631039295
 10
0.3379409522551267
 20
-2.063296291314453
 10
0.3336824088833473
 20
-2.064240387650611
 10
0.3293577871373837
 20
-2.064809734904587
 10
0.3250000000000009
 20
-2.065
  0
LINE
  5
1AD
330
171
100
AcDbEntity
  8
AM_4
100
AcDbLine
 10
0.1250000000000001
 20
-2.065
 30
0.0
 11
0.1250000000000001
 21
-1.755
 31
0.0
  0
LINE
  5
1AE
330
171
100
AcDbEntity
  8
AM_4
100
AcDbLine
 10
0.1250000000000001
 20
-2.065
 30
0.0
 11
0.3250000000000007
 21
-2.065
 31
0.0
  0
LINE
  5
1AF
330
171
100
AcDbEntity
  8
AM_4
100
AcDbLine
 10
-0.1249999999999999
 20
-1.755
 30
0.0
 11
-0.125
 21
-2.065
 31
0.0
  0
LWPOLYLINE
  5
1B0
330
171
100
AcDbEntity
  8
AM_4
100
AcDbPolyline
 90
       19
 70
     0
 43
0.0
 10
-0.325
 20
-2.065
 10
-0.329357787137383
 20
-2.064809734904587
 10
-0.3336824088833465
 20
-2.064240387650611
 10
-0.337940952255126
 20
-2.063296291314453
 10
-0.3421010071662834
 20
-2.061984631039295
 10
-0.346130913087035
 20
-2.060315389351832
 10
-0.35
 20
-2.058301270189222
 10
-0.3536788218175523
 20
-2.05595760221445
 10
-0.3571393804843269
 20
-2.053302222155949
 10
-0.3603553390593273
 20
-2.050355339059327
 10
-0.3633022221559489
 20
-2.047139380484327
 10
-0.3659576022144496
 20
-2.043678821817552
 10
-0.3683012701892219
 20
-2.04
 10
-0.3703153893518324
 20
-2.036130913087035
 10
-0.3719846310392953
 20
-2.032101007166283
 10
-0.3732962913144533
 20
-2.027940952255126
 10
-0.3742403876506103
 20
-2.023682408883346
 10
-0.3748097349045872
 20
-2.019357787137383
 10
-0.3749999999999998
 20
-2.015
  0
LINE
  5
1B1
330
171
100
AcDbEntity
  8
AM_4
100
AcDbLine
 10
-0.3249999999999998
 20
-2.065
 30
0.0
 11
-0.125
 21
-2.065
 31
0.0
  0
LINE
  5
1B2
330
171
100
AcDbEntity
  8
AM_4
100
AcDbLine
 10
-0.1249999999999999
 20
-1.755
 30
0.0
 11
0.1250000000000001
 21
-1.755
 31
0.0
  0
LINE
  5
1B3
330
171
100
AcDbEntity
  8
AM_4
100
AcDbLine
 10
-0.125
 20
-2.015
 30
0.0
 11
-0.3749999999999999
 21
-2.015
 31
0.0
  0
LINE
  5
1B4
330
171
100
AcDbEntity
  8
AM_4
100
AcDbLine
 10
0.3750000000000001
 20
-2.015000000000001
 30
0.0
 11
0.1250000000000001
 21
-2.015
 31
0.0
  0
LINE
  5
1B5
330
171
100
AcDbEntity
  8
AM_4
100
AcDbLine
 10
0.3750000000000001
 20
-2.015000000000001
 30
0.0
 11
0.3750000000000001
 21
-1.286125759479469
 31
0.0
  0
LINE
  5
1B6
330
171
100
AcDbEntity
  8
AM_4
100
AcDbLine
 10
-0.3749999999999999
 20
-1.286125759479468
 30
0.0
 11
-0.3749999999999999
 21
-2.015
 31
0.0
  0
LWPOLYLINE
  5
1B7
330
171
100
AcDbEntity
  8
AM_4
100
AcDbPolyline
 90
       19
 70
     0
 43
0.0
 10
0.3250000000000003
 20
2.065
 10
0.3293577871373831
 20
2.064809734904587
 10
0.3336824088833468
 20
2.064240387650611
 10
0.3379409522551263
 20
2.063296291314453
 10
0.3421010071662836
 20
2.061984631039295
 10
0.3461309130870351
 20
2.060315389351833
 10
0.3500000000000001
 20
2.058301270189222
 10
0.3536788218175524
 20
2.05595760221445
 10
0.3571393804843271
 20
2.053302222155949
 10
0.3603553390593274
 20
2.050355339059327
 10
0.363302222155949
 20
2.047139380484327
 10
0.3659576022144496
 20
2.043678821817553
 10
0.3683012701892219
 20
2.04
 10
0.3703153893518326
 20
2.036130913087035
 10
0.3719846310392955
 20
2.032101007166284
 10
0.3732962913144535
 20
2.027940952255126
 10
0.3742403876506104
 20
2.023682408883347
 10
0.3748097349045873
 20
2.019357787137383
 10
0.3750000000000001
 20
2.015
  0
LINE
  5
1B8
330
171
100
AcDbEntity
  8
AM_4
100
AcDbLine
 10
0.125
 20
1.755
 30
0.0
 11
0.1250000000000001
 21
2.065
 31
0.0
  0
LINE
  5
1B9
330
171
100
AcDbEntity
  8
AM_4
100
AcDbLine
 10
0.1250000000000001
 20
2.065
 30
0.0
 11
0.3250000000000003
 21
2.065
 31
0.0
  0
LWPOLYLINE
  5
1BA
330
171
100
AcDbEntity
  8
AM_4
100
AcDbPolyline
 90
       19
 70
     0
 43
0.0
 10
-0.3749999999999997
 20
2.015
 10
-0.374809734904587
 20
2.019357787137383
 10
-0.3742403876506101
 20
2.023682408883347
 10
-0.3732962913144531
 20
2.027940952255126
 10
-0.3719846310392951
 20
2.032101007166284
 10
-0.3703153893518322
 20
2.036130913087035
 10
-0.3683012701892217
 20
2.04
 10
-0.3659576022144493
 20
2.043678821817552
 10
-0.3633022221559487
 20
2.047139380484327
 10
-0.3603553390593272
 20
2.050355339059327
 10
-0.3571393804843268
 20
2.053302222155949
 10
-0.3536788218175521
 20
2.05595760221445
 10
-0.3499999999999999
 20
2.058301270189222
 10
-0.3461309130870349
 20
2.060315389351832
 10
-0.3421010071662833
 20
2.061984631039295
 10
-0.337940952255126
 20
2.063296291314453
 10
-0.3336824088833465
 20
2.064240387650611
 10
-0.329357787137383
 20
2.064809734904587
 10
-0.325
 20
2.065
  0
LINE
  5
1BB
330
171
100
AcDbEntity
  8
AM_4
100
AcDbLine
 10
-0.125
 20
2.065
 30
0.0
 11
-0.1249999999999999
 21
1.755
 31
0.0
  0
LINE
  5
1BC
330
171
100
AcDbEntity
  8
AM_4
100
AcDbLine
 10
-0.3250000000000001
 20
2.065
 30
0.0
 11
-0.125
 21
2.065
 31
0.0
  0
LINE
  5
1BD
330
171
100
AcDbEntity
  8
AM_4
100
AcDbLine
 10
-0.3749999999999999
 20
2.015
 30
0.0
 11
-0.3749999999999999
 21
1.286125759479468
 31
0.0
  0
LINE
  5
1BE
330
171
100
AcDbEntity
  8
AM_4
100
AcDbLine
 10
0.3750000000000001
 20
1.286125759479469
 30
0.0
 11
0.3750000000000001
 21
2.015
 31
0.0
  0
LINE
  5
1BF
330
171
100
AcDbEntity
  8
AM_4
100
AcDbLine
 10
0.125
 20
1.755
 30
0.0
 11
-0.1249999999999999
 21
1.755
 31
0.0
  0
LINE
  5
1C0
330
171
100
AcDbEntity
  8
AM_4
100
AcDbLine
 10
-0.1249999999999999
 20
2.015000000000001
 30
0.0
 11
-0.3749999999999999
 21
2.015
 31
0.0
  0
LINE
  5
1C1
330
171
100
AcDbEntity
  8
AM_4
100
AcDbLine
 10
0.3750000000000001
 20
2.015
 30
0.0
 11
0.125
 21
2.015000000000001
 31
0.0
  0
LINE
  5
1C2
330
171
100
AcDbEntity
  8
AM_4
100
AcDbLine
 10
-0.3133974596215559
 20
1.309045453756286
 30
0.0
 11
0.3133974596215561
 21
1.309045453756286
 31
0.0
  0
LINE
  5
1C3
330
171
100
AcDbEntity
  8
AM_4
100
AcDbLine
 10
-0.3133974596215559
 20
1.309045453756286
 30
0.0
 11
-0.313397459621556
 21
0.614721101234336
 31
0.0
  0
LINE
  5
1C4
330
171
100
AcDbEntity
  8
AM_4
100
AcDbLine
 10
-0.3749999999999999
 20
1.286125759479468
 30
0.0
 11
-0.3133974596215559
 21
1.309045453756286
 31
0.0
  0
LINE
  5
1C5
330
171
100
AcDbEntity
  8
AM_4
100
AcDbLine
 10
-0.3133974596215559
 20
-1.309045453756286
 30
0.0
 11
-0.3749999999999999
 21
-1.286125759479468
 31
0.0
  0
LINE
  5
1C6
330
171
100
AcDbEntity
  8
AM_4
100
AcDbLine
 10
-0.4999999999999998
 20
-0.4754997371187493
 30
0.0
 11
-0.5
 21
-1.76
 31
0.0
  0
LINE
  5
1C7
330
171
100
AcDbEntity
  8
AM_4
100
AcDbLine
 10
-0.5
 20
-1.76
 30
0.0
 11
-0.3749999999999999
 21
-1.79349364905389
 31
0.0
  0
LINE
  5
1C8
330
171
100
AcDbEntity
  8
AM_4
100
AcDbLine
 10
-0.3749999999999999
 20
1.79349364905389
 30
0.0
 11
-0.5
 21
1.76
 31
0.0
  0
LINE
  5
1C9
330
171
100
AcDbEntity
  8
AM_4
100
AcDbLine
 10
-0.5
 20
1.76
 30
0.0
 11
-0.4999999999999998
 21
0.4754997371187493
 31
0.0
  0
LINE
  5
1CA
330
171
100
AcDbEntity
  8
AM_4
100
AcDbLine
 10
0.5000000000000001
 20
-0.4754997371187493
 30
0.0
 11
0.5
 21
-1.76
 31
0.0
  0
LINE
  5
1CB
330
171
100
AcDbEntity
  8
AM_4
100
AcDbLine
 10
0.3750000000000001
 20
-1.286125759479469
 30
0.0
 11
0.3133974596215561
 21
-1.309045453756286
 31
0.0
  0
LINE
  5
1CC
330
171
100
AcDbEntity
  8
AM_4
100
AcDbLine
 10
0.3133974596215561
 20
1.309045453756286
 30
0.0
 11
0.3750000000000001
 21
1.286125759479469
 31
0.0
  0
LINE
  5
1CD
330
171
100
AcDbEntity
  8
AM_4
100
AcDbLine
 10
0.3133974596215561
 20
1.309045453756286
 30
0.0
 11
0.3133974596215562
 21
0.614721101234336
 31
0.0
  0
LINE
  5
1CE
330
171
100
AcDbEntity
  8
AM_4
100
AcDbLine
 10
0.5
 20
1.76
 30
0.0
 11
0.3749999999999999
 21
1.79349364905389
 31
0.0
  0
LINE
  5
1CF
330
171
100
AcDbEntity
  8
AM_4
100
AcDbLine
 10
0.3749999999999999
 20
-1.79349364905389
 30
0.0
 11
0.5
 21
-1.76
 31
0.0
  0
LINE
  5
1D0
330
171
100
AcDbEntity
  8
AM_4
100
AcDbLine
 10
0.5
 20
1.76
 30
0.0
 11
0.5000000000000001
 21
0.4754997371187493
 31
0.0
  0
LINE
  5
1D1
330
171
100
AcDbEntity
  8
AM_4
100
AcDbLine
 10
-0.313397459621556
 20
-0.614721101234336
 30
0.0
 11
-0.3133974596215559
 21
-1.309045453756286
 31
0.0
  0
LINE
  5
1D2
330
171
100
AcDbEntity
  8
AM_4
100
AcDbLine
 10
0.3133974596215561
 20
-1.309045453756286
 30
0.0
 11
-0.3133974596215559
 21
-1.309045453756286
 31
0.0
  0
LINE
  5
1D3
330
171
100
AcDbEntity
  8
AM_4
100
AcDbLine
 10
0.3133974596215562
 20
-0.614721101234336
 30
0.0
 11
0.3133974596215561
 21
-1.309045453756286
 31
0.0
  0
CIRCLE
  5
1D4
330
171
100
AcDbEntity
  8
AM_4
100
AcDbCircle
 10
0.0000000000000002
 20
0.0
 30
0.0
 40
0.3749999999999999
  0
CIRCLE
  5
1D5
330
171
100
AcDbEntity
  8
AM_4
100
AcDbCircle
 10
0.0000000000000002
 20
0.0
 30
0.0
 40
0.6899999999999998
  0
CIRCLE
  5
1D6
330
171
100
AcDbEntity
  8
AM_4
100
AcDbCircle
 10
0.0000000000000002
 20
0.0
 30
0.0
 40
0.6066666666666668
  0
ENDBLK
  5
174
330
171
100
AcDbEntity
  8
0
100
AcDbBlockEnd
  0
ENDSEC
  0
SECTION
  2
ENTITIES
  0
INSERT
  5
6F
330
1F
100
AcDbEntity
  8
0
100
AcDbBlockReference
  2
1_125368_2
 10
0.0
 20
0.0
 30
0.0
  0
POINT
  5
1D8
330
1F
100
AcDbEntity
  8
ConnectionPoints
100
AcDbPoint
 10
0.67
 20
0.0
 30
0.0
  0
POINT
  5
1D9
330
1F
100
AcDbEntity
  8
ConnectionPoints
100
AcDbPoint
 10
-1.04
 20
0.0
 30
0.0000000000000001
  0
POINT
  5
1DA
330
1F
100
AcDbEntity
  8
ConnectionPoints
100
AcDbPoint
 10
-0.0000000000000001
 20
-0.9049999999999999
 30
-1.567505980849834
  0
POINT
  5
1DB
330
1F
100
AcDbEntity
  8
ConnectionPoints
100
AcDbPoint
 10
-1.04
 20
0.0
 30
0.0000000000000001
  0
ENDSEC
  0
SECTION
  2
OBJECTS
  0
DICTIONARY
  5
C
330
0
100
AcDbDictionary
281
     1
  3
ACAD_DETAILVIEWSTYLE
350
1E3
  3
ACAD_GROUP
350
D
  3
ACAD_LAYOUT
350
1A
  3
ACAD_MATERIAL
350
43
  3
ACAD_MLEADERSTYLE
350
6B
  3
ACAD_MLINESTYLE
350
17
  3
ACAD_PLOTSETTINGS
350
19
  3
ACAD_PLOTSTYLENAME
350
E
  3
ACAD_SCALELIST
350
47
  3
ACAD_SECTIONVIEWSTYLE
350
1E4
  3
ACAD_TABLESTYLE
350
69
  3
ACAD_VISUALSTYLE
350
2A
  3
ACDB_RECOMPOSE_DATA
350
1E0
  3
AcDbVariableDictionary
350
1DC
  0
SUN
  5
6D
330
29
100
AcDbSun
 90
        1
290
     0
 63
     7
421
 16777215
 40
1.0
291
     1
 91
  2455826
 92
 54000000
292
     0
 70
     2
 71
   256
280
     1
  0
DICTIONARY
  5
1E3
102
{ACAD_REACTORS
330
C
102
}
330
C
100
AcDbDictionary
281
     1
  0
DICTIONARY
  5
D
102
{ACAD_REACTORS
330
C
102
}
330
C
100
AcDbDictionary
281
     1
  0
DICTIONARY
  5
1A
102
{ACAD_REACTORS
330
C
102
}
330
C
100
AcDbDictionary
281
     1
  3
Layout1
350
1E
  3
Layout2
350
26
  3
Model
350
22
  0
DICTIONARY
  5
43
102
{ACAD_REACTORS
330
C
102
}
330
C
100
AcDbDictionary
281
     1
  3
ByBlock
350
45
  3
ByLayer
350
44
  3
Global
350
46
  0
DICTIONARY
  5
6B
102
{ACAD_REACTORS
330
C
102
}
330
C
100
AcDbDictionary
281
     1
  3
Standard
350
6C
  0
DICTIONARY
  5
17
102
{ACAD_REACTORS
330
C
102
}
330
C
100
AcDbDictionary
281
     1
  3
Standard
350
18
  0
DICTIONARY
  5
19
102
{ACAD_REACTORS
330
C
102
}
330
C
100
AcDbDictionary
281
     1
  0
ACDBDICTIONARYWDFLT
  5
E
102
{ACAD_REACTORS
330
C
102
}
330
C
100
AcDbDictionary
281
     1
  3
Normal
350
F
100
AcDbDictionaryWithDefault
340
F
  0
DICTIONARY
  5
47
102
{ACAD_REACTORS
330
C
102
}
330
C
100
AcDbDictionary
281
     1
  3
A0
350
48
  3
A1
350
49
  3
A2
350
4A
  3
A3
350
4B
  3
A4
350
4C
  3
A5
350
4D
  3
A6
350
4E
  3
A7
350
4F
  3
A8
350
50
  3
A9
350
51
  3
B0
350
52
  3
B1
350
53
  3
B2
350
54
  3
B3
350
55
  3
B4
350
56
  3
B5
350
57
  3
B6
350
58
  3
B7
350
59
  3
B8
350
5A
  3
B9
350
5B
  3
C0
350
5C
  3
C1
350
5D
  3
C2
350
5E
  3
C3
350
5F
  3
C4
350
60
  3
C5
350
61
  3
C6
350
62
  3
C7
350
63
  3
C8
350
64
  3
C9
350
65
  3
D0
350
66
  3
D1
350
67
  3
D2
350
68
  0
DICTIONARY
  5
1E4
102
{ACAD_REACTORS
330
C
102
}
330
C
100
AcDbDictionary
281
     1
  0
DICTIONARY
  5
69
102
{ACAD_REACTORS
330
C
102
}
330
C
100
AcDbDictionary
281
     1
  3
Standard
350
6A
  0
DICTIONARY
  5
2A
102
{ACAD_REACTORS
330
C
102
}
330
C
100
AcDbDictionary
281
     1
  3
2dWireframe
350
2F
  3
Basic
350
32
  3
Brighten
350
36
  3
ColorChange
350
3A
  3
Conceptual
350
34
  3
Dim
350
35
  3
EdgeColorOff
350
3D
  3
Facepattern
350
39
  3
Flat
350
2B
  3
FlatWithEdges
350
2C
  3
Gouraud
350
2D
  3
GouraudWithEdges
350
2E
  3
Hidden
350
31
  3
JitterOff
350
3B
  3
Linepattern
350
38
  3
OverhangOff
350
3C
  3
Realistic
350
33
  3
Shaded
350
42
  3
Shaded with edges
350
41
  3
Shades of Gray
350
3E
  3
Sketchy
350
3F
  3
Thicken
350
37
  3
Wireframe
350
30
  3
X-Ray
350
40
  0
XRECORD
  5
1E0
102
{ACAD_REACTORS
330
C
102
}
330
C
100
AcDbXrecord
280
     1
 90
        1
330
6A
  0
DICTIONARY
  5
1DC
102
{ACAD_REACTORS
330
C
102
}
330
C
100
AcDbDictionary
281
     1
  3
CANNOSCALE
350
1DD
  3
CMLEADERSTYLE
350
1E2
  3
CTABLESTYLE
350
1E1
  0
LAYOUT
  5
1E
102
{ACAD_REACTORS
330
1A
102
}
330
1A
100
AcDbPlotSettings
  1

  2
none_device
  4

  6

 40
0.0
 41
0.0
 42
0.0
 43
0.0
 44
0.0
 45
0.0
 46
0.0
 47
0.0
 48
0.0
 49
0.0
140
0.0
141
0.0
142
1.0
143
1.0
 70
   688
 72
     0
 73
     0
 74
     5
  7

 75
    16
 76
     0
 77
     2
 78
   300
147
1.0
148
0.0
149
0.0
100
AcDbLayout
  1
Layout1
 70
     1
 71
     1
 10
0.0
 20
0.0
 11
12.0
 21
9.0
 12
0.0
 22
0.0
 32
0.0
 14
1.000000000000000E+20
 24
1.000000000000000E+20
 34
1.000000000000000E+20
 15
-1.000000000000000E+20
 25
-1.000000000000000E+20
 35
-1.000000000000000E+20
146
0.0
 13
0.0
 23
0.0
 33
0.0
 16
1.0
 26
0.0
 36
0.0
 17
0.0
 27
1.0
 37
0.0
 76
     0
330
1B
  0
LAYOUT
  5
26
102
{ACAD_REACTORS
330
1A
102
}
330
1A
100
AcDbPlotSettings
  1

  2
none_device
  4

  6

 40
0.0
 41
0.0
 42
0.0
 43
0.0
 44
0.0
 45
0.0
 46
0.0
 47
0.0
 48
0.0
 49
0.0
140
0.0
141
0.0
142
1.0
143
1.0
 70
   688
 72
     0
 73
     0
 74
     5
  7

 75
    16
 76
     0
 77
     2
 78
   300
147
1.0
148
0.0
149
0.0
100
AcDbLayout
  1
Layout2
 70
     1
 71
     2
 10
0.0
 20
0.0
 11
0.0
 21
0.0
 12
0.0
 22
0.0
 32
0.0
 14
0.0
 24
0.0
 34
0.0
 15
0.0
 25
0.0
 35
0.0
146
0.0
 13
0.0
 23
0.0
 33
0.0
 16
1.0
 26
0.0
 36
0.0
 17
0.0
 27
1.0
 37
0.0
 76
     0
330
23
  0
LAYOUT
  5
22
102
{ACAD_REACTORS
330
1A
102
}
330
1A
100
AcDbPlotSettings
  1

  2
none_device
  4
Letter_(8.50_x_11.00_Inches)
  6

 40
6.35
 41
6.35
 42
6.35000508
 43
6.35000508
 44
215.9
 45
279.4
 46
0.0
 47
0.0
 48
0.0
 49
0.0
140
0.0
141
0.0
142
1.0
143
1.0
 70
  1712
 72
     0
 73
     0
 74
     0
  7

 75
     0
 76
     0
 77
     2
 78
   300
147
1.0
148
0.0
149
0.0
100
AcDbLayout
  1
Model
 70
     1
 71
     0
 10
0.0
 20
0.0
 11
12.0
 21
9.0
 12
0.0
 22
0.0
 32
0.0
 14
1.000000000000000E+20
 24
1.000000000000000E+20
 34
1.000000000000000E+20
 15
-1.000000000000000E+20
 25
-1.000000000000000E+20
 35
-1.000000000000000E+20
146
0.0
 13
0.0
 23
0.0
 33
0.0
 16
1.0
 26
0.0
 36
0.0
 17
0.0
 27
1.0
 37
0.0
 76
     0
330
1F
331
29
  0
MATERIAL
  5
45
102
{ACAD_REACTORS
330
43
102
}
330
43
100
AcDbMaterial
  1
ByBlock
 72
     1
 94
      127
  0
MATERIAL
  5
44
102
{ACAD_REACTORS
330
43
102
}
330
43
100
AcDbMaterial
  1
ByLayer
 72
     1
 94
      127
  0
MATERIAL
  5
46
102
{ACAD_REACTORS
330
43
102
}
330
43
100
AcDbMaterial
  1
Global
 72
     1
 94
      127
  0
MLEADERSTYLE
  5
6C
102
{ACAD_REACTORS
330
6B
102
}
330
6B
100
AcDbMLeaderStyle
179
     2
170
     2
171
     1
172
     0
 90
        2
 40
0.0
 41
0.0
173
     1
 91
-1056964608
340
14
 92
       -2
290
     1
 42
0.09
291
     1
 43
0.36
  3
Standard
341
0
 44
0.18
300

342
11
174
     1
178
     6
175
     1
176
     0
 93
-1056964608
 45
0.18
292
     0
297
     0
 46
0.18
343
0
 94
-1056964608
 47
1.0
 49
1.0
140
1.0
293
     1
141
0.0
294
     1
177
     0
142
1.0
295
     0
296
     0
143
0.125
271
     0
272
     9
273
     9
298
     0
  0
MLINESTYLE
  5
18
102
{ACAD_REACTORS
330
17
102
}
330
17
100
AcDbMlineStyle
  2
Standard
 70
     0
  3

 62
   256
 51
90.0
 52
90.0
 71
     2
 49
0.5
 62
   256
  6
BYLAYER
 49
-0.5
 62
   256
  6
BYLAYER
  0
ACDBPLACEHOLDER
  5
F
102
{ACAD_REACTORS
330
E
102
}
330
E
  0
SCALE
  5
48
102
{ACAD_REACTORS
330
47
102
}
330
47
100
AcDbScale
 70
     0
300
1:1
140
1.0
141
1.0
290
     1
  0
SCALE
  5
49
102
{ACAD_REACTORS
330
47
102
}
330
47
100
AcDbScale
 70
     0
300
1:2
140
1.0
141
2.0
290
     0
  0
SCALE
  5
4A
102
{ACAD_REACTORS
330
47
102
}
330
47
100
AcDbScale
 70
     0
300
1:4
140
1.0
141
4.0
290
     0
  0
SCALE
  5
4B
102
{ACAD_REACTORS
330
47
102
}
330
47
100
AcDbScale
 70
     0
300
1:5
140
1.0
141
5.0
290
     0
  0
SCALE
  5
4C
102
{ACAD_REACTORS
330
47
102
}
330
47
100
AcDbScale
 70
     0
300
1:8
140
1.0
141
8.0
290
     0
  0
SCALE
  5
4D
102
{ACAD_REACTORS
330
47
102
}
330
47
100
AcDbScale
 70
     0
300
1:10
140
1.0
141
10.0
290
     0
  0
SCALE
  5
4E
102
{ACAD_REACTORS
330
47
102
}
330
47
100
AcDbScale
 70
     0
300
1:16
140
1.0
141
16.0
290
     0
  0
SCALE
  5
4F
102
{ACAD_REACTORS
330
47
102
}
330
47
100
AcDbScale
 70
     0
300
1:20
140
1.0
141
20.0
290
     0
  0
SCALE
  5
50
102
{ACAD_REACTORS
330
47
102
}
330
47
100
AcDbScale
 70
     0
300
1:30
140
1.0
141
30.0
290
     0
  0
SCALE
  5
51
102
{ACAD_REACTORS
330
47
102
}
330
47
100
AcDbScale
 70
     0
300
1:40
140
1.0
141
40.0
290
     0
  0
SCALE
  5
52
102
{ACAD_REACTORS
330
47
102
}
330
47
100
AcDbScale
 70
     0
300
1:50
140
1.0
141
50.0
290
     0
  0
SCALE
  5
53
102
{ACAD_REACTORS
330
47
102
}
330
47
100
AcDbScale
 70
     0
300
1:100
140
1.0
141
100.0
290
     0
  0
SCALE
  5
54
102
{ACAD_REACTORS
330
47
102
}
330
47
100
AcDbScale
 70
     0
300
2:1
140
2.0
141
1.0
290
     0
  0
SCALE
  5
55
102
{ACAD_REACTORS
330
47
102
}
330
47
100
AcDbScale
 70
     0
300
4:1
140
4.0
141
1.0
290
     0
  0
SCALE
  5
56
102
{ACAD_REACTORS
330
47
102
}
330
47
100
AcDbScale
 70
     0
300
8:1
140
8.0
141
1.0
290
     0
  0
SCALE
  5
57
102
{ACAD_REACTORS
330
47
102
}
330
47
100
AcDbScale
 70
     0
300
10:1
140
10.0
141
1.0
290
     0
  0
SCALE
  5
58
102
{ACAD_REACTORS
330
47
102
}
330
47
100
AcDbScale
 70
     0
300
100:1
140
100.0
141
1.0
290
     0
  0
SCALE
  5
59
102
{ACAD_REACTORS
330
47
102
}
330
47
100
AcDbScale
 70
     0
300
1/128" = 1'-0"
140
0.0078125
141
12.0
290
     0
  0
SCALE
  5
5A
102
{ACAD_REACTORS
330
47
102
}
330
47
100
AcDbScale
 70
     0
300
1/64" = 1'-0"
140
0.015625
141
12.0
290
     0
  0
SCALE
  5
5B
102
{ACAD_REACTORS
330
47
102
}
330
47
100
AcDbScale
 70
     0
300
1/32" = 1'-0"
140
0.03125
141
12.0
290
     0
  0
SCALE
  5
5C
102
{ACAD_REACTORS
330
47
102
}
330
47
100
AcDbScale
 70
     0
300
1/16" = 1'-0"
140
0.0625
141
12.0
290
     0
  0
SCALE
  5
5D
102
{ACAD_REACTORS
330
47
102
}
330
47
100
AcDbScale
 70
     0
300
3/32" = 1'-0"
140
0.09375
141
12.0
290
     0
  0
SCALE
  5
5E
102
{ACAD_REACTORS
330
47
102
}
330
47
100
AcDbScale
 70
     0
300
1/8" = 1'-0"
140
0.125
141
12.0
290
     0
  0
SCALE
  5
5F
102
{ACAD_REACTORS
330
47
102
}
330
47
100
AcDbScale
 70
     0
300
3/16" = 1'-0"
140
0.1875
141
12.0
290
     0
  0
SCALE
  5
60
102
{ACAD_REACTORS
330
47
102
}
330
47
100
AcDbScale
 70
     0
300
1/4" = 1'-0"
140
0.25
141
12.0
290
     0
  0
SCALE
  5
61
102
{ACAD_REACTORS
330
47
102
}
330
47
100
AcDbScale
 70
     0
300
3/8" = 1'-0"
140
0.375
141
12.0
290
     0
  0
SCALE
  5
62
102
{ACAD_REACTORS
330
47
102
}
330
47
100
AcDbScale
 70
     0
300
1/2" = 1'-0"
140
0.5
141
12.0
290
     0
  0
SCALE
  5
63
102
{ACAD_REACTORS
330
47
102
}
330
47
100
AcDbScale
 70
     0
300
3/4" = 1'-0"
140
0.75
141
12.0
290
     0
  0
SCALE
  5
64
102
{ACAD_REACTORS
330
47
102
}
330
47
100
AcDbScale
 70
     0
300
1" = 1'-0"
140
1.0
141
12.0
290
     0
  0
SCALE
  5
65
102
{ACAD_REACTORS
330
47
102
}
330
47
100
AcDbScale
 70
     0
300
1-1/2" = 1'-0"
140
1.5
141
12.0
290
     0
  0
SCALE
  5
66
102
{ACAD_REACTORS
330
47
102
}
330
47
100
AcDbScale
 70
     0
300
3" = 1'-0"
140
3.0
141
12.0
290
     0
  0
SCALE
  5
67
102
{ACAD_REACTORS
330
47
102
}
330
47
100
AcDbScale
 70
     0
300
6" = 1'-0"
140
6.0
141
12.0
290
     0
  0
SCALE
  5
68
102
{ACAD_REACTORS
330
47
102
}
330
47
100
AcDbScale
 70
     0
300
1'-0" = 1'-0"
140
12.0
141
12.0
290
     0
  0
TABLESTYLE
  5
6A
102
{ACAD_REACTORS
330
69
102
}
102
{ACAD_XDICTIONARY
360
1DE
102
}
330
69
100
AcDbTableStyle
  3
Standard
 70
     0
 71
     0
 40
0.06
 41
0.06
280
     0
281
     0
  7
Standard
140
0.18
170
     2
 62
     0
 63
   257
283
     0
 90
        4
 91
        0
  1

274
    -2
284
     1
 64
     0
275
    -2
285
     1
 65
     0
276
    -2
286
     1
 66
     0
277
    -2
287
     1
 67
     0
278
    -2
288
     1
 68
     0
279
    -2
289
     1
 69
     0
  7
Standard
140
0.25
170
     5
 62
     0
 63
   257
283
     0
 90
        4
 91
        0
  1

274
    -2
284
     1
 64
     0
275
    -2
285
     1
 65
     0
276
    -2
286
     1
 66
     0
277
    -2
287
     1
 67
     0
278
    -2
288
     1
 68
     0
279
    -2
289
     1
 69
     0
  7
Standard
140
0.18
170
     5
 62
     0
 63
   257
283
     0
 90
        4
 91
        0
  1

274
    -2
284
     1
 64
     0
275
    -2
285
     1
 65
     0
276
    -2
286
     1
 66
     0
277
    -2
287
     1
 67
     0
278
    -2
288
     1
 68
     0
279
    -2
289
     1
 69
     0
  0
VISUALSTYLE
  5
2F
102
{ACAD_REACTORS
330
2A
102
}
330
2A
100
AcDbVisualStyle
  2
2dWireframe
 70
     4
177
     3
291
     0
 70
    58
 90
        0
176
     1
 90
        2
176
     1
 90
        0
176
     1
 90
        0
176
     1
 40
0.6
176
     1
 40
30.0
176
     1
 62
     7
420
 16777215
176
     1
 90
        1
176
     1
 90
        4
176
     1
 62
     7
176
     1
 62
   257
176
     1
 90
        1
176
     1
 90
        1
176
     1
 40
1.0
176
     1
 90
        0
176
     1
 62
   257
176
     1
 40
1.0
176
     1
 90
        1
176
     1
 90
        6
176
     1
 90
        2
176
     1
 62
     7
176
     1
 90
        5
176
     1
 90
        0
176
     1
 90
        0
176
     1
290
     0
176
     1
 90
        1
176
     1
 40
0.0
176
     1
 90
        0
176
     1
290
     1
176
     1
290
     1
176
     1
290
     0
176
     1
290
     0
176
     1
290
     0
176
     1
290
     0
176
     1
290
     0
176
     1
290
     0
176
     1
290
     0
176
     1
 90
       50
176
     1
 40
0.0
176
     1
 40
1.0
176
     1
 90
        0
176
     1
 62
    18
420
        0
176
     1
 90
       50
176
     1
 90
        3
176
     1
 62
     5
420
      255
176
     1
290
     0
176
     1
 90
       50
176
     1
 90
       50
176
     1
 90
       50
176
     1
290
     0
176
     1
 90
       50
176
     1
 62
   256
176
     0
 40
1.0
176
     0
 90
        2
176
     1
  1
strokes_ogs.tif
176
     1
290
     0
176
     1
 40
1.0
176
     1
 40
1.0
176
     1
  0
VISUALSTYLE
  5
32
102
{ACAD_REACTORS
330
2A
102
}
330
2A
100
AcDbVisualStyle
  2
Basic
 70
     7
177
     3
291
     1
 70
    58
 90
        1
176
     1
 90
        0
176
     1
 90
        1
176
     1
 90
        0
176
     1
 40
0.6
176
     1
 40
30.0
176
     1
 62
     7
420
 16777215
176
     1
 90
        0
176
     1
 90
        4
176
     1
 62
     7
176
     1
 62
   257
176
     1
 90
        1
176
     1
 90
        1
176
     1
 40
1.0
176
     1
 90
        8
176
     1
 62
     7
176
     1
 40
1.0
176
     1
 90
        1
176
     1
 90
        6
176
     1
 90
        2
176
     1
 62
     7
176
     1
 90
        5
176
     1
 90
        0
176
     1
 90
        0
176
     1
290
     0
176
     1
 90
        1
176
     1
 40
0.0
176
     1
 90
        0
176
     1
290
     0
176
     1
290
     1
176
     1
290
     1
176
     1
290
     0
176
     1
290
     0
176
     1
290
     0
176
     1
290
     0
176
     1
290
     0
176
     1
290
     0
176
     1
 90
       50
176
     1
 40
0.0
176
     1
 40
1.0
176
     1
 90
        0
176
     1
 62
    18
420
        0
176
     1
 90
       50
176
     1
 90
        3
176
     1
 62
     5
420
      255
176
     1
290
     0
176
     1
 90
       50
176
     1
 90
       50
176
     1
 90
       50
176
     1
290
     0
176
     1
 90
       50
176
     1
 62
   256
176
     0
 40
1.0
176
     0
 90
        2
176
     1
  1
strokes_ogs.tif
176
     1
290
     0
176
     1
 40
1.0
176
     1
 40
1.0
176
     1
  0
VISUALSTYLE
  5
36
102
{ACAD_REACTORS
330
2A
102
}
330
2A
100
AcDbVisualStyle
  2
Brighten
 70
    12
177
     3
291
     1
 70
    58
 90
        2
176
     1
 90
        2
176
     1
 90
        0
176
     1
 90
        0
176
     1
 40
0.6
176
     1
 40
30.0
176
     1
 62
     7
420
 16777215
176
     1
 90
        1
176
     1
 90
        4
176
     1
 62
     7
176
     1
 62
   257
176
     1
 90
        1
176
     1
 90
        1
176
     1
 40
1.0
176
     1
 90
        8
176
     1
 62
     7
176
     1
 40
1.0
176
     1
 90
        1
176
     1
 90
        6
176
     1
 90
        2
176
     1
 62
     7
176
     1
 90
        5
176
     1
 90
        0
176
     1
 90
        0
176
     1
290
     0
176
     1
 90
        1
176
     1
 40
50.0
176
     1
 90
        0
176
     1
290
     0
176
     1
290
     1
176
     1
290
     1
176
     1
290
     0
176
     1
290
     0
176
     1
290
     0
176
     1
290
     0
176
     1
290
     0
176
     1
290
     0
176
     1
 90
       50
176
     1
 40
0.0
176
     1
 40
1.0
176
     1
 90
        0
176
     1
 62
    18
420
        0
176
     1
 90
       50
176
     1
 90
        3
176
     1
 62
     5
420
      255
176
     1
290
     0
176
     1
 90
       50
176
     1
 90
       50
176
     1
 90
       50
176
     1
290
     0
176
     1
 90
       50
176
     1
 62
   256
176
     0
 40
1.0
176
     0
 90
        2
176
     1
  1
strokes_ogs.tif
176
     1
290
     0
176
     1
 40
1.0
176
     1
 40
1.0
176
     1
  0
VISUALSTYLE
  5
3A
102
{ACAD_REACTORS
330
2A
102
}
330
2A
100
AcDbVisualStyle
  2
ColorChange
 70
    16
177
     3
291
     1
 70
    58
 90
        2
176
     1
 90
        2
176
     1
 90
        3
176
     1
 90
        0
176
     1
 40
0.6
176
     1
 40
30.0
176
     1
 62
     8
420
  8421504
176
     1
 90
        1
176
     1
 90
        4
176
     1
 62
     7
176
     1
 62
   257
176
     1
 90
        1
176
     1
 90
        1
176
     1
 40
1.0
176
     1
 90
        8
176
     1
 62
     8
420
  8421504
176
     1
 40
1.0
176
     1
 90
        1
176
     1
 90
        6
176
     1
 90
        2
176
     1
 62
     7
176
     1
 90
        5
176
     1
 90
        0
176
     1
 90
        0
176
     1
290
     0
176
     1
 90
        1
176
     1
 40
0.0
176
     1
 90
        0
176
     1
290
     0
176
     1
290
     1
176
     1
290
     1
176
     1
290
     0
176
     1
290
     0
176
     1
290
     0
176
     1
290
     0
176
     1
290
     0
176
     1
290
     0
176
     1
 90
       50
176
     1
 40
0.0
176
     1
 40
1.0
176
     1
 90
        0
176
     1
 62
    18
420
        0
176
     1
 90
       50
176
     1
 90
        3
176
     1
 62
     5
420
      255
176
     1
290
     0
176
     1
 90
       50
176
     1
 90
       50
176
     1
 90
       50
176
     1
290
     0
176
     1
 90
       50
176
     1
 62
   256
176
     0
 40
1.0
176
     0
 90
        2
176
     1
  1
strokes_ogs.tif
176
     1
290
     0
176
     1
 40
1.0
176
     1
 40
1.0
176
     1
  0
VISUALSTYLE
  5
34
102
{ACAD_REACTORS
330
2A
102
}
330
2A
100
AcDbVisualStyle
  2
Conceptual
 70
     9
177
     3
291
     0
 70
    58
 90
        3
176
     1
 90
        2
176
     1
 90
        0
176
     1
 90
        0
176
     1
 40
0.6
176
     1
 40
30.0
176
     1
 62
     7
420
 16777215
176
     1
 90
        2
176
     1
 90
        2
176
     1
 62
     7
176
     1
 62
   257
176
     1
 90
        1
176
     1
 90
        1
176
     1
 40
179.0
176
     1
 90
        8
176
     1
 62
     7
176
     1
 40
1.0
176
     1
 90
        1
176
     1
 90
        6
176
     1
 90
        2
176
     1
 62
     7
176
     1
 90
        3
176
     1
 90
        0
176
     1
 90
        0
176
     1
290
     0
176
     1
 90
        1
176
     1
 40
0.0
176
     1
 90
        0
176
     1
290
     0
176
     1
290
     1
176
     1
290
     1
176
     1
290
     0
176
     1
290
     0
176
     1
290
     0
176
     1
290
     0
176
     1
290
     0
176
     1
290
     0
176
     1
 90
       50
176
     1
 40
0.0
176
     1
 40
1.0
176
     1
 90
        0
176
     1
 62
    18
420
        0
176
     1
 90
       50
176
     1
 90
        3
176
     1
 62
     5
420
      255
176
     1
290
     0
176
     1
 90
       50
176
     1
 90
       50
176
     1
 90
       50
176
     1
290
     0
176
     1
 90
       50
176
     1
 62
   256
176
     0
 40
1.0
176
     0
 90
        2
176
     1
  1
strokes_ogs.tif
176
     1
290
     0
176
     1
 40
1.0
176
     1
 40
1.0
176
     1
  0
VISUALSTYLE
  5
35
102
{ACAD_REACTORS
330
2A
102
}
330
2A
100
AcDbVisualStyle
  2
Dim
 70
    11
177
     3
291
     1
 70
    58
 90
        2
176
     1
 90
        2
176
     1
 90
        0
176
     1
 90
        0
176
     1
 40
0.6
176
     1
 40
30.0
176
     1
 62
     7
420
 16777215
176
     1
 90
        1
176
     1
 90
        4
176
     1
 62
     7
176
     1
 62
   257
176
     1
 90
        1
176
     1
 90
        1
176
     1
 40
1.0
176
     1
 90
        8
176
     1
 62
     7
176
     1
 40
1.0
176
     1
 90
        1
176
     1
 90
        6
176
     1
 90
        2
176
     1
 62
     7
176
     1
 90
        5
176
     1
 90
        0
176
     1
 90
        0
176
     1
290
     0
176
     1
 90
        1
176
     1
 40
-50.0
176
     1
 90
        0
176
     1
290
     0
176
     1
290
     1
176
     1
290
     1
176
     1
290
     0
176
     1
290
     0
176
     1
290
     0
176
     1
290
     0
176
     1
290
     0
176
     1
290
     0
176
     1
 90
       50
176
     1
 40
0.0
176
     1
 40
1.0
176
     1
 90
        0
176
     1
 62
    18
420
        0
176
     1
 90
       50
176
     1
 90
        3
176
     1
 62
     5
420
      255
176
     1
290
     0
176
     1
 90
       50
176
     1
 90
       50
176
     1
 90
       50
176
     1
290
     0
176
     1
 90
       50
176
     1
 62
   256
176
     0
 40
1.0
176
     0
 90
        2
176
     1
  1
strokes_ogs.tif
176
     1
290
     0
176
     1
 40
1.0
176
     1
 40
1.0
176
     1
  0
VISUALSTYLE
  5
3D
102
{ACAD_REACTORS
330
2A
102
}
330
2A
100
AcDbVisualStyle
  2
EdgeColorOff
 70
    22
177
     3
291
     1
 70
    58
 90
        2
176
     0
 90
        2
176
     0
 90
        0
176
     0
 90
        0
176
     0
 40
0.6
176
     0
 40
30.0
176
     0
 62
     7
420
 16777215
176
     0
 90
        1
176
     0
 90
        4
176
     0
 62
     7
176
     0
 62
   257
176
     0
 90
        1
176
     0
 90
        1
176
     0
 40
1.0
176
     0
 90
        8
176
     2
 62
     7
176
     0
 40
1.0
176
     0
 90
        1
176
     0
 90
        6
176
     0
 90
        2
176
     0
 62
     7
176
     0
 90
        5
176
     0
 90
        0
176
     0
 90
        0
176
     0
290
     0
176
     0
 90
        1
176
     0
 40
0.0
176
     0
 90
        0
176
     0
290
     0
176
     0
290
     1
176
     0
290
     1
176
     0
290
     0
176
     0
290
     0
176
     0
290
     0
176
     0
290
     0
176
     0
290
     0
176
     0
290
     0
176
     0
 90
       50
176
     0
 40
0.0
176
     0
 40
1.0
176
     0
 90
        0
176
     0
 62
    18
420
        0
176
     0
 90
       50
176
     0
 90
        3
176
     0
 62
     5
420
      255
176
     0
290
     0
176
     0
 90
       50
176
     0
 90
       50
176
     0
 90
       50
176
     0
290
     0
176
     0
 90
       50
176
     0
 62
   256
176
     0
 40
1.0
176
     0
 90
        2
176
     0
  1
strokes_ogs.tif
176
     0
290
     0
176
     0
 40
1.0
176
     0
 40
1.0
176
     0
  0
VISUALSTYLE
  5
39
102
{ACAD_REACTORS
330
2A
102
}
330
2A
100
AcDbVisualStyle
  2
Facepattern
 70
    15
177
     3
291
     1
 70
    58
 90
        2
176
     1
 90
        2
176
     1
 90
        0
176
     1
 90
        0
176
     1
 40
0.6
176
     1
 40
30.0
176
     1
 62
     7
420
 16777215
176
     1
 90
        1
176
     1
 90
        4
176
     1
 62
     7
176
     1
 62
   257
176
     1
 90
        1
176
     1
 90
        1
176
     1
 40
1.0
176
     1
 90
        8
176
     1
 62
     7
176
     1
 40
1.0
176
     1
 90
        1
176
     1
 90
        6
176
     1
 90
        2
176
     1
 62
     7
176
     1
 90
        5
176
     1
 90
        0
176
     1
 90
        0
176
     1
290
     0
176
     1
 90
        1
176
     1
 40
0.0
176
     1
 90
        0
176
     1
290
     0
176
     1
290
     1
176
     1
290
     1
176
     1
290
     0
176
     1
290
     0
176
     1
290
     0
176
     1
290
     0
176
     1
290
     0
176
     1
290
     0
176
     1
 90
       50
176
     1
 40
0.0
176
     1
 40
1.0
176
     1
 90
        0
176
     1
 62
    18
420
        0
176
     1
 90
       50
176
     1
 90
        3
176
     1
 62
     5
420
      255
176
     1
290
     0
176
     1
 90
       50
176
     1
 90
       50
176
     1
 90
       50
176
     1
290
     0
176
     1
 90
       50
176
     1
 62
   256
176
     0
 40
1.0
176
     0
 90
        2
176
     1
  1
strokes_ogs.tif
176
     1
290
     0
176
     1
 40
1.0
176
     1
 40
1.0
176
     1
  0
VISUALSTYLE
  5
2B
102
{ACAD_REACTORS
330
2A
102
}
330
2A
100
AcDbVisualStyle
  2
Flat
 70
     0
177
     3
291
     1
 70
    58
 90
        2
176
     1
 90
        1
176
     1
 90
        1
176
     1
 90
        2
176
     1
 40
0.6
176
     1
 40
30.0
176
     1
 62
     7
420
 16777215
176
     1
 90
        0
176
     1
 90
        0
176
     1
 62
     7
176
     1
 62
   257
176
     1
 90
        1
176
     1
 90
        1
176
     1
 40
1.0
176
     1
 90
        8
176
     1
 62
     7
176
     1
 40
1.0
176
     1
 90
        1
176
     1
 90
        6
176
     1
 90
        2
176
     1
 62
     7
176
     1
 90
        5
176
     1
 90
        0
176
     1
 90
        0
176
     1
290
     0
176
     1
 90
       13
176
     1
 40
0.0
176
     1
 90
        0
176
     1
290
     0
176
     1
290
     1
176
     1
290
     1
176
     1
290
     0
176
     1
290
     0
176
     1
290
     0
176
     1
290
     0
176
     1
290
     0
176
     1
290
     0
176
     1
 90
       50
176
     1
 40
0.0
176
     1
 40
1.0
176
     1
 90
        0
176
     1
 62
    18
420
        0
176
     1
 90
       50
176
     1
 90
        3
176
     1
 62
     5
420
      255
176
     1
290
     0
176
     1
 90
       50
176
     1
 90
       50
176
     1
 90
       50
176
     1
290
     0
176
     1
 90
       50
176
     1
 62
   256
176
     0
 40
1.0
176
     0
 90
        2
176
     1
  1
strokes_ogs.tif
176
     1
290
     0
176
     1
 40
1.0
176
     1
 40
1.0
176
     1
  0
VISUALSTYLE
  5
2C
102
{ACAD_REACTORS
330
2A
102
}
330
2A
100
AcDbVisualStyle
  2
FlatWithEdges
 70
     1
177
     3
291
     1
 70
    58
 90
        2
176
     1
 90
        1
176
     1
 90
        1
176
     1
 90
        2
176
     1
 40
0.6
176
     1
 40
30.0
176
     1
 62
     7
420
 16777215
176
     1
 90
        1
176
     1
 90
        0
176
     1
 62
     7
176
     1
 62
   257
176
     1
 90
        1
176
     1
 90
        1
176
     1
 40
1.0
176
     1
 90
        0
176
     1
 62
   257
176
     1
 40
1.0
176
     1
 90
        1
176
     1
 90
        6
176
     1
 90
        2
176
     1
 62
     7
176
     1
 90
        5
176
     1
 90
        0
176
     1
 90
        0
176
     1
290
     0
176
     1
 90
       13
176
     1
 40
0.0
176
     1
 90
        0
176
     1
290
     0
176
     1
290
     1
176
     1
290
     1
176
     1
290
     0
176
     1
290
     0
176
     1
290
     0
176
     1
290
     0
176
     1
290
     0
176
     1
290
     0
176
     1
 90
       50
176
     1
 40
0.0
176
     1
 40
1.0
176
     1
 90
        0
176
     1
 62
    18
420
        0
176
     1
 90
       50
176
     1
 90
        3
176
     1
 62
     5
420
      255
176
     1
290
     0
176
     1
 90
       50
176
     1
 90
       50
176
     1
 90
       50
176
     1
290
     0
176
     1
 90
       50
176
     1
 62
   256
176
     0
 40
1.0
176
     0
 90
        2
176
     1
  1
strokes_ogs.tif
176
     1
290
     0
176
     1
 40
1.0
176
     1
 40
1.0
176
     1
  0
VISUALSTYLE
  5
2D
102
{ACAD_REACTORS
330
2A
102
}
330
2A
100
AcDbVisualStyle
  2
Gouraud
 70
     2
177
     3
291
     1
 70
    58
 90
        2
176
     1
 90
        2
176
     1
 90
        1
176
     1
 90
        2
176
     1
 40
0.6
176
     1
 40
30.0
176
     1
 62
     7
420
 16777215
176
     1
 90
        0
176
     1
 90
        0
176
     1
 62
     7
176
     1
 62
   257
176
     1
 90
        1
176
     1
 90
        1
176
     1
 40
1.0
176
     1
 90
        0
176
     1
 62
     7
176
     1
 40
1.0
176
     1
 90
        1
176
     1
 90
        6
176
     1
 90
        2
176
     1
 62
     7
176
     1
 90
        5
176
     1
 90
        0
176
     1
 90
        0
176
     1
290
     0
176
     1
 90
       13
176
     1
 40
0.0
176
     1
 90
        0
176
     1
290
     0
176
     1
290
     1
176
     1
290
     1
176
     1
290
     0
176
     1
290
     0
176
     1
290
     0
176
     1
290
     0
176
     1
290
     0
176
     1
290
     0
176
     1
 90
       50
176
     1
 40
0.0
176
     1
 40
1.0
176
     1
 90
        0
176
     1
 62
    18
420
        0
176
     1
 90
       50
176
     1
 90
        3
176
     1
 62
     5
420
      255
176
     1
290
     0
176
     1
 90
       50
176
     1
 90
       50
176
     1
 90
       50
176
     1
290
     0
176
     1
 90
       50
176
     1
 62
   256
176
     0
 40
1.0
176
     0
 90
        2
176
     1
  1
strokes_ogs.tif
176
     1
290
     0
176
     1
 40
1.0
176
     1
 40
1.0
176
     1
  0
VISUALSTYLE
  5
2E
102
{ACAD_REACTORS
330
2A
102
}
330
2A
100
AcDbVisualStyle
  2
GouraudWithEdges
 70
     3
177
     3
291
     1
 70
    58
 90
        2
176
     1
 90
        2
176
     1
 90
        1
176
     1
 90
        2
176
     1
 40
0.6
176
     1
 40
30.0
176
     1
 62
     7
420
 16777215
176
     1
 90
        1
176
     1
 90
        0
176
     1
 62
     7
176
     1
 62
   257
176
     1
 90
        1
176
     1
 90
        1
176
     1
 40
1.0
176
     1
 90
        0
176
     1
 62
   257
176
     1
 40
1.0
176
     1
 90
        1
176
     1
 90
        6
176
     1
 90
        2
176
     1
 62
     7
176
     1
 90
        5
176
     1
 90
        0
176
     1
 90
        0
176
     1
290
     0
176
     1
 90
       13
176
     1
 40
0.0
176
     1
 90
        0
176
     1
290
     0
176
     1
290
     1
176
     1
290
     1
176
     1
290
     0
176
     1
290
     0
176
     1
290
     0
176
     1
290
     0
176
     1
290
     0
176
     1
290
     0
176
     1
 90
       50
176
     1
 40
0.0
176
     1
 40
1.0
176
     1
 90
        0
176
     1
 62
    18
420
        0
176
     1
 90
       50
176
     1
 90
        3
176
     1
 62
     5
420
      255
176
     1
290
     0
176
     1
 90
       50
176
     1
 90
       50
176
     1
 90
       50
176
     1
290
     0
176
     1
 90
       50
176
     1
 62
   256
176
     0
 40
1.0
176
     0
 90
        2
176
     1
  1
strokes_ogs.tif
176
     1
290
     0
176
     1
 40
1.0
176
     1
 40
1.0
176
     1
  0
VISUALSTYLE
  5
31
102
{ACAD_REACTORS
330
2A
102
}
330
2A
100
AcDbVisualStyle
  2
Hidden
 70
     6
177
     3
291
     0
 70
    58
 90
        1
176
     1
 90
        2
176
     1
 90
        2
176
     1
 90
        0
176
     1
 40
0.6
176
     1
 40
30.0
176
     1
 62
     7
420
 16777215
176
     1
 90
        2
176
     1
 90
        2
176
     1
 62
     7
176
     1
 62
   257
176
     1
 90
        2
176
     1
 90
        1
176
     1
 40
40.0
176
     1
 90
        0
176
     1
 62
   257
176
     1
 40
1.0
176
     1
 90
        1
176
     1
 90
        6
176
     1
 90
        2
176
     1
 62
     7
176
     1
 90
        3
176
     1
 90
        0
176
     1
 90
        0
176
     1
290
     0
176
     1
 90
        1
176
     1
 40
0.0
176
     1
 90
        0
176
     1
290
     0
176
     1
290
     1
176
     1
290
     1
176
     1
290
     0
176
     1
290
     0
176
     1
290
     0
176
     1
290
     0
176
     1
290
     0
176
     1
290
     0
176
     1
 90
       50
176
     1
 40
0.0
176
     1
 40
1.0
176
     1
 90
        0
176
     1
 62
    18
420
        0
176
     1
 90
       50
176
     1
 90
        3
176
     1
 62
     5
420
      255
176
     1
290
     0
176
     1
 90
       50
176
     1
 90
       50
176
     1
 90
       50
176
     1
290
     0
176
     1
 90
       50
176
     1
 62
   256
176
     0
 40
1.0
176
     0
 90
        2
176
     1
  1
strokes_ogs.tif
176
     1
290
     0
176
     1
 40
1.0
176
     1
 40
1.0
176
     1
  0
VISUALSTYLE
  5
3B
102
{ACAD_REACTORS
330
2A
102
}
330
2A
100
AcDbVisualStyle
  2
JitterOff
 70
    20
177
     3
291
     1
 70
    58
 90
        2
176
     0
 90
        2
176
     0
 90
        0
176
     0
 90
        0
176
     0
 40
0.6
176
     0
 40
30.0
176
     0
 62
     7
420
 16777215
176
     0
 90
        1
176
     0
 90
        4
176
     0
 62
     7
176
     0
 62
   257
176
     0
 90
        1
176
     0
 90
        1
176
     0
 40
1.0
176
     0
 90
       10
176
     2
 62
     7
176
     0
 40
1.0
176
     0
 90
        1
176
     0
 90
        6
176
     0
 90
        2
176
     0
 62
     7
176
     0
 90
        5
176
     0
 90
        0
176
     0
 90
        0
176
     0
290
     0
176
     0
 90
        1
176
     0
 40
0.0
176
     0
 90
        0
176
     0
290
     0
176
     0
290
     1
176
     0
290
     1
176
     0
290
     0
176
     0
290
     0
176
     0
290
     0
176
     0
290
     0
176
     0
290
     0
176
     0
290
     0
176
     0
 90
       50
176
     0
 40
0.0
176
     0
 40
1.0
176
     0
 90
        0
176
     0
 62
    18
420
        0
176
     0
 90
       50
176
     0
 90
        3
176
     0
 62
     5
420
      255
176
     0
290
     0
176
     0
 90
       50
176
     0
 90
       50
176
     0
 90
       50
176
     0
290
     0
176
     0
 90
       50
176
     0
 62
   256
176
     0
 40
1.0
176
     0
 90
        2
176
     0
  1
strokes_ogs.tif
176
     0
290
     0
176
     0
 40
1.0
176
     0
 40
1.0
176
     0
  0
VISUALSTYLE
  5
38
102
{ACAD_REACTORS
330
2A
102
}
330
2A
100
AcDbVisualStyle
  2
Linepattern
 70
    14
177
     3
291
     1
 70
    58
 90
        2
176
     1
 90
        2
176
     1
 90
        0
176
     1
 90
        0
176
     1
 40
0.6
176
     1
 40
30.0
176
     1
 62
     7
420
 16777215
176
     1
 90
        1
176
     1
 90
        4
176
     1
 62
     7
176
     1
 62
   257
176
     1
 90
        7
176
     1
 90
        7
176
     1
 40
1.0
176
     1
 90
        8
176
     1
 62
     7
176
     1
 40
1.0
176
     1
 90
        1
176
     1
 90
        6
176
     1
 90
        2
176
     1
 62
     7
176
     1
 90
        5
176
     1
 90
        0
176
     1
 90
        0
176
     1
290
     0
176
     1
 90
        1
176
     1
 40
0.0
176
     1
 90
        0
176
     1
290
     0
176
     1
290
     1
176
     1
290
     1
176
     1
290
     0
176
     1
290
     0
176
     1
290
     0
176
     1
290
     0
176
     1
290
     0
176
     1
290
     0
176
     1
 90
       50
176
     1
 40
0.0
176
     1
 40
1.0
176
     1
 90
        0
176
     1
 62
    18
420
        0
176
     1
 90
       50
176
     1
 90
        3
176
     1
 62
     5
420
      255
176
     1
290
     0
176
     1
 90
       50
176
     1
 90
       50
176
     1
 90
       50
176
     1
290
     0
176
     1
 90
       50
176
     1
 62
   256
176
     0
 40
1.0
176
     0
 90
        2
176
     1
  1
strokes_ogs.tif
176
     1
290
     0
176
     1
 40
1.0
176
     1
 40
1.0
176
     1
  0
VISUALSTYLE
  5
3C
102
{ACAD_REACTORS
330
2A
102
}
330
2A
100
AcDbVisualStyle
  2
OverhangOff
 70
    21
177
     3
291
     1
 70
    58
 90
        2
176
     0
 90
        2
176
     0
 90
        0
176
     0
 90
        0
176
     0
 40
0.6
176
     0
 40
30.0
176
     0
 62
     7
420
 16777215
176
     0
 90
        1
176
     0
 90
        4
176
     0
 62
     7
176
     0
 62
   257
176
     0
 90
        1
176
     0
 90
        1
176
     0
 40
1.0
176
     0
 90
        9
176
     2
 62
     7
176
     0
 40
1.0
176
     0
 90
        1
176
     0
 90
        6
176
     0
 90
        2
176
     0
 62
     7
176
     0
 90
        5
176
     0
 90
        0
176
     0
 90
        0
176
     0
290
     0
176
     0
 90
        1
176
     0
 40
0.0
176
     0
 90
        0
176
     0
290
     0
176
     0
290
     1
176
     0
290
     1
176
     0
290
     0
176
     0
290
     0
176
     0
290
     0
176
     0
290
     0
176
     0
290
     0
176
     0
290
     0
176
     0
 90
       50
176
     0
 40
0.0
176
     0
 40
1.0
176
     0
 90
        0
176
     0
 62
    18
420
        0
176
     0
 90
       50
176
     0
 90
        3
176
     0
 62
     5
420
      255
176
     0
290
     0
176
     0
 90
       50
176
     0
 90
       50
176
     0
 90
       50
176
     0
290
     0
176
     0
 90
       50
176
     0
 62
   256
176
     0
 40
1.0
176
     0
 90
        2
176
     0
  1
strokes_ogs.tif
176
     0
290
     0
176
     0
 40
1.0
176
     0
 40
1.0
176
     0
  0
VISUALSTYLE
  5
33
102
{ACAD_REACTORS
330
2A
102
}
330
2A
100
AcDbVisualStyle
  2
Realistic
 70
     8
177
     3
291
     0
 70
    58
 90
        2
176
     1
 90
        3
176
     1
 90
        0
176
     1
 90
        2
176
     1
 40
0.6
176
     1
 40
30.0
176
     1
 62
     7
420
 16777215
176
     1
 90
        0
176
     1
 90
        0
176
     1
 62
     7
176
     1
 62
   257
176
     1
 90
        1
176
     1
 90
        1
176
     1
 40
1.0
176
     1
 90
        8
176
     1
 62
   257
176
     1
 40
1.0
176
     1
 90
        1
176
     1
 90
        6
176
     1
 90
        2
176
     1
 62
     7
176
     1
 90
        3
176
     1
 90
        0
176
     1
 90
        0
176
     1
290
     0
176
     1
 90
       13
176
     1
 40
0.0
176
     1
 90
        0
176
     1
290
     0
176
     1
290
     1
176
     1
290
     1
176
     1
290
     0
176
     1
290
     0
176
     1
290
     0
176
     1
290
     0
176
     1
290
     0
176
     1
290
     0
176
     1
 90
       50
176
     1
 40
0.0
176
     1
 40
1.0
176
     1
 90
        0
176
     1
 62
    18
420
        0
176
     1
 90
       50
176
     1
 90
        3
176
     1
 62
     5
420
      255
176
     1
290
     0
176
     1
 90
       50
176
     1
 90
       50
176
     1
 90
       50
176
     1
290
     0
176
     1
 90
       50
176
     1
 62
   256
176
     0
 40
1.0
176
     0
 90
        2
176
     1
  1
strokes_ogs.tif
176
     1
290
     0
176
     1
 40
1.0
176
     1
 40
1.0
176
     1
  0
VISUALSTYLE
  5
42
102
{ACAD_REACTORS
330
2A
102
}
330
2A
100
AcDbVisualStyle
  2
Shaded
 70
    27
177
     3
291
     0
 70
    58
 90
        2
176
     1
 90
        2
176
     1
 90
        1
176
     1
 90
        2
176
     1
 40
0.6
176
     1
 40
30.0
176
     1
 62
     7
420
 16777215
176
     1
 90
        0
176
     1
 90
        4
176
     1
 62
     7
176
     1
 62
   257
176
     1
 90
        1
176
     1
 90
        1
176
     1
 40
1.0
176
     1
 90
        8
176
     1
 62
   257
176
     1
 40
1.0
176
     1
 90
        1
176
     1
 90
        6
176
     1
 90
        2
176
     1
 62
     8
420
  7895160
176
     1
 90
        3
176
     1
 90
        0
176
     1
 90
        0
176
     1
290
     0
176
     1
 90
        5
176
     1
 40
0.0
176
     1
 90
        0
176
     1
290
     0
176
     1
290
     1
176
     1
290
     1
176
     1
290
     0
176
     1
290
     0
176
     1
290
     0
176
     1
290
     0
176
     1
290
     0
176
     1
290
     0
176
     1
 90
       50
176
     1
 40
0.0
176
     1
 40
1.0
176
     1
 90
        0
176
     1
 62
    18
420
        0
176
     1
 90
       50
176
     1
 90
        3
176
     1
 62
     5
420
      255
176
     1
290
     0
176
     1
 90
       50
176
     1
 90
       50
176
     1
 90
       50
176
     1
290
     0
176
     1
 90
       50
176
     1
 62
   256
176
     0
 40
1.0
176
     0
 90
        2
176
     1
  1
strokes_ogs.tif
176
     1
290
     0
176
     1
 40
1.0
176
     1
 40
1.0
176
     1
  0
VISUALSTYLE
  5
41
102
{ACAD_REACTORS
330
2A
102
}
330
2A
100
AcDbVisualStyle
  2
Shaded with edges
 70
    26
177
     3
291
     0
 70
    58
 90
        2
176
     1
 90
        2
176
     1
 90
        1
176
     1
 90
        2
176
     1
 40
0.6
176
     1
 40
30.0
176
     1
 62
     7
420
 16777215
176
     1
 90
        1
176
     1
 90
       10
176
     1
 62
     7
176
     1
 62
   257
176
     1
 90
        2
176
     1
 90
        1
176
     1
 40
1.0
176
     1
 90
        8
176
     1
 62
   257
176
     1
 40
1.0
176
     1
 90
        1
176
     1
 90
        6
176
     1
 90
        2
176
     1
 62
     7
176
     1
 90
        3
176
     1
 90
        0
176
     1
 90
        0
176
     1
290
     0
176
     1
 90
        5
176
     1
 40
0.0
176
     1
 90
        0
176
     1
290
     0
176
     1
290
     1
176
     1
290
     1
176
     1
290
     0
176
     1
290
     0
176
     1
290
     0
176
     1
290
     0
176
     1
290
     0
176
     1
290
     0
176
     1
 90
       50
176
     1
 40
0.0
176
     1
 40
1.0
176
     1
 90
        0
176
     1
 62
    18
420
        0
176
     1
 90
       50
176
     1
 90
        3
176
     1
 62
     5
420
      255
176
     1
290
     0
176
     1
 90
       50
176
     1
 90
       50
176
     1
 90
       50
176
     1
290
     0
176
     1
 90
       50
176
     1
 62
   256
176
     0
 40
1.0
176
     0
 90
        2
176
     1
  1
strokes_ogs.tif
176
     1
290
     0
176
     1
 40
1.0
176
     1
 40
1.0
176
     1
  0
VISUALSTYLE
  5
3E
102
{ACAD_REACTORS
330
2A
102
}
330
2A
100
AcDbVisualStyle
  2
Shades of Gray
 70
    23
177
     3
291
     0
 70
    58
 90
        2
176
     1
 90
        2
176
     1
 90
        3
176
     1
 90
        0
176
     1
 40
0.6
176
     1
 40
30.0
176
     1
 62
     7
420
 16777215
176
     1
 90
        2
176
     1
 90
        2
176
     1
 62
     7
176
     1
 62
     7
176
     1
 90
        1
176
     1
 90
        1
176
     1
 40
40.0
176
     1
 90
        8
176
     1
 62
     7
176
     1
 40
1.0
176
     1
 90
        1
176
     1
 90
        6
176
     1
 90
        2
176
     1
 62
     7
176
     1
 90
        3
176
     1
 90
        0
176
     1
 90
        0
176
     1
290
     0
176
     1
 90
        1
176
     1
 40
0.0
176
     1
 90
        0
176
     1
290
     0
176
     1
290
     1
176
     1
290
     1
176
     1
290
     0
176
     1
290
     0
176
     1
290
     0
176
     1
290
     0
176
     1
290
     0
176
     1
290
     0
176
     1
 90
       50
176
     1
 40
0.0
176
     1
 40
1.0
176
     1
 90
        0
176
     1
 62
    18
420
        0
176
     1
 90
       50
176
     1
 90
        3
176
     1
 62
     5
420
      255
176
     1
290
     0
176
     1
 90
       50
176
     1
 90
       50
176
     1
 90
       50
176
     1
290
     0
176
     1
 90
       50
176
     1
 62
   256
176
     0
 40
1.0
176
     0
 90
        2
176
     1
  1
strokes_ogs.tif
176
     1
290
     0
176
     1
 40
1.0
176
     1
 40
1.0
176
     1
  0
VISUALSTYLE
  5
3F
102
{ACAD_REACTORS
330
2A
102
}
330
2A
100
AcDbVisualStyle
  2
Sketchy
 70
    24
177
     3
291
     0
 70
    58
 90
        1
176
     1
 90
        2
176
     1
 90
        2
176
     1
 90
        0
176
     1
 40
0.6
176
     1
 40
30.0
176
     1
 62
     7
420
 16777215
176
     1
 90
        2
176
     1
 90
        2
176
     1
 62
     7
176
     1
 62
     7
176
     1
 90
        1
176
     1
 90
        1
176
     1
 40
40.0
176
     1
 90
       11
176
     1
 62
     7
176
     1
 40
1.0
176
     1
 90
        1
176
     1
 90
        6
176
     1
 90
        2
176
     1
 62
     7
176
     1
 90
        6
176
     1
 90
        0
176
     1
 90
        0
176
     1
290
     0
176
     1
 90
        1
176
     1
 40
0.0
176
     1
 90
        0
176
     1
290
     0
176
     1
290
     1
176
     1
290
     1
176
     1
290
     0
176
     1
290
     0
176
     1
290
     0
176
     1
290
     0
176
     1
290
     0
176
     1
290
     0
176
     1
 90
       50
176
     1
 40
0.0
176
     1
 40
1.0
176
     1
 90
        0
176
     1
 62
    18
420
        0
176
     1
 90
       50
176
     1
 90
        3
176
     1
 62
     5
420
      255
176
     1
290
     0
176
     1
 90
       50
176
     1
 90
       50
176
     1
 90
       50
176
     1
290
     0
176
     1
 90
       50
176
     1
 62
   256
176
     0
 40
1.0
176
     0
 90
        2
176
     1
  1
strokes_ogs.tif
176
     1
290
     0
176
     1
 40
1.0
176
     1
 40
1.0
176
     1
  0
VISUALSTYLE
  5
37
102
{ACAD_REACTORS
330
2A
102
}
330
2A
100
AcDbVisualStyle
  2
Thicken
 70
    13
177
     3
291
     1
 70
    58
 90
        2
176
     1
 90
        2
176
     1
 90
        0
176
     1
 90
        0
176
     1
 40
0.6
176
     1
 40
30.0
176
     1
 62
     7
420
 16777215
176
     1
 90
        1
176
     1
 90
        4
176
     1
 62
     7
176
     1
 62
   257
176
     1
 90
        1
176
     1
 90
        1
176
     1
 40
1.0
176
     1
 90
       12
176
     1
 62
     7
176
     1
 40
1.0
176
     1
 90
        1
176
     1
 90
        6
176
     1
 90
        2
176
     1
 62
     7
176
     1
 90
        5
176
     1
 90
        0
176
     1
 90
        0
176
     1
290
     0
176
     1
 90
        1
176
     1
 40
0.0
176
     1
 90
        0
176
     1
290
     0
176
     1
290
     1
176
     1
290
     1
176
     1
290
     0
176
     1
290
     0
176
     1
290
     0
176
     1
290
     0
176
     1
290
     0
176
     1
290
     0
176
     1
 90
       50
176
     1
 40
0.0
176
     1
 40
1.0
176
     1
 90
        0
176
     1
 62
    18
420
        0
176
     1
 90
       50
176
     1
 90
        3
176
     1
 62
     5
420
      255
176
     1
290
     0
176
     1
 90
       50
176
     1
 90
       50
176
     1
 90
       50
176
     1
290
     0
176
     1
 90
       50
176
     1
 62
   256
176
     0
 40
1.0
176
     0
 90
        2
176
     1
  1
strokes_ogs.tif
176
     1
290
     0
176
     1
 40
1.0
176
     1
 40
1.0
176
     1
  0
VISUALSTYLE
  5
30
102
{ACAD_REACTORS
330
2A
102
}
330
2A
100
AcDbVisualStyle
  2
Wireframe
 70
     5
177
     3
291
     0
 70
    58
 90
        0
176
     1
 90
        2
176
     1
 90
        0
176
     1
 90
        0
176
     1
 40
0.6
176
     1
 40
30.0
176
     1
 62
     7
420
 16777215
176
     1
 90
        1
176
     1
 90
        4
176
     1
 62
     7
176
     1
 62
   257
176
     1
 90
        1
176
     1
 90
        1
176
     1
 40
1.0
176
     1
 90
        0
176
     1
 62
   257
176
     1
 40
1.0
176
     1
 90
        1
176
     1
 90
        6
176
     1
 90
        2
176
     1
 62
     7
176
     1
 90
        3
176
     1
 90
        0
176
     1
 90
        0
176
     1
290
     0
176
     1
 90
        1
176
     1
 40
0.0
176
     1
 90
        0
176
     1
290
     0
176
     1
290
     1
176
     1
290
     1
176
     1
290
     0
176
     1
290
     0
176
     1
290
     0
176
     1
290
     0
176
     1
290
     0
176
     1
290
     0
176
     1
 90
       50
176
     1
 40
0.0
176
     1
 40
1.0
176
     1
 90
        0
176
     1
 62
    18
420
        0
176
     1
 90
       50
176
     1
 90
        3
176
     1
 62
     5
420
      255
176
     1
290
     0
176
     1
 90
       50
176
     1
 90
       50
176
     1
 90
       50
176
     1
290
     0
176
     1
 90
       50
176
     1
 62
   256
176
     0
 40
1.0
176
     0
 90
        2
176
     1
  1
strokes_ogs.tif
176
     1
290
     0
176
     1
 40
1.0
176
     1
 40
1.0
176
     1
  0
VISUALSTYLE
  5
40
102
{ACAD_REACTORS
330
2A
102
}
330
2A
100
AcDbVisualStyle
  2
X-Ray
 70
    25
177
     3
291
     0
 70
    58
 90
        2
176
     1
 90
        2
176
     1
 90
        1
176
     1
 90
        1
176
     1
 40
0.5
176
     1
 40
30.0
176
     1
 62
     7
420
 16777215
176
     1
 90
        1
176
     1
 90
        0
176
     1
 62
     7
176
     1
 62
   257
176
     1
 90
        1
176
     1
 90
        1
176
     1
 40
1.0
176
     1
 90
        8
176
     1
 62
     7
176
     1
 40
1.0
176
     1
 90
        1
176
     1
 90
        6
176
     1
 90
        2
176
     1
 62
     7
176
     1
 90
        3
176
     1
 90
        0
176
     1
 90
        0
176
     1
290
     0
176
     1
 90
       13
176
     1
 40
0.0
176
     1
 90
        0
176
     1
290
     0
176
     1
290
     1
176
     1
290
     1
176
     1
290
     0
176
     1
290
     0
176
     1
290
     0
176
     1
290
     0
176
     1
290
     0
176
     1
290
     0
176
     1
 90
       50
176
     1
 40
0.0
176
     1
 40
1.0
176
     1
 90
        0
176
     1
 62
    18
420
        0
176
     1
 90
       50
176
     1
 90
        3
176
     1
 62
     5
420
      255
176
     1
290
     0
176
     1
 90
       50
176
     1
 90
       50
176
     1
 90
       50
176
     1
290
     0
176
     1
 90
       50
176
     1
 62
   256
176
     0
 40
1.0
176
     0
 90
        2
176
     1
  1
strokes_ogs.tif
176
     1
290
     0
176
     1
 40
1.0
176
     1
 40
1.0
176
     1
  0
DICTIONARYVAR
  5
1DD
102
{ACAD_REACTORS
330
1DC
102
}
330
1DC
100
DictionaryVariables
280
     0
  1
1:1
  0
DICTIONARYVAR
  5
1E2
102
{ACAD_REACTORS
330
1DC
102
}
330
1DC
100
DictionaryVariables
280
     0
  1
Standard
  0
DICTIONARYVAR
  5
1E1
102
{ACAD_REACTORS
330
1DC
102
}
330
1DC
100
DictionaryVariables
280
     0
  1
Standard
  0
DICTIONARY
  5
1DE
330
6A
100
AcDbDictionary
280
     1
281
     1
  3
ACAD_ROUNDTRIP_2008_TABLESTYLE_CELLSTYLEMAP
360
1DF
  0
CELLSTYLEMAP
  5
1DF
102
{ACAD_REACTORS
330
1DE
102
}
330
1DE
100
AcDbCellStyleMap
 90
        3
300
CELLSTYLE
  1
TABLEFORMAT_BEGIN
 90
        5
170
     1
 91
        0
 92
    32768
 62
   257
 93
        1
300
CONTENTFORMAT
  1
CONTENTFORMAT_BEGIN
 90
        0
 91
        0
 92
        4
 93
        0
300

 40
0.0
140
1.0
 94
        5
 62
     0
340
11
144
0.25
309
CONTENTFORMAT_END
171
     1
301
MARGIN
  1
CELLMARGIN_BEGIN
 40
0.06
 40
0.06
 40
0.06
 40
0.06
 40
0.06
 40
0.06
309
CELLMARGIN_END
 94
        6
 95
        1
302
GRIDFORMAT
  1
GRIDFORMAT_BEGIN
 90
        0
 91
        1
 62
     0
 92
       -2
340
14
 93
        0
 40
0.045
309
GRIDFORMAT_END
 95
        2
302
GRIDFORMAT
  1
GRIDFORMAT_BEGIN
 90
        0
 91
        1
 62
     0
 92
       -2
340
14
 93
        0
 40
0.045
309
GRIDFORMAT_END
 95
        4
302
GRIDFORMAT
  1
GRIDFORMAT_BEGIN
 90
        0
 91
        1
 62
     0
 92
       -2
340
14
 93
        0
 40
0.045
309
GRIDFORMAT_END
 95
        8
302
GRIDFORMAT
  1
GRIDFORMAT_BEGIN
 90
        0
 91
        1
 62
     0
 92
       -2
340
14
 93
        0
 40
0.045
309
GRIDFORMAT_END
 95
       16
302
GRIDFORMAT
  1
GRIDFORMAT_BEGIN
 90
        0
 91
        1
 62
     0
 92
       -2
340
14
 93
        0
 40
0.045
309
GRIDFORMAT_END
 95
       32
302
GRIDFORMAT
  1
GRIDFORMAT_BEGIN
 90
        0
 91
        1
 62
     0
 92
       -2
340
14
 93
        0
 40
0.045
309
GRIDFORMAT_END
309
TABLEFORMAT_END
  1
CELLSTYLE_BEGIN
 90
        1
 91
        1
300
_TITLE
309
CELLSTYLE_END
300
CELLSTYLE
  1
TABLEFORMAT_BEGIN
 90
        5
170
     1
 91
        0
 92
        0
 62
   257
 93
        1
300
CONTENTFORMAT
  1
CONTENTFORMAT_BEGIN
 90
        0
 91
        0
 92
        4
 93
        0
300

 40
0.0
140
1.0
 94
        5
 62
     0
340
11
144
0.18
309
CONTENTFORMAT_END
171
     1
301
MARGIN
  1
CELLMARGIN_BEGIN
 40
0.06
 40
0.06
 40
0.06
 40
0.06
 40
0.06
 40
0.06
309
CELLMARGIN_END
 94
        6
 95
        1
302
GRIDFORMAT
  1
GRIDFORMAT_BEGIN
 90
        0
 91
        1
 62
     0
 92
       -2
340
14
 93
        0
 40
0.045
309
GRIDFORMAT_END
 95
        2
302
GRIDFORMAT
  1
GRIDFORMAT_BEGIN
 90
        0
 91
        1
 62
     0
 92
       -2
340
14
 93
        0
 40
0.045
309
GRIDFORMAT_END
 95
        4
302
GRIDFORMAT
  1
GRIDFORMAT_BEGIN
 90
        0
 91
        1
 62
     0
 92
       -2
340
14
 93
        0
 40
0.045
309
GRIDFORMAT_END
 95
        8
302
GRIDFORMAT
  1
GRIDFORMAT_BEGIN
 90
        0
 91
        1
 62
     0
 92
       -2
340
14
 93
        0
 40
0.045
309
GRIDFORMAT_END
 95
       16
302
GRIDFORMAT
  1
GRIDFORMAT_BEGIN
 90
        0
 91
        1
 62
     0
 92
       -2
340
14
 93
        0
 40
0.045
309
GRIDFORMAT_END
 95
       32
302
GRIDFORMAT
  1
GRIDFORMAT_BEGIN
 90
        0
 91
        1
 62
     0
 92
       -2
340
14
 93
        0
 40
0.045
309
GRIDFORMAT_END
309
TABLEFORMAT_END
  1
CELLSTYLE_BEGIN
 90
        2
 91
        1
300
_HEADER
309
CELLSTYLE_END
300
CELLSTYLE
  1
TABLEFORMAT_BEGIN
 90
        5
170
     1
 91
        0
 92
        0
 62
   257
 93
        1
300
CONTENTFORMAT
  1
CONTENTFORMAT_BEGIN
 90
        0
 91
        0
 92
        4
 93
        0
300

 40
0.0
140
1.0
 94
        2
 62
     0
340
11
144
0.18
309
CONTENTFORMAT_END
171
     1
301
MARGIN
  1
CELLMARGIN_BEGIN
 40
0.06
 40
0.06
 40
0.06
 40
0.06
 40
0.06
 40
0.06
309
CELLMARGIN_END
 94
        6
 95
        1
302
GRIDFORMAT
  1
GRIDFORMAT_BEGIN
 90
        0
 91
        1
 62
     0
 92
       -2
340
14
 93
        0
 40
0.045
309
GRIDFORMAT_END
 95
        2
302
GRIDFORMAT
  1
GRIDFORMAT_BEGIN
 90
        0
 91
        1
 62
     0
 92
       -2
340
14
 93
        0
 40
0.045
309
GRIDFORMAT_END
 95
        4
302
GRIDFORMAT
  1
GRIDFORMAT_BEGIN
 90
        0
 91
        1
 62
     0
 92
       -2
340
14
 93
        0
 40
0.045
309
GRIDFORMAT_END
 95
        8
302
GRIDFORMAT
  1
GRIDFORMAT_BEGIN
 90
        0
 91
        1
 62
     0
 92
       -2
340
14
 93
        0
 40
0.045
309
GRIDFORMAT_END
 95
       16
302
GRIDFORMAT
  1
GRIDFORMAT_BEGIN
 90
        0
 91
        1
 62
     0
 92
       -2
340
14
 93
        0
 40
0.045
309
GRIDFORMAT_END
 95
       32
302
GRIDFORMAT
  1
GRIDFORMAT_BEGIN
 90
        0
 91
        1
 62
     0
 92
       -2
340
14
 93
        0
 40
0.045
309
GRIDFORMAT_END
309
TABLEFORMAT_END
  1
CELLSTYLE_BEGIN
 90
        3
 91
        2
300
_DATA
309
CELLSTYLE_END
  0
ENDSEC
  0
EOF