0
SECTION
  2
HEADER
  9
$ACADVER
  1
AC1027
  9
$ACADMAINTVER
 70
     8
  9
$DWGCODEPAGE
  3
ANSI_1252
  9
$REQUIREDVERSIONS
160
                 0
  9
$COMMENTS
  1
File was created by Cadenas
  9
$CUSTOMPROPERTYTAG
  1
NN
  9
$CUSTOMPROPERTY
  1
Set Screw Wide Slot Take Up Inch Bore
  9
$CUSTOMPROPERTYTAG
  1
NT
  9
$CUSTOMPROPERTY
  1
SC Take-Up Bearings -Wide Slot -(Normal Duty)
  9
$CUSTOMPROPERTYTAG
  1
NB
  9
$CUSTOMPROPERTY
  1
125356
  9
$CUSTOMPROPERTYTAG
  1
NBSYN
  9
$CUSTOMPROPERTY
  1
$PN.
  9
$CUSTOMPROPERTYTAG
  1
LINA
  9
$CUSTOMPROPERTY
  1
125356
  9
$CUSTOMPROPERTYTAG
  1
SERIES
  9
$CUSTOMPROPERTY
  1
205
  9
$CUSTOMPROPERTYTAG
  1
SS
  9
$CUSTOMPROPERTY
  1
7/8
  9
$CUSTOMPROPERTYTAG
  1
PN
  9
$CUSTOMPROPERTY
  1
125356
  9
$CUSTOMPROPERTYTAG
  1
DESCRIPTION
  9
$CUSTOMPROPERTY
  1
WSTU-SC-014
  9
$CUSTOMPROPERTYTAG
  1
W
  9
$CUSTOMPROPERTY
  1
2.2
  9
$CUSTOMPROPERTYTAG
  1
FS
  9
$CUSTOMPROPERTY
  1
WS300
  9
$CUSTOMPROPERTYTAG
  1
LF
  9
$CUSTOMPROPERTY
  1
RE-LUBE
  9
$CUSTOMPROPERTYTAG
  1
A
  9
$CUSTOMPROPERTY
  1
1.34
  9
$CUSTOMPROPERTYTAG
  1
B
  9
$CUSTOMPROPERTY
  1
3.81
  9
$CUSTOMPROPERTYTAG
  1
C
  9
$CUSTOMPROPERTY
  1
0.531
  9
$CUSTOMPROPERTYTAG
  1
D
  9
$CUSTOMPROPERTY
  1
2
  9
$CUSTOMPROPERTYTAG
  1
E
  9
$CUSTOMPROPERTY
  1
2.44
  9
$CUSTOMPROPERTYTAG
  1
F
  9
$CUSTOMPROPERTY
  1
5/8
  9
$CUSTOMPROPERTYTAG
  1
G
  9
$CUSTOMPROPERTY
  1
0.38
  9
$CUSTOMPROPERTYTAG
  1
H
  9
$CUSTOMPROPERTY
  1
0.63
  9
$CUSTOMPROPERTYTAG
  1
J
  9
$CUSTOMPROPERTY
  1
2
  9
$CUSTOMPROPERTYTAG
  1
K
  9
$CUSTOMPROPERTY
  1
1.31
  9
$CUSTOMPROPERTYTAG
  1
L
  9
$CUSTOMPROPERTY
  1
1.32
  9
$CUSTOMPROPERTYTAG
  1
M
  9
$CUSTOMPROPERTY
  1
2.985 / 3.015
  9
$CUSTOMPROPERTYTAG
  1
N
  9
$CUSTOMPROPERTY
  1
3.63
  9
$CUSTOMPROPERTYTAG
  1
R
  9
$CUSTOMPROPERTY
  1
0.56
  9
$CUSTOMPROPERTYTAG
  1
S
  9
$CUSTOMPROPERTY
  1
0.78
  9
$CUSTOMPROPERTYTAG
  1
T
  9
$CUSTOMPROPERTY
  1
1.38
  9
$CUSTOMPROPERTYTAG
  1
COMPANY
  9
$CUSTOMPROPERTY
  1
baldor
  9
$INSBASE
 10
0.0
 20
0.0
 30
0.0
  9
$EXTMIN
 10
1.000000000000000E+20
 20
1.000000000000000E+20
 30
1.000000000000000E+20
  9
$EXTMAX
 10
-1.000000000000000E+20
 20
-1.000000000000000E+20
 30
-1.000000000000000E+20
  9
$LIMMIN
 10
0.0
 20
0.0
  9
$LIMMAX
 10
12.0
 20
9.0
  9
$ORTHOMODE
 70
     0
  9
$REGENMODE
 70
     1
  9
$FILLMODE
 70
     1
  9
$QTEXTMODE
 70
     0
  9
$MIRRTEXT
 70
     1
  9
$LTSCALE
 40
1.0
  9
$ATTMODE
 70
     1
  9
$TEXTSIZE
 40
0.2
  9
$TRACEWID
 40
0.05
  9
$TEXTSTYLE
  7
Standard
  9
$CLAYER
  8
0
  9
$CELTYPE
  6
ByLayer
  9
$CECOLOR
 62
   256
  9
$CELTSCALE
 40
1.0
  9
$DISPSILH
 70
     0
  9
$DIMSCALE
 40
1.0
  9
$DIMASZ
 40
0.18
  9
$DIMEXO
 40
0.0625
  9
$DIMDLI
 40
0.38
  9
$DIMRND
 40
0.0
  9
$DIMDLE
 40
0.0
  9
$DIMEXE
 40
0.18
  9
$DIMTP
 40
0.0
  9
$DIMTM
 40
0.0
  9
$DIMTXT
 40
0.18
  9
$DIMCEN
 40
0.09
  9
$DIMTSZ
 40
0.0
  9
$DIMTOL
 70
     0
  9
$DIMLIM
 70
     0
  9
$DIMTIH
 70
     1
  9
$DIMTOH
 70
     1
  9
$DIMSE1
 70
     0
  9
$DIMSE2
 70
     0
  9
$DIMTAD
 70
     0
  9
$DIMZIN
 70
     0
  9
$DIMBLK
  1

  9
$DIMASO
 70
     1
  9
$DIMSHO
 70
     1
  9
$DIMPOST
  1

  9
$DIMAPOST
  1

  9
$DIMALT
 70
     0
  9
$DIMALTD
 70
     2
  9
$DIMALTF
 40
25.4
  9
$DIMLFAC
 40
1.0
  9
$DIMTOFL
 70
     0
  9
$DIMTVP
 40
0.0
  9
$DIMTIX
 70
     0
  9
$DIMSOXD
 70
     0
  9
$DIMSAH
 70
     0
  9
$DIMBLK1
  1

  9
$DIMBLK2
  1

  9
$DIMSTYLE
  2
Standard
  9
$DIMCLRD
 70
     0
  9
$DIMCLRE
 70
     0
  9
$DIMCLRT
 70
     0
  9
$DIMTFAC
 40
1.0
  9
$DIMGAP
 40
0.09
  9
$DIMJUST
 70
     0
  9
$DIMSD1
 70
     0
  9
$DIMSD2
 70
     0
  9
$DIMTOLJ
 70
     1
  9
$DIMTZIN
 70
     0
  9
$DIMALTZ
 70
     0
  9
$DIMALTTZ
 70
     0
  9
$DIMUPT
 70
     0
  9
$DIMDEC
 70
     4
  9
$DIMTDEC
 70
     4
  9
$DIMALTU
 70
     2
  9
$DIMALTTD
 70
     2
  9
$DIMTXSTY
  7
Standard
  9
$DIMAUNIT
 70
     0
  9
$DIMADEC
 70
     0
  9
$DIMALTRND
 40
0.0
  9
$DIMAZIN
 70
     0
  9
$DIMDSEP
 70
    46
  9
$DIMATFIT
 70
     3
  9
$DIMFRAC
 70
     0
  9
$DIMLDRBLK
  1

  9
$DIMLUNIT
 70
     2
  9
$DIMLWD
 70
    -2
  9
$DIMLWE
 70
    -2
  9
$DIMTMOVE
 70
     0
  9
$DIMFXL
 40
1.0
  9
$DIMFXLON
 70
     0
  9
$DIMJOGANG
 40
0.7853981633974483
  9
$DIMTFILL
 70
     0
  9
$DIMTFILLCLR
 70
     0
  9
$DIMARCSYM
 70
     0
  9
$DIMLTYPE
  6

  9
$DIMLTEX1
  6

  9
$DIMLTEX2
  6

  9
$DIMTXTDIRECTION
 70
     0
  9
$LUNITS
 70
     2
  9
$LUPREC
 70
     4
  9
$SKETCHINC
 40
0.1
  9
$FILLETRAD
 40
0.5
  9
$AUNITS
 70
     0
  9
$AUPREC
 70
     0
  9
$MENU
  1
.
  9
$ELEVATION
 40
0.0
  9
$PELEVATION
 40
0.0
  9
$THICKNESS
 40
0.0
  9
$LIMCHECK
 70
     0
  9
$CHAMFERA
 40
0.0
  9
$CHAMFERB
 40
0.0
  9
$CHAMFERC
 40
0.0
  9
$CHAMFERD
 40
0.0
  9
$SKPOLY
 70
     0
  9
$TDCREATE
 40
2458168.97874728
  9
$TDUCREATE
 40
2458168.937080613
  9
$TDUPDATE
 40
2458168.97874728
  9
$TDUUPDATE
 40
2458168.937080613
  9
$TDINDWG
 40
0.0000000116
  9
$TDUSRTIMER
 40
0.0000000116
  9
$USRTIMER
 70
     1
  9
$ANGBASE
 50
0.0
  9
$ANGDIR
 70
     0
  9
$PDMODE
 70
     0
  9
$PDSIZE
 40
0.0
  9
$PLINEWID
 40
0.0
  9
$SPLFRAME
 70
     0
  9
$SPLINETYPE
 70
     6
  9
$SPLINESEGS
 70
     8
  9
$HANDSEED
  5
1EB
  9
$SURFTAB1
 70
     6
  9
$SURFTAB2
 70
     6
  9
$SURFTYPE
 70
     6
  9
$SURFU
 70
     6
  9
$SURFV
 70
     6
  9
$UCSBASE
  2

  9
$UCSNAME
  2

  9
$UCSORG
 10
0.0
 20
0.0
 30
0.0
  9
$UCSXDIR
 10
1.0
 20
0.0
 30
0.0
  9
$UCSYDIR
 10
0.0
 20
1.0
 30
0.0
  9
$UCSORTHOREF
  2

  9
$UCSORTHOVIEW
 70
     0
  9
$UCSORGTOP
 10
0.0
 20
0.0
 30
0.0
  9
$UCSORGBOTTOM
 10
0.0
 20
0.0
 30
0.0
  9
$UCSORGLEFT
 10
0.0
 20
0.0
 30
0.0
  9
$UCSORGRIGHT
 10
0.0
 20
0.0
 30
0.0
  9
$UCSORGFRONT
 10
0.0
 20
0.0
 30
0.0
  9
$UCSORGBACK
 10
0.0
 20
0.0
 30
0.0
  9
$PUCSBASE
  2

  9
$PUCSNAME
  2

  9
$PUCSORG
 10
0.0
 20
0.0
 30
0.0
  9
$PUCSXDIR
 10
1.0
 20
0.0
 30
0.0
  9
$PUCSYDIR
 10
0.0
 20
1.0
 30
0.0
  9
$PUCSORTHOREF
  2

  9
$PUCSORTHOVIEW
 70
     0
  9
$PUCSORGTOP
 10
0.0
 20
0.0
 30
0.0
  9
$PUCSORGBOTTOM
 10
0.0
 20
0.0
 30
0.0
  9
$PUCSORGLEFT
 10
0.0
 20
0.0
 30
0.0
  9
$PUCSORGRIGHT
 10
0.0
 20
0.0
 30
0.0
  9
$PUCSORGFRONT
 10
0.0
 20
0.0
 30
0.0
  9
$PUCSORGBACK
 10
0.0
 20
0.0
 30
0.0
  9
$USERI1
 70
     0
  9
$USERI2
 70
     0
  9
$USERI3
 70
     0
  9
$USERI4
 70
     0
  9
$USERI5
 70
     0
  9
$USERR1
 40
0.0
  9
$USERR2
 40
0.0
  9
$USERR3
 40
0.0
  9
$USERR4
 40
0.0
  9
$USERR5
 40
0.0
  9
$WORLDVIEW
 70
     1
  9
$SHADEDGE
 70
     3
  9
$SHADEDIF
 70
    70
  9
$TILEMODE
 70
     1
  9
$MAXACTVP
 70
    64
  9
$PINSBASE
 10
0.0
 20
0.0
 30
0.0
  9
$PLIMCHECK
 70
     0
  9
$PEXTMIN
 10
1.000000000000000E+20
 20
1.000000000000000E+20
 30
1.000000000000000E+20
  9
$PEXTMAX
 10
-1.000000000000000E+20
 20
-1.000000000000000E+20
 30
-1.000000000000000E+20
  9
$PLIMMIN
 10
0.0
 20
0.0
  9
$PLIMMAX
 10
12.0
 20
9.0
  9
$UNITMODE
 70
     0
  9
$VISRETAIN
 70
     1
  9
$PLINEGEN
 70
     0
  9
$PSLTSCALE
 70
     1
  9
$TREEDEPTH
 70
  3020
  9
$CMLSTYLE
  2
Standard
  9
$CMLJUST
 70
     0
  9
$CMLSCALE
 40
1.0
  9
$PROXYGRAPHICS
 70
     1
  9
$MEASUREMENT
 70
     0
  9
$CELWEIGHT
370
    -1
  9
$ENDCAPS
280
     0
  9
$JOINSTYLE
280
     0
  9
$LWDISPLAY
290
     0
  9
$INSUNITS
 70
     1
  9
$HYPERLINKBASE
  1

  9
$STYLESHEET
  1

  9
$XEDIT
290
     1
  9
$CEPSNTYPE
380
     0
  9
$PSTYLEMODE
290
     1
  9
$FINGERPRINTGUID
  2
{2105B608-7BD5-4B16-990D-A07FCD1CEE52}
  9
$VERSIONGUID
  2
{FAEB1C32-E019-11D5-929B-00C0DF256EC4}
  9
$EXTNAMES
290
     1
  9
$PSVPSCALE
 40
0.0
  9
$OLESTARTUP
290
     0
  9
$SORTENTS
280
   127
  9
$INDEXCTL
280
     0
  9
$HIDETEXT
280
     1
  9
$XCLIPFRAME
280
     2
  9
$HALOGAP
280
     0
  9
$OBSCOLOR
 70
   257
  9
$OBSLTYPE
280
     0
  9
$INTERSECTIONDISPLAY
280
     0
  9
$INTERSECTIONCOLOR
 70
   257
  9
$DIMASSOC
280
     2
  9
$PROJECTNAME
  1

  9
$CAMERADISPLAY
290
     0
  9
$LENSLENGTH
 40
50.0
  9
$CAMERAHEIGHT
 40
0.0
  9
$STEPSPERSEC
 40
2.0
  9
$STEPSIZE
 40
6.0
  9
$3DDWFPREC
 40
2.0
  9
$PSOLWIDTH
 40
0.25
  9
$PSOLHEIGHT
 40
4.0
  9
$LOFTANG1
 40
1.570796326794897
  9
$LOFTANG2
 40
1.570796326794897
  9
$LOFTMAG1
 40
0.0
  9
$LOFTMAG2
 40
0.0
  9
$LOFTPARAM
 70
     7
  9
$LOFTNORMALS
280
     1
  9
$LATITUDE
 40
37.795
  9
$LONGITUDE
 40
-122.394
  9
$NORTHDIRECTION
 40
0.0
  9
$TIMEZONE
 70
 -8000
  9
$LIGHTGLYPHDISPLAY
280
     1
  9
$TILEMODELIGHTSYNCH
280
     1
  9
$CMATERIAL
347
44
  9
$SOLIDHIST
280
     0
  9
$SHOWHIST
280
     1
  9
$DWFFRAME
280
     2
  9
$DGNFRAME
280
     2
  9
$REALWORLDSCALE
290
     1
  9
$INTERFERECOLOR
 62
   256
  9
$CSHADOW
280
     0
  9
$SHADOWPLANELOCATION
 40
0.0
  0
ENDSEC
  0
SECTION
  2
CLASSES
  0
CLASS
  1
ACDBDICTIONARYWDFLT
  2
AcDbDictionaryWithDefault
  3
ObjectDBX Classes
 90
        0
 91
        4
280
     0
281
     0
  0
CLASS
  1
VISUALSTYLE
  2
AcDbVisualStyle
  3
ObjectDBX Classes
 90
     4095
 91
        4
280
     0
281
     0
  0
CLASS
  1
MATERIAL
  2
AcDbMaterial
  3
ObjectDBX Classes
 90
     1153
 91
        4
280
     0
281
     0
  0
CLASS
  1
SCALE
  2
AcDbScale
  3
ObjectDBX Classes
 90
     1153
 91
        4
280
     0
281
     0
  0
CLASS
  1
TABLESTYLE
  2
AcDbTableStyle
  3
ObjectDBX Classes
 90
     4095
 91
        4
280
     0
281
     0
  0
CLASS
  1
MLEADERSTYLE
  2
AcDbMLeaderStyle
  3
ACDB_MLEADERSTYLE_CLASS
 90
     4095
 91
        4
280
     0
281
     0
  0
CLASS
  1
SUN
  2
AcDbSun
  3
SCENEOE
 90
     1153
 91
        4
280
     0
281
     0
  0
CLASS
  1
DICTIONARYVAR
  2
AcDbDictionaryVar
  3
ObjectDBX Classes
 90
        0
 91
        4
280
     0
281
     0
  0
CLASS
  1
CELLSTYLEMAP
  2
AcDbCellStyleMap
  3
ObjectDBX Classes
 90
     1152
 91
        4
280
     0
281
     0
  0
ENDSEC
  0
SECTION
  2
TABLES
  0
TABLE
  2
VPORT
  5
8
330
0
100
AcDbSymbolTable
 70
     1
  0
VPORT
  5
29
330
8
100
AcDbSymbolTableRecord
100
AcDbViewportTableRecord
  2
*Active
 70
     0
 10
0.0
 20
0.0
 11
1.0
 21
1.0
 12
0.3121836703160259
 22
-0.0785
 13
0.0
 23
0.0
 14
0.5
 24
0.5
 15
0.5
 25
0.5
 16
0.0
 26
0.0
 36
1.0
 17
0.0
 27
0.0
 37
0.0
 40
1.567739999999999
 41
2.793515067903676
 42
50.0
 43
0.0
 44
0.0
 50
0.0
 51
0.0
 71
     0
 72
   100
 73
     1
 74
     3
 75
     0
 76
     0
 77
     0
 78
     0
281
     0
 65
     1
110
0.0
120
0.0
130
0.0
111
1.0
121
0.0
131
0.0
112
0.0
122
1.0
132
0.0
 79
     0
146
0.0
348
2F
 60
     3
 61
     5
292
     1
282
     1
141
0.0
142
0.0
 63
   250
361
6D
  0
ENDTAB
  0
TABLE
  2
LTYPE
  5
5
330
0
100
AcDbSymbolTable
 70
     3
  0
LTYPE
  5
14
330
5
100
AcDbSymbolTableRecord
100
AcDbLinetypeTableRecord
  2
ByBlock
 70
     0
  3

 72
    65
 73
     0
 40
0.0
  0
LTYPE
  5
15
330
5
100
AcDbSymbolTableRecord
100
AcDbLinetypeTableRecord
  2
ByLayer
 70
     0
  3

 72
    65
 73
     0
 40
0.0
  0
LTYPE
  5
16
330
5
100
AcDbSymbolTableRecord
100
AcDbLinetypeTableRecord
  2
Continuous
 70
     0
  3
Solid line
 72
    65
 73
     0
 40
0.0
  0
LTYPE
  5
A6
330
5
100
AcDbSymbolTableRecord
100
AcDbLinetypeTableRecord
  2
Dashed
 70
     0
  3

 72
    65
 73
     2
 40
2.0
 49
1.0
 74
     0
 49
-1.0
 74
     0
  0
LTYPE
  5
DC
330
5
100
AcDbSymbolTableRecord
100
AcDbLinetypeTableRecord
  2
Center
 70
     0
  3

 72
    65
 73
     4
 40
1.5
 49
0.45
 74
     0
 49
-0.5
 74
     0
 49
0.05
 74
     0
 49
-0.5
 74
     0
  0
ENDTAB
  0
TABLE
  2
LAYER
  5
2
330
0
100
AcDbSymbolTable
 70
     7
  0
LAYER
  5
10
330
2
100
AcDbSymbolTableRecord
100
AcDbLayerTableRecord
  2
0
 70
     0
 62
     7
  6
Continuous
370
    -3
390
F
347
46
348
0
  0
LAYER
  5
72
330
2
100
AcDbSymbolTableRecord
100
AcDbLayerTableRecord
  2
AM_6
 70
     0
 62
    -2
  6
Continuous
370
    35
390
F
347
46
348
0
  0
LAYER
  5
A7
330
2
100
AcDbSymbolTableRecord
100
AcDbLayerTableRecord
  2
AM_9
 70
     0
 62
     6
  6
Dashed
370
    25
390
F
347
46
348
0
  0
LAYER
  5
D8
330
2
100
AcDbSymbolTableRecord
100
AcDbLayerTableRecord
  2
AM_5
 70
     0
 62
     3
  6
Continuous
370
    25
390
F
347
46
348
0
  0
LAYER
  5
DD
330
2
100
AcDbSymbolTableRecord
100
AcDbLayerTableRecord
  2
AM_7
 70
     0
 62
     7
  6
Center
370
    25
390
F
347
46
348
0
  0
LAYER
  5
E1
330
2
100
AcDbSymbolTableRecord
100
AcDbLayerTableRecord
  2
AM_4
 70
     0
 62
     7
  6
Continuous
370
    50
390
F
347
46
348
0
  0
LAYER
  5
1DE
330
2
100
AcDbSymbolTableRecord
100
AcDbLayerTableRecord
  2
ConnectionPoints
 70
     0
 62
     7
  6
Continuous
370
    50
390
F
347
46
348
0
  0
ENDTAB
  0
TABLE
  2
STYLE
  5
3
330
0
100
AcDbSymbolTable
 70
     1
  0
STYLE
  5
11
330
3
100
AcDbSymbolTableRecord
100
AcDbTextStyleTableRecord
  2
Standard
 70
     0
 40
0.0
 41
1.0
 50
0.0
 71
     0
 42
0.2
  3
txt
  4

  0
ENDTAB
  0
TABLE
  2
VIEW
  5
6
330
0
100
AcDbSymbolTable
 70
     0
  0
ENDTAB
  0
TABLE
  2
UCS
  5
7
330
0
100
AcDbSymbolTable
 70
     0
  0
ENDTAB
  0
TABLE
  2
APPID
  5
9
330
0
100
AcDbSymbolTable
 70
     1
  0
APPID
  5
12
330
9
100
AcDbSymbolTableRecord
100
AcDbRegAppTableRecord
  2
ACAD
 70
     0
  0
ENDTAB
  0
TABLE
  2
DIMSTYLE
  5
A
330
0
100
AcDbSymbolTable
 70
     1
100
AcDbDimStyleTable
  0
DIMSTYLE
105
27
330
A
100
AcDbSymbolTableRecord
100
AcDbDimStyleTableRecord
  2
Standard
 70
     0
178
     0
340
11
  0
ENDTAB
  0
TABLE
  2
BLOCK_RECORD
  5
1
330
0
100
AcDbSymbolTable
 70
     5
  0
BLOCK_RECORD
  5
1F
330
1
100
AcDbSymbolTableRecord
100
AcDbBlockTableRecord
  2
*Model_Space
340
22
 70
     0
280
     1
281
     0
  0
BLOCK_RECORD
  5
1B
330
1
100
AcDbSymbolTableRecord
100
AcDbBlockTableRecord
  2
*Paper_Space
340
1E
 70
     0
280
     1
281
     0
  0
BLOCK_RECORD
  5
23
330
1
100
AcDbSymbolTableRecord
100
AcDbBlockTableRecord
  2
*Paper_Space0
340
26
 70
     0
280
     1
281
     0
  0
BLOCK_RECORD
  5
6E
330
1
100
AcDbSymbolTableRecord
100
AcDbBlockTableRecord
  2
1_125356_4
340
0
102
{BLKREFS
331
6F
102
}
 70
     0
280
     1
281
     0
  0
BLOCK_RECORD
  5
90
330
1
100
AcDbSymbolTableRecord
100
AcDbBlockTableRecord
  2
2_123333_0_in_125356_4
340
0
102
{BLKREFS
331
91
102
}
 70
     0
280
     1
281
     0
  0
BLOCK_RECORD
  5
EF
330
1
100
AcDbSymbolTableRecord
100
AcDbBlockTableRecord
  2
3_405016_Inch_0_in_125356_4
340
0
102
{BLKREFS
331
F0
102
}
 70
     0
280
     1
281
     0
  0
BLOCK_RECORD
  5
178
330
1
100
AcDbSymbolTableRecord
100
AcDbBlockTableRecord
  2
4_125356H_0_in_125356_4
340
0
102
{BLKREFS
331
179
102
}
 70
     0
280
     1
281
     0
  0
ENDTAB
  0
ENDSEC
  0
SECTION
  2
BLOCKS
  0
BLOCK
  5
20
330
1F
100
AcDbEntity
  8
0
100
AcDbBlockBegin
  2
*Model_Space
 70
     0
 10
0.0
 20
0.0
 30
0.0
  3
*Model_Space
  1

  0
ENDBLK
  5
21
330
1F
100
AcDbEntity
  8
0
100
AcDbBlockEnd
  0
BLOCK
  5
1C
330
1B
100
AcDbEntity
 67
     1
  8
0
100
AcDbBlockBegin
  2
*Paper_Space
 70
     0
 10
0.0
 20
0.0
 30
0.0
  3
*Paper_Space
  1

  0
ENDBLK
  5
1D
330
1B
100
AcDbEntity
 67
     1
  8
0
100
AcDbBlockEnd
  0
BLOCK
  5
24
330
23
100
AcDbEntity
  8
0
100
AcDbBlockBegin
  2
*Paper_Space0
 70
     0
 10
0.0
 20
0.0
 30
0.0
  3
*Paper_Space0
  1

  0
ENDBLK
  5
25
330
23
100
AcDbEntity
  8
0
100
AcDbBlockEnd
  0
BLOCK
  5
70
330
6E
100
AcDbEntity
  8
0
100
AcDbBlockBegin
  2
1_125356_4
 70
     2
 10
0.0
 20
0.0
 30
0.0
  3
1_125356_4
  1

  0
ATTDEF
  5
73
330
6E
100
AcDbEntity
  8
AM_6
100
AcDbText
 10
7.459
 20
0.6899999999999998
 30
0.0
 40
0.5
  1
Set Screw Wide Slot Take Up Inch Bore
100
AcDbAttributeDefinition
  3

  2
NN
 70
     8
280
     0
  0
ATTDEF
  5
74
330
6E
100
AcDbEntity
  8
AM_6
100
AcDbText
 10
7.459
 20
0.1899999999999998
 30
0.0
 40
0.5
  1
SC Take-Up Bearings -Wide Slot -(Normal Duty)
100
AcDbAttributeDefinition
  3

  2
NT
 70
     8
280
     0
  0
ATTDEF
  5
75
330
6E
100
AcDbEntity
  8
AM_6
100
AcDbText
 10
7.459
 20
-0.3100000000000002
 30
0.0
 40
0.5
  1
125356
100
AcDbAttributeDefinition
  3

  2
NB
 70
     8
280
     0
  0
ATTDEF
  5
76
330
6E
100
AcDbEntity
  8
AM_6
100
AcDbText
 10
7.459
 20
-0.8100000000000002
 30
0.0
 40
0.5
  1
$PN.
100
AcDbAttributeDefinition
  3

  2
NBSYN
 70
     8
280
     0
  0
ATTDEF
  5
77
330
6E
100
AcDbEntity
  8
AM_6
100
AcDbText
 10
7.459
 20
-1.31
 30
0.0
 40
0.5
  1
125356
100
AcDbAttributeDefinition
  3

  2
LINA
 70
     8
280
     0
  0
ATTDEF
  5
78
330
6E
100
AcDbEntity
  8
AM_6
100
AcDbText
 10
7.459
 20
-1.81
 30
0.0
 40
0.5
  1
205
100
AcDbAttributeDefinition
  3

  2
SERIES
 70
     8
280
     0
  0
ATTDEF
  5
79
330
6E
100
AcDbEntity
  8
AM_6
100
AcDbText
 10
7.459
 20
-2.31
 30
0.0
 40
0.5
  1
7/8
100
AcDbAttributeDefinition
  3

  2
SS
 70
     8
280
     0
  0
ATTDEF
  5
7A
330
6E
100
AcDbEntity
  8
AM_6
100
AcDbText
 10
7.459
 20
-2.81
 30
0.0
 40
0.5
  1
125356
100
AcDbAttributeDefinition
  3

  2
PN
 70
     8
280
     0
  0
ATTDEF
  5
7B
330
6E
100
AcDbEntity
  8
AM_6
100
AcDbText
 10
7.459
 20
-3.31
 30
0.0
 40
0.5
  1
WSTU-SC-014
100
AcDbAttributeDefinition
  3

  2
DESCRIPTION
 70
     8
280
     0
  0
ATTDEF
  5
7C
330
6E
100
AcDbEntity
  8
AM_6
100
AcDbText
 10
7.459
 20
-3.81
 30
0.0
 40
0.5
  1
2.2
100
AcDbAttributeDefinition
  3

  2
W
 70
     8
280
     0
  0
ATTDEF
  5
7D
330
6E
100
AcDbEntity
  8
AM_6
100
AcDbText
 10
7.459
 20
-4.31
 30
0.0
 40
0.5
  1
WS300
100
AcDbAttributeDefinition
  3

  2
FS
 70
     8
280
     0
  0
ATTDEF
  5
7E
330
6E
100
AcDbEntity
  8
AM_6
100
AcDbText
 10
7.459
 20
-4.81
 30
0.0
 40
0.5
  1
RE-LUBE
100
AcDbAttributeDefinition
  3

  2
LF
 70
     8
280
     0
  0
ATTDEF
  5
7F
330
6E
100
AcDbEntity
  8
AM_6
100
AcDbText
 10
7.459
 20
-5.31
 30
0.0
 40
0.5
  1
1.34
100
AcDbAttributeDefinition
  3

  2
A
 70
     8
280
     0
  0
ATTDEF
  5
80
330
6E
100
AcDbEntity
  8
AM_6
100
AcDbText
 10
7.459
 20
-5.81
 30
0.0
 40
0.5
  1
3.81
100
AcDbAttributeDefinition
  3

  2
B
 70
     8
280
     0
  0
ATTDEF
  5
81
330
6E
100
AcDbEntity
  8
AM_6
100
AcDbText
 10
7.459
 20
-6.31
 30
0.0
 40
0.5
  1
0.531
100
AcDbAttributeDefinition
  3

  2
C
 70
     8
280
     0
  0
ATTDEF
  5
82
330
6E
100
AcDbEntity
  8
AM_6
100
AcDbText
 10
7.459
 20
-6.81
 30
0.0
 40
0.5
  1
2
100
AcDbAttributeDefinition
  3

  2
D
 70
     8
280
     0
  0
ATTDEF
  5
83
330
6E
100
AcDbEntity
  8
AM_6
100
AcDbText
 10
7.459
 20
-7.31
 30
0.0
 40
0.5
  1
2.44
100
AcDbAttributeDefinition
  3

  2
E
 70
     8
280
     0
  0
ATTDEF
  5
84
330
6E
100
AcDbEntity
  8
AM_6
100
AcDbText
 10
7.459
 20
-7.81
 30
0.0
 40
0.5
  1
5/8
100
AcDbAttributeDefinition
  3

  2
F
 70
     8
280
     0
  0
ATTDEF
  5
85
330
6E
100
AcDbEntity
  8
AM_6
100
AcDbText
 10
7.459
 20
-8.31
 30
0.0
 40
0.5
  1
0.38
100
AcDbAttributeDefinition
  3

  2
G
 70
     8
280
     0
  0
ATTDEF
  5
86
330
6E
100
AcDbEntity
  8
AM_6
100
AcDbText
 10
7.459
 20
-8.81
 30
0.0
 40
0.5
  1
0.63
100
AcDbAttributeDefinition
  3

  2
H
 70
     8
280
     0
  0
ATTDEF
  5
87
330
6E
100
AcDbEntity
  8
AM_6
100
AcDbText
 10
7.459
 20
-9.31
 30
0.0
 40
0.5
  1
2
100
AcDbAttributeDefinition
  3

  2
J
 70
     8
280
     0
  0
ATTDEF
  5
88
330
6E
100
AcDbEntity
  8
AM_6
100
AcDbText
 10
7.459
 20
-9.81
 30
0.0
 40
0.5
  1
1.31
100
AcDbAttributeDefinition
  3

  2
K
 70
     8
280
     0
  0
ATTDEF
  5
89
330
6E
100
AcDbEntity
  8
AM_6
100
AcDbText
 10
7.459
 20
-10.31
 30
0.0
 40
0.5
  1
1.32
100
AcDbAttributeDefinition
  3

  2
L
 70
     8
280
     0
  0
ATTDEF
  5
8A
330
6E
100
AcDbEntity
  8
AM_6
100
AcDbText
 10
7.459
 20
-10.81
 30
0.0
 40
0.5
  1
2.985 / 3.015
100
AcDbAttributeDefinition
  3

  2
M
 70
     8
280
     0
  0
ATTDEF
  5
8B
330
6E
100
AcDbEntity
  8
AM_6
100
AcDbText
 10
7.459
 20
-11.31
 30
0.0
 40
0.5
  1
3.63
100
AcDbAttributeDefinition
  3

  2
N
 70
     8
280
     0
  0
ATTDEF
  5
8C
330
6E
100
AcDbEntity
  8
AM_6
100
AcDbText
 10
7.459
 20
-11.81
 30
0.0
 40
0.5
  1
0.56
100
AcDbAttributeDefinition
  3

  2
R
 70
     8
280
     0
  0
ATTDEF
  5
8D
330
6E
100
AcDbEntity
  8
AM_6
100
AcDbText
 10
7.459
 20
-12.31
 30
0.0
 40
0.5
  1
0.78
100
AcDbAttributeDefinition
  3

  2
S
 70
     8
280
     0
  0
ATTDEF
  5
8E
330
6E
100
AcDbEntity
  8
AM_6
100
AcDbText
 10
7.459
 20
-12.81
 30
0.0
 40
0.5
  1
1.38
100
AcDbAttributeDefinition
  3

  2
T
 70
     8
280
     0
  0
ATTDEF
  5
8F
330
6E
100
AcDbEntity
  8
AM_6
100
AcDbText
 10
7.459
 20
-13.31
 30
0.0
 40
0.5
  1
baldor
100
AcDbAttributeDefinition
  3

  2
COMPANY
 70
     8
280
     0
  0
INSERT
  5
91
330
6E
100
AcDbEntity
  8
0
100
AcDbBlockReference
  2
2_123333_0_in_125356_4
 10
0.0
 20
0.0
 30
0.0
  0
INSERT
  5
F0
330
6E
100
AcDbEntity
  8
0
100
AcDbBlockReference
  2
3_405016_Inch_0_in_125356_4
 10
0.0
 20
0.0
 30
0.0
  0
INSERT
  5
179
330
6E
100
AcDbEntity
  8
0
100
AcDbBlockReference
  2
4_125356H_0_in_125356_4
 10
0.0
 20
0.0
 30
0.0
  0
ENDBLK
  5
71
330
6E
100
AcDbEntity
  8
0
100
AcDbBlockEnd
  0
BLOCK
  5
92
330
90
100
AcDbEntity
  8
0
100
AcDbBlockBegin
  2
2_123333_0_in_125356_4
 70
     2
 10
0.0
 20
0.0
 30
0.0
  3
2_123333_0_in_125356_4
  1

  0
ATTDEF
  5
94
330
90
100
AcDbEntity
  8
AM_6
100
AcDbText
 10
6.023071041524577
 20
0.6269999999999999
 30
0.0
 40
0.5
  1
Set Screw Insert Inch Bore
100
AcDbAttributeDefinition
  3

  2
NN
 70
     8
280
     0
  0
ATTDEF
  5
95
330
90
100
AcDbEntity
  8
AM_6
100
AcDbText
 10
6.023071041524577
 20
0.1269999999999999
 30
0.0
 40
0.5
  1
SC Normal Duty Bearing Inserts
100
AcDbAttributeDefinition
  3

  2
NT
 70
     8
280
     0
  0
ATTDEF
  5
96
330
90
100
AcDbEntity
  8
AM_6
100
AcDbText
 10
6.023071041524577
 20
-0.3730000000000001
 30
0.0
 40
0.5
  1
123333
100
AcDbAttributeDefinition
  3

  2
NB
 70
     8
280
     0
  0
ATTDEF
  5
97
330
90
100
AcDbEntity
  8
AM_6
100
AcDbText
 10
6.023071041524577
 20
-0.8730000000000001
 30
0.0
 40
0.5
  1
$PN.
100
AcDbAttributeDefinition
  3

  2
NBSYN
 70
     8
280
     0
  0
ATTDEF
  5
98
330
90
100
AcDbEntity
  8
AM_6
100
AcDbText
 10
6.023071041524577
 20
-1.373
 30
0.0
 40
0.5
  1
123333
100
AcDbAttributeDefinition
  3

  2
LINA
 70
     8
280
     0
  0
ATTDEF
  5
99
330
90
100
AcDbEntity
  8
AM_6
100
AcDbText
 10
6.023071041524577
 20
-1.873
 30
0.0
 40
0.5
  1
205
100
AcDbAttributeDefinition
  3

  2
SERIES
 70
     8
280
     0
  0
ATTDEF
  5
9A
330
90
100
AcDbEntity
  8
AM_6
100
AcDbText
 10
6.023071041524577
 20
-2.373
 30
0.0
 40
0.5
  1
7/8
100
AcDbAttributeDefinition
  3

  2
SS
 70
     8
280
     0
  0
ATTDEF
  5
9B
330
90
100
AcDbEntity
  8
AM_6
100
AcDbText
 10
6.023071041524577
 20
-2.873
 30
0.0
 40
0.5
  1
123333
100
AcDbAttributeDefinition
  3

  2
PN
 70
     8
280
     0
  0
ATTDEF
  5
9C
330
90
100
AcDbEntity
  8
AM_6
100
AcDbText
 10
6.023071041524577
 20
-3.373
 30
0.0
 40
0.5
  1
INS-SC-014
100
AcDbAttributeDefinition
  3

  2
DESCRIPTION
 70
     8
280
     0
  0
ATTDEF
  5
9D
330
90
100
AcDbEntity
  8
AM_6
100
AcDbText
 10
6.023071041524577
 20
-3.873
 30
0.0
 40
0.5
  1
1.34
100
AcDbAttributeDefinition
  3

  2
A
 70
     8
280
     0
  0
ATTDEF
  5
9E
330
90
100
AcDbEntity
  8
AM_6
100
AcDbText
 10
6.023071041524577
 20
-4.373
 30
0.0
 40
0.5
  1
0.59
100
AcDbAttributeDefinition
  3

  2
C
 70
     8
280
     0
  0
ATTDEF
  5
9F
330
90
100
AcDbEntity
  8
AM_6
100
AcDbText
 10
6.023071041524577
 20
-4.873
 30
0.0
 40
0.5
  1
2.0472
100
AcDbAttributeDefinition
  3

  2
D
 70
     8
280
     0
  0
ATTDEF
  5
A0
330
90
100
AcDbEntity
  8
AM_6
100
AcDbText
 10
6.023071041524577
 20
-5.373
 30
0.0
 40
0.5
  1
0.16
100
AcDbAttributeDefinition
  3

  2
J
 70
     8
280
     0
  0
ATTDEF
  5
A1
330
90
100
AcDbEntity
  8
AM_6
100
AcDbText
 10
6.023071041524577
 20
-5.873
 30
0.0
 40
0.5
  1
1.32
100
AcDbAttributeDefinition
  3

  2
L
 70
     8
280
     0
  0
ATTDEF
  5
A2
330
90
100
AcDbEntity
  8
AM_6
100
AcDbText
 10
6.023071041524577
 20
-6.373
 30
0.0
 40
0.5
  1
1/4-28
100
AcDbAttributeDefinition
  3

  2
N
 70
     8
280
     0
  0
ATTDEF
  5
A3
330
90
100
AcDbEntity
  8
AM_6
100
AcDbText
 10
6.023071041524577
 20
-6.873
 30
0.0
 40
0.5
  1
0.56
100
AcDbAttributeDefinition
  3

  2
W
 70
     8
280
     0
  0
ATTDEF
  5
A4
330
90
100
AcDbEntity
  8
AM_6
100
AcDbText
 10
6.023071041524577
 20
-7.373
 30
0.0
 40
0.5
  1
0.78
100
AcDbAttributeDefinition
  3

  2
Y
 70
     8
280
     0
  0
ATTDEF
  5
A5
330
90
100
AcDbEntity
  8
AM_6
100
AcDbText
 10
6.023071041524577
 20
-7.873
 30
0.0
 40
0.5
  1
baldor
100
AcDbAttributeDefinition
  3

  2
COMPANY
 70
     8
280
     0
  0
LINE
  5
A8
330
90
100
AcDbEntity
  8
AM_9
100
AcDbLine
 10
0.1848636602907967
 20
-0.6354500000000001
 30
0.0
 11
0.2709003265820645
 21
-0.6354500000000001
 31
0.0
  0
LINE
  5
A9
330
90
100
AcDbEntity
  8
AM_9
100
AcDbLine
 10
0.2709003265820645
 20
-0.4395500000000001
 30
0.0
 11
0.1848772597463946
 21
-0.4395500000000001
 31
0.0
  0
LWPOLYLINE
  5
AA
330
90
100
AcDbEntity
  8
AM_9
100
AcDbPolyline
 90
       11
 70
     0
 43
0.0
 10
0.0916467243918295
 20
-0.5309855837250552
 10
0.0934617426963661
 20
-0.5176720725098489
 10
0.0979989817493833
 20
-0.5022573246588496
 10
0.104918845889921
 20
-0.4878115146676404
 10
0.1141701813856866
 20
-0.4745299476818944
 10
0.1253191298152342
 20
-0.4629812645472103
 10
0.1382952592920814
 20
-0.4533292462785077
 10
0.1524613565248776
 20
-0.4460658865173738
 10
0.1672801488415461
 20
-0.4414685462446899
 10
0.182373700845006
 20
-0.4395894124793213
 10
0.1848858756835083
 20
-0.4395500005743834
  0
LWPOLYLINE
  5
AB
330
90
100
AcDbEntity
  8
AM_9
100
AcDbPolyline
 90
       12
 70
     0
 43
0.0
 10
0.1849013648930741
 20
-0.6354499997854693
 10
0.175624024964749
 20
-0.6349201054676382
 10
0.1609936633040557
 20
-0.6319236557297185
 10
0.1468077179853244
 20
-0.6263998410193611
 10
0.1333974726550045
 20
-0.6184102320312435
 10
0.1212646700943984
 20
-0.6082418674038229
 10
0.1105936003987215
 20
-0.5958541873140387
 10
0.1019994175409277
 20
-0.581804435211044
 10
0.0958066931247197
 20
-0.5664011896005614
 10
0.0922508230791846
 20
-0.5501419969151314
 10
0.0915085488404989
 20
-0.533854546116965
 10
0.0916467243918295
 20
-0.5309855837250552
  0
LINE
  5
AC
330
90
100
AcDbEntity
  8
AM_9
100
AcDbLine
 10
0.2687992830037465
 20
-0.5309849052676594
 30
0.0
 11
0.2689748400644917
 21
-0.5375
 31
0.0
  0
LWPOLYLINE
  5
AD
330
90
100
AcDbEntity
  8
AM_9
100
AcDbPolyline
 90
       11
 70
     0
 43
0.0
 10
0.1848858756835083
 20
-0.4395500005743834
 10
0.196956050536271
 20
-0.4404816406326081
 10
0.2109550537624326
 20
-0.4440063998551442
 10
0.2239462221072836
 20
-0.4500639349617949
 10
0.2356945712146663
 20
-0.4584520773706499
 10
0.2461182475019931
 20
-0.4691986649962969
 10
0.2547796712356147
 20
-0.4818426994131474
 10
0.2615631729949068
 20
-0.496281054608099
 10
0.2662203531988847
 20
-0.5119299883017951
 10
0.2682808706557944
 20
-0.5245979550593188
 10
0.2687992830037465
 20
-0.5309849052676594
  0
LINE
  5
AE
330
90
100
AcDbEntity
  8
AM_9
100
AcDbLine
 10
0.4375
 20
-0.6354500000000001
 30
0.0
 11
0.6410047816350097
 21
-0.6354500000000001
 31
0.0
  0
LINE
  5
AF
330
90
100
AcDbEntity
  8
AM_9
100
AcDbLine
 10
0.6410047816350097
 20
-0.4395500000000001
 30
0.0
 11
0.4375
 21
-0.4395500000000001
 31
0.0
  0
LINE
  5
B0
330
90
100
AcDbEntity
  8
AM_9
100
AcDbLine
 10
0.6410047816350097
 20
-0.6354500000000001
 30
0.0
 11
0.6599999999999998
 21
-0.6544452183649901
 31
0.0
  0
LINE
  5
B1
330
90
100
AcDbEntity
  8
AM_9
100
AcDbLine
 10
0.6599999999999998
 20
-0.4205547816350099
 30
0.0
 11
0.6410047816350097
 21
-0.4395500000000001
 31
0.0
  0
LINE
  5
B2
330
90
100
AcDbEntity
  8
AM_9
100
AcDbLine
 10
0.6410047816350097
 20
-0.4395500000000001
 30
0.0
 11
0.6410047816350097
 21
-0.6354500000000001
 31
0.0
  0
LWPOLYLINE
  5
B3
330
90
100
AcDbEntity
  8
AM_9
100
AcDbPolyline
 90
       11
 70
     0
 43
0.0
 10
0.2689748400644917
 20
-0.5375
 10
0.267873432181977
 20
-0.55371053540495
 10
0.2646222536177129
 20
-0.5694583834604778
 10
0.2592698339189896
 20
-0.584279045226838
 10
0.2519479526833525
 20
-0.5978059865900952
 10
0.2426150333070154
 20
-0.6098417375758172
 10
0.2315811503073286
 20
-0.6198624862054568
 10
0.2189077116505165
 20
-0.6276345431303305
 10
0.2050285991845961
 20
-0.6328345243345854
 10
0.1905352705959752
 20
-0.635240080044419
 10
0.1849013648930741
 20
-0.6354499997854693
  0
LINE
  5
B4
330
90
100
AcDbEntity
  8
AM_9
100
AcDbLine
 10
0.4375
 20
-0.7535999999999998
 30
0.0
 11
0.4375
 21
-0.6354500000000001
 31
0.0
  0
LINE
  5
B5
330
90
100
AcDbEntity
  8
AM_9
100
AcDbLine
 10
0.4375
 20
-0.4395500000000001
 30
0.0
 11
0.4375
 21
0.5336000000000002
 31
0.0
  0
LINE
  5
B6
330
90
100
AcDbEntity
  8
AM_9
100
AcDbLine
 10
-0.4375
 20
0.5336000000000002
 30
0.0
 11
-0.4375
 21
-0.7535999999999998
 31
0.0
  0
LWPOLYLINE
  5
B7
330
90
100
AcDbEntity
  8
AM_9
100
AcDbPolyline
 90
       21
 70
     0
 43
0.0
 10
0.4374999999996896
 20
-0.4395500000013863
 10
0.4374868929873472
 20
-0.4396085599466298
 10
0.4370512125429163
 20
-0.4415744304930462
 10
0.4360945296872365
 20
-0.4460320202303997
 10
0.4346669119833645
 20
-0.4531004924590555
 10
0.4329661371880296
 20
-0.4623492950696821
 10
0.4311044364494059
 20
-0.4739469699671223
 10
0.429347819924676
 20
-0.4872257225405273
 10
0.4278381366712913
 20
-0.5023798677342672
 10
0.4268384289329277
 20
-0.5180321569266136
 10
0.4264031333060948
 20
-0.5347459859740286
 10
0.4265981502755387
 20
-0.5506884160728703
 10
0.4273936480153437
 20
-0.5667110058687398
 10
0.4286505896074951
 20
-0.5814235753423281
 10
0.43029611346748
 20
-0.5953160683998705
 10
0.4321058150421858
 20
-0.6075241950562211
 10
0.4339433750715374
 20
-0.6180903546863826
 10
0.4355309175045291
 20
-0.6262419438728778
 10
0.4367512669625102
 20
-0.6320495726767592
 10
0.4373059946403384
 20
-0.6345797890828744
 10
0.4375
 20
-0.6354500000000001
  0
LINE
  5
B8
330
90
100
AcDbEntity
  8
AM_9
100
AcDbLine
 10
0.4375
 20
0.5336000000000002
 30
0.0
 11
0.4639
 21
0.56
 31
0.0
  0
LINE
  5
B9
330
90
100
AcDbEntity
  8
AM_9
100
AcDbLine
 10
-0.4639
 20
0.56
 30
0.0
 11
-0.4375
 21
0.5336000000000002
 31
0.0
  0
LINE
  5
BA
330
90
100
AcDbEntity
  8
AM_9
100
AcDbLine
 10
-0.4375
 20
-0.7535999999999998
 30
0.0
 11
-0.4639
 21
-0.7799999999999999
 31
0.0
  0
LINE
  5
BB
330
90
100
AcDbEntity
  8
AM_9
100
AcDbLine
 10
0.4639
 20
-0.7799999999999999
 30
0.0
 11
0.4375
 21
-0.7535999999999998
 31
0.0
  0
LINE
  5
BC
330
90
100
AcDbEntity
  8
AM_9
100
AcDbLine
 10
0.6599999999999998
 20
0.295
 30
0.0
 11
0.6599999999999998
 21
0.5309999999999997
 31
0.0
  0
LINE
  5
BD
330
90
100
AcDbEntity
  8
AM_9
100
AcDbLine
 10
-0.6599999999999998
 20
0.5309999999999997
 30
0.0
 11
-0.6599999999999998
 21
0.295
 31
0.0
  0
LWPOLYLINE
  5
BE
330
90
100
AcDbEntity
  8
AM_9
100
AcDbPolyline
 90
        7
 70
     0
 43
0.0
 10
0.6553302734623422
 20
-0.4571037725928755
 10
0.6566237697854939
 20
-0.4455614873035337
 10
0.657863646399494
 20
-0.4356881505788817
 10
0.6589830288076913
 20
-0.4275091333378581
 10
0.65974447241834
 20
-0.4222643595858323
 10
0.6599984455017502
 20
-0.4205651096408591
 10
0.6599999999999714
 20
-0.4205547816351988
  0
LWPOLYLINE
  5
BF
330
90
100
AcDbEntity
  8
AM_9
100
AcDbPolyline
 90
       39
 70
     0
 43
0.0
 10
0.2747496993626046
 20
-0.4206614749840243
 10
0.2589268953188114
 20
-0.4230068190580291
 10
0.2435347413480874
 20
-0.4282761286528375
 10
0.2295730863123447
 20
-0.4359349025159876
 10
0.2167838686633846
 20
-0.4458236521894934
 10
0.204785884196659
 20
-0.4584962801140243
 10
0.1947177643390278
 20
-0.4729699481751796
 10
0.1862806071916221
 20
-0.4901964113082439
 10
0.1805295769206162
 20
-0.5085999592550257
 10
0.1775494416395138
 20
-0.5288160944415214
 10
0.1777840020908433
 20
-0.5492671266627338
 10
0.181383760186516
 20
-0.569835029701715
 10
0.1882421821255527
 20
-0.5894787969563151
 10
0.1981430486101681
 20
-0.6074656289128557
 10
0.2108143316084803
 20
-0.623365888499601
 10
0.225234307047035
 20
-0.6360439473616639
 10
0.2414236703803242
 20
-0.6457523029496318
 10
0.2574289313067232
 20
-0.6516104344390986
 10
0.2739540770169126
 20
-0.6542941108041649
 10
0.2892252011485631
 20
-0.6537759398670202
 10
0.3040234672692083
 20
-0.6504415215901896
 10
0.3177308355725635
 20
-0.6445040454015506
 10
0.3302924191042326
 20
-0.6361946477186203
 10
0.3419733544985236
 20
-0.62519732793276
 10
0.3519494540433006
 20
-0.6122416833167248
 10
0.3606409378324031
 20
-0.5964457430728897
 10
0.3670944909756368
 20
-0.5792289197642855
 10
0.3714155205989789
 20
-0.5597665062562686
 10
0.3730683048788331
 20
-0.5397166842617945
 10
0.3719253269484317
 20
-0.5189402803683476
 10
0.3679281415066465
 20
-0.4986857769239587
 10
0.3610661668525831
 20
-0.4795018300478561
 10
0.3514641221075212
 20
-0.4620245905247539
 10
0.3396204484745914
 20
-0.4472912187184294
 10
0.3255391045333328
 20
-0.4352878062087919
 10
0.3106864109588431
 20
-0.4270891663459396
 10
0.2945650323562777
 20
-0.4220813764447216
 10
0.2847318319226947
 20
-0.4207645784413315
 10
0.2747496862793714
 20
-0.4206614606169645
  0
LINE
  5
C0
330
90
100
AcDbEntity
  8
AM_9
100
AcDbLine
 10
0.6599999999999998
 20
-0.4205547816350099
 30
0.0
 11
0.6599999999999998
 21
-0.295
 31
0.0
  0
LINE
  5
C1
330
90
100
AcDbEntity
  8
AM_9
100
AcDbLine
 10
-0.6599999999999998
 20
-0.295
 30
0.0
 11
-0.6599999999999998
 21
-0.5310000000000002
 31
0.0
  0
LINE
  5
C2
330
90
100
AcDbEntity
  8
AM_9
100
AcDbLine
 10
0.6555992722975309
 20
-0.454574321133085
 30
0.0
 11
0.6548885717890149
 21
-0.4614353033263062
 31
0.0
  0
LWPOLYLINE
  5
C3
330
90
100
AcDbEntity
  8
AM_9
100
AcDbPolyline
 90
        6
 70
     0
 43
0.0
 10
0.6511246564429556
 20
-0.5309872379928167
 10
0.6511628214496636
 20
-0.5274816013827809
 10
0.6517024819629785
 20
-0.5071611176332647
 10
0.6527640855894897
 20
-0.4871305369329851
 10
0.653949771798291
 20
-0.4715606120869232
 10
0.6553302734623422
 20
-0.4571037725928755
  0
LINE
  5
C4
330
90
100
AcDbEntity
  8
AM_9
100
AcDbLine
 10
0.9702666666666667
 20
-0.192
 30
0.0
 11
0.9702666666666667
 21
-0.128
 31
0.0
  0
LINE
  5
C5
330
90
100
AcDbEntity
  8
AM_9
100
AcDbLine
 10
-0.9702666666666667
 20
-0.128
 30
0.0
 11
-0.9702666666666667
 21
-0.192
 31
0.0
  0
LINE
  5
C6
330
90
100
AcDbEntity
  8
AM_9
100
AcDbLine
 10
-0.9560865860370598
 20
0.295
 30
0.0
 11
0.9560865860370598
 21
0.295
 31
0.0
  0
ARC
  5
C7
330
90
100
AcDbEntity
  8
AM_9
100
AcDbCircle
 10
0.9560865860370601
 20
0.2630000000000001
 30
0.0
 40
0.0319999999999998
100
AcDbArc
 50
15.38049883735852
 51
90.0
  0
ARC
  5
C8
330
90
100
AcDbEntity
  8
AM_9
100
AcDbCircle
 10
-0.9560865860370601
 20
0.2630000000000001
 30
0.0
 40
0.0319999999999999
100
AcDbArc
 50
90.0
 51
164.6195011626415
  0
LINE
  5
C9
330
90
100
AcDbEntity
  8
AM_9
100
AcDbLine
 10
-0.9560865860370598
 20
-0.295
 30
0.0
 11
0.9560865860370598
 21
-0.295
 31
0.0
  0
ARC
  5
CA
330
90
100
AcDbEntity
  8
AM_9
100
AcDbCircle
 10
0.9560865860370598
 20
-0.2629999999999999
 30
0.0
 40
0.0320000000000001
100
AcDbArc
 50
270.0
 51
344.6195040508822
  0
ARC
  5
CB
330
90
100
AcDbEntity
  8
AM_9
100
AcDbCircle
 10
-0.9560865860370598
 20
-0.2629999999999999
 30
0.0
 40
0.032
100
AcDbArc
 50
195.3804959491178
 51
270.0
  0
LINE
  5
CC
330
90
100
AcDbEntity
  8
AM_9
100
AcDbLine
 10
-0.9869405299187242
 20
-0.2714872932634126
 30
0.0
 11
0.9869405299188527
 21
-0.2714872932634126
 31
0.0
  0
ARC
  5
CD
330
90
100
AcDbEntity
  8
AM_9
100
AcDbCircle
 10
0.0000000000235714
 20
-0.0000000000054843
 30
0.0
 40
1.023599999975818
100
AcDbArc
 50
344.6195040508283
 51
349.1888031872015
  0
ARC
  5
CE
330
90
100
AcDbEntity
  8
AM_9
100
AcDbCircle
 10
-0.0000000000049616
 20
-0.0000000000011823
 30
0.0
 40
1.023599999994778
100
AcDbArc
 50
190.8111968128409
 51
195.3804959491295
  0
LINE
  5
CF
330
90
100
AcDbEntity
  8
AM_9
100
AcDbLine
 10
-1.005431728164445
 20
-0.192
 30
0.0
 11
1.005431728164573
 21
-0.192
 31
0.0
  0
LINE
  5
D0
330
90
100
AcDbEntity
  8
AM_9
100
AcDbLine
 10
-0.9869405294910052
 20
0.2714872948187388
 30
0.0
 11
0.9869405294910142
 21
0.2714872948187388
 31
0.0
  0
ARC
  5
D1
330
90
100
AcDbEntity
  8
AM_9
100
AcDbCircle
 10
0.0000000000000024
 20
0.0000000000000001
 30
0.0
 40
1.023599999999998
100
AcDbArc
 50
352.8164233462892
 51
15.38049603941057
  0
ARC
  5
D2
330
90
100
AcDbEntity
  8
AM_9
100
AcDbCircle
 10
-0.0000000000000742
 20
0.0000000000000061
 30
0.0
 40
1.023599999999918
100
AcDbArc
 50
164.6195039605886
 51
187.1835766537117
  0
LINE
  5
D3
330
90
100
AcDbEntity
  8
AM_9
100
AcDbLine
 10
-1.015565340093872
 20
-0.1279999999999998
 30
0.0
 11
1.015565340093881
 21
-0.1279999999999998
 31
0.0
  0
ARC
  5
D4
330
90
100
AcDbEntity
  8
AM_9
100
AcDbCircle
 10
0.0
 20
0.1600000000000001
 30
0.0
 40
0.083333333333338
100
AcDbArc
 50
332.2829313658666
 51
207.7170686341393
  0
LWPOLYLINE
  5
D5
330
90
100
AcDbEntity
  8
AM_9
100
AcDbPolyline
 90
       14
 70
     0
 43
0.0
 10
-0.0737712590189003
 20
0.1212411843935916
 10
-0.0666351173279208
 20
0.1100068466956456
 10
-0.057477524013388
 20
0.099808966125755
 10
-0.0468159028699005
 20
0.0913127883472344
 10
-0.0345267989910646
 20
0.0845024423539545
 10
-0.0215464099803954
 20
0.0799140153896469
 10
-0.0075827243306417
 20
0.0774628997913178
 10
0.0062723959494527
 20
0.0773552233368979
 10
0.0203451803404582
 20
0.0796066461661932
 10
0.0334725014194131
 20
0.0840379432353541
 10
0.0460120648236516
 20
0.0907807720358644
 10
0.0568691211581581
 20
0.0992416887747582
 10
0.066394566800613
 20
0.1096905936386427
 10
0.0729471206055969
 20
0.1197126372814874
  0
LINE
  5
D6
330
90
100
AcDbEntity
  8
AM_9
100
AcDbLine
 10
0.0729471206055969
 20
0.1197126372814874
 30
0.0
 11
0.0737712590189041
 21
0.1212411843935992
 31
0.0
  0
CIRCLE
  5
D7
330
90
100
AcDbEntity
  8
AM_9
100
AcDbCircle
 10
-0.0000000000000001
 20
0.1600000000000001
 30
0.0
 40
0.0296969696969725
  0
LINE
  5
D9
330
90
100
AcDbEntity
  8
AM_5
100
AcDbLine
 10
0.4375000000000001
 20
-0.4125
 30
0.0
 11
0.6599999999999998
 21
-0.4125
 31
0.0
  0
LINE
  5
DA
330
90
100
AcDbEntity
  8
AM_5
100
AcDbLine
 10
0.4375000000000001
 20
-0.6625
 30
0.0
 11
0.6599999999999998
 21
-0.6625
 31
0.0
  0
ELLIPSE
  5
DB
330
90
100
AcDbEntity
  8
AM_9
100
AcDbEllipse
 10
0.2709003265820646
 20
-0.5375
 30
0.0
 11
-1.799312309647254E-17
 21
-0.09795000000000031
 31
0.0
210
0.0
220
0.0
230
1.0
 40
0.9063077870366484
 41
0.0
 42
6.283185307179586
  0
LINE
  5
DE
330
90
100
AcDbEntity
  8
AM_7
100
AcDbLine
 10
0.0
 20
-0.847
 30
0.0
 11
0.0
 21
0.6269999999999999
 31
0.0
  0
LINE
  5
DF
330
90
100
AcDbEntity
  8
AM_7
100
AcDbLine
 10
0.6814943834276997
 20
-0.5375
 30
0.0
 11
0.3858231439885204
 21
-0.5375
 31
0.0
  0
LINE
  5
E0
330
90
100
AcDbEntity
  8
AM_7
100
AcDbLine
 10
-0.087500000000005
 20
0.1600000000000001
 30
0.0
 11
0.0875000000000049
 21
0.1600000000000001
 31
0.0
  0
LINE
  5
E2
330
90
100
AcDbEntity
  8
AM_4
100
AcDbLine
 10
-0.6336
 20
0.56
 30
0.0
 11
0.6336
 21
0.56
 31
0.0
  0
LINE
  5
E3
330
90
100
AcDbEntity
  8
AM_4
100
AcDbLine
 10
-0.6336
 20
0.56
 30
0.0
 11
-0.66
 21
0.5336000000000001
 31
0.0
  0
LINE
  5
E4
330
90
100
AcDbEntity
  8
AM_4
100
AcDbLine
 10
0.66
 20
0.5336000000000001
 30
0.0
 11
0.6336
 21
0.56
 31
0.0
  0
LINE
  5
E5
330
90
100
AcDbEntity
  8
AM_4
100
AcDbLine
 10
-0.6599999999999998
 20
0.5336000000000001
 30
0.0
 11
0.6599999999999998
 21
0.5336000000000001
 31
0.0
  0
LINE
  5
E6
330
90
100
AcDbEntity
  8
AM_4
100
AcDbLine
 10
0.6599999999999998
 20
0.5309999999999997
 30
0.0
 11
0.6599999999999998
 21
0.5336000000000001
 31
0.0
  0
LINE
  5
E7
330
90
100
AcDbEntity
  8
AM_4
100
AcDbLine
 10
-0.6599999999999998
 20
0.5336000000000001
 30
0.0
 11
-0.6599999999999998
 21
0.5309999999999997
 31
0.0
  0
LINE
  5
E8
330
90
100
AcDbEntity
  8
AM_4
100
AcDbLine
 10
0.6599999999999998
 20
-0.7535999999999998
 30
0.0
 11
0.6599999999999998
 21
-0.6544452183649901
 31
0.0
  0
LINE
  5
E9
330
90
100
AcDbEntity
  8
AM_4
100
AcDbLine
 10
-0.6599999999999998
 20
-0.5310000000000002
 30
0.0
 11
-0.6599999999999998
 21
-0.7535999999999998
 31
0.0
  0
LWPOLYLINE
  5
EA
330
90
100
AcDbEntity
  8
AM_4
100
AcDbPolyline
 90
       12
 70
     0
 43
0.0
 10
0.6599999999999263
 20
-0.654445218364502
 10
0.6599831061888801
 20
-0.6543329300227382
 10
0.6596647319203682
 20
-0.6521971623237719
 10
0.658950226533762
 20
-0.6472595335138429
 10
0.6579449595861571
 20
-0.6399271586761857
 10
0.6567045373466908
 20
-0.630112722371478
 10
0.6553219507930909
 20
-0.6178167259170323
 10
0.6539430483501659
 20
-0.6033613557452286
 10
0.6526770454705918
 20
-0.5865343391171857
 10
0.6517104873947381
 20
-0.5680388567964159
 10
0.6511718359447448
 20
-0.5481797640547056
 10
0.6511246564429556
 20
-0.5309872379928167
  0
LINE
  5
EB
330
90
100
AcDbEntity
  8
AM_4
100
AcDbLine
 10
-0.6336
 20
-0.7799999999999999
 30
0.0
 11
0.6336
 21
-0.7799999999999999
 31
0.0
  0
LINE
  5
EC
330
90
100
AcDbEntity
  8
AM_4
100
AcDbLine
 10
-0.66
 20
-0.7535999999999998
 30
0.0
 11
0.66
 21
-0.7535999999999998
 31
0.0
  0
LINE
  5
ED
330
90
100
AcDbEntity
  8
AM_4
100
AcDbLine
 10
0.6336
 20
-0.7799999999999999
 30
0.0
 11
0.66
 21
-0.7535999999999998
 31
0.0
  0
LINE
  5
EE
330
90
100
AcDbEntity
  8
AM_4
100
AcDbLine
 10
-0.66
 20
-0.7535999999999998
 30
0.0
 11
-0.6336
 21
-0.7799999999999999
 31
0.0
  0
ENDBLK
  5
93
330
90
100
AcDbEntity
  8
0
100
AcDbBlockEnd
  0
BLOCK
  5
F1
330
EF
100
AcDbEntity
  8
0
100
AcDbBlockBegin
  2
3_405016_Inch_0_in_125356_4
 70
     2
 10
0.0
 20
0.0
 30
0.0
  3
3_405016_Inch_0_in_125356_4
  1

  0
ATTDEF
  5
F3
330
EF
100
AcDbEntity
  8
AM_6
100
AcDbText
 10
3.997217576453334
 20
0.2187499999999999
 30
0.0
 40
0.5
  1
405016 -Inch
100
AcDbAttributeDefinition
  3

  2
NN
 70
     8
280
     0
  0
ATTDEF
  5
F4
330
EF
100
AcDbEntity
  8
AM_6
100
AcDbText
 10
3.997217576453334
 20
-0.2812500000000001
 30
0.0
 40
0.5
  1
Grease Fitting
100
AcDbAttributeDefinition
  3

  2
NT
 70
     8
280
     0
  0
ATTDEF
  5
F5
330
EF
100
AcDbEntity
  8
AM_6
100
AcDbText
 10
3.997217576453334
 20
-0.78125
 30
0.0
 40
0.5
  1
405016-Inch
100
AcDbAttributeDefinition
  3

  2
NB
 70
     8
280
     0
  0
ATTDEF
  5
F6
330
EF
100
AcDbEntity
  8
AM_6
100
AcDbText
 10
3.997217576453334
 20
-1.28125
 30
0.0
 40
0.5
  1
$MN.-Inch
100
AcDbAttributeDefinition
  3

  2
NBSYN
 70
     8
280
     0
  0
ATTDEF
  5
F7
330
EF
100
AcDbEntity
  8
AM_6
100
AcDbText
 10
3.997217576453334
 20
-1.78125
 30
0.0
 40
0.5
  1
405016
100
AcDbAttributeDefinition
  3

  2
LINA
 70
     8
280
     0
  0
ATTDEF
  5
F8
330
EF
100
AcDbEntity
  8
AM_6
100
AcDbText
 10
3.997217576453334
 20
-2.28125
 30
0.0
 40
0.5
  1
405016
100
AcDbAttributeDefinition
  3

  2
MN
 70
     8
280
     0
  0
ATTDEF
  5
F9
330
EF
100
AcDbEntity
  8
AM_6
100
AcDbText
 10
3.997217576453334
 20
-2.78125
 30
0.0
 40
0.5
  1
7/16 HEX
100
AcDbAttributeDefinition
  3

  2
H
 70
     8
280
     0
  0
ATTDEF
  5
FA
330
EF
100
AcDbEntity
  8
AM_6
100
AcDbText
 10
3.997217576453334
 20
-3.28125
 30
0.0
 40
0.5
  1
0.383
100
AcDbAttributeDefinition
  3

  2
NDR
 70
     8
280
     0
  0
ATTDEF
  5
FB
330
EF
100
AcDbEntity
  8
AM_6
100
AcDbText
 10
3.997217576453334
 20
-3.78125
 30
0.0
 40
0.5
  1
0.337
100
AcDbAttributeDefinition
  3

  2
KDR
 70
     8
280
     0
  0
ATTDEF
  5
FC
330
EF
100
AcDbEntity
  8
AM_6
100
AcDbText
 10
3.997217576453334
 20
-4.28125
 30
0.0
 40
0.5
  1
0.1575
100
AcDbAttributeDefinition
  3

  2
BZE
 70
     8
280
     0
  0
ATTDEF
  5
FD
330
EF
100
AcDbEntity
  8
AM_6
100
AcDbText
 10
3.997217576453334
 20
-4.78125
 30
0.0
 40
0.5
  1
0.4375
100
AcDbAttributeDefinition
  3

  2
HEX
 70
     8
280
     0
  0
ATTDEF
  5
FE
330
EF
100
AcDbEntity
  8
AM_6
100
AcDbText
 10
3.997217576453334
 20
-5.28125
 30
0.0
 40
0.5
  1
0.281250
100
AcDbAttributeDefinition
  3

  2
HEX2
 70
     8
280
     0
  0
ATTDEF
  5
FF
330
EF
100
AcDbEntity
  8
AM_6
100
AcDbText
 10
3.997217576453334
 20
-5.78125
 30
0.0
 40
0.5
  1
baldor
100
AcDbAttributeDefinition
  3

  2
COMPANY
 70
     8
280
     0
  0
LINE
  5
100
330
EF
100
AcDbEntity
  8
AM_9
100
AcDbLine
 10
-1.699925241377208
 20
-0.151074129835757
 30
0.0
 11
-1.711246814601085
 21
-0.1791093260592887
 31
0.0
  0
LINE
  5
101
330
EF
100
AcDbEntity
  8
AM_9
100
AcDbLine
 10
-1.548750395338711
 20
-0.2099962668917053
 30
0.0
 11
-1.560437641558256
 21
-0.2389369657326276
 31
0.0
  0
LWPOLYLINE
  5
102
330
EF
100
AcDbEntity
  8
AM_9
100
AcDbPolyline
 90
        4
 70
     0
 43
0.0
 10
-1.332596590073305
 20
0.1093749999999999
 10
-1.324177093403651
 20
0.0820312499999999
 10
-1.314736940089382
 20
0.0546874999999999
 10
-1.293169975538382
 20
-0.0000000000000001
  0
LWPOLYLINE
  5
103
330
EF
100
AcDbEntity
  8
AM_9
100
AcDbPolyline
 90
        4
 70
     0
 43
0.0
 10
-1.293169975538382
 20
-0.0000000000000001
 10
-1.314647646456004
 20
-0.0544416102741496
 10
-1.324124354667835
 20
-0.0818700010907651
 10
-1.332596590073305
 20
-0.109375
  0
LWPOLYLINE
  5
104
330
EF
100
AcDbEntity
  8
AM_9
100
AcDbPolyline
 90
        3
 70
     0
 43
0.0
 10
-1.490819546916621
 20
-0.2987675689889718
 10
-1.506706831479717
 20
-0.2912216284034024
 10
-1.521916833177732
 20
-0.2813919000363599
  0
LWPOLYLINE
  5
105
330
EF
100
AcDbEntity
  8
AM_9
100
AcDbPolyline
 90
        4
 70
     0
 43
0.0
 10
-1.22227297853717
 20
-0.0000000000000001
 10
-1.232227185966444
 20
0.0544416102741495
 10
-1.238586266576025
 20
0.081870001090765
 10
-1.245994049694862
 20
0.1093749999999999
  0
LWPOLYLINE
  5
106
330
EF
100
AcDbEntity
  8
AM_9
100
AcDbPolyline
 90
        4
 70
     0
 43
0.0
 10
-1.245994049694862
 20
-0.109375
 10
-1.238626624941362
 20
-0.0820312500000001
 10
-1.232279856832477
 20
-0.0546875000000001
 10
-1.22227297853717
 20
-0.0000000000000001
  0
LWPOLYLINE
  5
107
330
EF
100
AcDbEntity
  8
AM_9
100
AcDbPolyline
 90
        4
 70
     0
 43
0.0
 10
-1.332596590073305
 20
-0.109375
 10
-1.339964014826805
 20
-0.13671875
 10
-1.34631078293569
 20
-0.1640625
 10
-1.356317661230997
 20
-0.21875
  0
LINE
  5
108
330
EF
100
AcDbEntity
  8
AM_9
100
AcDbLine
 10
-1.293169975538382
 20
-0.0000000000000001
 30
0.0
 11
-1.22227297853717
 21
-0.0000000000000001
 31
0.0
  0
LWPOLYLINE
  5
109
330
EF
100
AcDbEntity
  8
AM_9
100
AcDbPolyline
 90
        4
 70
     0
 43
0.0
 10
-1.356317661230997
 20
0.2187499999999999
 10
-1.346363453801722
 20
0.1643083897258504
 10
-1.340004373192142
 20
0.1368799989092348
 10
-1.332596590073305
 20
0.1093749999999999
  0
ELLIPSE
  5
10A
330
EF
100
AcDbEntity
  8
AM_9
100
AcDbEllipse
 10
-1.733101189765712
 20
-0.4687500000000001
 30
0.0
 11
-0.09595382955731789
 21
0.03874944547499722
 31
0.0
210
0.0
220
0.0
230
1.0
 40
0.2113091308703506
 41
3.040609649696544
 42
6.384168311072838
  0
ELLIPSE
  5
10B
330
EF
100
AcDbEntity
  8
AM_9
100
AcDbEllipse
 10
-1.705107527568229
 20
-0.399430321788976
 30
0.0
 11
-0.129024894793327
 21
0.05210467522533588
 31
0.0
210
0.0
220
0.0
230
1.0
 40
0.2113091308703475
 41
3.040317266205562
 42
5.801105639492178
  0
ELLIPSE
  5
10C
330
EF
100
AcDbEntity
  8
AM_9
100
AcDbEllipse
 10
-1.694432546090884
 20
-0.3729962569746626
 30
0.0
 11
-0.1235034625625943
 21
0.04987493162723405
 31
0.0
210
0.0
220
0.0
230
1.0
 40
0.2113091308703469
 41
3.389980826830127
 42
6.034618401293391
  0
LWPOLYLINE
  5
10D
330
EF
100
AcDbEntity
  8
AM_9
100
AcDbPolyline
 90
        5
 70
     0
 43
0.0
 10
-1.711246814601085
 20
-0.1791093260592887
 10
-1.733109203099711
 20
-0.1842540823997054
 10
-1.754005290029704
 20
-0.1862220679364951
 10
-1.773922909584614
 20
-0.1844124966919381
 10
-1.792436696205876
 20
-0.1791093260592887
  0
LWPOLYLINE
  5
10E
330
EF
100
AcDbEntity
  8
AM_9
100
AcDbPolyline
 90
        5
 70
     0
 43
0.0
 10
-1.560437641558256
 20
-0.2389369657326276
 10
-1.599278930245685
 20
-0.2295338871417796
 10
-1.637413976957604
 20
-0.216687117104632
 10
-1.675032771318787
 20
-0.1996402057054678
 10
-1.711246814601085
 20
-0.1791093260592887
  0
LWPOLYLINE
  5
10F
330
EF
100
AcDbEntity
  8
AM_9
100
AcDbPolyline
 90
        3
 70
     0
 43
0.0
 10
-1.533938363359538
 20
-0.2711532636537956
 10
-1.547673541124111
 20
-0.256181552758992
 10
-1.560437641558256
 20
-0.2389369657326276
  0
ELLIPSE
  5
110
330
EF
100
AcDbEntity
  8
AM_9
100
AcDbEllipse
 10
-1.643431642826899
 20
-0.2467045921760194
 30
0.0
 11
-0.1303939210191736
 21
0.05265753494273249
 31
0.0
210
0.0
220
0.0
230
1.0
 40
0.211309130870356
 41
3.806340372002765
 42
6.919181903097266
  0
LINE
  5
111
330
EF
100
AcDbEntity
  8
AM_9
100
AcDbLine
 10
-1.277681146223101
 20
0.2000413016192557
 30
0.0
 11
-1.285420664229785
 21
0.2187499999999999
 31
0.0
  0
LWPOLYLINE
  5
112
330
EF
100
AcDbEntity
  8
AM_9
100
AcDbPolyline
 90
        3
 70
     0
 43
0.0
 10
-1.257586995173233
 20
0.1462363484862222
 10
-1.263853699678785
 20
0.1640624999999999
 10
-1.277681146223101
 20
0.2000413016192557
  0
LWPOLYLINE
  5
113
330
EF
100
AcDbEntity
  8
AM_9
100
AcDbPolyline
 90
        3
 70
     0
 43
0.0
 10
-1.245994049694862
 20
0.1093749999999999
 10
-1.254413546364516
 20
0.1367187499999999
 10
-1.257586995173233
 20
0.1462363484862222
  0
LWPOLYLINE
  5
114
330
EF
100
AcDbEntity
  8
AM_9
100
AcDbPolyline
 90
        3
 70
     0
 43
0.0
 10
-1.257807547657863
 20
-0.1468844881109953
 10
-1.254466285100332
 20
-0.1368799989092349
 10
-1.245994049694862
 20
-0.109375
  0
LWPOLYLINE
  5
115
330
EF
100
AcDbEntity
  8
AM_9
100
AcDbPolyline
 90
        3
 70
     0
 43
0.0
 10
-1.277681024141135
 20
-0.2000409996967265
 10
-1.263942993312163
 20
-0.1643083897258504
 10
-1.257807547657863
 20
-0.1468844881109953
  0
LINE
  5
116
330
EF
100
AcDbEntity
  8
AM_9
100
AcDbLine
 10
-1.285420664229785
 20
-0.21875
 30
0.0
 11
-1.277681024141135
 21
-0.2000409996967265
 31
0.0
  0
LINE
  5
117
330
EF
100
AcDbEntity
  8
AM_9
100
AcDbLine
 10
-1.711060042229098
 20
-0.1204089378707286
 30
0.0
 11
-1.71214548721881
 21
-0.1230967854582223
 31
0.0
  0
LINE
  5
118
330
EF
100
AcDbEntity
  8
AM_9
100
AcDbLine
 10
-1.505939813803223
 20
-0.2
 30
0.0
 11
-1.50327133445852
 21
-0.1933921425434559
 31
0.0
  0
ELLIPSE
  5
119
330
EF
100
AcDbEntity
  8
AM_9
100
AcDbEllipse
 10
-1.625131735288362
 20
-0.2013892028241903
 30
0.0
 11
-0.1019970226638904
 21
0.04118989399965185
 31
0.0
210
0.0
220
0.0
230
1.0
 40
0.2113091308703489
 41
3.141592653589793
 42
6.283185307179586
  0
LWPOLYLINE
  5
11A
330
EF
100
AcDbEntity
  8
AM_9
100
AcDbPolyline
 90
        4
 70
     0
 43
0.0
 10
-1.711064771884118
 20
-0.1204206514110939
 10
-1.711203937868647
 20
-0.1208367673933812
 10
-1.71062635391152
 20
-0.1245107513506023
 10
-1.708719284081761
 20
-0.1273625300416625
  0
LWPOLYLINE
  5
11B
330
EF
100
AcDbEntity
  8
AM_9
100
AcDbPolyline
 90
        5
 70
     0
 43
0.0
 10
-1.503270390257032
 20
-0.1933898041312626
 10
-1.503363726388183
 20
-0.1936098952159723
 10
-1.506579263340821
 20
-0.1971856748420371
 10
-1.512597626583604
 20
-0.1994144431868154
 10
-1.519461597164047
 20
-0.1999999999699528
  0
LWPOLYLINE
  5
11C
330
EF
100
AcDbEntity
  8
AM_9
100
AcDbPolyline
 90
        4
 70
     0
 43
0.0
 10
-1.612758728376485
 20
-0.1745741884610188
 10
-1.585369653003054
 20
-0.1876759562813857
 10
-1.566762720930148
 20
-0.1983617847082468
 10
-1.548750395338711
 20
-0.2099962668917053
  0
LWPOLYLINE
  5
11D
330
EF
100
AcDbEntity
  8
AM_9
100
AcDbPolyline
 90
        3
 70
     0
 43
0.0
 10
-1.699925241377208
 20
-0.151074129835757
 10
-1.670720633877685
 20
-0.1564222384464442
 10
-1.642050134935391
 20
-0.1639312493177431
  0
LWPOLYLINE
  5
11E
330
EF
100
AcDbEntity
  8
AM_9
100
AcDbPolyline
 90
        3
 70
     0
 43
0.0
 10
-1.548750395338711
 20
-0.2099962668917053
 10
-1.531776713005188
 20
-0.2163479371246912
 10
-1.515638455821005
 20
-0.2258378743019628
  0
LWPOLYLINE
  5
11F
330
EF
100
AcDbEntity
  8
AM_9
100
AcDbPolyline
 90
        5
 70
     0
 43
0.0
 10
-1.736836121721703
 20
-0.141958509815605
 10
-1.732961002275654
 20
-0.1420496512545706
 10
-1.718472087160904
 20
-0.1441228263802214
 10
-1.708954212862311
 20
-0.1470795994472237
 10
-1.699925241377208
 20
-0.151074129835757
  0
ELLIPSE
  5
120
330
EF
100
AcDbEntity
  8
AM_9
100
AcDbEllipse
 10
-1.625131735288366
 20
-0.201389202824188
 30
0.0
 11
-0.1303939210191765
 21
0.05265753494273472
 31
0.0
210
0.0
220
0.0
230
1.0
 40
0.2113091308703484
 41
3.814164134970081
 42
4.680688069878551
  0
ELLIPSE
  5
121
330
EF
100
AcDbEntity
  8
AM_9
100
AcDbEllipse
 10
-1.625131735288365
 20
-0.2013892028241899
 30
0.0
 11
-0.1303939210191754
 21
0.05265753494273522
 31
0.0
210
0.0
220
0.0
230
1.0
 40
0.211309130870358
 41
-1.276847990582197
 42
-0.6725714813802837
  0
LINE
  5
122
330
EF
100
AcDbEntity
  8
AM_9
100
AcDbLine
 10
-1.521916833177732
 20
-0.2813919000363599
 30
0.0
 11
-1.533938363359538
 21
-0.2711532636537956
 31
0.0
  0
ELLIPSE
  5
123
330
EF
100
AcDbEntity
  8
AM_9
100
AcDbEllipse
 10
-1.643431642826902
 20
-0.2467045921760186
 30
0.0
 11
-0.1303939210191774
 21
0.05265753494273603
 31
0.0
210
0.0
220
0.0
230
1.0
 40
0.21130913087035
 41
2.800469246484381
 42
3.607080702195122
  0
ELLIPSE
  5
124
330
EF
100
AcDbEntity
  8
AM_9
100
AcDbEllipse
 10
-1.643431642832107
 20
-0.2467045921722577
 30
0.0
 11
-0.1303939210261338
 21
0.05265753494608124
 31
0.0
210
0.0
220
0.0
230
1.0
 40
0.2113091308727472
 41
-3.777589249506265
 42
-3.764628581858685
  0
LWPOLYLINE
  5
125
330
EF
100
AcDbEntity
  8
AM_9
100
AcDbPolyline
 90
        3
 70
     0
 43
0.0
 10
-1.771067437703785
 20
-0.2048725510586232
 10
-1.770248458491903
 20
-0.2061355419168174
 10
-1.770017885119065
 20
-0.2065064774506113
  0
LWPOLYLINE
  5
126
330
EF
100
AcDbEntity
  8
AM_9
100
AcDbPolyline
 90
       17
 70
     0
 43
0.0
 10
-1.509946499609108
 20
-0.1790373738501778
 10
-1.5179139646853
 20
-0.1733931390117467
 10
-1.528670038119482
 20
-0.167072978024251
 10
-1.541313089641926
 20
-0.1606047421316795
 10
-1.556203512787767
 20
-0.1538031670974776
 10
-1.572105389594647
 20
-0.1472336073736393
 10
-1.589466359416366
 20
-0.1407130262602576
 10
-1.606821836546611
 20
-0.1347930597680667
 10
-1.624679548130899
 20
-0.1293028157827817
 10
-1.641509309630973
 20
-0.1247141396218192
 10
-1.657826053531678
 20
-0.1208880884981781
 10
-1.672225104391512
 20
-0.1181545989145989
 10
-1.68515745725726
 20
-0.1164278875396128
 10
-1.69551718541696
 20
-0.1158549073091554
 10
-1.703627360233657
 20
-0.1164156227038167
 10
-1.708804001424499
 20
-0.1180609686233501
 10
-1.711064771884118
 20
-0.1204206514110939
  0
LWPOLYLINE
  5
127
330
EF
100
AcDbEntity
  8
AM_9
100
AcDbPolyline
 90
        4
 70
     0
 43
0.0
 10
-1.509946499609108
 20
-0.1790373738501783
 10
-1.50499183913704
 20
-0.1842628795203941
 10
-1.502883954670297
 20
-0.1891729979031393
 10
-1.503270390257032
 20
-0.1933898041312626
  0
LINE
  5
128
330
EF
100
AcDbEntity
  8
AM_9
100
AcDbLine
 10
-1.427318118612228
 20
0.2
 30
0.0
 11
-1.490007420462285
 21
0.2
 31
0.0
  0
LINE
  5
129
330
EF
100
AcDbEntity
  8
AM_9
100
AcDbLine
 10
-1.490010064549661
 20
-0.2
 30
0.0
 11
-1.427318118612228
 21
-0.2
 31
0.0
  0
LINE
  5
12A
330
EF
100
AcDbEntity
  8
AM_9
100
AcDbLine
 10
-1.285420664229785
 20
0.2187499999999999
 30
0.0
 11
-1.411716035615016
 21
0.2187499999999999
 31
0.0
  0
LINE
  5
12B
330
EF
100
AcDbEntity
  8
AM_9
100
AcDbLine
 10
-1.411716035615016
 20
-0.21875
 30
0.0
 11
-1.285420664229785
 21
-0.21875
 31
0.0
  0
ELLIPSE
  5
12C
330
EF
100
AcDbEntity
  8
AM_9
100
AcDbEllipse
 10
-1.340715578233783
 20
0.0
 30
0.0
 11
1.339457436567417E-17
 21
0.2187499999999999
 31
0.0
210
0.0
220
0.0
230
1.0
 40
0.4999999999999972
 41
1.966063382152488
 42
7.464369807862644
  0
LINE
  5
12D
330
EF
100
AcDbEntity
  8
AM_9
100
AcDbLine
 10
-1.273057343563125
 20
0.1999999999999999
 30
0.0
 11
-1.340715578233785
 21
0.1999999999999999
 31
0.0
  0
LINE
  5
12E
330
EF
100
AcDbEntity
  8
AM_9
100
AcDbLine
 10
-1.340715578233785
 20
-0.2
 30
0.0
 11
-1.273057343563125
 21
-0.2
 31
0.0
  0
LWPOLYLINE
  5
12F
330
EF
100
AcDbEntity
  8
AM_9
100
AcDbPolyline
 90
        4
 70
     0
 43
0.0
 10
-1.412343125762353
 20
0.2147445010573898
 10
-1.421670243044291
 20
0.1643083897258504
 10
-1.428029323653871
 20
0.1368799989092348
 10
-1.435437106772707
 20
0.1093749999999999
  0
LINE
  5
130
330
EF
100
AcDbEntity
  8
AM_9
100
AcDbLine
 10
-1.435437106772707
 20
0.1093749999999999
 30
0.0
 11
-1.440324080901666
 21
0.0930941916018873
 31
0.0
  0
LWPOLYLINE
  5
131
330
EF
100
AcDbEntity
  8
AM_9
100
AcDbPolyline
 90
        4
 70
     0
 43
0.0
 10
-1.435437106772707
 20
-0.109375
 10
-1.428069682019208
 20
-0.13671875
 10
-1.421722913910323
 20
-0.1640625
 10
-1.412304071288507
 20
-0.2149911900379638
  0
LINE
  5
132
330
EF
100
AcDbEntity
  8
AM_9
100
AcDbLine
 10
-1.44040271074775
 20
-0.0928420068330254
 30
0.0
 11
-1.435437106772707
 21
-0.109375
 31
0.0
  0
LINE
  5
133
330
EF
100
AcDbEntity
  8
AM_9
100
AcDbLine
 10
-1.102512725940722
 20
0.1853871066562612
 30
0.0
 11
-1.271329615624791
 21
0.1914800577488989
 31
0.0
  0
LINE
  5
134
330
EF
100
AcDbEntity
  8
AM_9
100
AcDbLine
 10
-1.271329615624791
 20
-0.191480057748899
 30
0.0
 11
-1.102512725940722
 21
-0.1853871066562613
 31
0.0
  0
LINE
  5
135
330
EF
100
AcDbEntity
  8
AM_9
100
AcDbLine
 10
-1.036945988658572
 20
0.1319978794387896
 30
0.0
 11
-1.050660115717641
 21
0.1513925839218323
 31
0.0
  0
LINE
  5
136
330
EF
100
AcDbEntity
  8
AM_9
100
AcDbLine
 10
-1.050660115717641
 20
-0.1513925839218324
 30
0.0
 11
-1.036945988658572
 21
-0.1319978794387897
 31
0.0
  0
ELLIPSE
  5
137
330
EF
100
AcDbEntity
  8
AM_9
100
AcDbEllipse
 10
-1.427318118612228
 20
0.0000000000000002
 30
0.0
 11
1.339457436567416E-17
 21
0.2187499999999997
 31
0.0
210
0.0
220
0.0
230
1.0
 40
0.4999999999999997
 41
0.0
 42
6.283185307179586
  0
ELLIPSE
  5
138
330
EF
100
AcDbEntity
  8
AM_9
100
AcDbEllipse
 10
-1.427318118612228
 20
0.0000000000000001
 30
0.0
 11
1.224646799147355E-17
 21
0.2000000000000002
 31
0.0
210
0.0
220
0.0
230
1.0
 40
0.4999999999999988
 41
0.0
 42
6.283185307179586
  0
ELLIPSE
  5
139
330
EF
100
AcDbEntity
  8
AM_9
100
AcDbEllipse
 10
-1.340715578233777
 20
-0.0000000000000027
 30
0.0
 11
1.224646799147369E-17
 21
0.2000000000000026
 31
0.0
210
0.0
220
0.0
230
1.0
 40
0.5000000000000039
 41
0.0
 42
6.283185307179586
  0
ELLIPSE
  5
13A
330
EF
100
AcDbEntity
  8
AM_9
100
AcDbEllipse
 10
-1.273057343563125
 20
0.0000000000000001
 30
0.0
 11
1.224646799147352E-17
 21
0.1999999999999998
 31
0.0
210
0.0
220
0.0
230
1.0
 40
0.4999999999999976
 41
0.0
 42
6.283185307179586
  0
ELLIPSE
  5
13B
330
EF
100
AcDbEntity
  8
AM_9
100
AcDbEllipse
 10
-1.273057343563125
 20
-0.0000000000000002
 30
0.0
 11
1.172668097677218E-17
 21
0.1915112338502293
 31
0.0
210
0.0
220
0.0
230
1.0
 40
0.5000000000000008
 41
0.0
 42
6.283185307179586
  0
ELLIPSE
  5
13C
330
EF
100
AcDbEntity
  8
AM_9
100
AcDbEllipse
 10
-1.104185477073881
 20
-0.0000000000000003
 30
0.0
 11
1.135353457964640E-17
 21
0.1854172907249857
 31
0.0
210
0.0
220
0.0
230
1.0
 40
0.4999999999999961
 41
0.0
 42
6.283185307179586
  0
ELLIPSE
  5
13D
330
EF
100
AcDbEntity
  8
AM_9
100
AcDbEllipse
 10
-1.083614286485277
 20
-0.0000000000000018
 30
0.0
 11
9.899048221688994E-18
 21
0.1616637258772259
 31
0.0
210
0.0
220
0.0
230
1.0
 40
0.4999999999999884
 41
0.0
 42
6.283185307179586
  0
LWPOLYLINE
  5
13E
330
EF
100
AcDbEntity
  8
AM_4
100
AcDbPolyline
 90
        4
 70
     0
 43
0.0
 10
-1.503616925639198
 20
-0.2360765106845276
 10
-1.494451939062641
 20
-0.2462091938631851
 10
-1.486360668283654
 20
-0.2570505402207574
 10
-1.478763897605643
 20
-0.2689146070947222
  0
LWPOLYLINE
  5
13F
330
EF
100
AcDbEntity
  8
AM_4
100
AcDbPolyline
 90
        3
 70
     0
 43
0.0
 10
-1.478763897605643
 20
-0.2689146070947222
 10
-1.491759785455254
 20
-0.2634308483997528
 10
-1.505973685569494
 20
-0.2602304684431305
  0
LWPOLYLINE
  5
140
330
EF
100
AcDbEntity
  8
AM_4
100
AcDbPolyline
 90
        3
 70
     0
 43
0.0
 10
-1.524273593108028
 20
-0.3055458577949631
 10
-1.50789163848905
 20
-0.3030753670497808
 10
-1.490819546916621
 20
-0.2987675689889718
  0
LINE
  5
141
330
EF
100
AcDbEntity
  8
AM_4
100
AcDbLine
 10
-1.478763897605643
 20
-0.2689146070947222
 30
0.0
 11
-1.490819546916621
 21
-0.2987675689889718
 31
0.0
  0
LINE
  5
142
330
EF
100
AcDbEntity
  8
AM_4
100
AcDbLine
 10
-1.638461647894366
 20
-0.5093460834378319
 30
0.0
 11
-1.577849897627102
 21
-0.4540180898723598
 31
0.0
  0
LINE
  5
143
330
EF
100
AcDbEntity
  8
AM_4
100
AcDbLine
 10
-1.834585064926977
 20
-0.3503396289636352
 30
0.0
 11
-1.829391642636246
 21
-0.4322420068738781
 31
0.0
  0
ELLIPSE
  5
144
330
EF
100
AcDbEntity
  8
AM_4
100
AcDbEllipse
 10
-1.733101189765712
 20
-0.4687500000000001
 30
0.0
 11
-0.09595382955731768
 21
0.03874944547499717
 31
0.0
210
0.0
220
0.0
230
1.0
 40
0.2113091308703453
 41
0.1009830038932584
 42
3.040609649696539
  0
LINE
  5
145
330
EF
100
AcDbEntity
  8
AM_4
100
AcDbLine
 10
-1.781115122981999
 20
-0.151074129835757
 30
0.0
 11
-1.792436696205876
 21
-0.1791093260592887
 31
0.0
  0
LWPOLYLINE
  5
146
330
EF
100
AcDbEntity
  8
AM_4
100
AcDbPolyline
 90
       10
 70
     0
 43
0.0
 10
-1.811294147865312
 20
-0.3181510377553937
 10
-1.815180920956667
 20
-0.3196158821787441
 10
-1.819818253842665
 20
-0.3220520242562966
 10
-1.824014860416653
 20
-0.3251431240682409
 10
-1.827691786585919
 20
-0.3289074589157382
 10
-1.830709414590856
 20
-0.3332924469079873
 10
-1.833076602352788
 20
-0.3386068500980574
 10
-1.834350651800157
 20
-0.3440331658096441
 10
-1.834632659367948
 20
-0.3493418112023429
 10
-1.834580156729715
 20
-0.3504156019201342
  0
LWPOLYLINE
  5
147
330
EF
100
AcDbEntity
  8
AM_4
100
AcDbPolyline
 90
       11
 70
     0
 43
0.0
 10
-1.577879153120681
 20
-0.45404476188692
 10
-1.577586681339743
 20
-0.4537751002066705
 10
-1.574045487485568
 20
-0.4498634031536204
 10
-1.571196887064464
 20
-0.4453531783363237
 10
-1.569058412618742
 20
-0.4399972587838273
 10
-1.567996990691451
 20
-0.4345785138124388
 10
-1.567899937944328
 20
-0.4293104910027659
 10
-1.568624758439764
 20
-0.424283509229041
 10
-1.570054460709704
 20
-0.4195086970722571
 10
-1.572136052690753
 20
-0.4149090039721414
 10
-1.572243510293522
 20
-0.414707397647698
  0
ELLIPSE
  5
148
330
EF
100
AcDbEntity
  8
AM_4
100
AcDbEllipse
 10
-1.705107527568228
 20
-0.399430321788976
 30
0.0
 11
-0.129024894793327
 21
0.05210467522533588
 31
0.0
210
0.0
220
0.0
230
1.0
 40
0.2113091308703519
 41
0.1015435724789437
 42
3.040317266205564
  0
LWPOLYLINE
  5
149
330
EF
100
AcDbEntity
  8
AM_4
100
AcDbPolyline
 90
        3
 70
     0
 43
0.0
 10
-1.572009428521412
 20
-0.2987675689889718
 10
-1.558476163021022
 20
-0.3030606061861223
 10
-1.544916878396037
 20
-0.305456396233367
  0
ELLIPSE
  5
14A
330
EF
100
AcDbEntity
  8
AM_4
100
AcDbEllipse
 10
-1.643431642826899
 20
-0.2467045921760201
 30
0.0
 11
-0.1303939210191756
 21
0.05265753494273437
 31
0.0
210
0.0
220
0.0
230
1.0
 40
0.21130913087035
 41
1.711945269609638
 42
2.505596057672105
  0
LWPOLYLINE
  5
14B
330
EF
100
AcDbEntity
  8
AM_4
100
AcDbPolyline
 90
        4
 70
     0
 43
0.0
 10
-1.792436696205876
 20
-0.1791093260592887
 10
-1.777559578162801
 20
-0.1988355121406938
 10
-1.761130305920126
 20
-0.2156330920108724
 10
-1.755633287308783
 20
-0.2201680623457971
  0
LWPOLYLINE
  5
14C
330
EF
100
AcDbEntity
  8
AM_4
100
AcDbPolyline
 90
        3
 70
     0
 43
0.0
 10
-1.755633287308783
 20
-0.2201680623457971
 10
-1.742692765710155
 20
-0.229046210966002
 10
-1.722817404767839
 20
-0.2389369657326275
  0
LWPOLYLINE
  5
14D
330
EF
100
AcDbEntity
  8
AM_4
100
AcDbPolyline
 90
        4
 70
     0
 43
0.0
 10
-1.525730085522762
 20
-0.2602304684431209
 10
-1.534978720936656
 20
-0.2616913382589203
 10
-1.547276238386291
 20
-0.2647402074337706
 10
-1.559953779210434
 20
-0.2689146070947222
  0
LINE
  5
14E
330
EF
100
AcDbEntity
  8
AM_4
100
AcDbLine
 10
-1.71214548721881
 20
-0.1230967854582223
 30
0.0
 11
-1.727128757952253
 21
-0.1601993088245384
 31
0.0
  0
LINE
  5
14F
330
EF
100
AcDbEntity
  8
AM_4
100
AcDbLine
 10
-1.523134712624477
 20
-0.2425790968238376
 30
0.0
 11
-1.505939813803223
 21
-0.2
 31
0.0
  0
ELLIPSE
  5
150
330
EF
100
AcDbEntity
  8
AM_4
100
AcDbEllipse
 10
-1.625131735288365
 20
-0.201389202824188
 30
0.0
 11
-0.1019970226638878
 21
0.04118989399964965
 31
0.0
210
0.0
220
0.0
230
1.0
 40
0.2113091308703497
 41
0.0
 42
3.141592653589793
  0
LWPOLYLINE
  5
151
330
EF
100
AcDbEntity
  8
AM_4
100
AcDbPolyline
 90
        4
 70
     0
 43
0.0
 10
-1.781115122981999
 20
-0.151074129835757
 10
-1.764499280994471
 20
-0.145877822676052
 10
-1.748444668339338
 20
-0.1427138007556462
 10
-1.736836121721703
 20
-0.141958509815605
  0
LWPOLYLINE
  5
152
330
EF
100
AcDbEntity
  8
AM_4
100
AcDbPolyline
 90
        7
 70
     0
 43
0.0
 10
-1.711130158548293
 20
-0.2099962668917053
 10
-1.721439294905623
 20
-0.1943573015029058
 10
-1.732783121739833
 20
-0.1805491420332303
 10
-1.74549709631664
 20
-0.1688997677199809
 10
-1.759393022506332
 20
-0.159872940321087
 10
-1.770066362146975
 20
-0.1549033058439655
 10
-1.781115122981999
 20
-0.151074129835757
  0
LINE
  5
153
330
EF
100
AcDbEntity
  8
AM_4
100
AcDbLine
 10
-1.735506268178874
 20
-0.1419585097669023
 30
0.0
 11
-1.736944744827027
 21
-0.1419585097669023
 31
0.0
  0
ELLIPSE
  5
154
330
EF
100
AcDbEntity
  8
AM_4
100
AcDbEllipse
 10
-1.625131735288363
 20
-0.2013892028241939
 30
0.0
 11
-0.1303939210191776
 21
0.05265753494273889
 31
0.0
210
0.0
220
0.0
230
1.0
 40
0.211309130870367
 41
5.61061382579931
 42
7.795870906981477
  0
ELLIPSE
  5
155
330
EF
100
AcDbEntity
  8
AM_4
100
AcDbEllipse
 10
-1.643431642826898
 20
-0.246704592176021
 30
0.0
 11
-0.1303939210191756
 21
0.05265753494273437
 31
0.0
210
0.0
220
0.0
230
1.0
 40
0.2113091308703474
 41
0.6359965959176836
 42
1.512685599801934
  0
LWPOLYLINE
  5
156
330
EF
100
AcDbEntity
  8
AM_4
100
AcDbPolyline
 90
        3
 70
     0
 43
0.0
 10
-1.544029993061298
 20
-0.3055458577949631
 10
-1.534579794174989
 20
-0.3064767622622301
 10
-1.524273593108028
 20
-0.3055458577949631
  0
LWPOLYLINE
  5
157
330
EF
100
AcDbEntity
  8
AM_4
100
AcDbPolyline
 90
       21
 70
     0
 43
0.0
 10
-1.572054524257865
 20
-0.4150635358998769
 10
-1.573100087621259
 20
-0.4129605177586503
 10
-1.575154855822213
 20
-0.4081392192781306
 10
-1.577083213425249
 20
-0.4023295348159264
 10
-1.578668052935807
 20
-0.3955839289821685
 10
-1.579687882988947
 20
-0.3880537435696202
 10
-1.579959058535195
 20
-0.3799621868857491
 10
-1.57936080680304
 20
-0.3715521454466585
 10
-1.577624368396092
 20
-0.3621799318393068
 10
-1.574810250945509
 20
-0.3531179221982481
 10
-1.571038226780926
 20
-0.344608572695229
 10
-1.566452814245097
 20
-0.3367980099288286
 10
-1.561219704905236
 20
-0.3297923889048104
 10
-1.555525287067287
 20
-0.3236676675241597
 10
-1.549585688592476
 20
-0.3184775927909618
 10
-1.543648012344119
 20
-0.3142462549937557
 10
-1.53797381905428
 20
-0.3109532770808642
 10
-1.532799852852326
 20
-0.3085219756559928
 10
-1.528297123246922
 20
-0.3068262748638513
 10
-1.524561062137021
 20
-0.3057172978785985
 10
-1.522348169374777
 20
-0.3051955835686572
  0
LWPOLYLINE
  5
158
330
EF
100
AcDbEntity
  8
AM_4
100
AcDbPolyline
 90
       20
 70
     0
 43
0.0
 10
-1.770017885119065
 20
-0.2065064774506113
 10
-1.768377918976024
 20
-0.2093556439938787
 10
-1.766346167611145
 20
-0.2134942157764937
 10
-1.764307949936564
 20
-0.2186082782310591
 10
-1.762457712310148
 20
-0.2247050794189788
 10
-1.761018067777976
 20
-0.2317029928593113
 10
-1.760203439652948
 20
-0.239424579889725
 10
-1.760180161515668
 20
-0.2476354686622226
 10
-1.761207322153236
 20
-0.2570618556131397
 10
-1.763357151615504
 20
-0.2663677463173257
 10
-1.766542547511376
 20
-0.275245324020458
 10
-1.770634835211237
 20
-0.2835098843905158
 10
-1.775480973107741
 20
-0.2910317419844334
 10
-1.780908623585908
 20
-0.2977179238480896
 10
-1.786721082337405
 20
-0.3035004579127317
 10
-1.79269019653618
 20
-0.3083352504194735
 10
-1.798560254110301
 20
-0.3122128161145364
 10
-1.804073470346118
 20
-0.3151737648238851
 10
-1.809013846694683
 20
-0.3173152332190284
 10
-1.811699102951998
 20
-0.3182829445810871
  0
ELLIPSE
  5
159
330
EF
100
AcDbEntity
  8
AM_4
100
AcDbEllipse
 10
-1.694432546090883
 20
-0.3729962569746642
 30
0.0
 11
-0.1235034625625955
 21
0.04987493162723571
 31
0.0
210
0.0
220
0.0
230
1.0
 40
0.2113091308703509
 41
6.040285032562402
 42
9.667730510579272
  0
ELLIPSE
  5
15A
330
EF
100
AcDbEntity
  8
AM_4
100
AcDbEllipse
 10
-1.625131735288366
 20
-0.201389202824187
 30
0.0
 11
-0.1303939210191831
 21
0.05265753494272145
 31
0.0
210
0.0
220
0.0
230
1.0
 40
0.2113091308703633
 41
1.711945269609621
 42
2.518556725320336
  0
LINE
  5
15B
330
EF
100
AcDbEntity
  8
AM_4
100
AcDbLine
 10
-1.505973685569494
 20
-0.2602304684431305
 30
0.0
 11
-1.525730085522762
 21
-0.2602304684431209
 31
0.0
  0
ELLIPSE
  5
15C
330
EF
100
AcDbEntity
  8
AM_4
100
AcDbEllipse
 10
-1.625131735288364
 20
-0.2013892028241889
 30
0.0
 11
-0.1303939210191734
 21
0.05265753494273319
 31
0.0
210
0.0
220
0.0
230
1.0
 40
0.2113091308703484
 41
2.800469246484368
 42
3.607080702195131
  0
LINE
  5
15D
330
EF
100
AcDbEntity
  8
AM_4
100
AcDbLine
 10
-1.515638455821005
 20
-0.2258378743019628
 30
0.0
 11
-1.503616925639198
 21
-0.2360765106845276
 31
0.0
  0
LWPOLYLINE
  5
15E
330
EF
100
AcDbEntity
  8
AM_4
100
AcDbPolyline
 90
        3
 70
     0
 43
0.0
 10
-1.559953779210434
 20
-0.2689146070947222
 10
-1.588016079179278
 20
-0.251275593729576
 10
-1.617804184017264
 20
-0.2360765106845274
  0
LINE
  5
15F
330
EF
100
AcDbEntity
  8
AM_4
100
AcDbLine
 10
-1.617804184017264
 20
-0.2360765106845274
 30
0.0
 11
-1.643812993043249
 21
-0.2258378743019626
 31
0.0
  0
LWPOLYLINE
  5
160
330
EF
100
AcDbEntity
  8
AM_4
100
AcDbPolyline
 90
        4
 70
     0
 43
0.0
 10
-1.643812993043249
 20
-0.2258378743019626
 10
-1.666803027735489
 20
-0.2189176876709014
 10
-1.688808897596174
 20
-0.2138633349839127
 10
-1.711130158548293
 20
-0.2099962668917053
  0
LINE
  5
161
330
EF
100
AcDbEntity
  8
AM_4
100
AcDbLine
 10
-1.711130158548293
 20
-0.2099962668917053
 30
0.0
 11
-1.722817404767838
 21
-0.2389369657326276
 31
0.0
  0
LWPOLYLINE
  5
162
330
EF
100
AcDbEntity
  8
AM_4
100
AcDbPolyline
 90
        3
 70
     0
 43
0.0
 10
-1.722817404767838
 20
-0.2389369657326276
 10
-1.693137583534037
 20
-0.2560939713202353
 10
-1.662112900581781
 20
-0.2711532636537956
  0
LINE
  5
163
330
EF
100
AcDbEntity
  8
AM_4
100
AcDbLine
 10
-1.662112900581781
 20
-0.2711532636537956
 30
0.0
 11
-1.636104091555798
 21
-0.2813919000363599
 31
0.0
  0
LWPOLYLINE
  5
164
330
EF
100
AcDbEntity
  8
AM_4
100
AcDbPolyline
 90
        3
 70
     0
 43
0.0
 10
-1.636104091555798
 20
-0.2813919000363599
 10
-1.604453540701774
 20
-0.2911775952746242
 10
-1.572009428521412
 20
-0.2987675689889718
  0
LINE
  5
165
330
EF
100
AcDbEntity
  8
AM_4
100
AcDbLine
 10
-1.559953779210434
 20
-0.2689146070947222
 30
0.0
 11
-1.572009428521412
 21
-0.2987675689889718
 31
0.0
  0
ARC
  5
166
330
EF
100
AcDbEntity
  8
AM_4
100
AcDbCircle
 10
-1.554515599793067
 20
-0.0000000000000004
 30
0.0
 40
0.2000000000000003
100
AcDbArc
 50
90.0
 51
219.6389005324226
  0
LWPOLYLINE
  5
167
330
EF
100
AcDbEntity
  8
AM_4
100
AcDbPolyline
 90
       10
 70
     0
 43
0.0
 10
-1.708719284081761
 20
-0.1273625300416625
 10
-1.707054650102397
 20
-0.1291842652280562
 10
-1.700777102834733
 20
-0.1344729790611519
 10
-1.691619503772012
 20
-0.1405186270901959
 10
-1.680323314610001
 20
-0.146827078301712
 10
-1.666582163469251
 20
-0.1535654953592165
 10
-1.651520673729769
 20
-0.1601799433259583
 10
-1.63472725091011
 20
-0.1668493358980661
 10
-1.617327914756114
 20
-0.1731116383367605
 10
-1.599084699977011
 20
-0.1790373738502115
  0
ELLIPSE
  5
168
330
EF
100
AcDbEntity
  8
AM_4
100
AcDbEllipse
 10
-1.554515599793068
 20
-0.0000000000000001
 30
0.0
 11
1.224646799147354E-17
 21
0.2000000000000001
 31
0.0
210
0.0
220
0.0
230
1.0
 40
0.4999999999999991
 41
0.0
 42
2.679646633022824
  0
LINE
  5
169
330
EF
100
AcDbEntity
  8
AM_4
100
AcDbLine
 10
-1.490007420462285
 20
0.2
 30
0.0
 11
-1.554515599793068
 21
0.2
 31
0.0
  0
LINE
  5
16A
330
EF
100
AcDbEntity
  8
AM_4
100
AcDbLine
 10
-1.519609381390954
 20
-0.2
 30
0.0
 11
-1.490010064549661
 21
-0.2
 31
0.0
  0
LWPOLYLINE
  5
16B
330
EF
100
AcDbEntity
  8
AM_4
100
AcDbPolyline
 90
        8
 70
     0
 43
0.0
 10
-1.519461597164047
 20
-0.1999999999699528
 10
-1.52094871440335
 20
-0.1999786710855127
 10
-1.531822314880099
 20
-0.1988321115509052
 10
-1.544220636594082
 20
-0.1961649429984259
 10
-1.558644066960074
 20
-0.1920694300574957
 10
-1.574157046820891
 20
-0.1870948030566195
 10
-1.591250450607862
 20
-0.181500594761393
 10
-1.599084699977028
 20
-0.1790373738501784
  0
LINE
  5
16C
330
EF
100
AcDbEntity
  8
AM_4
100
AcDbLine
 10
-1.482613032616228
 20
0.2187499999999999
 30
0.0
 11
-1.411716035615016
 21
0.2187499999999999
 31
0.0
  0
LWPOLYLINE
  5
16D
330
EF
100
AcDbEntity
  8
AM_4
100
AcDbPolyline
 90
        4
 70
     0
 43
0.0
 10
-1.522039647151151
 20
0.1093749999999999
 10
-1.513620150481497
 20
0.1367187499999999
 10
-1.504179997167228
 20
0.1640624999999999
 10
-1.482613032616228
 20
0.2187499999999999
  0
LWPOLYLINE
  5
16E
330
EF
100
AcDbEntity
  8
AM_4
100
AcDbPolyline
 90
        4
 70
     0
 43
0.0
 10
-1.545760718308843
 20
0.0
 10
-1.535806510879568
 20
0.0544416102741495
 10
-1.529447430269988
 20
0.0818700010907651
 10
-1.522039647151151
 20
0.1093749999999999
  0
LINE
  5
16F
330
EF
100
AcDbEntity
  8
AM_4
100
AcDbLine
 10
-1.411716035615016
 20
0.2187499999999999
 30
0.0
 11
-1.412343125762353
 21
0.2147445010573898
 31
0.0
  0
ELLIPSE
  5
170
330
EF
100
AcDbEntity
  8
AM_4
100
AcDbEllipse
 10
-1.340715578233785
 20
0.0000000000000001
 30
0.0
 11
1.339457436567425E-17
 21
0.2187500000000012
 31
0.0
210
0.0
220
0.0
230
1.0
 40
0.4999999999999943
 41
1.181184500683052
 42
1.966063382152494
  0
LWPOLYLINE
  5
171
330
EF
100
AcDbEntity
  8
AM_4
100
AcDbPolyline
 90
        4
 70
     0
 43
0.0
 10
-1.440324080901666
 20
0.0930941916018873
 10
-1.443856603442362
 20
0.08203125
 10
-1.453296756756631
 20
0.0546875
 10
-1.474863721307631
 20
0.0
  0
LINE
  5
172
330
EF
100
AcDbEntity
  8
AM_4
100
AcDbLine
 10
-1.545760718308843
 20
0.0
 30
0.0
 11
-1.474863721307631
 21
0.0
 31
0.0
  0
LWPOLYLINE
  5
173
330
EF
100
AcDbEntity
  8
AM_4
100
AcDbPolyline
 90
        4
 70
     0
 43
0.0
 10
-1.522039647151151
 20
-0.1093749999999999
 10
-1.529407071904651
 20
-0.08203125
 10
-1.535753840013536
 20
-0.0546875
 10
-1.545760718308843
 20
0.0
  0
LWPOLYLINE
  5
174
330
EF
100
AcDbEntity
  8
AM_4
100
AcDbPolyline
 90
        4
 70
     0
 43
0.0
 10
-1.482613032616228
 20
-0.21875
 10
-1.50409070353385
 20
-0.1643083897258504
 10
-1.513567411745681
 20
-0.1368799989092349
 10
-1.522039647151151
 20
-0.1093749999999999
  0
LINE
  5
175
330
EF
100
AcDbEntity
  8
AM_4
100
AcDbLine
 10
-1.482613032616228
 20
-0.21875
 30
0.0
 11
-1.411716035615016
 21
-0.21875
 31
0.0
  0
LINE
  5
176
330
EF
100
AcDbEntity
  8
AM_4
100
AcDbLine
 10
-1.412304071288507
 20
-0.2149911900379638
 30
0.0
 11
-1.411716035615016
 21
-0.21875
 31
0.0
  0
LWPOLYLINE
  5
177
330
EF
100
AcDbEntity
  8
AM_4
100
AcDbPolyline
 90
        4
 70
     0
 43
0.0
 10
-1.474863721307631
 20
0.0
 10
-1.453386050390009
 20
-0.0544416102741496
 10
-1.443909342178178
 20
-0.0818700010907651
 10
-1.44040271074775
 20
-0.0928420068330254
  0
ENDBLK
  5
F2
330
EF
100
AcDbEntity
  8
0
100
AcDbBlockEnd
  0
BLOCK
  5
17A
330
178
100
AcDbEntity
  8
0
100
AcDbBlockBegin
  2
4_125356H_0_in_125356_4
 70
     2
 10
0.0
 20
0.0
 30
0.0
  3
4_125356H_0_in_125356_4
  1

  0
ATTDEF
  5
17C
330
178
100
AcDbEntity
  8
AM_6
100
AcDbText
 10
7.459
 20
0.6899999999999998
 30
0.0
 40
0.5
  1
WSTU-SC -Inch - housing
100
AcDbAttributeDefinition
  3

  2
NN
 70
     8
280
     0
  0
ATTDEF
  5
17D
330
178
100
AcDbEntity
  8
AM_6
100
AcDbText
 10
7.459
 20
0.1899999999999998
 30
0.0
 40
0.5
  1
SC Take-Up Bearings -Wide Slot -(Normal Duty)
100
AcDbAttributeDefinition
  3

  2
NT
 70
     8
280
     0
  0
ATTDEF
  5
17E
330
178
100
AcDbEntity
  8
AM_6
100
AcDbText
 10
7.459
 20
-0.3100000000000002
 30
0.0
 40
0.5
  1
125356H
100
AcDbAttributeDefinition
  3

  2
NB
 70
     8
280
     0
  0
ATTDEF
  5
17F
330
178
100
AcDbEntity
  8
AM_6
100
AcDbText
 10
7.459
 20
-0.8100000000000002
 30
0.0
 40
0.5
  1
$PN.H
100
AcDbAttributeDefinition
  3

  2
NBSYN
 70
     8
280
     0
  0
ATTDEF
  5
180
330
178
100
AcDbEntity
  8
AM_6
100
AcDbText
 10
7.459
 20
-1.31
 30
0.0
 40
0.5
  1
125356
100
AcDbAttributeDefinition
  3

  2
LINA
 70
     8
280
     0
  0
ATTDEF
  5
181
330
178
100
AcDbEntity
  8
AM_6
100
AcDbText
 10
7.459
 20
-1.81
 30
0.0
 40
0.5
  1
205
100
AcDbAttributeDefinition
  3

  2
SERIES
 70
     8
280
     0
  0
ATTDEF
  5
182
330
178
100
AcDbEntity
  8
AM_6
100
AcDbText
 10
7.459
 20
-2.31
 30
0.0
 40
0.5
  1
7/8
100
AcDbAttributeDefinition
  3

  2
SS
 70
     8
280
     0
  0
ATTDEF
  5
183
330
178
100
AcDbEntity
  8
AM_6
100
AcDbText
 10
7.459
 20
-2.81
 30
0.0
 40
0.5
  1
125356
100
AcDbAttributeDefinition
  3

  2
PN
 70
     8
280
     0
  0
ATTDEF
  5
184
330
178
100
AcDbEntity
  8
AM_6
100
AcDbText
 10
7.459
 20
-3.31
 30
0.0
 40
0.5
  1
WSTU-SC-014
100
AcDbAttributeDefinition
  3

  2
DESCRIPTION
 70
     8
280
     0
  0
ATTDEF
  5
185
330
178
100
AcDbEntity
  8
AM_6
100
AcDbText
 10
7.459
 20
-3.81
 30
0.0
 40
0.5
  1
2.2
100
AcDbAttributeDefinition
  3

  2
W
 70
     8
280
     0
  0
ATTDEF
  5
186
330
178
100
AcDbEntity
  8
AM_6
100
AcDbText
 10
7.459
 20
-4.31
 30
0.0
 40
0.5
  1
WS300
100
AcDbAttributeDefinition
  3

  2
FS
 70
     8
280
     0
  0
ATTDEF
  5
187
330
178
100
AcDbEntity
  8
AM_6
100
AcDbText
 10
7.459
 20
-4.81
 30
0.0
 40
0.5
  1
RE-LUBE
100
AcDbAttributeDefinition
  3

  2
LF
 70
     8
280
     0
  0
ATTDEF
  5
188
330
178
100
AcDbEntity
  8
AM_6
100
AcDbText
 10
7.459
 20
-5.31
 30
0.0
 40
0.5
  1
1.34
100
AcDbAttributeDefinition
  3

  2
A
 70
     8
280
     0
  0
ATTDEF
  5
189
330
178
100
AcDbEntity
  8
AM_6
100
AcDbText
 10
7.459
 20
-5.81
 30
0.0
 40
0.5
  1
3.81
100
AcDbAttributeDefinition
  3

  2
B
 70
     8
280
     0
  0
ATTDEF
  5
18A
330
178
100
AcDbEntity
  8
AM_6
100
AcDbText
 10
7.459
 20
-6.31
 30
0.0
 40
0.5
  1
0.531
100
AcDbAttributeDefinition
  3

  2
C
 70
     8
280
     0
  0
ATTDEF
  5
18B
330
178
100
AcDbEntity
  8
AM_6
100
AcDbText
 10
7.459
 20
-6.81
 30
0.0
 40
0.5
  1
2
100
AcDbAttributeDefinition
  3

  2
D
 70
     8
280
     0
  0
ATTDEF
  5
18C
330
178
100
AcDbEntity
  8
AM_6
100
AcDbText
 10
7.459
 20
-7.31
 30
0.0
 40
0.5
  1
2.44
100
AcDbAttributeDefinition
  3

  2
E
 70
     8
280
     0
  0
ATTDEF
  5
18D
330
178
100
AcDbEntity
  8
AM_6
100
AcDbText
 10
7.459
 20
-7.81
 30
0.0
 40
0.5
  1
5/8
100
AcDbAttributeDefinition
  3

  2
F
 70
     8
280
     0
  0
ATTDEF
  5
18E
330
178
100
AcDbEntity
  8
AM_6
100
AcDbText
 10
7.459
 20
-8.31
 30
0.0
 40
0.5
  1
0.38
100
AcDbAttributeDefinition
  3

  2
G
 70
     8
280
     0
  0
ATTDEF
  5
18F
330
178
100
AcDbEntity
  8
AM_6
100
AcDbText
 10
7.459
 20
-8.81
 30
0.0
 40
0.5
  1
0.63
100
AcDbAttributeDefinition
  3

  2
H
 70
     8
280
     0
  0
ATTDEF
  5
190
330
178
100
AcDbEntity
  8
AM_6
100
AcDbText
 10
7.459
 20
-9.31
 30
0.0
 40
0.5
  1
2
100
AcDbAttributeDefinition
  3

  2
J
 70
     8
280
     0
  0
ATTDEF
  5
191
330
178
100
AcDbEntity
  8
AM_6
100
AcDbText
 10
7.459
 20
-9.81
 30
0.0
 40
0.5
  1
1.31
100
AcDbAttributeDefinition
  3

  2
K
 70
     8
280
     0
  0
ATTDEF
  5
192
330
178
100
AcDbEntity
  8
AM_6
100
AcDbText
 10
7.459
 20
-10.31
 30
0.0
 40
0.5
  1
1.32
100
AcDbAttributeDefinition
  3

  2
L
 70
     8
280
     0
  0
ATTDEF
  5
193
330
178
100
AcDbEntity
  8
AM_6
100
AcDbText
 10
7.459
 20
-10.81
 30
0.0
 40
0.5
  1
2.985 / 3.015
100
AcDbAttributeDefinition
  3

  2
M
 70
     8
280
     0
  0
ATTDEF
  5
194
330
178
100
AcDbEntity
  8
AM_6
100
AcDbText
 10
7.459
 20
-11.31
 30
0.0
 40
0.5
  1
3.63
100
AcDbAttributeDefinition
  3

  2
N
 70
     8
280
     0
  0
ATTDEF
  5
195
330
178
100
AcDbEntity
  8
AM_6
100
AcDbText
 10
7.459
 20
-11.81
 30
0.0
 40
0.5
  1
0.56
100
AcDbAttributeDefinition
  3

  2
R
 70
     8
280
     0
  0
ATTDEF
  5
196
330
178
100
AcDbEntity
  8
AM_6
100
AcDbText
 10
7.459
 20
-12.31
 30
0.0
 40
0.5
  1
0.78
100
AcDbAttributeDefinition
  3

  2
S
 70
     8
280
     0
  0
ATTDEF
  5
197
330
178
100
AcDbEntity
  8
AM_6
100
AcDbText
 10
7.459
 20
-12.81
 30
0.0
 40
0.5
  1
1.38
100
AcDbAttributeDefinition
  3

  2
T
 70
     8
280
     0
  0
ATTDEF
  5
198
330
178
100
AcDbEntity
  8
AM_6
100
AcDbText
 10
7.459
 20
-13.31
 30
0.0
 40
0.5
  1
1565
100
AcDbAttributeDefinition
  3

  2
CAPS
 70
     8
280
     0
  0
ATTDEF
  5
199
330
178
100
AcDbEntity
  8
AM_6
100
AcDbText
 10
7.459
 20
-13.81
 30
0.0
 40
0.5
  1
3146
100
AcDbAttributeDefinition
  3

  2
CAPD
 70
     8
280
     0
  0
ATTDEF
  5
19A
330
178
100
AcDbEntity
  8
AM_6
100
AcDbText
 10
7.459
 20
-14.31
 30
0.0
 40
0.5
  1
baldor
100
AcDbAttributeDefinition
  3

  2
COMPANY
 70
     8
280
     0
  0
LWPOLYLINE
  5
19B
330
178
100
AcDbEntity
  8
AM_9
100
AcDbPolyline
 90
       11
 70
     0
 43
0.0
 10
-1.254321839024445
 20
0.0
 10
-1.253460017827553
 20
-0.0250957088816503
 10
-1.250901861921405
 20
-0.0494819872250684
 10
-1.24665488549352
 20
-0.072448918294878
 10
-1.240784786144248
 20
-0.0933830177559681
 10
-1.233313456678609
 20
-0.1117333141132123
 10
-1.22438961846925
 20
-0.1269427281433027
 10
-1.214117794865345
 20
-0.1385601284960299
 10
-1.20274718188471
 20
-0.1462603672130417
 10
-1.190576269097218
 20
-0.1497552403610185
 10
-1.186461610691907
 20
-0.149999999382094
  0
LINE
  5
19C
330
178
100
AcDbEntity
  8
AM_9
100
AcDbLine
 10
-1.273057343563125
 20
-0.15
 30
0.0
 11
-1.186408547558258
 21
-0.15
 31
0.0
  0
LINE
  5
19D
330
178
100
AcDbEntity
  8
AM_9
100
AcDbLine
 10
-1.186453213016449
 20
0.15
 30
0.0
 11
-1.273057343563125
 21
0.15
 31
0.0
  0
LWPOLYLINE
  5
19E
330
178
100
AcDbEntity
  8
AM_9
100
AcDbPolyline
 90
       20
 70
     0
 43
0.0
 10
-1.186461610691907
 20
-0.149999999382094
 10
-1.177895799996011
 20
-0.1490407634793315
 10
-1.165119611192149
 20
-0.1441084143532844
 10
-1.152596458446457
 20
-0.1351653197003307
 10
-1.140721607738794
 20
-0.1223830245400702
 10
-1.129929538422646
 20
-0.1061872606114788
 10
-1.120590296494487
 20
-0.0868778167410729
 10
-1.113103326092845
 20
-0.0651110601473643
 10
-1.107801001242216
 20
-0.0414619806916406
 10
-1.104872161583887
 20
-0.0166304995802854
 10
-1.104477580326832
 20
0.0085518068119898
 10
-1.106571895338568
 20
0.0334920332917537
 10
-1.111090739676358
 20
0.057412430302557
 10
-1.117811700596083
 20
0.0797246199537963
 10
-1.126533884497592
 20
0.0998578149582857
 10
-1.136866662704978
 20
0.1171910227912755
 10
-1.148493972512302
 20
0.1312511414387351
 10
-1.160940770857633
 20
0.1416041557265206
 10
-1.173756551791586
 20
0.1478870337081241
 10
-1.186455506806818
 20
0.1499999999934009
  0
LWPOLYLINE
  5
19F
330
178
100
AcDbEntity
  8
AM_9
100
AcDbPolyline
 90
       12
 70
     0
 43
0.0
 10
-1.186455506806818
 20
0.1499999999934009
 10
-1.186554750772929
 20
0.149999866772664
 10
-1.198879930989035
 20
0.1478426773067923
 10
-1.210479766228008
 20
0.1415600519194036
 10
-1.221055794483018
 20
0.1312800994727745
 10
-1.23040833916784
 20
0.1173478321235061
 10
-1.238386189921505
 20
0.1000100487102833
 10
-1.244835636257128
 20
0.0798576550160031
 10
-1.249661584859443
 20
0.057358467513006
 10
-1.252809813847187
 20
0.0332251992641256
 10
-1.253942508518794
 20
0.0167175703074084
 10
-1.254321839024445
 20
0.0
  0
ELLIPSE
  5
1A0
330
178
100
AcDbEntity
  8
AM_9
100
AcDbEllipse
 10
-1.186454803184681
 20
0.0000000000000004
 30
0.0
 11
-7.715274834628334E-17
 21
-0.4200000000000005
 31
0.0
210
0.0
220
0.0
230
1.0
 40
0.4999999999999996
 41
5.219760312488765
 42
7.375901877026281
  0
ELLIPSE
  5
1A1
330
178
100
AcDbEntity
  8
AM_9
100
AcDbEllipse
 10
-1.186454803184681
 20
0.0000000000000001
 30
0.0
 11
-7.715274834628323E-17
 21
-0.4199999999999999
 31
0.0
210
0.0
220
0.0
230
1.0
 40
0.499999999999999
 41
2.048876083743098
 42
4.205017648280614
  0
LINE
  5
1A2
330
178
100
AcDbEntity
  8
AM_9
100
AcDbLine
 10
-1.188319904932355
 20
-0.4199903370367304
 30
0.0
 11
-1.186424755478742
 21
-0.4199999974920428
 31
0.0
  0
LWPOLYLINE
  5
1A3
330
178
100
AcDbEntity
  8
AM_9
100
AcDbPolyline
 90
       16
 70
     0
 43
0.0
 10
-1.370090818441022
 20
-0.3046502895512181
 10
-1.36405377080158
 20
-0.3138570719745949
 10
-1.353502359326947
 20
-0.3285074315798927
 10
-1.342344268731282
 20
-0.3422504954212062
 10
-1.330633179672058
 20
-0.354993955167952
 10
-1.318435834783369
 20
-0.3666590919546657
 10
-1.305824286884012
 20
-0.3771891439614276
 10
-1.29286817356608
 20
-0.3865519343863017
 10
-1.27963005241715
 20
-0.3947365666726468
 10
-1.266164597774293
 20
-0.4017469025381627
 10
-1.252520425918407
 20
-0.4075950271992326
 10
-1.238742737255537
 20
-0.412296560060829
 10
-1.22487547780832
 20
-0.4158681236273523
 10
-1.21096248334685
 20
-0.4183264165931354
 10
-1.197047610463931
 20
-0.419688132267663
 10
-1.188319904932355
 20
-0.4199903370367304
  0
LWPOLYLINE
  5
1A4
330
178
100
AcDbEntity
  8
AM_9
100
AcDbPolyline
 90
       17
 70
     0
 43
0.0
 10
-1.187233550225932
 20
0.4199983154198718
 10
-1.19848015151166
 20
0.419598009212971
 10
-1.212192074055844
 20
0.4181536809591558
 10
-1.225744618203699
 20
0.4156775469879836
 10
-1.239106911175793
 20
0.4121873061698957
 10
-1.252253151536499
 20
0.4076975163134135
 10
-1.265162590834831
 20
0.4022183200547707
 10
-1.277818904605893
 20
0.3957543511373102
 10
-1.290208870734095
 20
0.3883041598281148
 10
-1.302320326565026
 20
0.3798605851954479
 10
-1.314139487427412
 20
0.3704125525683372
 10
-1.325647913031102
 20
0.3599486971418052
 10
-1.336819716382178
 20
0.3484628670580744
 10
-1.347619941417787
 20
0.3359608206263036
 10
-1.358005140250091
 20
0.3224664167510924
 10
-1.367926702901535
 20
0.3080248993074658
 10
-1.370061080104763
 20
0.3046972427004357
  0
LINE
  5
1A5
330
178
100
AcDbEntity
  8
AM_9
100
AcDbLine
 10
2.06
 20
-0.3125
 30
0.0
 11
2.44
 21
-0.3125
 31
0.0
  0
LINE
  5
1A6
330
178
100
AcDbEntity
  8
AM_9
100
AcDbLine
 10
2.44
 20
0.3125
 30
0.0
 11
2.06
 21
0.3125
 31
0.0
  0
LINE
  5
1A7
330
178
100
AcDbEntity
  8
AM_9
100
AcDbLine
 10
1.4831
 20
-0.45135
 30
0.0
 11
1.4831
 21
0.4513500000000001
 31
0.0
  0
LINE
  5
1A8
330
178
100
AcDbEntity
  8
AM_9
100
AcDbLine
 10
1.43
 20
-0.45135
 30
0.0
 11
1.43
 21
0.4513500000000001
 31
0.0
  0
LINE
  5
1A9
330
178
100
AcDbEntity
  8
AM_9
100
AcDbLine
 10
2.006900000000001
 20
-0.45135
 30
0.0
 11
2.006900000000001
 21
0.45135
 31
0.0
  0
LINE
  5
1AA
330
178
100
AcDbEntity
  8
AM_9
100
AcDbLine
 10
2.06
 20
-0.45135
 30
0.0
 11
2.06
 21
0.4513500000000001
 31
0.0
  0
LWPOLYLINE
  5
1AB
330
178
100
AcDbEntity
  8
AM_9
100
AcDbPolyline
 90
       11
 70
     0
 43
0.0
 10
-0.9999999999999996
 20
-0.2823059323762002
 10
-1.016892769741239
 20
-0.3070050888992977
 10
-1.034820381559549
 20
-0.3297630141973567
 10
-1.053868133740756
 20
-0.3506681455875307
 10
-1.07358732610985
 20
-0.3691884612197763
 10
-1.092925047585779
 20
-0.3845215599461685
 10
-1.112489689915072
 20
-0.3973102442096376
 10
-1.132386448012017
 20
-0.4075254561075287
 10
-1.152113600618683
 20
-0.4147925525094179
 10
-1.169511384534656
 20
-0.4186865164527832
 10
-1.186454803184681
 20
-0.4200000000000001
  0
LWPOLYLINE
  5
1AC
330
178
100
AcDbEntity
  8
AM_9
100
AcDbPolyline
 90
       12
 70
     0
 43
0.0
 10
-1.186454803184681
 20
0.42
 10
-1.182410885684205
 20
0.4199229064538783
 10
-1.165096972489694
 20
0.4179303819968102
 10
-1.147230610748313
 20
0.4132675475738994
 10
-1.128418657528008
 20
0.4057132932405063
 10
-1.109348318613317
 20
0.3954395150418329
 10
-1.090708983094729
 20
0.3828998616765317
 10
-1.072171235740625
 20
0.3679578107692248
 10
-1.053425956796865
 20
0.3502158579472625
 10
-1.035169205684809
 20
0.3301746690652604
 10
-1.017178497401714
 20
0.3073938973558189
 10
-0.9999999999999997
 20
0.2823059323761999
  0
LWPOLYLINE
  5
1AD
330
178
100
AcDbEntity
  8
AM_9
100
AcDbPolyline
 90
       39
 70
     0
 43
0.0
 10
-1.186454803184681
 20
-0.4200000000000001
 10
-1.204155632614964
 20
-0.418434306869155
 10
-1.221025621244883
 20
-0.4137016759215276
 10
-1.23550166408583
 20
-0.406638406698291
 10
-1.249007110246846
 20
-0.3970281360094559
 10
-1.261828236098856
 20
-0.3845672890270203
 10
-1.273558446284928
 20
-0.369593135343297
 10
-1.284147800263345
 20
-0.352285379188837
 10
-1.293665546186282
 20
-0.3327130894122676
 10
-1.302348879208684
 20
-0.3103831602998949
 10
-1.309971668591696
 20
-0.2859430440038088
 10
-1.316642395008698
 20
-0.2592599107118877
 10
-1.322337037394823
 20
-0.2307448658943999
 10
-1.327237955257801
 20
-0.1996649987959851
 10
-1.331229188647442
 20
-0.167042412091859
 10
-1.334278342328919
 20
-0.1342294404558644
 10
-1.336578333902537
 20
-0.1004101174239936
 10
-1.338207049768646
 20
-0.064713655380924
 10
-1.339110869114141
 20
-0.0284861705043098
 10
-1.339317596513514
 20
0.0053420146461799
 10
-1.338919903433397
 20
0.0391320904484233
 10
-1.337871172197895
 20
0.0736405665749656
 10
-1.336154590838227
 20
0.1075984924809141
 10
-1.333856243206926
 20
0.139383338444144
 10
-1.330883608338426
 20
0.1702380868054956
 10
-1.327085385765314
 20
0.2007580244469937
 10
-1.322484525133689
 20
0.2299128939754958
 10
-1.316968137457106
 20
0.2577937810543849
 10
-1.310526089734196
 20
0.2839405392342932
 10
-1.302886518561295
 20
0.3088264762655946
 10
-1.294163638648069
 20
0.3315607819680783
 10
-1.284278700355125
 20
0.352043915648201
 10
-1.273229652580711
 20
0.3700678259605011
 10
-1.260606851467152
 20
0.3859141334083984
 10
-1.246738193753534
 20
0.3988739777072374
 10
-1.23323979157202
 20
0.4079468391556844
 10
-1.218803337541339
 20
0.4145263352667941
 10
-1.203046806049575
 20
0.4186259123907701
 10
-1.186454803184681
 20
0.42
  0
LINE
  5
1AE
330
178
100
AcDbEntity
  8
AM_9
100
AcDbLine
 10
1.0236
 20
-0.4513500000000001
 30
0.0
 11
1.0236
 21
0.45135
 31
0.0
  0
LINE
  5
1AF
330
178
100
AcDbEntity
  8
AM_9
100
AcDbLine
 10
-1.0236
 20
0.45135
 30
0.0
 11
-1.0236
 21
-0.4513500000000001
 31
0.0
  0
LINE
  5
1B0
330
178
100
AcDbEntity
  8
AM_9
100
AcDbLine
 10
0.2916666666666667
 20
-0.2389499999999999
 30
0.0
 11
0.2916666666666667
 21
0.45135
 31
0.0
  0
LINE
  5
1B1
330
178
100
AcDbEntity
  8
AM_9
100
AcDbLine
 10
-0.2916666666666667
 20
-0.2389499999999999
 30
0.0
 11
-0.2916666666666667
 21
0.45135
 31
0.0
  0
LINE
  5
1B2
330
178
100
AcDbEntity
  8
AM_9
100
AcDbLine
 10
0.2916666666666667
 20
-0.2389499999999999
 30
0.0
 11
-0.2916666666666667
 21
-0.2389499999999999
 31
0.0
  0
LINE
  5
1B3
330
178
100
AcDbEntity
  8
AM_9
100
AcDbLine
 10
1.0
 20
0.4513500000000001
 30
0.0
 11
-1.0
 21
0.4513500000000001
 31
0.0
  0
LINE
  5
1B4
330
178
100
AcDbEntity
  8
AM_9
100
AcDbLine
 10
1.0
 20
-0.45135
 30
0.0
 11
-1.0
 21
-0.45135
 31
0.0
  0
ELLIPSE
  5
1B5
330
178
100
AcDbEntity
  8
AM_9
100
AcDbEllipse
 10
-1.273057343563125
 20
0.0
 30
0.0
 11
-2.755455298081545E-17
 21
-0.15
 31
0.0
210
0.0
220
0.0
230
1.0
 40
0.4999999999999979
 41
0.0
 42
6.283185307179586
  0
ELLIPSE
  5
1B6
330
178
100
AcDbEntity
  8
AM_9
100
AcDbEllipse
 10
-1.273057343563126
 20
-0.0000000000000001
 30
0.0
 11
-5.878304635907295E-17
 21
-0.32
 31
0.0
210
0.0
220
0.0
230
1.0
 40
0.4999999999999997
 41
0.0
 42
6.283185307179586
  0
LINE
  5
1B7
330
178
100
AcDbEntity
  8
AM_7
100
AcDbLine
 10
2.459
 20
0.0
 30
0.0
 11
2.041
 21
0.0
 31
0.0
  0
LWPOLYLINE
  5
1B8
330
178
100
AcDbEntity
  8
AM_4
100
AcDbPolyline
 90
       18
 70
     0
 43
0.0
 10
-1.446454803184681
 20
0.0
 10
-1.44636989741233
 20
-0.0112086854961661
 10
-1.445758941097277
 20
-0.0320645564449389
 10
-1.44455871231335
 20
-0.0528516894717313
 10
-1.442768994948641
 20
-0.0735271024487429
 10
-1.440389022064072
 20
-0.0940500912485121
 10
-1.437417352168948
 20
-0.1143805492842141
 10
-1.433851671042403
 20
-0.1344790297511144
 10
-1.429688553040765
 20
-0.1543067264834479
 10
-1.424923197295717
 20
-0.1738253320791083
 10
-1.419549169332355
 20
-0.1929967175531695
 10
-1.413558204077728
 20
-0.2117823600377984
 10
-1.406940166728293
 20
-0.2301424276004542
 10
-1.399683327560359
 20
-0.248034423160171
 10
-1.391775183559456
 20
-0.265411315672796
 10
-1.38320413305412
 20
-0.2822191898814828
 10
-1.373962317216569
 20
-0.2983946910210068
 10
-1.370090818441022
 20
-0.3046502895512181
  0
LWPOLYLINE
  5
1B9
330
178
100
AcDbEntity
  8
AM_4
100
AcDbPolyline
 90
       18
 70
     0
 43
0.0
 10
-1.370061080104763
 20
0.3046972427004357
 10
-1.377336339823419
 20
0.2927013934841018
 10
-1.386191892903819
 20
0.2765747273258455
 10
-1.394461372585006
 20
0.2597289688122231
 10
-1.402118136439376
 20
0.242260331028779
 10
-1.409154955273881
 20
0.2242396899614679
 10
-1.415571059731392
 20
0.205729292879665
 10
-1.421369382347538
 20
0.1867840534346603
 10
-1.426554539292159
 20
0.1674533404906695
 10
-1.431131527680156
 20
0.1477827395611875
 10
-1.435104997399882
 20
0.1278154962249728
 10
-1.438478917331662
 20
0.1075935750863711
 10
-1.441256482551072
 20
0.0871583715511926
 10
-1.44344015182169
 20
0.0665511467679633
 10
-1.445031742536384
 20
0.0458132562806238
 10
-1.446032537913337
 20
0.0249862314865452
 10
-1.446436436335607
 20
0.0052136095014886
 10
-1.446454803184681
 20
0.0
  0
ELLIPSE
  5
1BA
330
178
100
AcDbEntity
  8
AM_4
100
AcDbEllipse
 10
-1.186454803184681
 20
0.0
 30
0.0
 11
-7.715274834628323E-17
 21
-0.4199999999999999
 31
0.0
210
0.0
220
0.0
230
1.0
 40
0.5000000000000007
 41
4.205017648280613
 42
5.219760312488765
  0
LINE
  5
1BB
330
178
100
AcDbEntity
  8
AM_4
100
AcDbLine
 10
2.06
 20
-0.4513500000000001
 30
0.0
 11
2.06
 21
-0.6899999999999998
 31
0.0
  0
LINE
  5
1BC
330
178
100
AcDbEntity
  8
AM_4
100
AcDbLine
 10
2.06
 20
-0.6899999999999998
 30
0.0
 11
2.44
 21
-0.6899999999999998
 31
0.0
  0
LINE
  5
1BD
330
178
100
AcDbEntity
  8
AM_4
100
AcDbLine
 10
2.44
 20
0.6899999999999998
 30
0.0
 11
2.06
 21
0.6899999999999998
 31
0.0
  0
LINE
  5
1BE
330
178
100
AcDbEntity
  8
AM_4
100
AcDbLine
 10
2.06
 20
0.6899999999999998
 30
0.0
 11
2.06
 21
0.45135
 31
0.0
  0
LINE
  5
1BF
330
178
100
AcDbEntity
  8
AM_4
100
AcDbLine
 10
2.44
 20
0.6899999999999998
 30
0.0
 11
2.44
 21
-0.6899999999999998
 31
0.0
  0
LINE
  5
1C0
330
178
100
AcDbEntity
  8
AM_4
100
AcDbLine
 10
-1.37
 20
-0.4237499999999997
 30
0.0
 11
-1.3424
 21
-0.4513499999999999
 31
0.0
  0
LINE
  5
1C1
330
178
100
AcDbEntity
  8
AM_4
100
AcDbLine
 10
-1.3424
 20
-0.4513499999999999
 30
0.0
 11
-1.0
 21
-0.4513499999999998
 31
0.0
  0
LINE
  5
1C2
330
178
100
AcDbEntity
  8
AM_4
100
AcDbLine
 10
-1.3424
 20
0.4513500000000001
 30
0.0
 11
-1.37
 21
0.4237500000000001
 31
0.0
  0
LINE
  5
1C3
330
178
100
AcDbEntity
  8
AM_4
100
AcDbLine
 10
-1.3424
 20
0.4513500000000001
 30
0.0
 11
-1.0
 21
0.4513500000000001
 31
0.0
  0
LINE
  5
1C4
330
178
100
AcDbEntity
  8
AM_4
100
AcDbLine
 10
-1.37
 20
0.4237500000000001
 30
0.0
 11
-1.37
 21
-0.4237499999999997
 31
0.0
  0
LINE
  5
1C5
330
178
100
AcDbEntity
  8
AM_4
100
AcDbLine
 10
-1.37
 20
-0.4237499999999997
 30
0.0
 11
-1.0
 21
-0.4237499999999997
 31
0.0
  0
LINE
  5
1C6
330
178
100
AcDbEntity
  8
AM_4
100
AcDbLine
 10
-1.37
 20
0.4237500000000001
 30
0.0
 11
-1.0
 21
0.4237500000000002
 31
0.0
  0
LINE
  5
1C7
330
178
100
AcDbEntity
  8
AM_4
100
AcDbLine
 10
2.44
 20
-0.4513499999999999
 30
0.0
 11
1.0
 21
-0.4513499999999999
 31
0.0
  0
LINE
  5
1C8
330
178
100
AcDbEntity
  8
AM_4
100
AcDbLine
 10
2.44
 20
-0.4513499999999995
 30
0.0
 11
2.386900004613751
 21
-0.3982500046137504
 31
0.0
  0
LINE
  5
1C9
330
178
100
AcDbEntity
  8
AM_4
100
AcDbLine
 10
2.44
 20
0.45135
 30
0.0
 11
1.0
 21
0.4513500000000001
 31
0.0
  0
LINE
  5
1CA
330
178
100
AcDbEntity
  8
AM_4
100
AcDbLine
 10
2.3869
 20
0.3982499999999998
 30
0.0
 11
2.44
 21
0.4513499999999999
 31
0.0
  0
LINE
  5
1CB
330
178
100
AcDbEntity
  8
AM_4
100
AcDbLine
 10
2.3869
 20
0.3982500000000003
 30
0.0
 11
1.0
 21
0.3982500000000003
 31
0.0
  0
LINE
  5
1CC
330
178
100
AcDbEntity
  8
AM_4
100
AcDbLine
 10
2.3869
 20
-0.3982499999999992
 30
0.0
 11
1.0
 21
-0.3982500000000001
 31
0.0
  0
LINE
  5
1CD
330
178
100
AcDbEntity
  8
AM_4
100
AcDbLine
 10
2.3869
 20
-0.3982499999999992
 30
0.0
 11
2.3869
 21
0.3982500000000003
 31
0.0
  0
LINE
  5
1CE
330
178
100
AcDbEntity
  8
AM_4
100
AcDbLine
 10
1.0
 20
0.5310000000000002
 30
0.0
 11
1.0
 21
-0.5309999999999997
 31
0.0
  0
LINE
  5
1CF
330
178
100
AcDbEntity
  8
AM_4
100
AcDbLine
 10
0.9468999999999999
 20
0.2655000000000001
 30
0.0
 11
0.9468999999999999
 21
0.4779
 31
0.0
  0
LINE
  5
1D0
330
178
100
AcDbEntity
  8
AM_4
100
AcDbLine
 10
1.0
 20
0.2655000000000001
 30
0.0
 11
-1.0
 21
0.2655000000000001
 31
0.0
  0
LINE
  5
1D1
330
178
100
AcDbEntity
  8
AM_4
100
AcDbLine
 10
-0.9469
 20
0.2655000000000001
 30
0.0
 11
-0.9469
 21
0.4779
 31
0.0
  0
LINE
  5
1D2
330
178
100
AcDbEntity
  8
AM_4
100
AcDbLine
 10
-1.0
 20
0.5310000000000001
 30
0.0
 11
-0.9999999999999997
 21
-0.5309999999999997
 31
0.0
  0
LINE
  5
1D3
330
178
100
AcDbEntity
  8
AM_4
100
AcDbLine
 10
-1.0
 20
-0.2654999999999999
 30
0.0
 11
1.0
 21
-0.2654999999999999
 31
0.0
  0
LINE
  5
1D4
330
178
100
AcDbEntity
  8
AM_4
100
AcDbLine
 10
-0.9469
 20
-0.4778999999999999
 30
0.0
 11
-0.9999999999999997
 21
-0.5309999999999997
 31
0.0
  0
LINE
  5
1D5
330
178
100
AcDbEntity
  8
AM_4
100
AcDbLine
 10
1.0
 20
-0.5309999999999997
 30
0.0
 11
-0.9999999999999997
 21
-0.5309999999999997
 31
0.0
  0
LINE
  5
1D6
330
178
100
AcDbEntity
  8
AM_4
100
AcDbLine
 10
0.9999999999999997
 20
-0.5309999999999999
 30
0.0
 11
0.9469
 21
-0.4779
 31
0.0
  0
LINE
  5
1D7
330
178
100
AcDbEntity
  8
AM_4
100
AcDbLine
 10
1.0
 20
0.5310000000000002
 30
0.0
 11
-1.0
 21
0.5310000000000001
 31
0.0
  0
LINE
  5
1D8
330
178
100
AcDbEntity
  8
AM_4
100
AcDbLine
 10
-1.0
 20
0.5309999999999999
 30
0.0
 11
-0.9469
 21
0.4779
 31
0.0
  0
LINE
  5
1D9
330
178
100
AcDbEntity
  8
AM_4
100
AcDbLine
 10
0.9468999999999999
 20
0.4779
 30
0.0
 11
-0.9469
 21
0.4779
 31
0.0
  0
LINE
  5
1DA
330
178
100
AcDbEntity
  8
AM_4
100
AcDbLine
 10
0.9468999999999999
 20
0.4779
 30
0.0
 11
1.0
 21
0.5310000000000001
 31
0.0
  0
LINE
  5
1DB
330
178
100
AcDbEntity
  8
AM_4
100
AcDbLine
 10
-0.9469
 20
-0.4778999999999999
 30
0.0
 11
-0.9469
 21
-0.2654999999999999
 31
0.0
  0
LINE
  5
1DC
330
178
100
AcDbEntity
  8
AM_4
100
AcDbLine
 10
0.9468999999999999
 20
-0.4778999999999999
 30
0.0
 11
-0.9469
 21
-0.4778999999999999
 31
0.0
  0
LINE
  5
1DD
330
178
100
AcDbEntity
  8
AM_4
100
AcDbLine
 10
0.9468999999999999
 20
-0.4778999999999999
 30
0.0
 11
0.9468999999999999
 21
-0.2654999999999998
 31
0.0
  0
ENDBLK
  5
17B
330
178
100
AcDbEntity
  8
0
100
AcDbBlockEnd
  0
ENDSEC
  0
SECTION
  2
ENTITIES
  0
INSERT
  5
6F
330
1F
100
AcDbEntity
  8
0
100
AcDbBlockReference
  2
1_125356_4
 10
0.0
 20
0.0
 30
0.0
  0
POINT
  5
1DF
330
1F
100
AcDbEntity
  8
ConnectionPoints
100
AcDbPoint
 10
-1.273057343563125
 20
0.0
 30
-0.735
  0
POINT
  5
1E0
330
1F
100
AcDbEntity
  8
ConnectionPoints
100
AcDbPoint
 10
-1.273057343563125
 20
0.0
 30
-0.735
  0
POINT
  5
1E1
330
1F
100
AcDbEntity
  8
ConnectionPoints
100
AcDbPoint
 10
0.0
 20
-0.78
 30
0.0
  0
ENDSEC
  0
SECTION
  2
OBJECTS
  0
DICTIONARY
  5
C
330
0
100
AcDbDictionary
281
     1
  3
ACAD_DETAILVIEWSTYLE
350
1E9
  3
ACAD_GROUP
350
D
  3
ACAD_LAYOUT
350
1A
  3
ACAD_MATERIAL
350
43
  3
ACAD_MLEADERSTYLE
350
6B
  3
ACAD_MLINESTYLE
350
17
  3
ACAD_PLOTSETTINGS
350
19
  3
ACAD_PLOTSTYLENAME
350
E
  3
ACAD_SCALELIST
350
47
  3
ACAD_SECTIONVIEWSTYLE
350
1EA
  3
ACAD_TABLESTYLE
350
69
  3
ACAD_VISUALSTYLE
350
2A
  3
ACDB_RECOMPOSE_DATA
350
1E6
  3
AcDbVariableDictionary
350
1E2
  0
SUN
  5
6D
330
29
100
AcDbSun
 90
        1
290
     0
 63
     7
421
 16777215
 40
1.0
291
     1
 91
  2455826
 92
 54000000
292
     0
 70
     2
 71
   256
280
     1
  0
DICTIONARY
  5
1E9
102
{ACAD_REACTORS
330
C
102
}
330
C
100
AcDbDictionary
281
     1
  0
DICTIONARY
  5
D
102
{ACAD_REACTORS
330
C
102
}
330
C
100
AcDbDictionary
281
     1
  0
DICTIONARY
  5
1A
102
{ACAD_REACTORS
330
C
102
}
330
C
100
AcDbDictionary
281
     1
  3
Layout1
350
1E
  3
Layout2
350
26
  3
Model
350
22
  0
DICTIONARY
  5
43
102
{ACAD_REACTORS
330
C
102
}
330
C
100
AcDbDictionary
281
     1
  3
ByBlock
350
45
  3
ByLayer
350
44
  3
Global
350
46
  0
DICTIONARY
  5
6B
102
{ACAD_REACTORS
330
C
102
}
330
C
100
AcDbDictionary
281
     1
  3
Standard
350
6C
  0
DICTIONARY
  5
17
102
{ACAD_REACTORS
330
C
102
}
330
C
100
AcDbDictionary
281
     1
  3
Standard
350
18
  0
DICTIONARY
  5
19
102
{ACAD_REACTORS
330
C
102
}
330
C
100
AcDbDictionary
281
     1
  0
ACDBDICTIONARYWDFLT
  5
E
102
{ACAD_REACTORS
330
C
102
}
330
C
100
AcDbDictionary
281
     1
  3
Normal
350
F
100
AcDbDictionaryWithDefault
340
F
  0
DICTIONARY
  5
47
102
{ACAD_REACTORS
330
C
102
}
330
C
100
AcDbDictionary
281
     1
  3
A0
350
48
  3
A1
350
49
  3
A2
350
4A
  3
A3
350
4B
  3
A4
350
4C
  3
A5
350
4D
  3
A6
350
4E
  3
A7
350
4F
  3
A8
350
50
  3
A9
350
51
  3
B0
350
52
  3
B1
350
53
  3
B2
350
54
  3
B3
350
55
  3
B4
350
56
  3
B5
350
57
  3
B6
350
58
  3
B7
350
59
  3
B8
350
5A
  3
B9
350
5B
  3
C0
350
5C
  3
C1
350
5D
  3
C2
350
5E
  3
C3
350
5F
  3
C4
350
60
  3
C5
350
61
  3
C6
350
62
  3
C7
350
63
  3
C8
350
64
  3
C9
350
65
  3
D0
350
66
  3
D1
350
67
  3
D2
350
68
  0
DICTIONARY
  5
1EA
102
{ACAD_REACTORS
330
C
102
}
330
C
100
AcDbDictionary
281
     1
  0
DICTIONARY
  5
69
102
{ACAD_REACTORS
330
C
102
}
330
C
100
AcDbDictionary
281
     1
  3
Standard
350
6A
  0
DICTIONARY
  5
2A
102
{ACAD_REACTORS
330
C
102
}
330
C
100
AcDbDictionary
281
     1
  3
2dWireframe
350
2F
  3
Basic
350
32
  3
Brighten
350
36
  3
ColorChange
350
3A
  3
Conceptual
350
34
  3
Dim
350
35
  3
EdgeColorOff
350
3D
  3
Facepattern
350
39
  3
Flat
350
2B
  3
FlatWithEdges
350
2C
  3
Gouraud
350
2D
  3
GouraudWithEdges
350
2E
  3
Hidden
350
31
  3
JitterOff
350
3B
  3
Linepattern
350
38
  3
OverhangOff
350
3C
  3
Realistic
350
33
  3
Shaded
350
42
  3
Shaded with edges
350
41
  3
Shades of Gray
350
3E
  3
Sketchy
350
3F
  3
Thicken
350
37
  3
Wireframe
350
30
  3
X-Ray
350
40
  0
XRECORD
  5
1E6
102
{ACAD_REACTORS
330
C
102
}
330
C
100
AcDbXrecord
280
     1
 90
        1
330
6A
  0
DICTIONARY
  5
1E2
102
{ACAD_REACTORS
330
C
102
}
330
C
100
AcDbDictionary
281
     1
  3
CANNOSCALE
350
1E3
  3
CMLEADERSTYLE
350
1E8
  3
CTABLESTYLE
350
1E7
  0
LAYOUT
  5
1E
102
{ACAD_REACTORS
330
1A
102
}
330
1A
100
AcDbPlotSettings
  1

  2
none_device
  4

  6

 40
0.0
 41
0.0
 42
0.0
 43
0.0
 44
0.0
 45
0.0
 46
0.0
 47
0.0
 48
0.0
 49
0.0
140
0.0
141
0.0
142
1.0
143
1.0
 70
   688
 72
     0
 73
     0
 74
     5
  7

 75
    16
 76
     0
 77
     2
 78
   300
147
1.0
148
0.0
149
0.0
100
AcDbLayout
  1
Layout1
 70
     1
 71
     1
 10
0.0
 20
0.0
 11
12.0
 21
9.0
 12
0.0
 22
0.0
 32
0.0
 14
1.000000000000000E+20
 24
1.000000000000000E+20
 34
1.000000000000000E+20
 15
-1.000000000000000E+20
 25
-1.000000000000000E+20
 35
-1.000000000000000E+20
146
0.0
 13
0.0
 23
0.0
 33
0.0
 16
1.0
 26
0.0
 36
0.0
 17
0.0
 27
1.0
 37
0.0
 76
     0
330
1B
  0
LAYOUT
  5
26
102
{ACAD_REACTORS
330
1A
102
}
330
1A
100
AcDbPlotSettings
  1

  2
none_device
  4

  6

 40
0.0
 41
0.0
 42
0.0
 43
0.0
 44
0.0
 45
0.0
 46
0.0
 47
0.0
 48
0.0
 49
0.0
140
0.0
141
0.0
142
1.0
143
1.0
 70
   688
 72
     0
 73
     0
 74
     5
  7

 75
    16
 76
     0
 77
     2
 78
   300
147
1.0
148
0.0
149
0.0
100
AcDbLayout
  1
Layout2
 70
     1
 71
     2
 10
0.0
 20
0.0
 11
0.0
 21
0.0
 12
0.0
 22
0.0
 32
0.0
 14
0.0
 24
0.0
 34
0.0
 15
0.0
 25
0.0
 35
0.0
146
0.0
 13
0.0
 23
0.0
 33
0.0
 16
1.0
 26
0.0
 36
0.0
 17
0.0
 27
1.0
 37
0.0
 76
     0
330
23
  0
LAYOUT
  5
22
102
{ACAD_REACTORS
330
1A
102
}
330
1A
100
AcDbPlotSettings
  1

  2
none_device
  4
Letter_(8.50_x_11.00_Inches)
  6

 40
6.35
 41
6.35
 42
6.35000508
 43
6.35000508
 44
215.9
 45
279.4
 46
0.0
 47
0.0
 48
0.0
 49
0.0
140
0.0
141
0.0
142
1.0
143
1.0
 70
  1712
 72
     0
 73
     0
 74
     0
  7

 75
     0
 76
     0
 77
     2
 78
   300
147
1.0
148
0.0
149
0.0
100
AcDbLayout
  1
Model
 70
     1
 71
     0
 10
0.0
 20
0.0
 11
12.0
 21
9.0
 12
0.0
 22
0.0
 32
0.0
 14
1.000000000000000E+20
 24
1.000000000000000E+20
 34
1.000000000000000E+20
 15
-1.000000000000000E+20
 25
-1.000000000000000E+20
 35
-1.000000000000000E+20
146
0.0
 13
0.0
 23
0.0
 33
0.0
 16
1.0
 26
0.0
 36
0.0
 17
0.0
 27
1.0
 37
0.0
 76
     0
330
1F
331
29
  0
MATERIAL
  5
45
102
{ACAD_REACTORS
330
43
102
}
330
43
100
AcDbMaterial
  1
ByBlock
 72
     1
 94
      127
  0
MATERIAL
  5
44
102
{ACAD_REACTORS
330
43
102
}
330
43
100
AcDbMaterial
  1
ByLayer
 72
     1
 94
      127
  0
MATERIAL
  5
46
102
{ACAD_REACTORS
330
43
102
}
330
43
100
AcDbMaterial
  1
Global
 72
     1
 94
      127
  0
MLEADERSTYLE
  5
6C
102
{ACAD_REACTORS
330
6B
102
}
330
6B
100
AcDbMLeaderStyle
179
     2
170
     2
171
     1
172
     0
 90
        2
 40
0.0
 41
0.0
173
     1
 91
-1056964608
340
14
 92
       -2
290
     1
 42
0.09
291
     1
 43
0.36
  3
Standard
341
0
 44
0.18
300

342
11
174
     1
178
     6
175
     1
176
     0
 93
-1056964608
 45
0.18
292
     0
297
     0
 46
0.18
343
0
 94
-1056964608
 47
1.0
 49
1.0
140
1.0
293
     1
141
0.0
294
     1
177
     0
142
1.0
295
     0
296
     0
143
0.125
271
     0
272
     9
273
     9
298
     0
  0
MLINESTYLE
  5
18
102
{ACAD_REACTORS
330
17
102
}
330
17
100
AcDbMlineStyle
  2
Standard
 70
     0
  3

 62
   256
 51
90.0
 52
90.0
 71
     2
 49
0.5
 62
   256
  6
BYLAYER
 49
-0.5
 62
   256
  6
BYLAYER
  0
ACDBPLACEHOLDER
  5
F
102
{ACAD_REACTORS
330
E
102
}
330
E
  0
SCALE
  5
48
102
{ACAD_REACTORS
330
47
102
}
330
47
100
AcDbScale
 70
     0
300
1:1
140
1.0
141
1.0
290
     1
  0
SCALE
  5
49
102
{ACAD_REACTORS
330
47
102
}
330
47
100
AcDbScale
 70
     0
300
1:2
140
1.0
141
2.0
290
     0
  0
SCALE
  5
4A
102
{ACAD_REACTORS
330
47
102
}
330
47
100
AcDbScale
 70
     0
300
1:4
140
1.0
141
4.0
290
     0
  0
SCALE
  5
4B
102
{ACAD_REACTORS
330
47
102
}
330
47
100
AcDbScale
 70
     0
300
1:5
140
1.0
141
5.0
290
     0
  0
SCALE
  5
4C
102
{ACAD_REACTORS
330
47
102
}
330
47
100
AcDbScale
 70
     0
300
1:8
140
1.0
141
8.0
290
     0
  0
SCALE
  5
4D
102
{ACAD_REACTORS
330
47
102
}
330
47
100
AcDbScale
 70
     0
300
1:10
140
1.0
141
10.0
290
     0
  0
SCALE
  5
4E
102
{ACAD_REACTORS
330
47
102
}
330
47
100
AcDbScale
 70
     0
300
1:16
140
1.0
141
16.0
290
     0
  0
SCALE
  5
4F
102
{ACAD_REACTORS
330
47
102
}
330
47
100
AcDbScale
 70
     0
300
1:20
140
1.0
141
20.0
290
     0
  0
SCALE
  5
50
102
{ACAD_REACTORS
330
47
102
}
330
47
100
AcDbScale
 70
     0
300
1:30
140
1.0
141
30.0
290
     0
  0
SCALE
  5
51
102
{ACAD_REACTORS
330
47
102
}
330
47
100
AcDbScale
 70
     0
300
1:40
140
1.0
141
40.0
290
     0
  0
SCALE
  5
52
102
{ACAD_REACTORS
330
47
102
}
330
47
100
AcDbScale
 70
     0
300
1:50
140
1.0
141
50.0
290
     0
  0
SCALE
  5
53
102
{ACAD_REACTORS
330
47
102
}
330
47
100
AcDbScale
 70
     0
300
1:100
140
1.0
141
100.0
290
     0
  0
SCALE
  5
54
102
{ACAD_REACTORS
330
47
102
}
330
47
100
AcDbScale
 70
     0
300
2:1
140
2.0
141
1.0
290
     0
  0
SCALE
  5
55
102
{ACAD_REACTORS
330
47
102
}
330
47
100
AcDbScale
 70
     0
300
4:1
140
4.0
141
1.0
290
     0
  0
SCALE
  5
56
102
{ACAD_REACTORS
330
47
102
}
330
47
100
AcDbScale
 70
     0
300
8:1
140
8.0
141
1.0
290
     0
  0
SCALE
  5
57
102
{ACAD_REACTORS
330
47
102
}
330
47
100
AcDbScale
 70
     0
300
10:1
140
10.0
141
1.0
290
     0
  0
SCALE
  5
58
102
{ACAD_REACTORS
330
47
102
}
330
47
100
AcDbScale
 70
     0
300
100:1
140
100.0
141
1.0
290
     0
  0
SCALE
  5
59
102
{ACAD_REACTORS
330
47
102
}
330
47
100
AcDbScale
 70
     0
300
1/128" = 1'-0"
140
0.0078125
141
12.0
290
     0
  0
SCALE
  5
5A
102
{ACAD_REACTORS
330
47
102
}
330
47
100
AcDbScale
 70
     0
300
1/64" = 1'-0"
140
0.015625
141
12.0
290
     0
  0
SCALE
  5
5B
102
{ACAD_REACTORS
330
47
102
}
330
47
100
AcDbScale
 70
     0
300
1/32" = 1'-0"
140
0.03125
141
12.0
290
     0
  0
SCALE
  5
5C
102
{ACAD_REACTORS
330
47
102
}
330
47
100
AcDbScale
 70
     0
300
1/16" = 1'-0"
140
0.0625
141
12.0
290
     0
  0
SCALE
  5
5D
102
{ACAD_REACTORS
330
47
102
}
330
47
100
AcDbScale
 70
     0
300
3/32" = 1'-0"
140
0.09375
141
12.0
290
     0
  0
SCALE
  5
5E
102
{ACAD_REACTORS
330
47
102
}
330
47
100
AcDbScale
 70
     0
300
1/8" = 1'-0"
140
0.125
141
12.0
290
     0
  0
SCALE
  5
5F
102
{ACAD_REACTORS
330
47
102
}
330
47
100
AcDbScale
 70
     0
300
3/16" = 1'-0"
140
0.1875
141
12.0
290
     0
  0
SCALE
  5
60
102
{ACAD_REACTORS
330
47
102
}
330
47
100
AcDbScale
 70
     0
300
1/4" = 1'-0"
140
0.25
141
12.0
290
     0
  0
SCALE
  5
61
102
{ACAD_REACTORS
330
47
102
}
330
47
100
AcDbScale
 70
     0
300
3/8" = 1'-0"
140
0.375
141
12.0
290
     0
  0
SCALE
  5
62
102
{ACAD_REACTORS
330
47
102
}
330
47
100
AcDbScale
 70
     0
300
1/2" = 1'-0"
140
0.5
141
12.0
290
     0
  0
SCALE
  5
63
102
{ACAD_REACTORS
330
47
102
}
330
47
100
AcDbScale
 70
     0
300
3/4" = 1'-0"
140
0.75
141
12.0
290
     0
  0
SCALE
  5
64
102
{ACAD_REACTORS
330
47
102
}
330
47
100
AcDbScale
 70
     0
300
1" = 1'-0"
140
1.0
141
12.0
290
     0
  0
SCALE
  5
65
102
{ACAD_REACTORS
330
47
102
}
330
47
100
AcDbScale
 70
     0
300
1-1/2" = 1'-0"
140
1.5
141
12.0
290
     0
  0
SCALE
  5
66
102
{ACAD_REACTORS
330
47
102
}
330
47
100
AcDbScale
 70
     0
300
3" = 1'-0"
140
3.0
141
12.0
290
     0
  0
SCALE
  5
67
102
{ACAD_REACTORS
330
47
102
}
330
47
100
AcDbScale
 70
     0
300
6" = 1'-0"
140
6.0
141
12.0
290
     0
  0
SCALE
  5
68
102
{ACAD_REACTORS
330
47
102
}
330
47
100
AcDbScale
 70
     0
300
1'-0" = 1'-0"
140
12.0
141
12.0
290
     0
  0
TABLESTYLE
  5
6A
102
{ACAD_REACTORS
330
69
102
}
102
{ACAD_XDICTIONARY
360
1E4
102
}
330
69
100
AcDbTableStyle
  3
Standard
 70
     0
 71
     0
 40
0.06
 41
0.06
280
     0
281
     0
  7
Standard
140
0.18
170
     2
 62
     0
 63
   257
283
     0
 90
        4
 91
        0
  1

274
    -2
284
     1
 64
     0
275
    -2
285
     1
 65
     0
276
    -2
286
     1
 66
     0
277
    -2
287
     1
 67
     0
278
    -2
288
     1
 68
     0
279
    -2
289
     1
 69
     0
  7
Standard
140
0.25
170
     5
 62
     0
 63
   257
283
     0
 90
        4
 91
        0
  1

274
    -2
284
     1
 64
     0
275
    -2
285
     1
 65
     0
276
    -2
286
     1
 66
     0
277
    -2
287
     1
 67
     0
278
    -2
288
     1
 68
     0
279
    -2
289
     1
 69
     0
  7
Standard
140
0.18
170
     5
 62
     0
 63
   257
283
     0
 90
        4
 91
        0
  1

274
    -2
284
     1
 64
     0
275
    -2
285
     1
 65
     0
276
    -2
286
     1
 66
     0
277
    -2
287
     1
 67
     0
278
    -2
288
     1
 68
     0
279
    -2
289
     1
 69
     0
  0
VISUALSTYLE
  5
2F
102
{ACAD_REACTORS
330
2A
102
}
330
2A
100
AcDbVisualStyle
  2
2dWireframe
 70
     4
177
     3
291
     0
 70
    58
 90
        0
176
     1
 90
        2
176
     1
 90
        0
176
     1
 90
        0
176
     1
 40
0.6
176
     1
 40
30.0
176
     1
 62
     7
420
 16777215
176
     1
 90
        1
176
     1
 90
        4
176
     1
 62
     7
176
     1
 62
   257
176
     1
 90
        1
176
     1
 90
        1
176
     1
 40
1.0
176
     1
 90
        0
176
     1
 62
   257
176
     1
 40
1.0
176
     1
 90
        1
176
     1
 90
        6
176
     1
 90
        2
176
     1
 62
     7
176
     1
 90
        5
176
     1
 90
        0
176
     1
 90
        0
176
     1
290
     0
176
     1
 90
        1
176
     1
 40
0.0
176
     1
 90
        0
176
     1
290
     1
176
     1
290
     1
176
     1
290
     0
176
     1
290
     0
176
     1
290
     0
176
     1
290
     0
176
     1
290
     0
176
     1
290
     0
176
     1
290
     0
176
     1
 90
       50
176
     1
 40
0.0
176
     1
 40
1.0
176
     1
 90
        0
176
     1
 62
    18
420
        0
176
     1
 90
       50
176
     1
 90
        3
176
     1
 62
     5
420
      255
176
     1
290
     0
176
     1
 90
       50
176
     1
 90
       50
176
     1
 90
       50
176
     1
290
     0
176
     1
 90
       50
176
     1
 62
   256
176
     0
 40
1.0
176
     0
 90
        2
176
     1
  1
strokes_ogs.tif
176
     1
290
     0
176
     1
 40
1.0
176
     1
 40
1.0
176
     1
  0
VISUALSTYLE
  5
32
102
{ACAD_REACTORS
330
2A
102
}
330
2A
100
AcDbVisualStyle
  2
Basic
 70
     7
177
     3
291
     1
 70
    58
 90
        1
176
     1
 90
        0
176
     1
 90
        1
176
     1
 90
        0
176
     1
 40
0.6
176
     1
 40
30.0
176
     1
 62
     7
420
 16777215
176
     1
 90
        0
176
     1
 90
        4
176
     1
 62
     7
176
     1
 62
   257
176
     1
 90
        1
176
     1
 90
        1
176
     1
 40
1.0
176
     1
 90
        8
176
     1
 62
     7
176
     1
 40
1.0
176
     1
 90
        1
176
     1
 90
        6
176
     1
 90
        2
176
     1
 62
     7
176
     1
 90
        5
176
     1
 90
        0
176
     1
 90
        0
176
     1
290
     0
176
     1
 90
        1
176
     1
 40
0.0
176
     1
 90
        0
176
     1
290
     0
176
     1
290
     1
176
     1
290
     1
176
     1
290
     0
176
     1
290
     0
176
     1
290
     0
176
     1
290
     0
176
     1
290
     0
176
     1
290
     0
176
     1
 90
       50
176
     1
 40
0.0
176
     1
 40
1.0
176
     1
 90
        0
176
     1
 62
    18
420
        0
176
     1
 90
       50
176
     1
 90
        3
176
     1
 62
     5
420
      255
176
     1
290
     0
176
     1
 90
       50
176
     1
 90
       50
176
     1
 90
       50
176
     1
290
     0
176
     1
 90
       50
176
     1
 62
   256
176
     0
 40
1.0
176
     0
 90
        2
176
     1
  1
strokes_ogs.tif
176
     1
290
     0
176
     1
 40
1.0
176
     1
 40
1.0
176
     1
  0
VISUALSTYLE
  5
36
102
{ACAD_REACTORS
330
2A
102
}
330
2A
100
AcDbVisualStyle
  2
Brighten
 70
    12
177
     3
291
     1
 70
    58
 90
        2
176
     1
 90
        2
176
     1
 90
        0
176
     1
 90
        0
176
     1
 40
0.6
176
     1
 40
30.0
176
     1
 62
     7
420
 16777215
176
     1
 90
        1
176
     1
 90
        4
176
     1
 62
     7
176
     1
 62
   257
176
     1
 90
        1
176
     1
 90
        1
176
     1
 40
1.0
176
     1
 90
        8
176
     1
 62
     7
176
     1
 40
1.0
176
     1
 90
        1
176
     1
 90
        6
176
     1
 90
        2
176
     1
 62
     7
176
     1
 90
        5
176
     1
 90
        0
176
     1
 90
        0
176
     1
290
     0
176
     1
 90
        1
176
     1
 40
50.0
176
     1
 90
        0
176
     1
290
     0
176
     1
290
     1
176
     1
290
     1
176
     1
290
     0
176
     1
290
     0
176
     1
290
     0
176
     1
290
     0
176
     1
290
     0
176
     1
290
     0
176
     1
 90
       50
176
     1
 40
0.0
176
     1
 40
1.0
176
     1
 90
        0
176
     1
 62
    18
420
        0
176
     1
 90
       50
176
     1
 90
        3
176
     1
 62
     5
420
      255
176
     1
290
     0
176
     1
 90
       50
176
     1
 90
       50
176
     1
 90
       50
176
     1
290
     0
176
     1
 90
       50
176
     1
 62
   256
176
     0
 40
1.0
176
     0
 90
        2
176
     1
  1
strokes_ogs.tif
176
     1
290
     0
176
     1
 40
1.0
176
     1
 40
1.0
176
     1
  0
VISUALSTYLE
  5
3A
102
{ACAD_REACTORS
330
2A
102
}
330
2A
100
AcDbVisualStyle
  2
ColorChange
 70
    16
177
     3
291
     1
 70
    58
 90
        2
176
     1
 90
        2
176
     1
 90
        3
176
     1
 90
        0
176
     1
 40
0.6
176
     1
 40
30.0
176
     1
 62
     8
420
  8421504
176
     1
 90
        1
176
     1
 90
        4
176
     1
 62
     7
176
     1
 62
   257
176
     1
 90
        1
176
     1
 90
        1
176
     1
 40
1.0
176
     1
 90
        8
176
     1
 62
     8
420
  8421504
176
     1
 40
1.0
176
     1
 90
        1
176
     1
 90
        6
176
     1
 90
        2
176
     1
 62
     7
176
     1
 90
        5
176
     1
 90
        0
176
     1
 90
        0
176
     1
290
     0
176
     1
 90
        1
176
     1
 40
0.0
176
     1
 90
        0
176
     1
290
     0
176
     1
290
     1
176
     1
290
     1
176
     1
290
     0
176
     1
290
     0
176
     1
290
     0
176
     1
290
     0
176
     1
290
     0
176
     1
290
     0
176
     1
 90
       50
176
     1
 40
0.0
176
     1
 40
1.0
176
     1
 90
        0
176
     1
 62
    18
420
        0
176
     1
 90
       50
176
     1
 90
        3
176
     1
 62
     5
420
      255
176
     1
290
     0
176
     1
 90
       50
176
     1
 90
       50
176
     1
 90
       50
176
     1
290
     0
176
     1
 90
       50
176
     1
 62
   256
176
     0
 40
1.0
176
     0
 90
        2
176
     1
  1
strokes_ogs.tif
176
     1
290
     0
176
     1
 40
1.0
176
     1
 40
1.0
176
     1
  0
VISUALSTYLE
  5
34
102
{ACAD_REACTORS
330
2A
102
}
330
2A
100
AcDbVisualStyle
  2
Conceptual
 70
     9
177
     3
291
     0
 70
    58
 90
        3
176
     1
 90
        2
176
     1
 90
        0
176
     1
 90
        0
176
     1
 40
0.6
176
     1
 40
30.0
176
     1
 62
     7
420
 16777215
176
     1
 90
        2
176
     1
 90
        2
176
     1
 62
     7
176
     1
 62
   257
176
     1
 90
        1
176
     1
 90
        1
176
     1
 40
179.0
176
     1
 90
        8
176
     1
 62
     7
176
     1
 40
1.0
176
     1
 90
        1
176
     1
 90
        6
176
     1
 90
        2
176
     1
 62
     7
176
     1
 90
        3
176
     1
 90
        0
176
     1
 90
        0
176
     1
290
     0
176
     1
 90
        1
176
     1
 40
0.0
176
     1
 90
        0
176
     1
290
     0
176
     1
290
     1
176
     1
290
     1
176
     1
290
     0
176
     1
290
     0
176
     1
290
     0
176
     1
290
     0
176
     1
290
     0
176
     1
290
     0
176
     1
 90
       50
176
     1
 40
0.0
176
     1
 40
1.0
176
     1
 90
        0
176
     1
 62
    18
420
        0
176
     1
 90
       50
176
     1
 90
        3
176
     1
 62
     5
420
      255
176
     1
290
     0
176
     1
 90
       50
176
     1
 90
       50
176
     1
 90
       50
176
     1
290
     0
176
     1
 90
       50
176
     1
 62
   256
176
     0
 40
1.0
176
     0
 90
        2
176
     1
  1
strokes_ogs.tif
176
     1
290
     0
176
     1
 40
1.0
176
     1
 40
1.0
176
     1
  0
VISUALSTYLE
  5
35
102
{ACAD_REACTORS
330
2A
102
}
330
2A
100
AcDbVisualStyle
  2
Dim
 70
    11
177
     3
291
     1
 70
    58
 90
        2
176
     1
 90
        2
176
     1
 90
        0
176
     1
 90
        0
176
     1
 40
0.6
176
     1
 40
30.0
176
     1
 62
     7
420
 16777215
176
     1
 90
        1
176
     1
 90
        4
176
     1
 62
     7
176
     1
 62
   257
176
     1
 90
        1
176
     1
 90
        1
176
     1
 40
1.0
176
     1
 90
        8
176
     1
 62
     7
176
     1
 40
1.0
176
     1
 90
        1
176
     1
 90
        6
176
     1
 90
        2
176
     1
 62
     7
176
     1
 90
        5
176
     1
 90
        0
176
     1
 90
        0
176
     1
290
     0
176
     1
 90
        1
176
     1
 40
-50.0
176
     1
 90
        0
176
     1
290
     0
176
     1
290
     1
176
     1
290
     1
176
     1
290
     0
176
     1
290
     0
176
     1
290
     0
176
     1
290
     0
176
     1
290
     0
176
     1
290
     0
176
     1
 90
       50
176
     1
 40
0.0
176
     1
 40
1.0
176
     1
 90
        0
176
     1
 62
    18
420
        0
176
     1
 90
       50
176
     1
 90
        3
176
     1
 62
     5
420
      255
176
     1
290
     0
176
     1
 90
       50
176
     1
 90
       50
176
     1
 90
       50
176
     1
290
     0
176
     1
 90
       50
176
     1
 62
   256
176
     0
 40
1.0
176
     0
 90
        2
176
     1
  1
strokes_ogs.tif
176
     1
290
     0
176
     1
 40
1.0
176
     1
 40
1.0
176
     1
  0
VISUALSTYLE
  5
3D
102
{ACAD_REACTORS
330
2A
102
}
330
2A
100
AcDbVisualStyle
  2
EdgeColorOff
 70
    22
177
     3
291
     1
 70
    58
 90
        2
176
     0
 90
        2
176
     0
 90
        0
176
     0
 90
        0
176
     0
 40
0.6
176
     0
 40
30.0
176
     0
 62
     7
420
 16777215
176
     0
 90
        1
176
     0
 90
        4
176
     0
 62
     7
176
     0
 62
   257
176
     0
 90
        1
176
     0
 90
        1
176
     0
 40
1.0
176
     0
 90
        8
176
     2
 62
     7
176
     0
 40
1.0
176
     0
 90
        1
176
     0
 90
        6
176
     0
 90
        2
176
     0
 62
     7
176
     0
 90
        5
176
     0
 90
        0
176
     0
 90
        0
176
     0
290
     0
176
     0
 90
        1
176
     0
 40
0.0
176
     0
 90
        0
176
     0
290
     0
176
     0
290
     1
176
     0
290
     1
176
     0
290
     0
176
     0
290
     0
176
     0
290
     0
176
     0
290
     0
176
     0
290
     0
176
     0
290
     0
176
     0
 90
       50
176
     0
 40
0.0
176
     0
 40
1.0
176
     0
 90
        0
176
     0
 62
    18
420
        0
176
     0
 90
       50
176
     0
 90
        3
176
     0
 62
     5
420
      255
176
     0
290
     0
176
     0
 90
       50
176
     0
 90
       50
176
     0
 90
       50
176
     0
290
     0
176
     0
 90
       50
176
     0
 62
   256
176
     0
 40
1.0
176
     0
 90
        2
176
     0
  1
strokes_ogs.tif
176
     0
290
     0
176
     0
 40
1.0
176
     0
 40
1.0
176
     0
  0
VISUALSTYLE
  5
39
102
{ACAD_REACTORS
330
2A
102
}
330
2A
100
AcDbVisualStyle
  2
Facepattern
 70
    15
177
     3
291
     1
 70
    58
 90
        2
176
     1
 90
        2
176
     1
 90
        0
176
     1
 90
        0
176
     1
 40
0.6
176
     1
 40
30.0
176
     1
 62
     7
420
 16777215
176
     1
 90
        1
176
     1
 90
        4
176
     1
 62
     7
176
     1
 62
   257
176
     1
 90
        1
176
     1
 90
        1
176
     1
 40
1.0
176
     1
 90
        8
176
     1
 62
     7
176
     1
 40
1.0
176
     1
 90
        1
176
     1
 90
        6
176
     1
 90
        2
176
     1
 62
     7
176
     1
 90
        5
176
     1
 90
        0
176
     1
 90
        0
176
     1
290
     0
176
     1
 90
        1
176
     1
 40
0.0
176
     1
 90
        0
176
     1
290
     0
176
     1
290
     1
176
     1
290
     1
176
     1
290
     0
176
     1
290
     0
176
     1
290
     0
176
     1
290
     0
176
     1
290
     0
176
     1
290
     0
176
     1
 90
       50
176
     1
 40
0.0
176
     1
 40
1.0
176
     1
 90
        0
176
     1
 62
    18
420
        0
176
     1
 90
       50
176
     1
 90
        3
176
     1
 62
     5
420
      255
176
     1
290
     0
176
     1
 90
       50
176
     1
 90
       50
176
     1
 90
       50
176
     1
290
     0
176
     1
 90
       50
176
     1
 62
   256
176
     0
 40
1.0
176
     0
 90
        2
176
     1
  1
strokes_ogs.tif
176
     1
290
     0
176
     1
 40
1.0
176
     1
 40
1.0
176
     1
  0
VISUALSTYLE
  5
2B
102
{ACAD_REACTORS
330
2A
102
}
330
2A
100
AcDbVisualStyle
  2
Flat
 70
     0
177
     3
291
     1
 70
    58
 90
        2
176
     1
 90
        1
176
     1
 90
        1
176
     1
 90
        2
176
     1
 40
0.6
176
     1
 40
30.0
176
     1
 62
     7
420
 16777215
176
     1
 90
        0
176
     1
 90
        0
176
     1
 62
     7
176
     1
 62
   257
176
     1
 90
        1
176
     1
 90
        1
176
     1
 40
1.0
176
     1
 90
        8
176
     1
 62
     7
176
     1
 40
1.0
176
     1
 90
        1
176
     1
 90
        6
176
     1
 90
        2
176
     1
 62
     7
176
     1
 90
        5
176
     1
 90
        0
176
     1
 90
        0
176
     1
290
     0
176
     1
 90
       13
176
     1
 40
0.0
176
     1
 90
        0
176
     1
290
     0
176
     1
290
     1
176
     1
290
     1
176
     1
290
     0
176
     1
290
     0
176
     1
290
     0
176
     1
290
     0
176
     1
290
     0
176
     1
290
     0
176
     1
 90
       50
176
     1
 40
0.0
176
     1
 40
1.0
176
     1
 90
        0
176
     1
 62
    18
420
        0
176
     1
 90
       50
176
     1
 90
        3
176
     1
 62
     5
420
      255
176
     1
290
     0
176
     1
 90
       50
176
     1
 90
       50
176
     1
 90
       50
176
     1
290
     0
176
     1
 90
       50
176
     1
 62
   256
176
     0
 40
1.0
176
     0
 90
        2
176
     1
  1
strokes_ogs.tif
176
     1
290
     0
176
     1
 40
1.0
176
     1
 40
1.0
176
     1
  0
VISUALSTYLE
  5
2C
102
{ACAD_REACTORS
330
2A
102
}
330
2A
100
AcDbVisualStyle
  2
FlatWithEdges
 70
     1
177
     3
291
     1
 70
    58
 90
        2
176
     1
 90
        1
176
     1
 90
        1
176
     1
 90
        2
176
     1
 40
0.6
176
     1
 40
30.0
176
     1
 62
     7
420
 16777215
176
     1
 90
        1
176
     1
 90
        0
176
     1
 62
     7
176
     1
 62
   257
176
     1
 90
        1
176
     1
 90
        1
176
     1
 40
1.0
176
     1
 90
        0
176
     1
 62
   257
176
     1
 40
1.0
176
     1
 90
        1
176
     1
 90
        6
176
     1
 90
        2
176
     1
 62
     7
176
     1
 90
        5
176
     1
 90
        0
176
     1
 90
        0
176
     1
290
     0
176
     1
 90
       13
176
     1
 40
0.0
176
     1
 90
        0
176
     1
290
     0
176
     1
290
     1
176
     1
290
     1
176
     1
290
     0
176
     1
290
     0
176
     1
290
     0
176
     1
290
     0
176
     1
290
     0
176
     1
290
     0
176
     1
 90
       50
176
     1
 40
0.0
176
     1
 40
1.0
176
     1
 90
        0
176
     1
 62
    18
420
        0
176
     1
 90
       50
176
     1
 90
        3
176
     1
 62
     5
420
      255
176
     1
290
     0
176
     1
 90
       50
176
     1
 90
       50
176
     1
 90
       50
176
     1
290
     0
176
     1
 90
       50
176
     1
 62
   256
176
     0
 40
1.0
176
     0
 90
        2
176
     1
  1
strokes_ogs.tif
176
     1
290
     0
176
     1
 40
1.0
176
     1
 40
1.0
176
     1
  0
VISUALSTYLE
  5
2D
102
{ACAD_REACTORS
330
2A
102
}
330
2A
100
AcDbVisualStyle
  2
Gouraud
 70
     2
177
     3
291
     1
 70
    58
 90
        2
176
     1
 90
        2
176
     1
 90
        1
176
     1
 90
        2
176
     1
 40
0.6
176
     1
 40
30.0
176
     1
 62
     7
420
 16777215
176
     1
 90
        0
176
     1
 90
        0
176
     1
 62
     7
176
     1
 62
   257
176
     1
 90
        1
176
     1
 90
        1
176
     1
 40
1.0
176
     1
 90
        0
176
     1
 62
     7
176
     1
 40
1.0
176
     1
 90
        1
176
     1
 90
        6
176
     1
 90
        2
176
     1
 62
     7
176
     1
 90
        5
176
     1
 90
        0
176
     1
 90
        0
176
     1
290
     0
176
     1
 90
       13
176
     1
 40
0.0
176
     1
 90
        0
176
     1
290
     0
176
     1
290
     1
176
     1
290
     1
176
     1
290
     0
176
     1
290
     0
176
     1
290
     0
176
     1
290
     0
176
     1
290
     0
176
     1
290
     0
176
     1
 90
       50
176
     1
 40
0.0
176
     1
 40
1.0
176
     1
 90
        0
176
     1
 62
    18
420
        0
176
     1
 90
       50
176
     1
 90
        3
176
     1
 62
     5
420
      255
176
     1
290
     0
176
     1
 90
       50
176
     1
 90
       50
176
     1
 90
       50
176
     1
290
     0
176
     1
 90
       50
176
     1
 62
   256
176
     0
 40
1.0
176
     0
 90
        2
176
     1
  1
strokes_ogs.tif
176
     1
290
     0
176
     1
 40
1.0
176
     1
 40
1.0
176
     1
  0
VISUALSTYLE
  5
2E
102
{ACAD_REACTORS
330
2A
102
}
330
2A
100
AcDbVisualStyle
  2
GouraudWithEdges
 70
     3
177
     3
291
     1
 70
    58
 90
        2
176
     1
 90
        2
176
     1
 90
        1
176
     1
 90
        2
176
     1
 40
0.6
176
     1
 40
30.0
176
     1
 62
     7
420
 16777215
176
     1
 90
        1
176
     1
 90
        0
176
     1
 62
     7
176
     1
 62
   257
176
     1
 90
        1
176
     1
 90
        1
176
     1
 40
1.0
176
     1
 90
        0
176
     1
 62
   257
176
     1
 40
1.0
176
     1
 90
        1
176
     1
 90
        6
176
     1
 90
        2
176
     1
 62
     7
176
     1
 90
        5
176
     1
 90
        0
176
     1
 90
        0
176
     1
290
     0
176
     1
 90
       13
176
     1
 40
0.0
176
     1
 90
        0
176
     1
290
     0
176
     1
290
     1
176
     1
290
     1
176
     1
290
     0
176
     1
290
     0
176
     1
290
     0
176
     1
290
     0
176
     1
290
     0
176
     1
290
     0
176
     1
 90
       50
176
     1
 40
0.0
176
     1
 40
1.0
176
     1
 90
        0
176
     1
 62
    18
420
        0
176
     1
 90
       50
176
     1
 90
        3
176
     1
 62
     5
420
      255
176
     1
290
     0
176
     1
 90
       50
176
     1
 90
       50
176
     1
 90
       50
176
     1
290
     0
176
     1
 90
       50
176
     1
 62
   256
176
     0
 40
1.0
176
     0
 90
        2
176
     1
  1
strokes_ogs.tif
176
     1
290
     0
176
     1
 40
1.0
176
     1
 40
1.0
176
     1
  0
VISUALSTYLE
  5
31
102
{ACAD_REACTORS
330
2A
102
}
330
2A
100
AcDbVisualStyle
  2
Hidden
 70
     6
177
     3
291
     0
 70
    58
 90
        1
176
     1
 90
        2
176
     1
 90
        2
176
     1
 90
        0
176
     1
 40
0.6
176
     1
 40
30.0
176
     1
 62
     7
420
 16777215
176
     1
 90
        2
176
     1
 90
        2
176
     1
 62
     7
176
     1
 62
   257
176
     1
 90
        2
176
     1
 90
        1
176
     1
 40
40.0
176
     1
 90
        0
176
     1
 62
   257
176
     1
 40
1.0
176
     1
 90
        1
176
     1
 90
        6
176
     1
 90
        2
176
     1
 62
     7
176
     1
 90
        3
176
     1
 90
        0
176
     1
 90
        0
176
     1
290
     0
176
     1
 90
        1
176
     1
 40
0.0
176
     1
 90
        0
176
     1
290
     0
176
     1
290
     1
176
     1
290
     1
176
     1
290
     0
176
     1
290
     0
176
     1
290
     0
176
     1
290
     0
176
     1
290
     0
176
     1
290
     0
176
     1
 90
       50
176
     1
 40
0.0
176
     1
 40
1.0
176
     1
 90
        0
176
     1
 62
    18
420
        0
176
     1
 90
       50
176
     1
 90
        3
176
     1
 62
     5
420
      255
176
     1
290
     0
176
     1
 90
       50
176
     1
 90
       50
176
     1
 90
       50
176
     1
290
     0
176
     1
 90
       50
176
     1
 62
   256
176
     0
 40
1.0
176
     0
 90
        2
176
     1
  1
strokes_ogs.tif
176
     1
290
     0
176
     1
 40
1.0
176
     1
 40
1.0
176
     1
  0
VISUALSTYLE
  5
3B
102
{ACAD_REACTORS
330
2A
102
}
330
2A
100
AcDbVisualStyle
  2
JitterOff
 70
    20
177
     3
291
     1
 70
    58
 90
        2
176
     0
 90
        2
176
     0
 90
        0
176
     0
 90
        0
176
     0
 40
0.6
176
     0
 40
30.0
176
     0
 62
     7
420
 16777215
176
     0
 90
        1
176
     0
 90
        4
176
     0
 62
     7
176
     0
 62
   257
176
     0
 90
        1
176
     0
 90
        1
176
     0
 40
1.0
176
     0
 90
       10
176
     2
 62
     7
176
     0
 40
1.0
176
     0
 90
        1
176
     0
 90
        6
176
     0
 90
        2
176
     0
 62
     7
176
     0
 90
        5
176
     0
 90
        0
176
     0
 90
        0
176
     0
290
     0
176
     0
 90
        1
176
     0
 40
0.0
176
     0
 90
        0
176
     0
290
     0
176
     0
290
     1
176
     0
290
     1
176
     0
290
     0
176
     0
290
     0
176
     0
290
     0
176
     0
290
     0
176
     0
290
     0
176
     0
290
     0
176
     0
 90
       50
176
     0
 40
0.0
176
     0
 40
1.0
176
     0
 90
        0
176
     0
 62
    18
420
        0
176
     0
 90
       50
176
     0
 90
        3
176
     0
 62
     5
420
      255
176
     0
290
     0
176
     0
 90
       50
176
     0
 90
       50
176
     0
 90
       50
176
     0
290
     0
176
     0
 90
       50
176
     0
 62
   256
176
     0
 40
1.0
176
     0
 90
        2
176
     0
  1
strokes_ogs.tif
176
     0
290
     0
176
     0
 40
1.0
176
     0
 40
1.0
176
     0
  0
VISUALSTYLE
  5
38
102
{ACAD_REACTORS
330
2A
102
}
330
2A
100
AcDbVisualStyle
  2
Linepattern
 70
    14
177
     3
291
     1
 70
    58
 90
        2
176
     1
 90
        2
176
     1
 90
        0
176
     1
 90
        0
176
     1
 40
0.6
176
     1
 40
30.0
176
     1
 62
     7
420
 16777215
176
     1
 90
        1
176
     1
 90
        4
176
     1
 62
     7
176
     1
 62
   257
176
     1
 90
        7
176
     1
 90
        7
176
     1
 40
1.0
176
     1
 90
        8
176
     1
 62
     7
176
     1
 40
1.0
176
     1
 90
        1
176
     1
 90
        6
176
     1
 90
        2
176
     1
 62
     7
176
     1
 90
        5
176
     1
 90
        0
176
     1
 90
        0
176
     1
290
     0
176
     1
 90
        1
176
     1
 40
0.0
176
     1
 90
        0
176
     1
290
     0
176
     1
290
     1
176
     1
290
     1
176
     1
290
     0
176
     1
290
     0
176
     1
290
     0
176
     1
290
     0
176
     1
290
     0
176
     1
290
     0
176
     1
 90
       50
176
     1
 40
0.0
176
     1
 40
1.0
176
     1
 90
        0
176
     1
 62
    18
420
        0
176
     1
 90
       50
176
     1
 90
        3
176
     1
 62
     5
420
      255
176
     1
290
     0
176
     1
 90
       50
176
     1
 90
       50
176
     1
 90
       50
176
     1
290
     0
176
     1
 90
       50
176
     1
 62
   256
176
     0
 40
1.0
176
     0
 90
        2
176
     1
  1
strokes_ogs.tif
176
     1
290
     0
176
     1
 40
1.0
176
     1
 40
1.0
176
     1
  0
VISUALSTYLE
  5
3C
102
{ACAD_REACTORS
330
2A
102
}
330
2A
100
AcDbVisualStyle
  2
OverhangOff
 70
    21
177
     3
291
     1
 70
    58
 90
        2
176
     0
 90
        2
176
     0
 90
        0
176
     0
 90
        0
176
     0
 40
0.6
176
     0
 40
30.0
176
     0
 62
     7
420
 16777215
176
     0
 90
        1
176
     0
 90
        4
176
     0
 62
     7
176
     0
 62
   257
176
     0
 90
        1
176
     0
 90
        1
176
     0
 40
1.0
176
     0
 90
        9
176
     2
 62
     7
176
     0
 40
1.0
176
     0
 90
        1
176
     0
 90
        6
176
     0
 90
        2
176
     0
 62
     7
176
     0
 90
        5
176
     0
 90
        0
176
     0
 90
        0
176
     0
290
     0
176
     0
 90
        1
176
     0
 40
0.0
176
     0
 90
        0
176
     0
290
     0
176
     0
290
     1
176
     0
290
     1
176
     0
290
     0
176
     0
290
     0
176
     0
290
     0
176
     0
290
     0
176
     0
290
     0
176
     0
290
     0
176
     0
 90
       50
176
     0
 40
0.0
176
     0
 40
1.0
176
     0
 90
        0
176
     0
 62
    18
420
        0
176
     0
 90
       50
176
     0
 90
        3
176
     0
 62
     5
420
      255
176
     0
290
     0
176
     0
 90
       50
176
     0
 90
       50
176
     0
 90
       50
176
     0
290
     0
176
     0
 90
       50
176
     0
 62
   256
176
     0
 40
1.0
176
     0
 90
        2
176
     0
  1
strokes_ogs.tif
176
     0
290
     0
176
     0
 40
1.0
176
     0
 40
1.0
176
     0
  0
VISUALSTYLE
  5
33
102
{ACAD_REACTORS
330
2A
102
}
330
2A
100
AcDbVisualStyle
  2
Realistic
 70
     8
177
     3
291
     0
 70
    58
 90
        2
176
     1
 90
        3
176
     1
 90
        0
176
     1
 90
        2
176
     1
 40
0.6
176
     1
 40
30.0
176
     1
 62
     7
420
 16777215
176
     1
 90
        0
176
     1
 90
        0
176
     1
 62
     7
176
     1
 62
   257
176
     1
 90
        1
176
     1
 90
        1
176
     1
 40
1.0
176
     1
 90
        8
176
     1
 62
   257
176
     1
 40
1.0
176
     1
 90
        1
176
     1
 90
        6
176
     1
 90
        2
176
     1
 62
     7
176
     1
 90
        3
176
     1
 90
        0
176
     1
 90
        0
176
     1
290
     0
176
     1
 90
       13
176
     1
 40
0.0
176
     1
 90
        0
176
     1
290
     0
176
     1
290
     1
176
     1
290
     1
176
     1
290
     0
176
     1
290
     0
176
     1
290
     0
176
     1
290
     0
176
     1
290
     0
176
     1
290
     0
176
     1
 90
       50
176
     1
 40
0.0
176
     1
 40
1.0
176
     1
 90
        0
176
     1
 62
    18
420
        0
176
     1
 90
       50
176
     1
 90
        3
176
     1
 62
     5
420
      255
176
     1
290
     0
176
     1
 90
       50
176
     1
 90
       50
176
     1
 90
       50
176
     1
290
     0
176
     1
 90
       50
176
     1
 62
   256
176
     0
 40
1.0
176
     0
 90
        2
176
     1
  1
strokes_ogs.tif
176
     1
290
     0
176
     1
 40
1.0
176
     1
 40
1.0
176
     1
  0
VISUALSTYLE
  5
42
102
{ACAD_REACTORS
330
2A
102
}
330
2A
100
AcDbVisualStyle
  2
Shaded
 70
    27
177
     3
291
     0
 70
    58
 90
        2
176
     1
 90
        2
176
     1
 90
        1
176
     1
 90
        2
176
     1
 40
0.6
176
     1
 40
30.0
176
     1
 62
     7
420
 16777215
176
     1
 90
        0
176
     1
 90
        4
176
     1
 62
     7
176
     1
 62
   257
176
     1
 90
        1
176
     1
 90
        1
176
     1
 40
1.0
176
     1
 90
        8
176
     1
 62
   257
176
     1
 40
1.0
176
     1
 90
        1
176
     1
 90
        6
176
     1
 90
        2
176
     1
 62
     8
420
  7895160
176
     1
 90
        3
176
     1
 90
        0
176
     1
 90
        0
176
     1
290
     0
176
     1
 90
        5
176
     1
 40
0.0
176
     1
 90
        0
176
     1
290
     0
176
     1
290
     1
176
     1
290
     1
176
     1
290
     0
176
     1
290
     0
176
     1
290
     0
176
     1
290
     0
176
     1
290
     0
176
     1
290
     0
176
     1
 90
       50
176
     1
 40
0.0
176
     1
 40
1.0
176
     1
 90
        0
176
     1
 62
    18
420
        0
176
     1
 90
       50
176
     1
 90
        3
176
     1
 62
     5
420
      255
176
     1
290
     0
176
     1
 90
       50
176
     1
 90
       50
176
     1
 90
       50
176
     1
290
     0
176
     1
 90
       50
176
     1
 62
   256
176
     0
 40
1.0
176
     0
 90
        2
176
     1
  1
strokes_ogs.tif
176
     1
290
     0
176
     1
 40
1.0
176
     1
 40
1.0
176
     1
  0
VISUALSTYLE
  5
41
102
{ACAD_REACTORS
330
2A
102
}
330
2A
100
AcDbVisualStyle
  2
Shaded with edges
 70
    26
177
     3
291
     0
 70
    58
 90
        2
176
     1
 90
        2
176
     1
 90
        1
176
     1
 90
        2
176
     1
 40
0.6
176
     1
 40
30.0
176
     1
 62
     7
420
 16777215
176
     1
 90
        1
176
     1
 90
       10
176
     1
 62
     7
176
     1
 62
   257
176
     1
 90
        2
176
     1
 90
        1
176
     1
 40
1.0
176
     1
 90
        8
176
     1
 62
   257
176
     1
 40
1.0
176
     1
 90
        1
176
     1
 90
        6
176
     1
 90
        2
176
     1
 62
     7
176
     1
 90
        3
176
     1
 90
        0
176
     1
 90
        0
176
     1
290
     0
176
     1
 90
        5
176
     1
 40
0.0
176
     1
 90
        0
176
     1
290
     0
176
     1
290
     1
176
     1
290
     1
176
     1
290
     0
176
     1
290
     0
176
     1
290
     0
176
     1
290
     0
176
     1
290
     0
176
     1
290
     0
176
     1
 90
       50
176
     1
 40
0.0
176
     1
 40
1.0
176
     1
 90
        0
176
     1
 62
    18
420
        0
176
     1
 90
       50
176
     1
 90
        3
176
     1
 62
     5
420
      255
176
     1
290
     0
176
     1
 90
       50
176
     1
 90
       50
176
     1
 90
       50
176
     1
290
     0
176
     1
 90
       50
176
     1
 62
   256
176
     0
 40
1.0
176
     0
 90
        2
176
     1
  1
strokes_ogs.tif
176
     1
290
     0
176
     1
 40
1.0
176
     1
 40
1.0
176
     1
  0
VISUALSTYLE
  5
3E
102
{ACAD_REACTORS
330
2A
102
}
330
2A
100
AcDbVisualStyle
  2
Shades of Gray
 70
    23
177
     3
291
     0
 70
    58
 90
        2
176
     1
 90
        2
176
     1
 90
        3
176
     1
 90
        0
176
     1
 40
0.6
176
     1
 40
30.0
176
     1
 62
     7
420
 16777215
176
     1
 90
        2
176
     1
 90
        2
176
     1
 62
     7
176
     1
 62
     7
176
     1
 90
        1
176
     1
 90
        1
176
     1
 40
40.0
176
     1
 90
        8
176
     1
 62
     7
176
     1
 40
1.0
176
     1
 90
        1
176
     1
 90
        6
176
     1
 90
        2
176
     1
 62
     7
176
     1
 90
        3
176
     1
 90
        0
176
     1
 90
        0
176
     1
290
     0
176
     1
 90
        1
176
     1
 40
0.0
176
     1
 90
        0
176
     1
290
     0
176
     1
290
     1
176
     1
290
     1
176
     1
290
     0
176
     1
290
     0
176
     1
290
     0
176
     1
290
     0
176
     1
290
     0
176
     1
290
     0
176
     1
 90
       50
176
     1
 40
0.0
176
     1
 40
1.0
176
     1
 90
        0
176
     1
 62
    18
420
        0
176
     1
 90
       50
176
     1
 90
        3
176
     1
 62
     5
420
      255
176
     1
290
     0
176
     1
 90
       50
176
     1
 90
       50
176
     1
 90
       50
176
     1
290
     0
176
     1
 90
       50
176
     1
 62
   256
176
     0
 40
1.0
176
     0
 90
        2
176
     1
  1
strokes_ogs.tif
176
     1
290
     0
176
     1
 40
1.0
176
     1
 40
1.0
176
     1
  0
VISUALSTYLE
  5
3F
102
{ACAD_REACTORS
330
2A
102
}
330
2A
100
AcDbVisualStyle
  2
Sketchy
 70
    24
177
     3
291
     0
 70
    58
 90
        1
176
     1
 90
        2
176
     1
 90
        2
176
     1
 90
        0
176
     1
 40
0.6
176
     1
 40
30.0
176
     1
 62
     7
420
 16777215
176
     1
 90
        2
176
     1
 90
        2
176
     1
 62
     7
176
     1
 62
     7
176
     1
 90
        1
176
     1
 90
        1
176
     1
 40
40.0
176
     1
 90
       11
176
     1
 62
     7
176
     1
 40
1.0
176
     1
 90
        1
176
     1
 90
        6
176
     1
 90
        2
176
     1
 62
     7
176
     1
 90
        6
176
     1
 90
        0
176
     1
 90
        0
176
     1
290
     0
176
     1
 90
        1
176
     1
 40
0.0
176
     1
 90
        0
176
     1
290
     0
176
     1
290
     1
176
     1
290
     1
176
     1
290
     0
176
     1
290
     0
176
     1
290
     0
176
     1
290
     0
176
     1
290
     0
176
     1
290
     0
176
     1
 90
       50
176
     1
 40
0.0
176
     1
 40
1.0
176
     1
 90
        0
176
     1
 62
    18
420
        0
176
     1
 90
       50
176
     1
 90
        3
176
     1
 62
     5
420
      255
176
     1
290
     0
176
     1
 90
       50
176
     1
 90
       50
176
     1
 90
       50
176
     1
290
     0
176
     1
 90
       50
176
     1
 62
   256
176
     0
 40
1.0
176
     0
 90
        2
176
     1
  1
strokes_ogs.tif
176
     1
290
     0
176
     1
 40
1.0
176
     1
 40
1.0
176
     1
  0
VISUALSTYLE
  5
37
102
{ACAD_REACTORS
330
2A
102
}
330
2A
100
AcDbVisualStyle
  2
Thicken
 70
    13
177
     3
291
     1
 70
    58
 90
        2
176
     1
 90
        2
176
     1
 90
        0
176
     1
 90
        0
176
     1
 40
0.6
176
     1
 40
30.0
176
     1
 62
     7
420
 16777215
176
     1
 90
        1
176
     1
 90
        4
176
     1
 62
     7
176
     1
 62
   257
176
     1
 90
        1
176
     1
 90
        1
176
     1
 40
1.0
176
     1
 90
       12
176
     1
 62
     7
176
     1
 40
1.0
176
     1
 90
        1
176
     1
 90
        6
176
     1
 90
        2
176
     1
 62
     7
176
     1
 90
        5
176
     1
 90
        0
176
     1
 90
        0
176
     1
290
     0
176
     1
 90
        1
176
     1
 40
0.0
176
     1
 90
        0
176
     1
290
     0
176
     1
290
     1
176
     1
290
     1
176
     1
290
     0
176
     1
290
     0
176
     1
290
     0
176
     1
290
     0
176
     1
290
     0
176
     1
290
     0
176
     1
 90
       50
176
     1
 40
0.0
176
     1
 40
1.0
176
     1
 90
        0
176
     1
 62
    18
420
        0
176
     1
 90
       50
176
     1
 90
        3
176
     1
 62
     5
420
      255
176
     1
290
     0
176
     1
 90
       50
176
     1
 90
       50
176
     1
 90
       50
176
     1
290
     0
176
     1
 90
       50
176
     1
 62
   256
176
     0
 40
1.0
176
     0
 90
        2
176
     1
  1
strokes_ogs.tif
176
     1
290
     0
176
     1
 40
1.0
176
     1
 40
1.0
176
     1
  0
VISUALSTYLE
  5
30
102
{ACAD_REACTORS
330
2A
102
}
330
2A
100
AcDbVisualStyle
  2
Wireframe
 70
     5
177
     3
291
     0
 70
    58
 90
        0
176
     1
 90
        2
176
     1
 90
        0
176
     1
 90
        0
176
     1
 40
0.6
176
     1
 40
30.0
176
     1
 62
     7
420
 16777215
176
     1
 90
        1
176
     1
 90
        4
176
     1
 62
     7
176
     1
 62
   257
176
     1
 90
        1
176
     1
 90
        1
176
     1
 40
1.0
176
     1
 90
        0
176
     1
 62
   257
176
     1
 40
1.0
176
     1
 90
        1
176
     1
 90
        6
176
     1
 90
        2
176
     1
 62
     7
176
     1
 90
        3
176
     1
 90
        0
176
     1
 90
        0
176
     1
290
     0
176
     1
 90
        1
176
     1
 40
0.0
176
     1
 90
        0
176
     1
290
     0
176
     1
290
     1
176
     1
290
     1
176
     1
290
     0
176
     1
290
     0
176
     1
290
     0
176
     1
290
     0
176
     1
290
     0
176
     1
290
     0
176
     1
 90
       50
176
     1
 40
0.0
176
     1
 40
1.0
176
     1
 90
        0
176
     1
 62
    18
420
        0
176
     1
 90
       50
176
     1
 90
        3
176
     1
 62
     5
420
      255
176
     1
290
     0
176
     1
 90
       50
176
     1
 90
       50
176
     1
 90
       50
176
     1
290
     0
176
     1
 90
       50
176
     1
 62
   256
176
     0
 40
1.0
176
     0
 90
        2
176
     1
  1
strokes_ogs.tif
176
     1
290
     0
176
     1
 40
1.0
176
     1
 40
1.0
176
     1
  0
VISUALSTYLE
  5
40
102
{ACAD_REACTORS
330
2A
102
}
330
2A
100
AcDbVisualStyle
  2
X-Ray
 70
    25
177
     3
291
     0
 70
    58
 90
        2
176
     1
 90
        2
176
     1
 90
        1
176
     1
 90
        1
176
     1
 40
0.5
176
     1
 40
30.0
176
     1
 62
     7
420
 16777215
176
     1
 90
        1
176
     1
 90
        0
176
     1
 62
     7
176
     1
 62
   257
176
     1
 90
        1
176
     1
 90
        1
176
     1
 40
1.0
176
     1
 90
        8
176
     1
 62
     7
176
     1
 40
1.0
176
     1
 90
        1
176
     1
 90
        6
176
     1
 90
        2
176
     1
 62
     7
176
     1
 90
        3
176
     1
 90
        0
176
     1
 90
        0
176
     1
290
     0
176
     1
 90
       13
176
     1
 40
0.0
176
     1
 90
        0
176
     1
290
     0
176
     1
290
     1
176
     1
290
     1
176
     1
290
     0
176
     1
290
     0
176
     1
290
     0
176
     1
290
     0
176
     1
290
     0
176
     1
290
     0
176
     1
 90
       50
176
     1
 40
0.0
176
     1
 40
1.0
176
     1
 90
        0
176
     1
 62
    18
420
        0
176
     1
 90
       50
176
     1
 90
        3
176
     1
 62
     5
420
      255
176
     1
290
     0
176
     1
 90
       50
176
     1
 90
       50
176
     1
 90
       50
176
     1
290
     0
176
     1
 90
       50
176
     1
 62
   256
176
     0
 40
1.0
176
     0
 90
        2
176
     1
  1
strokes_ogs.tif
176
     1
290
     0
176
     1
 40
1.0
176
     1
 40
1.0
176
     1
  0
DICTIONARYVAR
  5
1E3
102
{ACAD_REACTORS
330
1E2
102
}
330
1E2
100
DictionaryVariables
280
     0
  1
1:1
  0
DICTIONARYVAR
  5
1E8
102
{ACAD_REACTORS
330
1E2
102
}
330
1E2
100
DictionaryVariables
280
     0
  1
Standard
  0
DICTIONARYVAR
  5
1E7
102
{ACAD_REACTORS
330
1E2
102
}
330
1E2
100
DictionaryVariables
280
     0
  1
Standard
  0
DICTIONARY
  5
1E4
330
6A
100
AcDbDictionary
280
     1
281
     1
  3
ACAD_ROUNDTRIP_2008_TABLESTYLE_CELLSTYLEMAP
360
1E5
  0
CELLSTYLEMAP
  5
1E5
102
{ACAD_REACTORS
330
1E4
102
}
330
1E4
100
AcDbCellStyleMap
 90
        3
300
CELLSTYLE
  1
TABLEFORMAT_BEGIN
 90
        5
170
     1
 91
        0
 92
    32768
 62
   257
 93
        1
300
CONTENTFORMAT
  1
CONTENTFORMAT_BEGIN
 90
        0
 91
        0
 92
        4
 93
        0
300

 40
0.0
140
1.0
 94
        5
 62
     0
340
11
144
0.25
309
CONTENTFORMAT_END
171
     1
301
MARGIN
  1
CELLMARGIN_BEGIN
 40
0.06
 40
0.06
 40
0.06
 40
0.06
 40
0.06
 40
0.06
309
CELLMARGIN_END
 94
        6
 95
        1
302
GRIDFORMAT
  1
GRIDFORMAT_BEGIN
 90
        0
 91
        1
 62
     0
 92
       -2
340
14
 93
        0
 40
0.045
309
GRIDFORMAT_END
 95
        2
302
GRIDFORMAT
  1
GRIDFORMAT_BEGIN
 90
        0
 91
        1
 62
     0
 92
       -2
340
14
 93
        0
 40
0.045
309
GRIDFORMAT_END
 95
        4
302
GRIDFORMAT
  1
GRIDFORMAT_BEGIN
 90
        0
 91
        1
 62
     0
 92
       -2
340
14
 93
        0
 40
0.045
309
GRIDFORMAT_END
 95
        8
302
GRIDFORMAT
  1
GRIDFORMAT_BEGIN
 90
        0
 91
        1
 62
     0
 92
       -2
340
14
 93
        0
 40
0.045
309
GRIDFORMAT_END
 95
       16
302
GRIDFORMAT
  1
GRIDFORMAT_BEGIN
 90
        0
 91
        1
 62
     0
 92
       -2
340
14
 93
        0
 40
0.045
309
GRIDFORMAT_END
 95
       32
302
GRIDFORMAT
  1
GRIDFORMAT_BEGIN
 90
        0
 91
        1
 62
     0
 92
       -2
340
14
 93
        0
 40
0.045
309
GRIDFORMAT_END
309
TABLEFORMAT_END
  1
CELLSTYLE_BEGIN
 90
        1
 91
        1
300
_TITLE
309
CELLSTYLE_END
300
CELLSTYLE
  1
TABLEFORMAT_BEGIN
 90
        5
170
     1
 91
        0
 92
        0
 62
   257
 93
        1
300
CONTENTFORMAT
  1
CONTENTFORMAT_BEGIN
 90
        0
 91
        0
 92
        4
 93
        0
300

 40
0.0
140
1.0
 94
        5
 62
     0
340
11
144
0.18
309
CONTENTFORMAT_END
171
     1
301
MARGIN
  1
CELLMARGIN_BEGIN
 40
0.06
 40
0.06
 40
0.06
 40
0.06
 40
0.06
 40
0.06
309
CELLMARGIN_END
 94
        6
 95
        1
302
GRIDFORMAT
  1
GRIDFORMAT_BEGIN
 90
        0
 91
        1
 62
     0
 92
       -2
340
14
 93
        0
 40
0.045
309
GRIDFORMAT_END
 95
        2
302
GRIDFORMAT
  1
GRIDFORMAT_BEGIN
 90
        0
 91
        1
 62
     0
 92
       -2
340
14
 93
        0
 40
0.045
309
GRIDFORMAT_END
 95
        4
302
GRIDFORMAT
  1
GRIDFORMAT_BEGIN
 90
        0
 91
        1
 62
     0
 92
       -2
340
14
 93
        0
 40
0.045
309
GRIDFORMAT_END
 95
        8
302
GRIDFORMAT
  1
GRIDFORMAT_BEGIN
 90
        0
 91
        1
 62
     0
 92
       -2
340
14
 93
        0
 40
0.045
309
GRIDFORMAT_END
 95
       16
302
GRIDFORMAT
  1
GRIDFORMAT_BEGIN
 90
        0
 91
        1
 62
     0
 92
       -2
340
14
 93
        0
 40
0.045
309
GRIDFORMAT_END
 95
       32
302
GRIDFORMAT
  1
GRIDFORMAT_BEGIN
 90
        0
 91
        1
 62
     0
 92
       -2
340
14
 93
        0
 40
0.045
309
GRIDFORMAT_END
309
TABLEFORMAT_END
  1
CELLSTYLE_BEGIN
 90
        2
 91
        1
300
_HEADER
309
CELLSTYLE_END
300
CELLSTYLE
  1
TABLEFORMAT_BEGIN
 90
        5
170
     1
 91
        0
 92
        0
 62
   257
 93
        1
300
CONTENTFORMAT
  1
CONTENTFORMAT_BEGIN
 90
        0
 91
        0
 92
        4
 93
        0
300

 40
0.0
140
1.0
 94
        2
 62
     0
340
11
144
0.18
309
CONTENTFORMAT_END
171
     1
301
MARGIN
  1
CELLMARGIN_BEGIN
 40
0.06
 40
0.06
 40
0.06
 40
0.06
 40
0.06
 40
0.06
309
CELLMARGIN_END
 94
        6
 95
        1
302
GRIDFORMAT
  1
GRIDFORMAT_BEGIN
 90
        0
 91
        1
 62
     0
 92
       -2
340
14
 93
        0
 40
0.045
309
GRIDFORMAT_END
 95
        2
302
GRIDFORMAT
  1
GRIDFORMAT_BEGIN
 90
        0
 91
        1
 62
     0
 92
       -2
340
14
 93
        0
 40
0.045
309
GRIDFORMAT_END
 95
        4
302
GRIDFORMAT
  1
GRIDFORMAT_BEGIN
 90
        0
 91
        1
 62
     0
 92
       -2
340
14
 93
        0
 40
0.045
309
GRIDFORMAT_END
 95
        8
302
GRIDFORMAT
  1
GRIDFORMAT_BEGIN
 90
        0
 91
        1
 62
     0
 92
       -2
340
14
 93
        0
 40
0.045
309
GRIDFORMAT_END
 95
       16
302
GRIDFORMAT
  1
GRIDFORMAT_BEGIN
 90
        0
 91
        1
 62
     0
 92
       -2
340
14
 93
        0
 40
0.045
309
GRIDFORMAT_END
 95
       32
302
GRIDFORMAT
  1
GRIDFORMAT_BEGIN
 90
        0
 91
        1
 62
     0
 92
       -2
340
14
 93
        0
 40
0.045
309
GRIDFORMAT_END
309
TABLEFORMAT_END
  1
CELLSTYLE_BEGIN
 90
        3
 91
        2
300
_DATA
309
CELLSTYLE_END
  0
ENDSEC
  0
EOF