0
SECTION
  2
HEADER
  9
$ACADVER
  1
AC1027
  9
$ACADMAINTVER
 70
     8
  9
$DWGCODEPAGE
  3
ANSI_1252
  9
$REQUIREDVERSIONS
160
                 0
  9
$COMMENTS
  1
File was created by Cadenas
  9
$CUSTOMPROPERTYTAG
  1
NN
  9
$CUSTOMPROPERTY
  1
Set Screw Wide Slot Take Up Inch Bore
  9
$CUSTOMPROPERTYTAG
  1
NT
  9
$CUSTOMPROPERTY
  1
SC Take-Up Bearings -Wide Slot -(Normal Duty)
  9
$CUSTOMPROPERTYTAG
  1
NB
  9
$CUSTOMPROPERTY
  1
125344
  9
$CUSTOMPROPERTYTAG
  1
NBSYN
  9
$CUSTOMPROPERTY
  1
$PN.
  9
$CUSTOMPROPERTYTAG
  1
LINA
  9
$CUSTOMPROPERTY
  1
125344
  9
$CUSTOMPROPERTYTAG
  1
SERIES
  9
$CUSTOMPROPERTY
  1
204
  9
$CUSTOMPROPERTYTAG
  1
SS
  9
$CUSTOMPROPERTY
  1
5/8
  9
$CUSTOMPROPERTYTAG
  1
PN
  9
$CUSTOMPROPERTY
  1
125344
  9
$CUSTOMPROPERTYTAG
  1
DESCRIPTION
  9
$CUSTOMPROPERTY
  1
WSTU-SC-010
  9
$CUSTOMPROPERTYTAG
  1
W
  9
$CUSTOMPROPERTY
  1
2.0
  9
$CUSTOMPROPERTYTAG
  1
FS
  9
$CUSTOMPROPERTY
  1
WS300
  9
$CUSTOMPROPERTYTAG
  1
LF
  9
$CUSTOMPROPERTY
  1
RE-LUBE
  9
$CUSTOMPROPERTYTAG
  1
A
  9
$CUSTOMPROPERTY
  1
1.23
  9
$CUSTOMPROPERTYTAG
  1
B
  9
$CUSTOMPROPERTY
  1
3.69
  9
$CUSTOMPROPERTYTAG
  1
C
  9
$CUSTOMPROPERTY
  1
0.531
  9
$CUSTOMPROPERTYTAG
  1
D
  9
$CUSTOMPROPERTY
  1
2
  9
$CUSTOMPROPERTYTAG
  1
E
  9
$CUSTOMPROPERTY
  1
2.38
  9
$CUSTOMPROPERTYTAG
  1
F
  9
$CUSTOMPROPERTY
  1
5/8
  9
$CUSTOMPROPERTYTAG
  1
G
  9
$CUSTOMPROPERTY
  1
0.38
  9
$CUSTOMPROPERTYTAG
  1
H
  9
$CUSTOMPROPERTY
  1
0.63
  9
$CUSTOMPROPERTYTAG
  1
J
  9
$CUSTOMPROPERTY
  1
2
  9
$CUSTOMPROPERTYTAG
  1
K
  9
$CUSTOMPROPERTY
  1
1.25
  9
$CUSTOMPROPERTYTAG
  1
L
  9
$CUSTOMPROPERTY
  1
1.12
  9
$CUSTOMPROPERTYTAG
  1
M
  9
$CUSTOMPROPERTY
  1
2.985 / 3.015
  9
$CUSTOMPROPERTYTAG
  1
N
  9
$CUSTOMPROPERTY
  1
3.63
  9
$CUSTOMPROPERTYTAG
  1
R
  9
$CUSTOMPROPERTY
  1
0.50
  9
$CUSTOMPROPERTYTAG
  1
S
  9
$CUSTOMPROPERTY
  1
0.73
  9
$CUSTOMPROPERTYTAG
  1
T
  9
$CUSTOMPROPERTY
  1
1.38
  9
$CUSTOMPROPERTYTAG
  1
COMPANY
  9
$CUSTOMPROPERTY
  1
baldor
  9
$INSBASE
 10
0.0
 20
0.0
 30
0.0
  9
$EXTMIN
 10
1.000000000000000E+20
 20
1.000000000000000E+20
 30
1.000000000000000E+20
  9
$EXTMAX
 10
-1.000000000000000E+20
 20
-1.000000000000000E+20
 30
-1.000000000000000E+20
  9
$LIMMIN
 10
0.0
 20
0.0
  9
$LIMMAX
 10
12.0
 20
9.0
  9
$ORTHOMODE
 70
     0
  9
$REGENMODE
 70
     1
  9
$FILLMODE
 70
     1
  9
$QTEXTMODE
 70
     0
  9
$MIRRTEXT
 70
     1
  9
$LTSCALE
 40
1.0
  9
$ATTMODE
 70
     1
  9
$TEXTSIZE
 40
0.2
  9
$TRACEWID
 40
0.05
  9
$TEXTSTYLE
  7
Standard
  9
$CLAYER
  8
0
  9
$CELTYPE
  6
ByLayer
  9
$CECOLOR
 62
   256
  9
$CELTSCALE
 40
1.0
  9
$DISPSILH
 70
     0
  9
$DIMSCALE
 40
1.0
  9
$DIMASZ
 40
0.18
  9
$DIMEXO
 40
0.0625
  9
$DIMDLI
 40
0.38
  9
$DIMRND
 40
0.0
  9
$DIMDLE
 40
0.0
  9
$DIMEXE
 40
0.18
  9
$DIMTP
 40
0.0
  9
$DIMTM
 40
0.0
  9
$DIMTXT
 40
0.18
  9
$DIMCEN
 40
0.09
  9
$DIMTSZ
 40
0.0
  9
$DIMTOL
 70
     0
  9
$DIMLIM
 70
     0
  9
$DIMTIH
 70
     1
  9
$DIMTOH
 70
     1
  9
$DIMSE1
 70
     0
  9
$DIMSE2
 70
     0
  9
$DIMTAD
 70
     0
  9
$DIMZIN
 70
     0
  9
$DIMBLK
  1

  9
$DIMASO
 70
     1
  9
$DIMSHO
 70
     1
  9
$DIMPOST
  1

  9
$DIMAPOST
  1

  9
$DIMALT
 70
     0
  9
$DIMALTD
 70
     2
  9
$DIMALTF
 40
25.4
  9
$DIMLFAC
 40
1.0
  9
$DIMTOFL
 70
     0
  9
$DIMTVP
 40
0.0
  9
$DIMTIX
 70
     0
  9
$DIMSOXD
 70
     0
  9
$DIMSAH
 70
     0
  9
$DIMBLK1
  1

  9
$DIMBLK2
  1

  9
$DIMSTYLE
  2
Standard
  9
$DIMCLRD
 70
     0
  9
$DIMCLRE
 70
     0
  9
$DIMCLRT
 70
     0
  9
$DIMTFAC
 40
1.0
  9
$DIMGAP
 40
0.09
  9
$DIMJUST
 70
     0
  9
$DIMSD1
 70
     0
  9
$DIMSD2
 70
     0
  9
$DIMTOLJ
 70
     1
  9
$DIMTZIN
 70
     0
  9
$DIMALTZ
 70
     0
  9
$DIMALTTZ
 70
     0
  9
$DIMUPT
 70
     0
  9
$DIMDEC
 70
     4
  9
$DIMTDEC
 70
     4
  9
$DIMALTU
 70
     2
  9
$DIMALTTD
 70
     2
  9
$DIMTXSTY
  7
Standard
  9
$DIMAUNIT
 70
     0
  9
$DIMADEC
 70
     0
  9
$DIMALTRND
 40
0.0
  9
$DIMAZIN
 70
     0
  9
$DIMDSEP
 70
    46
  9
$DIMATFIT
 70
     3
  9
$DIMFRAC
 70
     0
  9
$DIMLDRBLK
  1

  9
$DIMLUNIT
 70
     2
  9
$DIMLWD
 70
    -2
  9
$DIMLWE
 70
    -2
  9
$DIMTMOVE
 70
     0
  9
$DIMFXL
 40
1.0
  9
$DIMFXLON
 70
     0
  9
$DIMJOGANG
 40
0.7853981633974483
  9
$DIMTFILL
 70
     0
  9
$DIMTFILLCLR
 70
     0
  9
$DIMARCSYM
 70
     0
  9
$DIMLTYPE
  6

  9
$DIMLTEX1
  6

  9
$DIMLTEX2
  6

  9
$DIMTXTDIRECTION
 70
     0
  9
$LUNITS
 70
     2
  9
$LUPREC
 70
     4
  9
$SKETCHINC
 40
0.1
  9
$FILLETRAD
 40
0.5
  9
$AUNITS
 70
     0
  9
$AUPREC
 70
     0
  9
$MENU
  1
.
  9
$ELEVATION
 40
0.0
  9
$PELEVATION
 40
0.0
  9
$THICKNESS
 40
0.0
  9
$LIMCHECK
 70
     0
  9
$CHAMFERA
 40
0.0
  9
$CHAMFERB
 40
0.0
  9
$CHAMFERC
 40
0.0
  9
$CHAMFERD
 40
0.0
  9
$SKPOLY
 70
     0
  9
$TDCREATE
 40
2458169.01002353
  9
$TDUCREATE
 40
2458168.968356864
  9
$TDUPDATE
 40
2458169.010023715
  9
$TDUUPDATE
 40
2458168.968357048
  9
$TDINDWG
 40
0.0000000116
  9
$TDUSRTIMER
 40
0.0000000116
  9
$USRTIMER
 70
     1
  9
$ANGBASE
 50
0.0
  9
$ANGDIR
 70
     0
  9
$PDMODE
 70
     0
  9
$PDSIZE
 40
0.0
  9
$PLINEWID
 40
0.0
  9
$SPLFRAME
 70
     0
  9
$SPLINETYPE
 70
     6
  9
$SPLINESEGS
 70
     8
  9
$HANDSEED
  5
201
  9
$SURFTAB1
 70
     6
  9
$SURFTAB2
 70
     6
  9
$SURFTYPE
 70
     6
  9
$SURFU
 70
     6
  9
$SURFV
 70
     6
  9
$UCSBASE
  2

  9
$UCSNAME
  2

  9
$UCSORG
 10
0.0
 20
0.0
 30
0.0
  9
$UCSXDIR
 10
1.0
 20
0.0
 30
0.0
  9
$UCSYDIR
 10
0.0
 20
1.0
 30
0.0
  9
$UCSORTHOREF
  2

  9
$UCSORTHOVIEW
 70
     0
  9
$UCSORGTOP
 10
0.0
 20
0.0
 30
0.0
  9
$UCSORGBOTTOM
 10
0.0
 20
0.0
 30
0.0
  9
$UCSORGLEFT
 10
0.0
 20
0.0
 30
0.0
  9
$UCSORGRIGHT
 10
0.0
 20
0.0
 30
0.0
  9
$UCSORGFRONT
 10
0.0
 20
0.0
 30
0.0
  9
$UCSORGBACK
 10
0.0
 20
0.0
 30
0.0
  9
$PUCSBASE
  2

  9
$PUCSNAME
  2

  9
$PUCSORG
 10
0.0
 20
0.0
 30
0.0
  9
$PUCSXDIR
 10
1.0
 20
0.0
 30
0.0
  9
$PUCSYDIR
 10
0.0
 20
1.0
 30
0.0
  9
$PUCSORTHOREF
  2

  9
$PUCSORTHOVIEW
 70
     0
  9
$PUCSORGTOP
 10
0.0
 20
0.0
 30
0.0
  9
$PUCSORGBOTTOM
 10
0.0
 20
0.0
 30
0.0
  9
$PUCSORGLEFT
 10
0.0
 20
0.0
 30
0.0
  9
$PUCSORGRIGHT
 10
0.0
 20
0.0
 30
0.0
  9
$PUCSORGFRONT
 10
0.0
 20
0.0
 30
0.0
  9
$PUCSORGBACK
 10
0.0
 20
0.0
 30
0.0
  9
$USERI1
 70
     0
  9
$USERI2
 70
     0
  9
$USERI3
 70
     0
  9
$USERI4
 70
     0
  9
$USERI5
 70
     0
  9
$USERR1
 40
0.0
  9
$USERR2
 40
0.0
  9
$USERR3
 40
0.0
  9
$USERR4
 40
0.0
  9
$USERR5
 40
0.0
  9
$WORLDVIEW
 70
     1
  9
$SHADEDGE
 70
     3
  9
$SHADEDIF
 70
    70
  9
$TILEMODE
 70
     1
  9
$MAXACTVP
 70
    64
  9
$PINSBASE
 10
0.0
 20
0.0
 30
0.0
  9
$PLIMCHECK
 70
     0
  9
$PEXTMIN
 10
1.000000000000000E+20
 20
1.000000000000000E+20
 30
1.000000000000000E+20
  9
$PEXTMAX
 10
-1.000000000000000E+20
 20
-1.000000000000000E+20
 30
-1.000000000000000E+20
  9
$PLIMMIN
 10
0.0
 20
0.0
  9
$PLIMMAX
 10
12.0
 20
9.0
  9
$UNITMODE
 70
     0
  9
$VISRETAIN
 70
     1
  9
$PLINEGEN
 70
     0
  9
$PSLTSCALE
 70
     1
  9
$TREEDEPTH
 70
  3020
  9
$CMLSTYLE
  2
Standard
  9
$CMLJUST
 70
     0
  9
$CMLSCALE
 40
1.0
  9
$PROXYGRAPHICS
 70
     1
  9
$MEASUREMENT
 70
     0
  9
$CELWEIGHT
370
    -1
  9
$ENDCAPS
280
     0
  9
$JOINSTYLE
280
     0
  9
$LWDISPLAY
290
     0
  9
$INSUNITS
 70
     1
  9
$HYPERLINKBASE
  1

  9
$STYLESHEET
  1

  9
$XEDIT
290
     1
  9
$CEPSNTYPE
380
     0
  9
$PSTYLEMODE
290
     1
  9
$FINGERPRINTGUID
  2
{06BB5D43-B531-4BBF-A0E1-D2C520A7FA70}
  9
$VERSIONGUID
  2
{FAEB1C32-E019-11D5-929B-00C0DF256EC4}
  9
$EXTNAMES
290
     1
  9
$PSVPSCALE
 40
0.0
  9
$OLESTARTUP
290
     0
  9
$SORTENTS
280
   127
  9
$INDEXCTL
280
     0
  9
$HIDETEXT
280
     1
  9
$XCLIPFRAME
280
     2
  9
$HALOGAP
280
     0
  9
$OBSCOLOR
 70
   257
  9
$OBSLTYPE
280
     0
  9
$INTERSECTIONDISPLAY
280
     0
  9
$INTERSECTIONCOLOR
 70
   257
  9
$DIMASSOC
280
     2
  9
$PROJECTNAME
  1

  9
$CAMERADISPLAY
290
     0
  9
$LENSLENGTH
 40
50.0
  9
$CAMERAHEIGHT
 40
0.0
  9
$STEPSPERSEC
 40
2.0
  9
$STEPSIZE
 40
6.0
  9
$3DDWFPREC
 40
2.0
  9
$PSOLWIDTH
 40
0.25
  9
$PSOLHEIGHT
 40
4.0
  9
$LOFTANG1
 40
1.570796326794897
  9
$LOFTANG2
 40
1.570796326794897
  9
$LOFTMAG1
 40
0.0
  9
$LOFTMAG2
 40
0.0
  9
$LOFTPARAM
 70
     7
  9
$LOFTNORMALS
280
     1
  9
$LATITUDE
 40
37.795
  9
$LONGITUDE
 40
-122.394
  9
$NORTHDIRECTION
 40
0.0
  9
$TIMEZONE
 70
 -8000
  9
$LIGHTGLYPHDISPLAY
280
     1
  9
$TILEMODELIGHTSYNCH
280
     1
  9
$CMATERIAL
347
44
  9
$SOLIDHIST
280
     0
  9
$SHOWHIST
280
     1
  9
$DWFFRAME
280
     2
  9
$DGNFRAME
280
     2
  9
$REALWORLDSCALE
290
     1
  9
$INTERFERECOLOR
 62
   256
  9
$CSHADOW
280
     0
  9
$SHADOWPLANELOCATION
 40
0.0
  0
ENDSEC
  0
SECTION
  2
CLASSES
  0
CLASS
  1
ACDBDICTIONARYWDFLT
  2
AcDbDictionaryWithDefault
  3
ObjectDBX Classes
 90
        0
 91
        4
280
     0
281
     0
  0
CLASS
  1
VISUALSTYLE
  2
AcDbVisualStyle
  3
ObjectDBX Classes
 90
     4095
 91
        4
280
     0
281
     0
  0
CLASS
  1
MATERIAL
  2
AcDbMaterial
  3
ObjectDBX Classes
 90
     1153
 91
        4
280
     0
281
     0
  0
CLASS
  1
SCALE
  2
AcDbScale
  3
ObjectDBX Classes
 90
     1153
 91
        4
280
     0
281
     0
  0
CLASS
  1
TABLESTYLE
  2
AcDbTableStyle
  3
ObjectDBX Classes
 90
     4095
 91
        4
280
     0
281
     0
  0
CLASS
  1
MLEADERSTYLE
  2
AcDbMLeaderStyle
  3
ACDB_MLEADERSTYLE_CLASS
 90
     4095
 91
        4
280
     0
281
     0
  0
CLASS
  1
SUN
  2
AcDbSun
  3
SCENEOE
 90
     1153
 91
        4
280
     0
281
     0
  0
CLASS
  1
DICTIONARYVAR
  2
AcDbDictionaryVar
  3
ObjectDBX Classes
 90
        0
 91
        4
280
     0
281
     0
  0
CLASS
  1
CELLSTYLEMAP
  2
AcDbCellStyleMap
  3
ObjectDBX Classes
 90
     1152
 91
        4
280
     0
281
     0
  0
ENDSEC
  0
SECTION
  2
TABLES
  0
TABLE
  2
VPORT
  5
8
330
0
100
AcDbSymbolTable
 70
     1
  0
VPORT
  5
29
330
8
100
AcDbSymbolTableRecord
100
AcDbViewportTableRecord
  2
*Active
 70
     0
 10
0.0
 20
0.0
 11
1.0
 21
1.0
 12
-0.050749999999999
 22
0.0
 13
0.0
 23
0.0
 14
0.5
 24
0.5
 15
0.5
 25
0.5
 16
0.0
 26
0.0
 36
1.0
 17
0.0
 27
0.0
 37
0.0
 40
3.702599999999999
 41
0.4081267217630856
 42
50.0
 43
0.0
 44
0.0
 50
0.0
 51
0.0
 71
     0
 72
   100
 73
     1
 74
     3
 75
     0
 76
     0
 77
     0
 78
     0
281
     0
 65
     1
110
0.0
120
0.0
130
0.0
111
1.0
121
0.0
131
0.0
112
0.0
122
1.0
132
0.0
 79
     0
146
0.0
348
2F
 60
     3
 61
     5
292
     1
282
     1
141
0.0
142
0.0
 63
   250
361
6D
  0
ENDTAB
  0
TABLE
  2
LTYPE
  5
5
330
0
100
AcDbSymbolTable
 70
     3
  0
LTYPE
  5
14
330
5
100
AcDbSymbolTableRecord
100
AcDbLinetypeTableRecord
  2
ByBlock
 70
     0
  3

 72
    65
 73
     0
 40
0.0
  0
LTYPE
  5
15
330
5
100
AcDbSymbolTableRecord
100
AcDbLinetypeTableRecord
  2
ByLayer
 70
     0
  3

 72
    65
 73
     0
 40
0.0
  0
LTYPE
  5
16
330
5
100
AcDbSymbolTableRecord
100
AcDbLinetypeTableRecord
  2
Continuous
 70
     0
  3
Solid line
 72
    65
 73
     0
 40
0.0
  0
LTYPE
  5
A6
330
5
100
AcDbSymbolTableRecord
100
AcDbLinetypeTableRecord
  2
Dashed
 70
     0
  3

 72
    65
 73
     2
 40
2.0
 49
1.0
 74
     0
 49
-1.0
 74
     0
  0
LTYPE
  5
DF
330
5
100
AcDbSymbolTableRecord
100
AcDbLinetypeTableRecord
  2
Center
 70
     0
  3

 72
    65
 73
     4
 40
1.5
 49
0.45
 74
     0
 49
-0.5
 74
     0
 49
0.05
 74
     0
 49
-0.5
 74
     0
  0
ENDTAB
  0
TABLE
  2
LAYER
  5
2
330
0
100
AcDbSymbolTable
 70
     7
  0
LAYER
  5
10
330
2
100
AcDbSymbolTableRecord
100
AcDbLayerTableRecord
  2
0
 70
     0
 62
     7
  6
Continuous
370
    -3
390
F
347
46
348
0
  0
LAYER
  5
72
330
2
100
AcDbSymbolTableRecord
100
AcDbLayerTableRecord
  2
AM_6
 70
     0
 62
    -2
  6
Continuous
370
    35
390
F
347
46
348
0
  0
LAYER
  5
A7
330
2
100
AcDbSymbolTableRecord
100
AcDbLayerTableRecord
  2
AM_9
 70
     0
 62
     6
  6
Dashed
370
    25
390
F
347
46
348
0
  0
LAYER
  5
DB
330
2
100
AcDbSymbolTableRecord
100
AcDbLayerTableRecord
  2
AM_5
 70
     0
 62
     3
  6
Continuous
370
    25
390
F
347
46
348
0
  0
LAYER
  5
E0
330
2
100
AcDbSymbolTableRecord
100
AcDbLayerTableRecord
  2
AM_7
 70
     0
 62
     7
  6
Center
370
    25
390
F
347
46
348
0
  0
LAYER
  5
E3
330
2
100
AcDbSymbolTableRecord
100
AcDbLayerTableRecord
  2
AM_4
 70
     0
 62
     7
  6
Continuous
370
    50
390
F
347
46
348
0
  0
LAYER
  5
1F4
330
2
100
AcDbSymbolTableRecord
100
AcDbLayerTableRecord
  2
ConnectionPoints
 70
     0
 62
     7
  6
Continuous
370
    50
390
F
347
46
348
0
  0
ENDTAB
  0
TABLE
  2
STYLE
  5
3
330
0
100
AcDbSymbolTable
 70
     1
  0
STYLE
  5
11
330
3
100
AcDbSymbolTableRecord
100
AcDbTextStyleTableRecord
  2
Standard
 70
     0
 40
0.0
 41
1.0
 50
0.0
 71
     0
 42
0.2
  3
txt
  4

  0
ENDTAB
  0
TABLE
  2
VIEW
  5
6
330
0
100
AcDbSymbolTable
 70
     0
  0
ENDTAB
  0
TABLE
  2
UCS
  5
7
330
0
100
AcDbSymbolTable
 70
     0
  0
ENDTAB
  0
TABLE
  2
APPID
  5
9
330
0
100
AcDbSymbolTable
 70
     1
  0
APPID
  5
12
330
9
100
AcDbSymbolTableRecord
100
AcDbRegAppTableRecord
  2
ACAD
 70
     0
  0
ENDTAB
  0
TABLE
  2
DIMSTYLE
  5
A
330
0
100
AcDbSymbolTable
 70
     1
100
AcDbDimStyleTable
  0
DIMSTYLE
105
27
330
A
100
AcDbSymbolTableRecord
100
AcDbDimStyleTableRecord
  2
Standard
 70
     0
178
     0
340
11
  0
ENDTAB
  0
TABLE
  2
BLOCK_RECORD
  5
1
330
0
100
AcDbSymbolTable
 70
     5
  0
BLOCK_RECORD
  5
1F
330
1
100
AcDbSymbolTableRecord
100
AcDbBlockTableRecord
  2
*Model_Space
340
22
 70
     0
280
     1
281
     0
  0
BLOCK_RECORD
  5
1B
330
1
100
AcDbSymbolTableRecord
100
AcDbBlockTableRecord
  2
*Paper_Space
340
1E
 70
     0
280
     1
281
     0
  0
BLOCK_RECORD
  5
23
330
1
100
AcDbSymbolTableRecord
100
AcDbBlockTableRecord
  2
*Paper_Space0
340
26
 70
     0
280
     1
281
     0
  0
BLOCK_RECORD
  5
6E
330
1
100
AcDbSymbolTableRecord
100
AcDbBlockTableRecord
  2
1_125344_2
340
0
102
{BLKREFS
331
6F
102
}
 70
     0
280
     1
281
     0
  0
BLOCK_RECORD
  5
90
330
1
100
AcDbSymbolTableRecord
100
AcDbBlockTableRecord
  2
2_123331_0_in_125344_2
340
0
102
{BLKREFS
331
91
102
}
 70
     0
280
     1
281
     0
  0
BLOCK_RECORD
  5
F7
330
1
100
AcDbSymbolTableRecord
100
AcDbBlockTableRecord
  2
3_405016_Inch_0_in_125344_2
340
0
102
{BLKREFS
331
F8
102
}
 70
     0
280
     1
281
     0
  0
BLOCK_RECORD
  5
174
330
1
100
AcDbSymbolTableRecord
100
AcDbBlockTableRecord
  2
4_125344H_0_in_125344_2
340
0
102
{BLKREFS
331
175
102
}
 70
     0
280
     1
281
     0
  0
ENDTAB
  0
ENDSEC
  0
SECTION
  2
BLOCKS
  0
BLOCK
  5
20
330
1F
100
AcDbEntity
  8
0
100
AcDbBlockBegin
  2
*Model_Space
 70
     0
 10
0.0
 20
0.0
 30
0.0
  3
*Model_Space
  1

  0
ENDBLK
  5
21
330
1F
100
AcDbEntity
  8
0
100
AcDbBlockEnd
  0
BLOCK
  5
1C
330
1B
100
AcDbEntity
 67
     1
  8
0
100
AcDbBlockBegin
  2
*Paper_Space
 70
     0
 10
0.0
 20
0.0
 30
0.0
  3
*Paper_Space
  1

  0
ENDBLK
  5
1D
330
1B
100
AcDbEntity
 67
     1
  8
0
100
AcDbBlockEnd
  0
BLOCK
  5
24
330
23
100
AcDbEntity
  8
0
100
AcDbBlockBegin
  2
*Paper_Space0
 70
     0
 10
0.0
 20
0.0
 30
0.0
  3
*Paper_Space0
  1

  0
ENDBLK
  5
25
330
23
100
AcDbEntity
  8
0
100
AcDbBlockEnd
  0
BLOCK
  5
70
330
6E
100
AcDbEntity
  8
0
100
AcDbBlockBegin
  2
1_125344_2
 70
     2
 10
0.0
 20
0.0
 30
0.0
  3
1_125344_2
  1

  0
ATTDEF
  5
73
330
6E
100
AcDbEntity
  8
AM_6
100
AcDbText
 10
5.69
 20
1.815
 30
0.0
 40
0.5
  1
Set Screw Wide Slot Take Up Inch Bore
100
AcDbAttributeDefinition
  3

  2
NN
 70
     8
280
     0
  0
ATTDEF
  5
74
330
6E
100
AcDbEntity
  8
AM_6
100
AcDbText
 10
5.69
 20
1.315
 30
0.0
 40
0.5
  1
SC Take-Up Bearings -Wide Slot -(Normal Duty)
100
AcDbAttributeDefinition
  3

  2
NT
 70
     8
280
     0
  0
ATTDEF
  5
75
330
6E
100
AcDbEntity
  8
AM_6
100
AcDbText
 10
5.69
 20
0.815
 30
0.0
 40
0.5
  1
125344
100
AcDbAttributeDefinition
  3

  2
NB
 70
     8
280
     0
  0
ATTDEF
  5
76
330
6E
100
AcDbEntity
  8
AM_6
100
AcDbText
 10
5.69
 20
0.3149999999999999
 30
0.0
 40
0.5
  1
$PN.
100
AcDbAttributeDefinition
  3

  2
NBSYN
 70
     8
280
     0
  0
ATTDEF
  5
77
330
6E
100
AcDbEntity
  8
AM_6
100
AcDbText
 10
5.69
 20
-0.1850000000000001
 30
0.0
 40
0.5
  1
125344
100
AcDbAttributeDefinition
  3

  2
LINA
 70
     8
280
     0
  0
ATTDEF
  5
78
330
6E
100
AcDbEntity
  8
AM_6
100
AcDbText
 10
5.69
 20
-0.685
 30
0.0
 40
0.5
  1
204
100
AcDbAttributeDefinition
  3

  2
SERIES
 70
     8
280
     0
  0
ATTDEF
  5
79
330
6E
100
AcDbEntity
  8
AM_6
100
AcDbText
 10
5.69
 20
-1.185
 30
0.0
 40
0.5
  1
5/8
100
AcDbAttributeDefinition
  3

  2
SS
 70
     8
280
     0
  0
ATTDEF
  5
7A
330
6E
100
AcDbEntity
  8
AM_6
100
AcDbText
 10
5.69
 20
-1.685
 30
0.0
 40
0.5
  1
125344
100
AcDbAttributeDefinition
  3

  2
PN
 70
     8
280
     0
  0
ATTDEF
  5
7B
330
6E
100
AcDbEntity
  8
AM_6
100
AcDbText
 10
5.69
 20
-2.185
 30
0.0
 40
0.5
  1
WSTU-SC-010
100
AcDbAttributeDefinition
  3

  2
DESCRIPTION
 70
     8
280
     0
  0
ATTDEF
  5
7C
330
6E
100
AcDbEntity
  8
AM_6
100
AcDbText
 10
5.69
 20
-2.685
 30
0.0
 40
0.5
  1
2.0
100
AcDbAttributeDefinition
  3

  2
W
 70
     8
280
     0
  0
ATTDEF
  5
7D
330
6E
100
AcDbEntity
  8
AM_6
100
AcDbText
 10
5.69
 20
-3.185
 30
0.0
 40
0.5
  1
WS300
100
AcDbAttributeDefinition
  3

  2
FS
 70
     8
280
     0
  0
ATTDEF
  5
7E
330
6E
100
AcDbEntity
  8
AM_6
100
AcDbText
 10
5.69
 20
-3.685
 30
0.0
 40
0.5
  1
RE-LUBE
100
AcDbAttributeDefinition
  3

  2
LF
 70
     8
280
     0
  0
ATTDEF
  5
7F
330
6E
100
AcDbEntity
  8
AM_6
100
AcDbText
 10
5.69
 20
-4.185
 30
0.0
 40
0.5
  1
1.23
100
AcDbAttributeDefinition
  3

  2
A
 70
     8
280
     0
  0
ATTDEF
  5
80
330
6E
100
AcDbEntity
  8
AM_6
100
AcDbText
 10
5.69
 20
-4.685
 30
0.0
 40
0.5
  1
3.69
100
AcDbAttributeDefinition
  3

  2
B
 70
     8
280
     0
  0
ATTDEF
  5
81
330
6E
100
AcDbEntity
  8
AM_6
100
AcDbText
 10
5.69
 20
-5.185
 30
0.0
 40
0.5
  1
0.531
100
AcDbAttributeDefinition
  3

  2
C
 70
     8
280
     0
  0
ATTDEF
  5
82
330
6E
100
AcDbEntity
  8
AM_6
100
AcDbText
 10
5.69
 20
-5.685
 30
0.0
 40
0.5
  1
2
100
AcDbAttributeDefinition
  3

  2
D
 70
     8
280
     0
  0
ATTDEF
  5
83
330
6E
100
AcDbEntity
  8
AM_6
100
AcDbText
 10
5.69
 20
-6.185
 30
0.0
 40
0.5
  1
2.38
100
AcDbAttributeDefinition
  3

  2
E
 70
     8
280
     0
  0
ATTDEF
  5
84
330
6E
100
AcDbEntity
  8
AM_6
100
AcDbText
 10
5.69
 20
-6.685
 30
0.0
 40
0.5
  1
5/8
100
AcDbAttributeDefinition
  3

  2
F
 70
     8
280
     0
  0
ATTDEF
  5
85
330
6E
100
AcDbEntity
  8
AM_6
100
AcDbText
 10
5.69
 20
-7.185
 30
0.0
 40
0.5
  1
0.38
100
AcDbAttributeDefinition
  3

  2
G
 70
     8
280
     0
  0
ATTDEF
  5
86
330
6E
100
AcDbEntity
  8
AM_6
100
AcDbText
 10
5.69
 20
-7.685
 30
0.0
 40
0.5
  1
0.63
100
AcDbAttributeDefinition
  3

  2
H
 70
     8
280
     0
  0
ATTDEF
  5
87
330
6E
100
AcDbEntity
  8
AM_6
100
AcDbText
 10
5.69
 20
-8.185
 30
0.0
 40
0.5
  1
2
100
AcDbAttributeDefinition
  3

  2
J
 70
     8
280
     0
  0
ATTDEF
  5
88
330
6E
100
AcDbEntity
  8
AM_6
100
AcDbText
 10
5.69
 20
-8.685
 30
0.0
 40
0.5
  1
1.25
100
AcDbAttributeDefinition
  3

  2
K
 70
     8
280
     0
  0
ATTDEF
  5
89
330
6E
100
AcDbEntity
  8
AM_6
100
AcDbText
 10
5.69
 20
-9.185
 30
0.0
 40
0.5
  1
1.12
100
AcDbAttributeDefinition
  3

  2
L
 70
     8
280
     0
  0
ATTDEF
  5
8A
330
6E
100
AcDbEntity
  8
AM_6
100
AcDbText
 10
5.69
 20
-9.685
 30
0.0
 40
0.5
  1
2.985 / 3.015
100
AcDbAttributeDefinition
  3

  2
M
 70
     8
280
     0
  0
ATTDEF
  5
8B
330
6E
100
AcDbEntity
  8
AM_6
100
AcDbText
 10
5.69
 20
-10.185
 30
0.0
 40
0.5
  1
3.63
100
AcDbAttributeDefinition
  3

  2
N
 70
     8
280
     0
  0
ATTDEF
  5
8C
330
6E
100
AcDbEntity
  8
AM_6
100
AcDbText
 10
5.69
 20
-10.685
 30
0.0
 40
0.5
  1
0.50
100
AcDbAttributeDefinition
  3

  2
R
 70
     8
280
     0
  0
ATTDEF
  5
8D
330
6E
100
AcDbEntity
  8
AM_6
100
AcDbText
 10
5.69
 20
-11.185
 30
0.0
 40
0.5
  1
0.73
100
AcDbAttributeDefinition
  3

  2
S
 70
     8
280
     0
  0
ATTDEF
  5
8E
330
6E
100
AcDbEntity
  8
AM_6
100
AcDbText
 10
5.69
 20
-11.685
 30
0.0
 40
0.5
  1
1.38
100
AcDbAttributeDefinition
  3

  2
T
 70
     8
280
     0
  0
ATTDEF
  5
8F
330
6E
100
AcDbEntity
  8
AM_6
100
AcDbText
 10
5.69
 20
-12.185
 30
0.0
 40
0.5
  1
baldor
100
AcDbAttributeDefinition
  3

  2
COMPANY
 70
     8
280
     0
  0
INSERT
  5
91
330
6E
100
AcDbEntity
  8
0
100
AcDbBlockReference
  2
2_123331_0_in_125344_2
 10
0.0
 20
0.0
 30
0.0
  0
INSERT
  5
F8
330
6E
100
AcDbEntity
  8
0
100
AcDbBlockReference
  2
3_405016_Inch_0_in_125344_2
 10
0.0
 20
0.0
 30
0.0
  0
INSERT
  5
175
330
6E
100
AcDbEntity
  8
0
100
AcDbBlockReference
  2
4_125344H_0_in_125344_2
 10
0.0
 20
0.0
 30
0.0
  0
ENDBLK
  5
71
330
6E
100
AcDbEntity
  8
0
100
AcDbBlockEnd
  0
BLOCK
  5
92
330
90
100
AcDbEntity
  8
0
100
AcDbBlockBegin
  2
2_123331_0_in_125344_2
 70
     2
 10
0.0
 20
0.0
 30
0.0
  3
2_123331_0_in_125344_2
  1

  0
ATTDEF
  5
94
330
90
100
AcDbEntity
  8
AM_6
100
AcDbText
 10
5.5
 20
0.9762725
 30
0.0
 40
0.5
  1
Set Screw Insert Inch Bore
100
AcDbAttributeDefinition
  3

  2
NN
 70
     8
280
     0
  0
ATTDEF
  5
95
330
90
100
AcDbEntity
  8
AM_6
100
AcDbText
 10
5.5
 20
0.4762725
 30
0.0
 40
0.5
  1
SC Normal Duty Bearing Inserts
100
AcDbAttributeDefinition
  3

  2
NT
 70
     8
280
     0
  0
ATTDEF
  5
96
330
90
100
AcDbEntity
  8
AM_6
100
AcDbText
 10
5.5
 20
-0.0237275
 30
0.0
 40
0.5
  1
123331
100
AcDbAttributeDefinition
  3

  2
NB
 70
     8
280
     0
  0
ATTDEF
  5
97
330
90
100
AcDbEntity
  8
AM_6
100
AcDbText
 10
5.5
 20
-0.5237275
 30
0.0
 40
0.5
  1
$PN.
100
AcDbAttributeDefinition
  3

  2
NBSYN
 70
     8
280
     0
  0
ATTDEF
  5
98
330
90
100
AcDbEntity
  8
AM_6
100
AcDbText
 10
5.5
 20
-1.0237275
 30
0.0
 40
0.5
  1
123331
100
AcDbAttributeDefinition
  3

  2
LINA
 70
     8
280
     0
  0
ATTDEF
  5
99
330
90
100
AcDbEntity
  8
AM_6
100
AcDbText
 10
5.5
 20
-1.5237275
 30
0.0
 40
0.5
  1
204
100
AcDbAttributeDefinition
  3

  2
SERIES
 70
     8
280
     0
  0
ATTDEF
  5
9A
330
90
100
AcDbEntity
  8
AM_6
100
AcDbText
 10
5.5
 20
-2.0237275
 30
0.0
 40
0.5
  1
5/8
100
AcDbAttributeDefinition
  3

  2
SS
 70
     8
280
     0
  0
ATTDEF
  5
9B
330
90
100
AcDbEntity
  8
AM_6
100
AcDbText
 10
5.5
 20
-2.5237275
 30
0.0
 40
0.5
  1
123331
100
AcDbAttributeDefinition
  3

  2
PN
 70
     8
280
     0
  0
ATTDEF
  5
9C
330
90
100
AcDbEntity
  8
AM_6
100
AcDbText
 10
5.5
 20
-3.0237275
 30
0.0
 40
0.5
  1
INS-SC-010L
100
AcDbAttributeDefinition
  3

  2
DESCRIPTION
 70
     8
280
     0
  0
ATTDEF
  5
9D
330
90
100
AcDbEntity
  8
AM_6
100
AcDbText
 10
5.5
 20
-3.5237275
 30
0.0
 40
0.5
  1
1.23
100
AcDbAttributeDefinition
  3

  2
A
 70
     8
280
     0
  0
ATTDEF
  5
9E
330
90
100
AcDbEntity
  8
AM_6
100
AcDbText
 10
5.5
 20
-4.0237275
 30
0.0
 40
0.5
  1
0.58
100
AcDbAttributeDefinition
  3

  2
C
 70
     8
280
     0
  0
ATTDEF
  5
9F
330
90
100
AcDbEntity
  8
AM_6
100
AcDbText
 10
5.5
 20
-4.5237275
 30
0.0
 40
0.5
  1
1.8504
100
AcDbAttributeDefinition
  3

  2
D
 70
     8
280
     0
  0
ATTDEF
  5
A0
330
90
100
AcDbEntity
  8
AM_6
100
AcDbText
 10
5.5
 20
-5.0237275
 30
0.0
 40
0.5
  1
0.15
100
AcDbAttributeDefinition
  3

  2
J
 70
     8
280
     0
  0
ATTDEF
  5
A1
330
90
100
AcDbEntity
  8
AM_6
100
AcDbText
 10
5.5
 20
-5.5237275
 30
0.0
 40
0.5
  1
1.12
100
AcDbAttributeDefinition
  3

  2
L
 70
     8
280
     0
  0
ATTDEF
  5
A2
330
90
100
AcDbEntity
  8
AM_6
100
AcDbText
 10
5.5
 20
-6.0237275
 30
0.0
 40
0.5
  1
1/4-28
100
AcDbAttributeDefinition
  3

  2
N
 70
     8
280
     0
  0
ATTDEF
  5
A3
330
90
100
AcDbEntity
  8
AM_6
100
AcDbText
 10
5.5
 20
-6.5237275
 30
0.0
 40
0.5
  1
0.5
100
AcDbAttributeDefinition
  3

  2
W
 70
     8
280
     0
  0
ATTDEF
  5
A4
330
90
100
AcDbEntity
  8
AM_6
100
AcDbText
 10
5.5
 20
-7.0237275
 30
0.0
 40
0.5
  1
0.73
100
AcDbAttributeDefinition
  3

  2
Y
 70
     8
280
     0
  0
ATTDEF
  5
A5
330
90
100
AcDbEntity
  8
AM_6
100
AcDbText
 10
5.5
 20
-7.5237275
 30
0.0
 40
0.5
  1
baldor
100
AcDbAttributeDefinition
  3

  2
COMPANY
 70
     8
280
     0
  0
LINE
  5
A8
330
90
100
AcDbEntity
  8
AM_9
100
AcDbLine
 10
0.2133333333333318
 20
0.9002704218569593
 30
0.0
 11
0.2133333333333318
 21
0.9037227272727274
 31
0.0
  0
LINE
  5
A9
330
90
100
AcDbEntity
  8
AM_9
100
AcDbLine
 10
0.1606060606060555
 20
0.95645
 30
0.0
 11
0.1393939393939445
 21
0.95645
 31
0.0
  0
ARC
  5
AA
330
90
100
AcDbEntity
  8
AM_9
100
AcDbCircle
 10
0.1393939393939408
 20
0.9037227272727274
 30
0.0
 40
0.0527272727272726
100
AcDbArc
 50
90.0
 51
161.0052555727877
  0
ARC
  5
AB
330
90
100
AcDbEntity
  8
AM_9
100
AcDbCircle
 10
0.1606060606060592
 20
0.9037227272727273
 30
0.0
 40
0.0527272727272726
100
AcDbArc
 50
0.0
 51
90.0
  0
LINE
  5
AC
330
90
100
AcDbEntity
  8
AM_9
100
AcDbLine
 10
0.2133333333333318
 20
0.9037227272727274
 30
0.0
 11
0.192563870332108
 21
0.9037227272727274
 31
0.0
  0
LINE
  5
AD
330
90
100
AcDbEntity
  8
AM_9
100
AcDbLine
 10
-0.58245
 20
-0.2831686957530242
 30
0.0
 11
-0.58245
 21
-0.5001759871386657
 31
0.0
  0
LINE
  5
AE
330
90
100
AcDbEntity
  8
AM_9
100
AcDbLine
 10
-0.43755
 20
-0.5001759871386657
 30
0.0
 11
-0.43755
 21
-0.2831889748026509
 31
0.0
  0
LWPOLYLINE
  5
AF
330
90
100
AcDbEntity
  8
AM_9
100
AcDbPolyline
 90
        6
 70
     0
 43
0.0
 10
-0.4511368343228856
 20
-0.2984730622519943
 10
-0.4478534289928715
 20
-0.2969349247844632
 10
-0.4424459816093746
 20
-0.2932901252235887
 10
-0.4390103242617382
 20
-0.2890156874421037
 10
-0.4375851904944708
 20
-0.2841679975289982
 10
-0.4375500004410475
 20
-0.2832245618657708
  0
LWPOLYLINE
  5
B0
330
90
100
AcDbEntity
  8
AM_9
100
AcDbPolyline
 90
       17
 70
     0
 43
0.0
 10
-0.5824499998533793
 20
-0.2832192354576495
 10
-0.5820644588451704
 20
-0.2862949417337282
 10
-0.5798633221559347
 20
-0.2907832903384724
 10
-0.5757989101253222
 20
-0.2946998653648883
 10
-0.5699140061425303
 20
-0.2980150287635615
 10
-0.5624212839300146
 20
-0.3007061505025875
 10
-0.5532750270582767
 20
-0.3028363835517933
 10
-0.5428957589933145
 20
-0.3043935288051985
 10
-0.5315049728609607
 20
-0.3054311848904689
 10
-0.5194749663982836
 20
-0.3059940402514241
 10
-0.5074376546454512
 20
-0.3061138047497021
 10
-0.4954742727424773
 20
-0.3058158592426997
 10
-0.4840877718086277
 20
-0.3050962207406612
 10
-0.4734125040653486
 20
-0.3039203995895222
 10
-0.4635813127346057
 20
-0.3022042422151932
 10
-0.4550250720684401
 20
-0.2999163014125202
 10
-0.4511368343228856
 20
-0.2984730622519943
  0
LWPOLYLINE
  5
B1
330
90
100
AcDbEntity
  8
AM_9
100
AcDbPolyline
 90
       11
 70
     0
 43
0.0
 10
-0.4375500004410475
 20
-0.2832245618657708
 10
-0.4382098403008829
 20
-0.2789820669366136
 10
-0.4407779534007817
 20
-0.2735196445732448
 10
-0.4452137559443433
 20
-0.2679917192889321
 10
-0.4513693679075192
 20
-0.2625949966555189
 10
-0.4592763366753775
 20
-0.2574555497214761
 10
-0.4685898618040448
 20
-0.2529247340255524
 10
-0.4792499777031139
 20
-0.2491922472451321
 10
-0.4908155131441513
 20
-0.2465268818762668
 10
-0.5003170459031921
 20
-0.2453029148441012
 10
-0.51
 20
-0.244885827079694
  0
ELLIPSE
  5
B2
330
90
100
AcDbEntity
  8
AM_9
100
AcDbEllipse
 10
-0.5100000000000001
 20
-0.5001759871386657
 30
0.0
 11
-0.07245000000000001
 21
8.872566059822576E-18
 31
0.0
210
0.0
220
0.0
230
1.0
 40
0.4226182617406983
 41
2.454312995672861
 42
5.851072862189019
  0
LINE
  5
B3
330
90
100
AcDbEntity
  8
AM_9
100
AcDbLine
 10
-0.5740909083329412
 20
-0.4858982560806384
 30
0.0
 11
-0.5800909544825282
 21
-0.4907087352587118
 31
0.0
  0
LINE
  5
B4
330
90
100
AcDbEntity
  8
AM_9
100
AcDbLine
 10
-0.4398291674849959
 20
-0.4907727767014659
 30
0.0
 11
-0.4459090916670589
 21
-0.4858982560806384
 31
0.0
  0
LWPOLYLINE
  5
B5
330
90
100
AcDbEntity
  8
AM_9
100
AcDbPolyline
 90
        4
 70
     0
 43
0.0
 10
-0.4511628619069943
 20
-0.4836158741137378
 10
-0.4483199082665295
 20
-0.485136220644771
 10
-0.4400382430606994
 20
-0.4906062457526564
 10
-0.4398129990546819
 20
-0.490785739660602
  0
LWPOLYLINE
  5
B6
330
90
100
AcDbEntity
  8
AM_9
100
AcDbPolyline
 90
        6
 70
     0
 43
0.0
 10
-0.5035110128025356
 20
-0.4711471987129767
 10
-0.4973698640541859
 20
-0.4715285063343154
 10
-0.4835208452073295
 20
-0.4732938093668113
 10
-0.4704029551360503
 20
-0.4762724833781578
 10
-0.4584452010674094
 20
-0.4803187480047407
 10
-0.4511628619069943
 20
-0.4836158741137378
  0
LWPOLYLINE
  5
B7
330
90
100
AcDbEntity
  8
AM_9
100
AcDbPolyline
 90
        4
 70
     0
 43
0.0
 10
-0.4398129990546819
 20
-0.490785739660602
 10
-0.4342616951994881
 20
-0.4961518865785973
 10
-0.4306616736460246
 20
-0.5018546632878612
 10
-0.4294873132453503
 20
-0.508693465882292
  0
LWPOLYLINE
  5
B8
330
90
100
AcDbEntity
  8
AM_9
100
AcDbPolyline
 90
       11
 70
     0
 43
0.0
 10
-0.51
 20
-0.244885827079694
 10
-0.5219778219351934
 20
-0.2455271277827113
 10
-0.5336134399397667
 20
-0.2473877276168036
 10
-0.5445632115903751
 20
-0.2503746977262508
 10
-0.5545584011805349
 20
-0.2543053940162746
 10
-0.5634643427106849
 20
-0.2590744404683844
 10
-0.5708824321762144
 20
-0.2643784682719329
 10
-0.576644403142961
 20
-0.2700456450688096
 10
-0.5805029072666322
 20
-0.2757664782108349
 10
-0.5822909428795198
 20
-0.2812094217131003
 10
-0.5824499998533793
 20
-0.2832192354576495
  0
LINE
  5
B9
330
90
100
AcDbEntity
  8
AM_9
100
AcDbLine
 10
-0.7076
 20
-0.3125
 30
0.0
 11
0.4776
 21
-0.3125
 31
0.0
  0
LINE
  5
BA
330
90
100
AcDbEntity
  8
AM_9
100
AcDbLine
 10
0.4776
 20
0.3125
 30
0.0
 11
-0.7076
 21
0.3125
 31
0.0
  0
LINE
  5
BB
330
90
100
AcDbEntity
  8
AM_9
100
AcDbLine
 10
0.4776
 20
-0.3125
 30
0.0
 11
0.5
 21
-0.3349
 31
0.0
  0
LINE
  5
BC
330
90
100
AcDbEntity
  8
AM_9
100
AcDbLine
 10
0.5
 20
0.3349
 30
0.0
 11
0.4776
 21
0.3125
 31
0.0
  0
LINE
  5
BD
330
90
100
AcDbEntity
  8
AM_9
100
AcDbLine
 10
-0.7076
 20
0.3125
 30
0.0
 11
-0.73
 21
0.3349
 31
0.0
  0
LINE
  5
BE
330
90
100
AcDbEntity
  8
AM_9
100
AcDbLine
 10
-0.73
 20
-0.3349
 30
0.0
 11
-0.7076
 21
-0.3125
 31
0.0
  0
LINE
  5
BF
330
90
100
AcDbEntity
  8
AM_9
100
AcDbLine
 10
0.5
 20
0.4754997371187495
 30
0.0
 11
0.5
 21
-0.4754997371187495
 31
0.0
  0
LINE
  5
C0
330
90
100
AcDbEntity
  8
AM_9
100
AcDbLine
 10
0.4776
 20
0.4979942168338903
 30
0.0
 11
0.4776
 21
-0.4979942168338903
 31
0.0
  0
LINE
  5
C1
330
90
100
AcDbEntity
  8
AM_9
100
AcDbLine
 10
0.29
 20
-0.5599999999999996
 30
0.0
 11
0.45135
 21
-0.5599999999999996
 31
0.0
  0
LINE
  5
C2
330
90
100
AcDbEntity
  8
AM_9
100
AcDbLine
 10
0.4513500000000001
 20
0.5599999999999996
 30
0.0
 11
0.29
 21
0.5599999999999996
 31
0.0
  0
LWPOLYLINE
  5
C3
330
90
100
AcDbEntity
  8
AM_9
100
AcDbPolyline
 90
        6
 70
     0
 43
0.0
 10
-0.4294873132453503
 20
-0.508693465882292
 10
-0.430986134177394
 20
-0.5135607104490949
 10
-0.4344523202753254
 20
-0.5180408740030177
 10
-0.4397202011352058
 20
-0.5219995032668471
 10
-0.4466065591130716
 20
-0.5254384508748356
 10
-0.4511716336752249
 20
-0.5271500010750376
  0
LINE
  5
C4
330
90
100
AcDbEntity
  8
AM_9
100
AcDbLine
 10
-0.45135
 20
-0.56
 30
0.0
 11
-0.29
 21
-0.56
 31
0.0
  0
LINE
  5
C5
330
90
100
AcDbEntity
  8
AM_9
100
AcDbLine
 10
-0.29
 20
0.56
 30
0.0
 11
-0.45135
 21
0.56
 31
0.0
  0
LWPOLYLINE
  5
C6
330
90
100
AcDbEntity
  8
AM_9
100
AcDbPolyline
 90
       30
 70
     0
 43
0.0
 10
-0.4512281942638908
 20
-0.0515671178002046
 10
-0.4533020404650008
 20
-0.053565034278234
 10
-0.4633673610521457
 20
-0.0614919164967355
 10
-0.4745597734045006
 20
-0.0677439201194634
 10
-0.4873629467867707
 20
-0.0724030461779484
 10
-0.500755424343956
 20
-0.0749593942925536
 10
-0.5149103132076525
 20
-0.0753113978912197
 10
-0.5289290038400993
 20
-0.0733402070749083
 10
-0.542541778461967
 20
-0.0690019483558066
 10
-0.5552106401849662
 20
-0.0624244629017982
 10
-0.5663265028618879
 20
-0.0538951876315804
 10
-0.5757612022061832
 20
-0.0435447703100453
 10
-0.5828016345336194
 20
-0.0322538428499068
 10
-0.5877108789517669
 20
-0.019881567703752
 10
-0.5901330252394845
 20
-0.0077190691248194
 10
-0.5904111306019111
 20
0.0046814829587969
 10
-0.5886314498807306
 20
0.0163804848710921
 10
-0.5849566865453558
 20
0.0276246652353772
 10
-0.579448920335299
 20
0.0381900416204455
 10
-0.5723422003068191
 20
0.0477494160555532
 10
-0.5633525021037236
 20
0.0564926170872139
 10
-0.5530996909411966
 20
0.0637226058222296
 10
-0.5410837092369559
 20
0.0695925811330365
 10
-0.5282783140224295
 20
0.0734853056958167
 10
-0.5143747093293307
 20
0.0753407237840758
 10
-0.5003519892635925
 20
0.0749146309729273
 10
-0.4863399828387127
 20
0.0721133215133015
 10
-0.4730051981321199
 20
0.0670093559330371
 10
-0.4628369426951512
 20
0.0611376697293583
 10
-0.4536268405303896
 20
0.0538649327305704
  0
LWPOLYLINE
  5
C7
330
90
100
AcDbEntity
  8
AM_9
100
AcDbPolyline
 90
       11
 70
     0
 43
0.0
 10
-0.451224207743146
 20
0.0515631327450711
 10
-0.445720603077549
 20
0.0454345497030534
 10
-0.4391695650745052
 20
0.0359118772261481
 10
-0.4337140360774059
 20
0.0242028537827363
 10
-0.4304122634993948
 20
0.0117089521809967
 10
-0.4294433351802054
 20
-0.0004016606927547
 10
-0.4305500384462057
 20
-0.012500337336149
 10
-0.4335968370363006
 20
-0.0238864871802357
 10
-0.4384419745175879
 20
-0.034625967447194
 10
-0.4451236765772189
 20
-0.0446832106860002
 10
-0.4512281942638908
 20
-0.0515671178002046
  0
LINE
  5
C8
330
90
100
AcDbEntity
  8
AM_9
100
AcDbLine
 10
-0.4536268405303896
 20
0.0538649327305704
 30
0.0
 11
-0.451224207743146
 21
0.0515631327450711
 31
0.0
  0
LINE
  5
C9
330
90
100
AcDbEntity
  8
AM_9
100
AcDbLine
 10
-0.1799999999999999
 20
-0.8752
 30
0.0
 11
-0.12
 21
-0.8752
 31
0.0
  0
LINE
  5
CA
330
90
100
AcDbEntity
  8
AM_9
100
AcDbLine
 10
-0.12
 20
0.8752
 30
0.0
 11
-0.1799999999999999
 21
0.8752
 31
0.0
  0
LINE
  5
CB
330
90
100
AcDbEntity
  8
AM_9
100
AcDbLine
 10
-0.29
 20
0.8566113704592063
 30
0.0
 11
-0.29
 21
-0.8566113704560497
 31
0.0
  0
ARC
  5
CC
330
90
100
AcDbEntity
  8
AM_9
100
AcDbCircle
 10
-0.26
 20
-0.8566113704592064
 30
0.0
 40
0.0300000000000001
100
AcDbArc
 50
180.0
 51
253.1158262695226
  0
ARC
  5
CD
330
90
100
AcDbEntity
  8
AM_9
100
AcDbCircle
 10
-0.26
 20
0.8566113704592064
 30
0.0
 40
0.0300000000000001
100
AcDbArc
 50
106.8841737304773
 51
180.0
  0
LINE
  5
CE
330
90
100
AcDbEntity
  8
AM_9
100
AcDbLine
 10
0.29
 20
0.8566113704592065
 30
0.0
 11
0.29
 21
-0.8566113704560501
 31
0.0
  0
ARC
  5
CF
330
90
100
AcDbEntity
  8
AM_9
100
AcDbCircle
 10
0.2599999999999994
 20
-0.856611370459206
 30
0.0
 40
0.0300000000000007
100
AcDbArc
 50
286.8841721900836
 51
0.0
  0
ARC
  5
D0
330
90
100
AcDbEntity
  8
AM_9
100
AcDbCircle
 10
0.2599999999999996
 20
0.8566113704592061
 30
0.0
 40
0.0300000000000004
100
AcDbArc
 50
0.0000008537736463
 51
73.11582780991665
  0
LINE
  5
D1
330
90
100
AcDbEntity
  8
AM_9
100
AcDbLine
 10
-0.2687131367292221
 20
0.885318185823121
 30
0.0
 11
-0.2687131367292221
 21
-0.8853181858230931
 31
0.0
  0
LINE
  5
D2
330
90
100
AcDbEntity
  8
AM_9
100
AcDbLine
 10
-0.18
 20
0.907521371649175
 30
0.0
 11
-0.18
 21
-0.907521371649147
 31
0.0
  0
ARC
  5
D3
330
90
100
AcDbEntity
  8
AM_9
100
AcDbCircle
 10
0.0000000000053942
 20
0.0000000000215788
 30
0.0
 40
0.9252000000221885
100
AcDbArc
 50
253.1158262695898
 51
258.7814152154215
  0
ARC
  5
D4
330
90
100
AcDbEntity
  8
AM_9
100
AcDbCircle
 10
0.000000000005386
 20
-0.0000000000215451
 30
0.0
 40
0.9252000000221539
100
AcDbArc
 50
101.2185847845784
 51
106.8841737304103
  0
LINE
  5
D5
330
90
100
AcDbEntity
  8
AM_9
100
AcDbLine
 10
-0.12
 20
0.917384891961929
 30
0.0
 11
-0.12
 21
-0.917384891961929
 31
0.0
  0
LINE
  5
D6
330
90
100
AcDbEntity
  8
AM_9
100
AcDbLine
 10
0.2687131359574407
 20
0.8853181860573733
 30
0.0
 11
0.2687131359574407
 21
-0.8853181860573733
 31
0.0
  0
ARC
  5
D7
330
90
100
AcDbEntity
  8
AM_9
100
AcDbCircle
 10
-0.0000000000000004
 20
0.0000000000000032
 30
0.0
 40
0.9252000000000031
100
AcDbArc
 50
262.5476457553006
 51
286.8841736805301
  0
ARC
  5
D8
330
90
100
AcDbEntity
  8
AM_9
100
AcDbCircle
 10
-0.0000000000000457
 20
-0.0000000000001824
 30
0.0
 40
0.9252000000001879
100
AcDbArc
 50
73.1158263194704
 51
76.66945180852001
  0
ARC
  5
D9
330
90
100
AcDbEntity
  8
AM_9
100
AcDbCircle
 10
-0.0000000000000011
 20
-0.0000000000000048
 30
0.0
 40
0.9252000000000046
100
AcDbArc
 50
84.43444625298538
 51
97.45235424469944
  0
LINE
  5
DA
330
90
100
AcDbEntity
  8
AM_9
100
AcDbLine
 10
0.2133333333191893
 20
0.9002688092415132
 30
0.0
 11
0.0895286808261843
 21
0.9208581081303527
 31
0.0
  0
ARC
  5
DC
330
90
100
AcDbEntity
  8
AM_5
100
AcDbCircle
 10
-0.5100000000000001
 20
-0.0000000000000001
 30
0.0
 40
0.095
100
AcDbArc
 50
75.00000000000001
 51
15.00000000000002
  0
ARC
  5
DD
330
90
100
AcDbEntity
  8
AM_5
100
AcDbCircle
 10
-0.5400000000000001
 20
0.0
 30
0.0
 40
0.095
100
AcDbArc
 50
74.99999999999994
 51
14.99999999999994
  0
CIRCLE
  5
DE
330
90
100
AcDbEntity
  8
AM_9
100
AcDbCircle
 10
-0.51
 20
0.0
 30
0.0
 40
0.07245
  0
LINE
  5
E1
330
90
100
AcDbEntity
  8
AM_7
100
AcDbLine
 10
0.15
 20
0.9762725
 30
0.0
 11
0.15
 21
0.5401775000000001
 31
0.0
  0
LINE
  5
E2
330
90
100
AcDbEntity
  8
AM_7
100
AcDbLine
 10
-0.51
 20
-0.0760725000000001
 30
0.0
 11
-0.51
 21
0.0760725
 31
0.0
  0
ELLIPSE
  5
E4
330
90
100
AcDbEntity
  8
AM_4
100
AcDbEllipse
 10
-0.51
 20
-0.5001759871386657
 30
0.0
 11
-0.07245000000000001
 21
8.872566059822576E-18
 31
0.0
210
0.0
220
0.0
230
1.0
 40
0.4226182617406998
 41
5.851072862189019
 42
8.73749830285245
  0
LWPOLYLINE
  5
E5
330
90
100
AcDbEntity
  8
AM_4
100
AcDbPolyline
 90
        9
 70
     0
 43
0.0
 10
-0.5801810584564144
 20
-0.4907809765619504
 10
-0.5781637780481498
 20
-0.4892445220699373
 10
-0.5705248192554347
 20
-0.4845005681710768
 10
-0.5614791894099757
 20
-0.4802882609874899
 10
-0.5505710238707275
 20
-0.4765483886575059
 10
-0.5386629362942426
 20
-0.4736959664202618
 10
-0.5253218366931942
 20
-0.4717703009395466
 10
-0.511574039368065
 20
-0.4710208553607615
 10
-0.5035110128025356
 20
-0.4711471987129767
  0
LINE
  5
E6
330
90
100
AcDbEntity
  8
AM_4
100
AcDbLine
 10
0.5
 20
-0.4754997371187495
 30
0.0
 11
0.5
 21
-0.5376000000000001
 31
0.0
  0
LINE
  5
E7
330
90
100
AcDbEntity
  8
AM_4
100
AcDbLine
 10
0.5
 20
0.5376000000000001
 30
0.0
 11
0.5
 21
0.4754997371187495
 31
0.0
  0
LINE
  5
E8
330
90
100
AcDbEntity
  8
AM_4
100
AcDbLine
 10
0.5
 20
0.5376000000000001
 30
0.0
 11
0.4776
 21
0.56
 31
0.0
  0
LINE
  5
E9
330
90
100
AcDbEntity
  8
AM_4
100
AcDbLine
 10
0.4776
 20
-0.56
 30
0.0
 11
0.5
 21
-0.5376000000000001
 31
0.0
  0
LINE
  5
EA
330
90
100
AcDbEntity
  8
AM_4
100
AcDbLine
 10
0.4776
 20
-0.4979942168338903
 30
0.0
 11
0.4776
 21
-0.5599999999999996
 31
0.0
  0
LINE
  5
EB
330
90
100
AcDbEntity
  8
AM_4
100
AcDbLine
 10
0.4776
 20
0.56
 30
0.0
 11
0.4776
 21
0.4979942168338903
 31
0.0
  0
LINE
  5
EC
330
90
100
AcDbEntity
  8
AM_4
100
AcDbLine
 10
0.45135
 20
-0.5599999999999996
 30
0.0
 11
0.4776
 21
-0.5599999999999996
 31
0.0
  0
LINE
  5
ED
330
90
100
AcDbEntity
  8
AM_4
100
AcDbLine
 10
0.4776
 20
0.5599999999999996
 30
0.0
 11
0.4513500000000001
 21
0.5599999999999996
 31
0.0
  0
LWPOLYLINE
  5
EE
330
90
100
AcDbEntity
  8
AM_4
100
AcDbPolyline
 90
       19
 70
     0
 43
0.0
 10
-0.4511716336752249
 20
-0.5271500010750376
 10
-0.4553732705483525
 20
-0.5284601413726945
 10
-0.4654285593486576
 20
-0.5308799457880153
 10
-0.4772697112108451
 20
-0.532803149067517
 10
-0.4899378874865805
 20
-0.5340754317720201
 10
-0.5037662810680099
 20
-0.5347250587553299
 10
-0.5177637250176701
 20
-0.5346885083573194
 10
-0.5318299242584172
 20
-0.5339381354734624
 10
-0.545273052211044
 20
-0.5324587900748147
 10
-0.5576018242803259
 20
-0.530238080206124
 10
-0.568521427358075
 20
-0.5272535361881827
 10
-0.5773131428827782
 20
-0.5236379211381569
 10
-0.5841019417818744
 20
-0.5193225839821654
 10
-0.588340222415118
 20
-0.5146973609375691
 10
-0.5903921253941853
 20
-0.5096080739919353
 10
-0.590206958464798
 20
-0.5045206438424448
 10
-0.5880148523910724
 20
-0.49929580661639
 10
-0.5839480466430346
 20
-0.4941742839110944
 10
-0.5801810584564144
 20
-0.4907809765619504
  0
LINE
  5
EF
330
90
100
AcDbEntity
  8
AM_4
100
AcDbLine
 10
-0.7076
 20
-0.56
 30
0.0
 11
-0.45135
 21
-0.56
 31
0.0
  0
LINE
  5
F0
330
90
100
AcDbEntity
  8
AM_4
100
AcDbLine
 10
-0.45135
 20
0.56
 30
0.0
 11
-0.7076
 21
0.56
 31
0.0
  0
LINE
  5
F1
330
90
100
AcDbEntity
  8
AM_4
100
AcDbLine
 10
-0.73
 20
0.5376000000000001
 30
0.0
 11
-0.73
 21
-0.5376000000000001
 31
0.0
  0
LINE
  5
F2
330
90
100
AcDbEntity
  8
AM_4
100
AcDbLine
 10
-0.7076
 20
0.56
 30
0.0
 11
-0.7076
 21
-0.56
 31
0.0
  0
LINE
  5
F3
330
90
100
AcDbEntity
  8
AM_4
100
AcDbLine
 10
-0.73
 20
-0.5376000000000001
 30
0.0
 11
-0.7076
 21
-0.56
 31
0.0
  0
LINE
  5
F4
330
90
100
AcDbEntity
  8
AM_4
100
AcDbLine
 10
-0.7076
 20
0.56
 30
0.0
 11
-0.73
 21
0.5376000000000001
 31
0.0
  0
ARC
  5
F5
330
90
100
AcDbEntity
  8
AM_5
100
AcDbCircle
 10
-0.51
 20
0.0
 30
0.0
 40
0.095
100
AcDbArc
 50
345.0
 51
285.0
  0
ARC
  5
F6
330
90
100
AcDbEntity
  8
AM_5
100
AcDbCircle
 10
-0.54
 20
0.0
 30
0.0
 40
0.095
100
AcDbArc
 50
345.0
 51
285.0
  0
ENDBLK
  5
93
330
90
100
AcDbEntity
  8
0
100
AcDbBlockEnd
  0
BLOCK
  5
F9
330
F7
100
AcDbEntity
  8
0
100
AcDbBlockBegin
  2
3_405016_Inch_0_in_125344_2
 70
     2
 10
0.0
 20
0.0
 30
0.0
  3
3_405016_Inch_0_in_125344_2
  1

  0
ATTDEF
  5
FB
330
F7
100
AcDbEntity
  8
AM_6
100
AcDbText
 10
5.218750000000001
 20
-0.4469256983551583
 30
0.0
 40
0.5
  1
405016 -Inch
100
AcDbAttributeDefinition
  3

  2
NN
 70
     8
280
     0
  0
ATTDEF
  5
FC
330
F7
100
AcDbEntity
  8
AM_6
100
AcDbText
 10
5.218750000000001
 20
-0.9469256983551583
 30
0.0
 40
0.5
  1
Grease Fitting
100
AcDbAttributeDefinition
  3

  2
NT
 70
     8
280
     0
  0
ATTDEF
  5
FD
330
F7
100
AcDbEntity
  8
AM_6
100
AcDbText
 10
5.218750000000001
 20
-1.446925698355158
 30
0.0
 40
0.5
  1
405016-Inch
100
AcDbAttributeDefinition
  3

  2
NB
 70
     8
280
     0
  0
ATTDEF
  5
FE
330
F7
100
AcDbEntity
  8
AM_6
100
AcDbText
 10
5.218750000000001
 20
-1.946925698355158
 30
0.0
 40
0.5
  1
$MN.-Inch
100
AcDbAttributeDefinition
  3

  2
NBSYN
 70
     8
280
     0
  0
ATTDEF
  5
FF
330
F7
100
AcDbEntity
  8
AM_6
100
AcDbText
 10
5.218750000000001
 20
-2.446925698355158
 30
0.0
 40
0.5
  1
405016
100
AcDbAttributeDefinition
  3

  2
LINA
 70
     8
280
     0
  0
ATTDEF
  5
100
330
F7
100
AcDbEntity
  8
AM_6
100
AcDbText
 10
5.218750000000001
 20
-2.946925698355158
 30
0.0
 40
0.5
  1
405016
100
AcDbAttributeDefinition
  3

  2
MN
 70
     8
280
     0
  0
ATTDEF
  5
101
330
F7
100
AcDbEntity
  8
AM_6
100
AcDbText
 10
5.218750000000001
 20
-3.446925698355158
 30
0.0
 40
0.5
  1
7/16 HEX
100
AcDbAttributeDefinition
  3

  2
H
 70
     8
280
     0
  0
ATTDEF
  5
102
330
F7
100
AcDbEntity
  8
AM_6
100
AcDbText
 10
5.218750000000001
 20
-3.946925698355158
 30
0.0
 40
0.5
  1
0.383
100
AcDbAttributeDefinition
  3

  2
NDR
 70
     8
280
     0
  0
ATTDEF
  5
103
330
F7
100
AcDbEntity
  8
AM_6
100
AcDbText
 10
5.218750000000001
 20
-4.446925698355159
 30
0.0
 40
0.5
  1
0.337
100
AcDbAttributeDefinition
  3

  2
KDR
 70
     8
280
     0
  0
ATTDEF
  5
104
330
F7
100
AcDbEntity
  8
AM_6
100
AcDbText
 10
5.218750000000001
 20
-4.946925698355159
 30
0.0
 40
0.5
  1
0.1575
100
AcDbAttributeDefinition
  3

  2
BZE
 70
     8
280
     0
  0
ATTDEF
  5
105
330
F7
100
AcDbEntity
  8
AM_6
100
AcDbText
 10
5.218750000000001
 20
-5.446925698355159
 30
0.0
 40
0.5
  1
0.4375
100
AcDbAttributeDefinition
  3

  2
HEX
 70
     8
280
     0
  0
ATTDEF
  5
106
330
F7
100
AcDbEntity
  8
AM_6
100
AcDbText
 10
5.218750000000001
 20
-5.946925698355159
 30
0.0
 40
0.5
  1
0.281250
100
AcDbAttributeDefinition
  3

  2
HEX2
 70
     8
280
     0
  0
ATTDEF
  5
107
330
F7
100
AcDbEntity
  8
AM_6
100
AcDbText
 10
5.218750000000001
 20
-6.446925698355159
 30
0.0
 40
0.5
  1
baldor
100
AcDbAttributeDefinition
  3

  2
COMPANY
 70
     8
280
     0
  0
LWPOLYLINE
  5
108
330
F7
100
AcDbEntity
  8
AM_9
100
AcDbPolyline
 90
        5
 70
     0
 43
0.0
 10
-0.1791093260592887
 20
-1.051738809059826
 10
-0.1842540823997054
 20
-1.018670119967152
 10
-0.1862220679364951
 20
-0.9843124091789144
 10
-0.1844124966919382
 20
-0.9481264462853559
 10
-0.1791093260592887
 20
-0.9111138090598259
  0
LINE
  5
109
330
F7
100
AcDbEntity
  8
AM_9
100
AcDbLine
 10
-0.151074129835757
 20
-0.9045772957113704
 30
0.0
 11
-0.1791093260592887
 21
-0.9111138090598259
 31
0.0
  0
LWPOLYLINE
  5
10A
330
F7
100
AcDbEntity
  8
AM_9
100
AcDbPolyline
 90
        5
 70
     0
 43
0.0
 10
-0.1791093260592887
 20
-0.9111138090598259
 10
-0.1988355121406939
 20
-0.8796885177366109
 10
-0.2156330920108725
 20
-0.8469977243283277
 10
-0.2290462109660021
 20
-0.8125061536907939
 10
-0.2389369657326277
 20
-0.7771690924072835
  0
LINE
  5
10B
330
F7
100
AcDbEntity
  8
AM_9
100
AcDbLine
 10
-0.2099962668917054
 20
-0.7704214576563438
 30
0.0
 11
-0.2389369657326277
 21
-0.7771690924072835
 31
0.0
  0
LINE
  5
10C
330
F7
100
AcDbEntity
  8
AM_9
100
AcDbLine
 10
-0.2389369657326277
 20
-0.7771690924072835
 30
0.0
 11
-0.2711532636537957
 21
-0.7816181234374059
 31
0.0
  0
LWPOLYLINE
  5
10D
330
F7
100
AcDbEntity
  8
AM_9
100
AcDbPolyline
 90
        3
 70
     0
 43
0.0
 10
-0.2813919000363599
 20
-0.7827530489567841
 10
-0.2911775952746243
 20
-0.7835555934942604
 10
-0.2987675689889718
 20
-0.7838500667254668
  0
LWPOLYLINE
  5
10E
330
F7
100
AcDbEntity
  8
AM_9
100
AcDbPolyline
 90
        5
 70
     0
 43
0.0
 10
-0.2389369657326277
 20
-1.058419092407284
 10
-0.2295338871417796
 20
-1.05799806213629
 10
-0.2166871171046321
 20
-1.056802555641742
 10
-0.1996402057054678
 20
-1.054676787031714
 10
-0.1791093260592887
 20
-1.051738809059826
  0
LINE
  5
10F
330
F7
100
AcDbEntity
  8
AM_9
100
AcDbLine
 10
-0.151074129835757
 20
-1.04520229571137
 30
0.0
 11
-0.1791093260592887
 21
-1.051738809059826
 31
0.0
  0
ELLIPSE
  5
110
330
F7
100
AcDbEntity
  8
AM_9
100
AcDbEllipse
 10
-0.4687499999999998
 20
-0.9706064384440943
 30
0.0
 11
-0.02349716402074581
 21
0.1007796617096757
 31
0.0
210
0.0
220
0.0
230
1.0
 40
0.3659981507706664
 41
2.957156468664753
 42
6.467621492104631
  0
LINE
  5
111
330
F7
100
AcDbEntity
  8
AM_9
100
AcDbLine
 10
-0.45135
 20
-1.071517472588915
 30
0.0
 11
-0.3774664534000949
 21
-1.089780662014441
 31
0.0
  0
LINE
  5
112
330
F7
100
AcDbEntity
  8
AM_9
100
AcDbLine
 10
-0.4395859245204075
 20
-0.8233493905826325
 30
0.0
 11
-0.4513499999999998
 21
-0.833267278560741
 31
0.0
  0
LWPOLYLINE
  5
113
330
F7
100
AcDbEntity
  8
AM_9
100
AcDbPolyline
 90
        3
 70
     0
 43
0.0
 10
-0.2689146070947222
 20
-0.7768897343505178
 10
-0.251275593729576
 20
-0.7742388430145477
 10
-0.2360765106845275
 20
-0.7721875924132665
  0
ELLIPSE
  5
114
330
F7
100
AcDbEntity
  8
AM_9
100
AcDbEllipse
 10
-0.3994303217889762
 20
-0.954444290038774
 30
0.0
 11
-0.03159560311146643
 21
0.1355139790604256
 31
0.0
210
0.0
220
0.0
230
1.0
 40
0.3659981507706671
 41
1.492410664254422
 42
4.145181672147548
  0
LWPOLYLINE
  5
115
330
F7
100
AcDbEntity
  8
AM_9
100
AcDbPolyline
 90
       12
 70
     0
 43
0.0
 10
-0.3790517693756471
 20
-0.8271076604372989
 10
-0.3835037127180814
 20
-0.8236150086154113
 10
-0.3897493695049813
 20
-0.8196296476661706
 10
-0.3959550616816586
 20
-0.8166717623339156
 10
-0.4021449593655801
 20
-0.8146671317810784
 10
-0.4083316244874702
 20
-0.8135763879002904
 10
-0.4144909111233622
 20
-0.8133907824164098
 10
-0.4210879449565225
 20
-0.8142187120449276
 10
-0.4272991298721401
 20
-0.8160466980234323
 10
-0.4330426455423467
 20
-0.8187688567070853
 10
-0.4382793579096157
 20
-0.822288457473491
 10
-0.4397308586943556
 20
-0.8234720923094453
  0
LWPOLYLINE
  5
116
330
F7
100
AcDbEntity
  8
AM_9
100
AcDbPolyline
 90
       12
 70
     0
 43
0.0
 10
-0.3779236843397289
 20
-1.089665152354439
 10
-0.3730446460381615
 20
-1.090642124606172
 10
-0.3668734137586615
 20
-1.091071832323409
 10
-0.360192526784138
 20
-1.090501677101374
 10
-0.353877789072459
 20
-1.08890677695057
 10
-0.3480122896792981
 20
-1.086390391160904
 10
-0.3426531576616931
 20
-1.083057644236275
 10
-0.3377920420589304
 20
-1.078969949876075
 10
-0.3333998463438321
 20
-1.07413653825566
 10
-0.3294411153274046
 20
-1.068505013861849
 10
-0.3258961929845134
 20
-1.061971376516093
 10
-0.3253249576321258
 20
-1.060739535451591
  0
ELLIPSE
  5
117
330
F7
100
AcDbEntity
  8
AM_9
100
AcDbEllipse
 10
-0.399430321788973
 20
-0.9544442900387784
 30
0.0
 11
-0.03159560311146871
 21
0.1355139790604312
 31
0.0
210
0.0
220
0.0
230
1.0
 40
0.3659981507706691
 41
0.1861697706612278
 42
0.5147673728610712
  0
LWPOLYLINE
  5
118
330
F7
100
AcDbEntity
  8
AM_9
100
AcDbPolyline
 90
        4
 70
     0
 43
0.0
 10
-0.109375
 20
-0.63
 10
-0.08203125
 20
-0.6160244179980003
 10
-0.0546875
 20
-0.6014595596074827
 10
-0.0000000000000001
 20
-0.5707787001516929
  0
LWPOLYLINE
  5
119
330
F7
100
AcDbEntity
  8
AM_9
100
AcDbPolyline
 90
        4
 70
     0
 43
0.0
 10
-0.0000000000000001
 20
-0.5707787001516929
 10
0.0544416102741495
 20
-0.6013260426622647
 10
0.081870001090765
 20
-0.6159402196382688
 10
0.1093749999999999
 20
-0.63
  0
LWPOLYLINE
  5
11A
330
F7
100
AcDbEntity
  8
AM_9
100
AcDbPolyline
 90
        7
 70
     0
 43
0.0
 10
-0.151074129835757
 20
-1.04520229571137
 10
-0.1564222384464443
 20
-1.0451462587984
 10
-0.1639940363880805
 20
-1.045585121917566
 10
-0.1744063212866123
 20
-1.046646289109958
 10
-0.1876759562813858
 20
-1.048363121169831
 10
-0.1983452719285274
 20
-1.049899791144959
 10
-0.2099962668917054
 20
-1.051671457656344
  0
LWPOLYLINE
  5
11B
330
F7
100
AcDbEntity
  8
AM_9
100
AcDbPolyline
 90
        4
 70
     0
 43
0.0
 10
-0.1510741298357571
 20
-0.9045772957113704
 10
-0.145877822676052
 20
-0.928510622598914
 10
-0.1427138007556462
 20
-0.9533672121093315
 10
-0.141958509815605
 20
-0.972769408754154
  0
LWPOLYLINE
  5
11C
330
F7
100
AcDbEntity
  8
AM_9
100
AcDbPolyline
 90
        3
 70
     0
 43
0.0
 10
-0.2099962668917054
 20
-0.7704214576563438
 10
-0.1943573015029059
 20
-0.792992854288234
 10
-0.1866435862720205
 20
-0.8055411477059039
  0
LWPOLYLINE
  5
11D
330
F7
100
AcDbEntity
  8
AM_9
100
AcDbPolyline
 90
        4
 70
     0
 43
0.0
 10
-0.2258378743019627
 20
-0.7710526668938884
 10
-0.2189176876709015
 20
-0.7705103698475838
 10
-0.2138633349839128
 20
-0.7703309118621997
 10
-0.2099962668917054
 20
-0.7704214576563438
  0
LWPOLYLINE
  5
11E
330
F7
100
AcDbEntity
  8
AM_9
100
AcDbPolyline
 90
        3
 70
     0
 43
0.0
 10
-0.1442888091950613
 20
-1.007911801882396
 10
-0.1470795994472237
 20
-1.02583829813727
 10
-0.151074129835757
 20
-1.04520229571137
  0
LINE
  5
11F
330
F7
100
AcDbEntity
  8
AM_9
100
AcDbLine
 10
-0.1433743500710183
 20
-0.9999665099432223
 30
0.0
 11
-0.1442888091950613
 21
-1.007911801882396
 31
0.0
  0
LWPOLYLINE
  5
120
330
F7
100
AcDbEntity
  8
AM_9
100
AcDbPolyline
 90
        3
 70
     0
 43
0.0
 10
-0.141958509815605
 20
-0.972769408754154
 10
-0.1420496512545706
 20
-0.9795663124220384
 10
-0.1433743500710183
 20
-0.9999665099432223
  0
LWPOLYLINE
  5
121
330
F7
100
AcDbEntity
  8
AM_9
100
AcDbPolyline
 90
        4
 70
     0
 43
0.0
 10
-0.1676913420398466
 20
-0.8442041199140132
 10
-0.1598729403210871
 20
-0.8667686897126439
 10
-0.1549033058439656
 20
-0.8856071719614789
 10
-0.151074129835757
 20
-0.9045772957113704
  0
LINE
  5
122
330
F7
100
AcDbEntity
  8
AM_9
100
AcDbLine
 10
-0.1765789831125442
 20
-0.8242058555423608
 30
0.0
 11
-0.1706980482849203
 21
-0.8369366597587002
 31
0.0
  0
ELLIPSE
  5
123
330
F7
100
AcDbEntity
  8
AM_9
100
AcDbEllipse
 10
-0.2013892028242428
 20
-0.9082702448373995
 30
0.0
 11
-0.03193085011439426
 21
0.136951858096014
 31
0.0
210
0.0
220
0.0
230
1.0
 40
0.3659981507704113
 41
2.150416404658099
 42
6.139946939634994
  0
LWPOLYLINE
  5
124
330
F7
100
AcDbEntity
  8
AM_9
100
AcDbPolyline
 90
        3
 70
     0
 43
0.0
 10
-0.3055458577949631
 20
-0.8728524949620341
 10
-0.3030753670497808
 20
-0.8989228551816321
 10
-0.2987675689889718
 20
-0.9244750667254668
  0
LWPOLYLINE
  5
125
330
F7
100
AcDbEntity
  8
AM_9
100
AcDbPolyline
 90
        4
 70
     0
 43
0.0
 10
-0.2602304684431209
 20
-0.8280679499247963
 10
-0.2616913382589203
 20
-0.8134112730526003
 10
-0.2647402074337707
 20
-0.7949547701127597
 10
-0.2689146070947222
 20
-0.7768897343505178
  0
LINE
  5
126
330
F7
100
AcDbEntity
  8
AM_9
100
AcDbLine
 10
-0.2689146070947222
 20
-0.7768897343505178
 30
0.0
 11
-0.2987675689889718
 21
-0.7838500667254668
 31
0.0
  0
LWPOLYLINE
  5
127
330
F7
100
AcDbEntity
  8
AM_9
100
AcDbPolyline
 90
        3
 70
     0
 43
0.0
 10
-0.2987675689889718
 20
-0.7838500667254668
 10
-0.3030606061861223
 20
-0.811294122408012
 10
-0.3055458577949631
 20
-0.8386334064683196
  0
LINE
  5
128
330
F7
100
AcDbEntity
  8
AM_9
100
AcDbLine
 10
-0.2711532636537957
 20
-0.7816181234374059
 30
0.0
 11
-0.2813919000363599
 21
-0.7827530489567841
 31
0.0
  0
ELLIPSE
  5
129
330
F7
100
AcDbEntity
  8
AM_9
100
AcDbEllipse
 10
-0.2467045921760208
 20
-0.9188357013808583
 30
0.0
 11
-0.03193085011438258
 21
0.1369518580960947
 31
0.0
210
0.0
220
0.0
230
1.0
 40
0.3659981507706647
 41
2.150416404658199
 42
6.139946939636895
  0
ELLIPSE
  5
12A
330
F7
100
AcDbEntity
  8
AM_9
100
AcDbEllipse
 10
-0.2467045921760219
 20
-0.9188357013808591
 30
0.0
 11
-0.03193085011438278
 21
0.1369518580960932
 31
0.0
210
0.0
220
0.0
230
1.0
 40
0.3659981507706602
 41
1.255371155748105
 42
1.951156734850501
  0
LWPOLYLINE
  5
12B
330
F7
100
AcDbEntity
  8
AM_9
100
AcDbPolyline
 90
        3
 70
     0
 43
0.0
 10
-0.3055458577949631
 20
-0.8386334064683196
 10
-0.3064767622622302
 20
-0.8558698068452318
 10
-0.3055458577949631
 20
-0.8728524949620341
  0
ELLIPSE
  5
12C
330
F7
100
AcDbEntity
  8
AM_9
100
AcDbEllipse
 10
-0.2467045921760289
 20
-0.918835701380852
 30
0.0
 11
-0.03193085011437708
 21
0.1369518580960847
 31
0.0
210
0.0
220
0.0
230
1.0
 40
0.3659981507706472
 41
0.0560213022649449
 42
0.8626327579757883
  0
LWPOLYLINE
  5
12D
330
F7
100
AcDbEntity
  8
AM_9
100
AcDbPolyline
 90
       21
 70
     0
 43
0.0
 10
-0.325014472136164
 20
-1.060044609478342
 10
-0.3247359523964726
 20
-1.059474188478676
 10
-0.323872068187524
 20
-1.057965680231237
 10
-0.3222909725155285
 20
-1.055644178429579
 10
-0.3198496362562678
 20
-1.052647842112819
 10
-0.3164054415029667
 20
-1.049150048565378
 10
-0.3118422605292915
 20
-1.045380209766746
 10
-0.3061220695417686
 20
-1.041638675718973
 10
-0.2993507676069995
 20
-1.038279951977662
 10
-0.2918100539593297
 20
-1.035643430416219
 10
-0.2839087006966985
 20
-1.03395973405976
 10
-0.2760928622804958
 20
-1.033298763323408
 10
-0.2687968679147099
 20
-1.033572236219186
 10
-0.2623436357707831
 20
-1.034568214475384
 10
-0.256946292224449
 20
-1.036009234435359
 10
-0.2526847177904677
 20
-1.037611833125266
 10
-0.2495270416322411
 20
-1.039134398052063
 10
-0.2473826196036628
 20
-1.040391211287725
 10
-0.2461473954616663
 20
-1.041241191771007
 10
-0.2457262115683299
 20
-1.041570916337047
 10
-0.2457249882508969
 20
-1.041571960916105
  0
LWPOLYLINE
  5
12E
330
F7
100
AcDbEntity
  8
AM_9
100
AcDbPolyline
 90
        4
 70
     0
 43
0.0
 10
-0.2457249882508969
 20
-1.041571960916105
 10
-0.246037532723965
 20
-1.041282775450004
 10
-0.2470057022175861
 20
-1.040294641885365
 10
-0.247195398401639
 20
-1.040090036601167
  0
LWPOLYLINE
  5
12F
330
F7
100
AcDbEntity
  8
AM_9
100
AcDbPolyline
 90
        4
 70
     0
 43
0.0
 10
-0.3007413504302699
 20
-0.8101998319700289
 10
-0.3003783894078064
 20
-0.8090553478569654
 10
-0.3001155004967915
 20
-0.8083401196355167
 10
-0.3001080482840255
 20
-0.808322263717043
  0
LWPOLYLINE
  5
130
330
F7
100
AcDbEntity
  8
AM_9
100
AcDbPolyline
 90
        6
 70
     0
 43
0.0
 10
-0.371394081726901
 20
-0.8312091436095917
 10
-0.3748331099558107
 20
-0.8296503285340588
 10
-0.3772478769835446
 20
-0.8283041599942197
 10
-0.3787249487454001
 20
-0.8273291793593037
 10
-0.3793630145316799
 20
-0.8268449608516654
 10
-0.3793877161619698
 20
-0.8268244981360865
  0
LWPOLYLINE
  5
131
330
F7
100
AcDbEntity
  8
AM_9
100
AcDbPolyline
 90
       16
 70
     0
 43
0.0
 10
-0.3002627840355623
 20
-0.8086507866630454
 10
-0.300951885500751
 20
-0.8099119108954734
 10
-0.3023201506257626
 20
-0.8120208446196158
 10
-0.304508457536036
 20
-0.814845646390654
 10
-0.3076612055501595
 20
-0.8182246453443027
 10
-0.3119058928485837
 20
-0.8219460655098072
 10
-0.3173087441138981
 20
-0.8257294651230899
 10
-0.3238095917495777
 20
-0.8292306963245573
 10
-0.3311742663175138
 20
-0.8320966579229047
 10
-0.3390200861541575
 20
-0.834058554962681
 10
-0.3469067411727915
 20
-0.8350007427903301
 10
-0.3543829119084018
 20
-0.8349690715728497
 10
-0.3610964100450466
 20
-0.8341472823035447
 10
-0.3668000852524134
 20
-0.8328003483527195
 10
-0.3713771073391074
 20
-0.8312159807273074
 10
-0.371394081726901
 20
-0.8312091436095917
  0
LINE
  5
132
330
F7
100
AcDbEntity
  8
AM_9
100
AcDbLine
 10
-0.1771207715546619
 20
-0.7896616924073272
 30
0.0
 11
-0.2263662233581052
 21
-0.8011434580599515
 31
0.0
  0
LINE
  5
133
330
F7
100
AcDbEntity
  8
AM_9
100
AcDbLine
 10
-0.1764121822902709
 20
-1.01539703161473
 30
0.0
 11
-0.1343592486638226
 21
-1.005592229115782
 31
0.0
  0
LWPOLYLINE
  5
134
330
F7
100
AcDbEntity
  8
AM_9
100
AcDbPolyline
 90
       12
 70
     0
 43
0.0
 10
-0.1198898850785792
 20
-0.9021665685343585
 10
-0.1208367673933812
 20
-0.8966073935114571
 10
-0.1245107513506023
 20
-0.878747455120003
 10
-0.1291842652280562
 20
-0.8609224816066245
 10
-0.1344729790611519
 20
-0.8445960564441003
 10
-0.1405186270901959
 20
-0.8293288727646309
 10
-0.1468270783017121
 20
-0.8163704784891935
 10
-0.1535654953592165
 20
-0.8053813720298789
 10
-0.1601799433259583
 20
-0.7972689428626644
 10
-0.1668493358980661
 20
-0.7918204774364153
 10
-0.1731116383367606
 20
-0.7894809397560726
 10
-0.1771125901748263
 20
-0.789659785344162
  0
LWPOLYLINE
  5
135
330
F7
100
AcDbEntity
  8
AM_9
100
AcDbPolyline
 90
       10
 70
     0
 43
0.0
 10
-0.1343659249938088
 20
-1.00559378540361
 10
-0.1293028157827817
 20
-1.002990967168627
 10
-0.1247141396218192
 20
-0.9974171960405072
 10
-0.1208880884981781
 20
-0.9887972390764892
 10
-0.1181545989145989
 20
-0.9778809914909219
 10
-0.1164278875396128
 20
-0.964336212655024
 10
-0.1158549073091554
 20
-0.9493302713177414
 10
-0.1164156227038168
 20
-0.9324082867497738
 10
-0.1180609686233502
 20
-0.9150047030275386
 10
-0.1198898850785792
 20
-0.9021665685343585
  0
LINE
  5
136
330
F7
100
AcDbEntity
  8
AM_9
100
AcDbLine
 10
-0.1771125901748263
 20
-0.789659785344162
 30
0.0
 11
-0.1790373738502115
 21
-0.7903040540337614
 31
0.0
  0
LWPOLYLINE
  5
137
330
F7
100
AcDbEntity
  8
AM_9
100
AcDbPolyline
 90
        3
 70
     0
 43
0.0
 10
-0.2689146070947222
 20
-0.9175147343505179
 10
-0.2634308483997528
 20
-0.8898909589556475
 10
-0.2602304684431305
 20
-0.8622870384185166
  0
LWPOLYLINE
  5
138
330
F7
100
AcDbEntity
  8
AM_9
100
AcDbPolyline
 90
        5
 70
     0
 43
0.0
 10
-0.179037373850178
 20
-0.9446959459662462
 10
-0.1733931390117467
 20
-0.960209976006311
 10
-0.1670729780242511
 20
-0.9743579756306698
 10
-0.1606047421316796
 20
-0.9859559434157931
 10
-0.1545729875674735
 20
-0.9944140873104216
  0
ARC
  5
139
330
F7
100
AcDbEntity
  8
AM_9
100
AcDbCircle
 10
0.0000000000000908
 20
-0.8675000000002537
 30
0.0
 40
0.1999999999999091
100
AcDbArc
 50
219.3548508242737
 51
0.0
  0
LWPOLYLINE
  5
13A
330
F7
100
AcDbEntity
  8
AM_9
100
AcDbPolyline
 90
        6
 70
     0
 43
0.0
 10
-0.1545729875674735
 20
-0.9944140873104216
 10
-0.1538031670974777
 20
-0.9953348025402612
 10
-0.1472336073736393
 20
-1.001712011960484
 10
-0.1407130262602576
 20
-1.005261709638181
 10
-0.1347930597680667
 20
-1.005684256104104
 10
-0.1343659249938088
 20
-1.00559378540361
  0
LINE
  5
13B
330
F7
100
AcDbEntity
  8
AM_9
100
AcDbLine
 10
-0.2360765106845275
 20
-0.7721875924132665
 30
0.0
 11
-0.2258378743019627
 21
-0.7710526668938884
 31
0.0
  0
ELLIPSE
  5
13C
330
F7
100
AcDbEntity
  8
AM_9
100
AcDbEllipse
 10
-0.2013892028241867
 20
-0.9082702448373438
 30
0.0
 11
-0.03193085011438455
 21
0.1369518580960974
 31
0.0
210
0.0
220
0.0
230
1.0
 40
0.365998150770571
 41
0.0560213022650107
 42
0.8626327579757253
  0
LINE
  5
13D
330
F7
100
AcDbEntity
  8
AM_9
100
AcDbLine
 10
-0.2602304684431305
 20
-0.8622870384185166
 30
0.0
 11
-0.2602304684431209
 21
-0.8280679499247963
 31
0.0
  0
ELLIPSE
  5
13E
330
F7
100
AcDbEntity
  8
AM_9
100
AcDbEllipse
 10
-0.2013892028241878
 20
-0.908270244837341
 30
0.0
 11
-0.03193085011438273
 21
0.1369518580960943
 31
0.0
210
0.0
220
0.0
230
1.0
 40
0.3659981507706698
 41
1.144545279139736
 42
1.951156734850495
  0
LINE
  5
13F
330
F7
100
AcDbEntity
  8
AM_9
100
AcDbLine
 10
-0.2232738309280273
 20
-0.9999491897806569
 30
0.0
 11
-0.2258378743019629
 21
-0.9930574775994407
 31
0.0
  0
LWPOLYLINE
  5
140
330
F7
100
AcDbEntity
  8
AM_9
100
AcDbPolyline
 90
        3
 70
     0
 43
0.0
 10
-0.2099962668917054
 20
-1.051671457656344
 10
-0.2163479371246913
 20
-1.022339189975666
 10
-0.2232738309280273
 20
-0.9999491897806569
  0
LINE
  5
141
330
F7
100
AcDbEntity
  8
AM_9
100
AcDbLine
 10
-0.2258378743019629
 20
-0.9930574775994407
 30
0.0
 11
-0.2360765106845277
 21
-0.9699657255010712
 31
0.0
  0
LWPOLYLINE
  5
142
330
F7
100
AcDbEntity
  8
AM_9
100
AcDbPolyline
 90
        4
 70
     0
 43
0.0
 10
-0.2360765106845277
 20
-0.9699657255010712
 10
-0.2462091938631851
 20
-0.9514216112135016
 10
-0.2570505402207574
 20
-0.9342846905716822
 10
-0.2689146070947222
 20
-0.9175147343505179
  0
LINE
  5
143
330
F7
100
AcDbEntity
  8
AM_9
100
AcDbLine
 10
-0.2689146070947222
 20
-0.9175147343505179
 30
0.0
 11
-0.2987675689889718
 21
-0.9244750667254668
 31
0.0
  0
LWPOLYLINE
  5
144
330
F7
100
AcDbEntity
  8
AM_9
100
AcDbPolyline
 90
        3
 70
     0
 43
0.0
 10
-0.2987675689889718
 20
-0.9244750667254668
 10
-0.2912216284034025
 20
-0.9525761834951973
 10
-0.2813919000363599
 20
-0.9805311820445894
  0
LINE
  5
145
330
F7
100
AcDbEntity
  8
AM_9
100
AcDbLine
 10
-0.2729964939561688
 20
-1.000067368021669
 30
0.0
 11
-0.2711532636537957
 21
-1.003622934142958
 31
0.0
  0
LINE
  5
146
330
F7
100
AcDbEntity
  8
AM_9
100
AcDbLine
 10
-0.2813919000363599
 20
-0.9805311820445894
 30
0.0
 11
-0.2729964939561688
 21
-1.000067368021669
 31
0.0
  0
LWPOLYLINE
  5
147
330
F7
100
AcDbEntity
  8
AM_9
100
AcDbPolyline
 90
        3
 70
     0
 43
0.0
 10
-0.2711532636537957
 20
-1.003622934142958
 10
-0.2561815527589921
 20
-1.031327936735335
 10
-0.2389369657326277
 20
-1.058419092407284
  0
LINE
  5
148
330
F7
100
AcDbEntity
  8
AM_9
100
AcDbLine
 10
-0.2099962668917054
 20
-1.051671457656344
 30
0.0
 11
-0.2389369657326277
 21
-1.058419092407284
 31
0.0
  0
LWPOLYLINE
  5
149
330
F7
100
AcDbEntity
  8
AM_9
100
AcDbPolyline
 90
        4
 70
     0
 43
0.0
 10
-0.0000000000000001
 20
-0.5298462998483072
 10
-0.0544416102741497
 20
-0.5537405676118847
 10
-0.0818700010907651
 20
-0.5665547814524962
 10
-0.109375
 20
-0.58
  0
LWPOLYLINE
  5
14A
330
F7
100
AcDbEntity
  8
AM_9
100
AcDbPolyline
 90
        4
 70
     0
 43
0.0
 10
0.1093749999999999
 20
-0.58
 10
0.0820312499999999
 20
-0.5666318320019995
 10
0.0546874999999999
 20
-0.5538529403925173
 10
-0.0000000000000001
 20
-0.5298462998483072
  0
LWPOLYLINE
  5
14B
330
F7
100
AcDbEntity
  8
AM_9
100
AcDbPolyline
 90
        4
 70
     0
 43
0.0
 10
0.1093749999999999
 20
-0.63
 10
0.1367187499999999
 20
-0.6433681679980005
 10
0.1640624999999999
 20
-0.6561470596074827
 10
0.2187499999999999
 20
-0.6801537001516927
  0
LWPOLYLINE
  5
14C
330
F7
100
AcDbEntity
  8
AM_9
100
AcDbPolyline
 90
        4
 70
     0
 43
0.0
 10
-0.2187500000000001
 20
-0.6801537001516927
 10
-0.1643083897258504
 20
-0.6562594323881152
 10
-0.1368799989092349
 20
-0.6434452185475037
 10
-0.109375
 20
-0.63
  0
LINE
  5
14D
330
F7
100
AcDbEntity
  8
AM_9
100
AcDbLine
 10
-0.0000000000000001
 20
-0.5707787001516929
 30
0.0
 11
-0.0000000000000001
 21
-0.5298462998483072
 31
0.0
  0
LWPOLYLINE
  5
14E
330
F7
100
AcDbEntity
  8
AM_9
100
AcDbPolyline
 90
        4
 70
     0
 43
0.0
 10
0.2187499999999999
 20
-0.6392212998483072
 10
0.1643083897258503
 20
-0.6086739573377351
 10
0.1368799989092348
 20
-0.594059780361731
 10
0.1093749999999999
 20
-0.58
  0
LWPOLYLINE
  5
14F
330
F7
100
AcDbEntity
  8
AM_9
100
AcDbPolyline
 90
        4
 70
     0
 43
0.0
 10
-0.109375
 20
-0.58
 10
-0.13671875
 20
-0.5939755820019995
 10
-0.1640625
 20
-0.6085404403925173
 10
-0.2187500000000001
 20
-0.6392212998483072
  0
ELLIPSE
  5
150
330
F7
100
AcDbEntity
  8
AM_9
100
AcDbEllipse
 10
-0.0000000000000001
 20
-0.8675
 30
0.0
 11
-0.2
 21
2.449293598294706E-17
 31
0.0
210
0.0
220
0.0
230
1.0
 40
0.8660254037844392
 41
0.4619460205669661
 42
5.821239286612619
  0
LWPOLYLINE
  5
151
330
F7
100
AcDbEntity
  8
AM_9
100
AcDbPolyline
 90
        7
 70
     0
 43
0.0
 10
-0.1790373738501784
 20
-0.9446959459662462
 10
-0.1842628795203941
 20
-0.9287012162956051
 10
-0.1891729979031393
 20
-0.9126444582564122
 10
-0.1936098952159724
 20
-0.8958778251052955
 10
-0.1971856748420371
 20
-0.878429808725254
 10
-0.1994144431868155
 20
-0.8609576332075928
 10
-0.1999999999699529
 20
-0.84725755900097
  0
LINE
  5
152
330
F7
100
AcDbEntity
  8
AM_9
100
AcDbLine
 10
-0.2
 20
-0.7940624999999999
 30
0.0
 11
-0.2
 21
-0.8473468854091477
 31
0.0
  0
LINE
  5
153
330
F7
100
AcDbEntity
  8
AM_9
100
AcDbLine
 10
0.1999999999999999
 20
-0.8674999999999999
 30
0.0
 11
0.1999999999999999
 21
-0.7940624999999999
 31
0.0
  0
LWPOLYLINE
  5
154
330
F7
100
AcDbEntity
  8
AM_9
100
AcDbPolyline
 90
        8
 70
     0
 43
0.0
 10
-0.1999999999699529
 20
-0.84725755900097
 10
-0.1999786710855128
 20
-0.8447474927945717
 10
-0.1988321115509053
 20
-0.8294770462991155
 10
-0.1961649429984259
 20
-0.8165478285833824
 10
-0.1920694300574958
 20
-0.8054958498463315
 10
-0.1870948030566195
 20
-0.7972268040530578
 10
-0.181500594761393
 20
-0.7917034871441516
 10
-0.1790373738501784
 20
-0.7903040540337538
  0
LINE
  5
155
330
F7
100
AcDbEntity
  8
AM_9
100
AcDbLine
 10
-0.2187500000000001
 20
-0.8989037001516929
 30
0.0
 11
-0.2187500000000001
 21
-0.6392212998483072
 31
0.0
  0
LWPOLYLINE
  5
156
330
F7
100
AcDbEntity
  8
AM_9
100
AcDbPolyline
 90
        4
 70
     0
 43
0.0
 10
-0.109375
 20
-0.958125
 10
-0.13671875
 20
-0.9441494179980005
 10
-0.1640625
 20
-0.9295845596074827
 10
-0.2187500000000001
 20
-0.8989037001516929
  0
LWPOLYLINE
  5
157
330
F7
100
AcDbEntity
  8
AM_9
100
AcDbPolyline
 90
        4
 70
     0
 43
0.0
 10
-0.0188214215650875
 20
-1.000225810098612
 10
-0.0544416102741496
 20
-0.9843844323881152
 10
-0.0818700010907651
 20
-0.9715702185475038
 10
-0.109375
 20
-0.958125
  0
LINE
  5
158
330
F7
100
AcDbEntity
  8
AM_9
100
AcDbLine
 10
-0.0000000000000001
 20
-1.008278700151693
 30
0.0
 11
-0.0188214215650875
 21
-1.000225810098612
 31
0.0
  0
LWPOLYLINE
  5
159
330
F7
100
AcDbEntity
  8
AM_9
100
AcDbPolyline
 90
        4
 70
     0
 43
0.0
 10
-0.109375
 20
-0.9081250000000001
 10
-0.0820312500000001
 20
-0.9221005820019996
 10
-0.0546875000000001
 20
-0.9366654403925173
 10
-0.0000000000000001
 20
-0.9673462998483071
  0
LWPOLYLINE
  5
15A
330
F7
100
AcDbEntity
  8
AM_9
100
AcDbPolyline
 90
        4
 70
     0
 43
0.0
 10
-0.2187500000000001
 20
-0.8579712998483073
 10
-0.1643083897258505
 20
-0.8818655676118848
 10
-0.1368799989092349
 20
-0.8946797814524963
 10
-0.109375
 20
-0.9081250000000001
  0
LINE
  5
15B
330
F7
100
AcDbEntity
  8
AM_9
100
AcDbLine
 10
-0.0000000000000001
 20
-1.008278700151693
 30
0.0
 11
-0.0000000000000001
 21
-0.9673462998483071
 31
0.0
  0
LINE
  5
15C
330
F7
100
AcDbEntity
  8
AM_9
100
AcDbLine
 10
0.0188176223776828
 20
-1.000227456218961
 30
0.0
 11
-0.0000000000000001
 21
-1.008278700151693
 31
0.0
  0
LWPOLYLINE
  5
15D
330
F7
100
AcDbEntity
  8
AM_9
100
AcDbPolyline
 90
        4
 70
     0
 43
0.0
 10
0.1093749999999999
 20
-0.958125
 10
0.0820312499999999
 20
-0.9714931679980003
 10
0.0546874999999999
 20
-0.9842720596074827
 10
0.0188176223776828
 20
-1.000227456218961
  0
LWPOLYLINE
  5
15E
330
F7
100
AcDbEntity
  8
AM_9
100
AcDbPolyline
 90
        4
 70
     0
 43
0.0
 10
0.2187499999999999
 20
-0.8989037001516929
 10
0.1643083897258503
 20
-0.9294510426622647
 10
0.1368799989092348
 20
-0.9440652196382688
 10
0.1093749999999999
 20
-0.958125
  0
LINE
  5
15F
330
F7
100
AcDbEntity
  8
AM_9
100
AcDbLine
 10
0.2187499999999999
 20
-0.8989037001516929
 30
0.0
 11
0.2187499999999999
 21
-0.6392212998483072
 31
0.0
  0
LWPOLYLINE
  5
160
330
F7
100
AcDbEntity
  8
AM_9
100
AcDbPolyline
 90
        4
 70
     0
 43
0.0
 10
0.1093749999999999
 20
-0.9081250000000001
 10
0.1367187499999999
 20
-0.8947568320019995
 10
0.1640624999999999
 20
-0.8819779403925173
 10
0.2187499999999999
 20
-0.8579712998483071
  0
LWPOLYLINE
  5
161
330
F7
100
AcDbEntity
  8
AM_9
100
AcDbPolyline
 90
        4
 70
     0
 43
0.0
 10
-0.0000000000000001
 20
-0.9673462998483071
 10
0.0544416102741495
 20
-0.9367989573377352
 10
0.081870001090765
 20
-0.9221847803617311
 10
0.1093749999999999
 20
-0.9081250000000001
  0
LINE
  5
162
330
F7
100
AcDbEntity
  8
AM_9
100
AcDbLine
 10
-0.2
 20
-0.705
 30
0.0
 11
-0.2
 21
-0.7440625
 31
0.0
  0
LINE
  5
163
330
F7
100
AcDbEntity
  8
AM_9
100
AcDbLine
 10
0.1999999999999999
 20
-0.7440625000000001
 30
0.0
 11
0.1999999999999999
 21
-0.705
 31
0.0
  0
LINE
  5
164
330
F7
100
AcDbEntity
  8
AM_9
100
AcDbLine
 10
-0.1851454569549801
 20
-0.598809912570727
 30
0.0
 11
-0.1912304659644924
 21
-0.6960224622874461
 31
0.0
  0
LINE
  5
165
330
F7
100
AcDbEntity
  8
AM_9
100
AcDbLine
 10
0.1912304659644923
 20
-0.6960224622874461
 30
0.0
 11
0.18514545695498
 21
-0.598809912570727
 31
0.0
  0
ELLIPSE
  5
166
330
F7
100
AcDbEntity
  8
AM_9
100
AcDbEllipse
 10
-0.0000000000000001
 20
-0.595625
 30
0.0
 11
0.1616637258772237
 21
0.0
 31
0.0
210
0.0
220
0.0
230
1.0
 40
0.8660254037844384
 41
0.0
 42
6.283185307179586
  0
ELLIPSE
  5
167
330
F7
100
AcDbEntity
  8
AM_9
100
AcDbEllipse
 10
-0.3729962569746643
 20
-0.9482810866092342
 30
0.0
 11
-0.03024351534849229
 21
0.1297148559307582
 31
0.0
210
0.0
220
0.0
230
1.0
 40
0.3659981507706663
 41
0.0
 42
6.283185307179586
  0
ELLIPSE
  5
168
330
F7
100
AcDbEntity
  8
AM_9
100
AcDbEllipse
 10
-0.2013892028241899
 20
-0.9082702448373416
 30
0.0
 11
-0.02497702053391927
 21
0.1071267867773888
 31
0.0
210
0.0
220
0.0
230
1.0
 40
0.3659981507706613
 41
0.0
 42
6.283185307179586
  0
ELLIPSE
  5
169
330
F7
100
AcDbEntity
  8
AM_9
100
AcDbEllipse
 10
-0.0000000000000001
 20
-0.7940624999999999
 30
0.0
 11
-0.1999999999999999
 21
2.449293598294705E-17
 31
0.0
210
0.0
220
0.0
230
1.0
 40
0.8660254037844394
 41
0.0
 42
6.283185307179586
  0
ELLIPSE
  5
16A
330
F7
100
AcDbEntity
  8
AM_9
100
AcDbEllipse
 10
-0.0000000000000001
 20
-0.7940624999999988
 30
0.0
 11
-0.218750000000001
 21
3.259629037943339E-9
 31
0.0
210
0.0
220
0.0
230
1.0
 40
0.8660254037844398
 41
0.0
 42
6.283185307179586
  0
ELLIPSE
  5
16B
330
F7
100
AcDbEntity
  8
AM_9
100
AcDbEllipse
 10
-0.0000000000000001
 20
-0.7440625000000004
 30
0.0
 11
-0.2187499999999998
 21
2.678914873134833E-17
 31
0.0
210
0.0
220
0.0
230
1.0
 40
0.8660254037844372
 41
0.0
 42
6.283185307179586
  0
ELLIPSE
  5
16C
330
F7
100
AcDbEntity
  8
AM_9
100
AcDbEllipse
 10
-0.0000000000000002
 20
-0.7440625
 30
0.0
 11
-0.1999999999999998
 21
2.980232263262465E-9
 31
0.0
210
0.0
220
0.0
230
1.0
 40
0.866025403784439
 41
0.0
 42
6.283185307179586
  0
ELLIPSE
  5
16D
330
F7
100
AcDbEntity
  8
AM_9
100
AcDbEllipse
 10
-0.0000000000000004
 20
-0.7050000000000007
 30
0.0
 11
-0.2000000000000003
 21
2.449293598294710E-17
 31
0.0
210
0.0
220
0.0
230
1.0
 40
0.8660254037844405
 41
0.0
 42
6.283185307179586
  0
ELLIPSE
  5
16E
330
F7
100
AcDbEntity
  8
AM_9
100
AcDbEllipse
 10
0.0
 20
-0.7050000000000001
 30
0.0
 11
-0.1915112338502295
 21
2.345336195354438E-17
 31
0.0
210
0.0
220
0.0
230
1.0
 40
0.8660254037844382
 41
0.0
 42
6.283185307179586
  0
ELLIPSE
  5
16F
330
F7
100
AcDbEntity
  8
AM_9
100
AcDbEllipse
 10
-0.0000000000000001
 20
-0.6075017824238811
 30
0.0
 11
-0.1854172907249859
 21
2.270706915929282E-17
 31
0.0
210
0.0
220
0.0
230
1.0
 40
0.8660254037844397
 41
0.0
 42
6.283185307179586
  0
LINE
  5
170
330
F7
100
AcDbEntity
  8
AM_4
100
AcDbLine
 10
-0.4524158089341449
 20
-1.071254016496842
 30
0.0
 11
-0.45135
 21
-1.071517472588915
 31
0.0
  0
LINE
  5
171
330
F7
100
AcDbEntity
  8
AM_4
100
AcDbLine
 10
-0.4513499999999998
 20
-0.833267278560741
 30
0.0
 11
-0.4986131040655763
 21
-0.8731131782604875
 31
0.0
  0
ELLIPSE
  5
172
330
F7
100
AcDbEntity
  8
AM_4
100
AcDbEllipse
 10
-0.4687500000000001
 20
-0.970606438444094
 30
0.0
 11
-0.02349716402074598
 21
0.1007796617096759
 31
0.0
210
0.0
220
0.0
230
1.0
 40
0.3659981507706683
 41
0.184436184925036
 42
2.957156468664753
  0
ELLIPSE
  5
173
330
F7
100
AcDbEntity
  8
AM_4
100
AcDbEllipse
 10
-0.3994303217889774
 20
-0.9544442900387733
 30
0.0
 11
-0.03159560311146541
 21
0.1355139790604248
 31
0.0
210
0.0
220
0.0
230
1.0
 40
0.3659981507706616
 41
0.5147673728610753
 42
1.49241066425443
  0
ENDBLK
  5
FA
330
F7
100
AcDbEntity
  8
0
100
AcDbBlockEnd
  0
BLOCK
  5
176
330
174
100
AcDbEntity
  8
0
100
AcDbBlockBegin
  2
4_125344H_0_in_125344_2
 70
     2
 10
0.0
 20
0.0
 30
0.0
  3
4_125344H_0_in_125344_2
  1

  0
ATTDEF
  5
178
330
174
100
AcDbEntity
  8
AM_6
100
AcDbText
 10
5.69
 20
1.815
 30
0.0
 40
0.5
  1
WSTU-SC -Inch - housing
100
AcDbAttributeDefinition
  3

  2
NN
 70
     8
280
     0
  0
ATTDEF
  5
179
330
174
100
AcDbEntity
  8
AM_6
100
AcDbText
 10
5.69
 20
1.315
 30
0.0
 40
0.5
  1
SC Take-Up Bearings -Wide Slot -(Normal Duty)
100
AcDbAttributeDefinition
  3

  2
NT
 70
     8
280
     0
  0
ATTDEF
  5
17A
330
174
100
AcDbEntity
  8
AM_6
100
AcDbText
 10
5.69
 20
0.815
 30
0.0
 40
0.5
  1
125344H
100
AcDbAttributeDefinition
  3

  2
NB
 70
     8
280
     0
  0
ATTDEF
  5
17B
330
174
100
AcDbEntity
  8
AM_6
100
AcDbText
 10
5.69
 20
0.3149999999999999
 30
0.0
 40
0.5
  1
$PN.H
100
AcDbAttributeDefinition
  3

  2
NBSYN
 70
     8
280
     0
  0
ATTDEF
  5
17C
330
174
100
AcDbEntity
  8
AM_6
100
AcDbText
 10
5.69
 20
-0.1850000000000001
 30
0.0
 40
0.5
  1
125344
100
AcDbAttributeDefinition
  3

  2
LINA
 70
     8
280
     0
  0
ATTDEF
  5
17D
330
174
100
AcDbEntity
  8
AM_6
100
AcDbText
 10
5.69
 20
-0.685
 30
0.0
 40
0.5
  1
204
100
AcDbAttributeDefinition
  3

  2
SERIES
 70
     8
280
     0
  0
ATTDEF
  5
17E
330
174
100
AcDbEntity
  8
AM_6
100
AcDbText
 10
5.69
 20
-1.185
 30
0.0
 40
0.5
  1
5/8
100
AcDbAttributeDefinition
  3

  2
SS
 70
     8
280
     0
  0
ATTDEF
  5
17F
330
174
100
AcDbEntity
  8
AM_6
100
AcDbText
 10
5.69
 20
-1.685
 30
0.0
 40
0.5
  1
125344
100
AcDbAttributeDefinition
  3

  2
PN
 70
     8
280
     0
  0
ATTDEF
  5
180
330
174
100
AcDbEntity
  8
AM_6
100
AcDbText
 10
5.69
 20
-2.185
 30
0.0
 40
0.5
  1
WSTU-SC-010
100
AcDbAttributeDefinition
  3

  2
DESCRIPTION
 70
     8
280
     0
  0
ATTDEF
  5
181
330
174
100
AcDbEntity
  8
AM_6
100
AcDbText
 10
5.69
 20
-2.685
 30
0.0
 40
0.5
  1
2.0
100
AcDbAttributeDefinition
  3

  2
W
 70
     8
280
     0
  0
ATTDEF
  5
182
330
174
100
AcDbEntity
  8
AM_6
100
AcDbText
 10
5.69
 20
-3.185
 30
0.0
 40
0.5
  1
WS300
100
AcDbAttributeDefinition
  3

  2
FS
 70
     8
280
     0
  0
ATTDEF
  5
183
330
174
100
AcDbEntity
  8
AM_6
100
AcDbText
 10
5.69
 20
-3.685
 30
0.0
 40
0.5
  1
RE-LUBE
100
AcDbAttributeDefinition
  3

  2
LF
 70
     8
280
     0
  0
ATTDEF
  5
184
330
174
100
AcDbEntity
  8
AM_6
100
AcDbText
 10
5.69
 20
-4.185
 30
0.0
 40
0.5
  1
1.23
100
AcDbAttributeDefinition
  3

  2
A
 70
     8
280
     0
  0
ATTDEF
  5
185
330
174
100
AcDbEntity
  8
AM_6
100
AcDbText
 10
5.69
 20
-4.685
 30
0.0
 40
0.5
  1
3.69
100
AcDbAttributeDefinition
  3

  2
B
 70
     8
280
     0
  0
ATTDEF
  5
186
330
174
100
AcDbEntity
  8
AM_6
100
AcDbText
 10
5.69
 20
-5.185
 30
0.0
 40
0.5
  1
0.531
100
AcDbAttributeDefinition
  3

  2
C
 70
     8
280
     0
  0
ATTDEF
  5
187
330
174
100
AcDbEntity
  8
AM_6
100
AcDbText
 10
5.69
 20
-5.685
 30
0.0
 40
0.5
  1
2
100
AcDbAttributeDefinition
  3

  2
D
 70
     8
280
     0
  0
ATTDEF
  5
188
330
174
100
AcDbEntity
  8
AM_6
100
AcDbText
 10
5.69
 20
-6.185
 30
0.0
 40
0.5
  1
2.38
100
AcDbAttributeDefinition
  3

  2
E
 70
     8
280
     0
  0
ATTDEF
  5
189
330
174
100
AcDbEntity
  8
AM_6
100
AcDbText
 10
5.69
 20
-6.685
 30
0.0
 40
0.5
  1
5/8
100
AcDbAttributeDefinition
  3

  2
F
 70
     8
280
     0
  0
ATTDEF
  5
18A
330
174
100
AcDbEntity
  8
AM_6
100
AcDbText
 10
5.69
 20
-7.185
 30
0.0
 40
0.5
  1
0.38
100
AcDbAttributeDefinition
  3

  2
G
 70
     8
280
     0
  0
ATTDEF
  5
18B
330
174
100
AcDbEntity
  8
AM_6
100
AcDbText
 10
5.69
 20
-7.685
 30
0.0
 40
0.5
  1
0.63
100
AcDbAttributeDefinition
  3

  2
H
 70
     8
280
     0
  0
ATTDEF
  5
18C
330
174
100
AcDbEntity
  8
AM_6
100
AcDbText
 10
5.69
 20
-8.185
 30
0.0
 40
0.5
  1
2
100
AcDbAttributeDefinition
  3

  2
J
 70
     8
280
     0
  0
ATTDEF
  5
18D
330
174
100
AcDbEntity
  8
AM_6
100
AcDbText
 10
5.69
 20
-8.685
 30
0.0
 40
0.5
  1
1.25
100
AcDbAttributeDefinition
  3

  2
K
 70
     8
280
     0
  0
ATTDEF
  5
18E
330
174
100
AcDbEntity
  8
AM_6
100
AcDbText
 10
5.69
 20
-9.185
 30
0.0
 40
0.5
  1
1.12
100
AcDbAttributeDefinition
  3

  2
L
 70
     8
280
     0
  0
ATTDEF
  5
18F
330
174
100
AcDbEntity
  8
AM_6
100
AcDbText
 10
5.69
 20
-9.685
 30
0.0
 40
0.5
  1
2.985 / 3.015
100
AcDbAttributeDefinition
  3

  2
M
 70
     8
280
     0
  0
ATTDEF
  5
190
330
174
100
AcDbEntity
  8
AM_6
100
AcDbText
 10
5.69
 20
-10.185
 30
0.0
 40
0.5
  1
3.63
100
AcDbAttributeDefinition
  3

  2
N
 70
     8
280
     0
  0
ATTDEF
  5
191
330
174
100
AcDbEntity
  8
AM_6
100
AcDbText
 10
5.69
 20
-10.685
 30
0.0
 40
0.5
  1
0.50
100
AcDbAttributeDefinition
  3

  2
R
 70
     8
280
     0
  0
ATTDEF
  5
192
330
174
100
AcDbEntity
  8
AM_6
100
AcDbText
 10
5.69
 20
-11.185
 30
0.0
 40
0.5
  1
0.73
100
AcDbAttributeDefinition
  3

  2
S
 70
     8
280
     0
  0
ATTDEF
  5
193
330
174
100
AcDbEntity
  8
AM_6
100
AcDbText
 10
5.69
 20
-11.685
 30
0.0
 40
0.5
  1
1.38
100
AcDbAttributeDefinition
  3

  2
T
 70
     8
280
     0
  0
ATTDEF
  5
194
330
174
100
AcDbEntity
  8
AM_6
100
AcDbText
 10
5.69
 20
-12.185
 30
0.0
 40
0.5
  1
1390
100
AcDbAttributeDefinition
  3

  2
CAPS
 70
     8
280
     0
  0
ATTDEF
  5
195
330
174
100
AcDbEntity
  8
AM_6
100
AcDbText
 10
5.69
 20
-12.685
 30
0.0
 40
0.5
  1
2899
100
AcDbAttributeDefinition
  3

  2
CAPD
 70
     8
280
     0
  0
ATTDEF
  5
196
330
174
100
AcDbEntity
  8
AM_6
100
AcDbText
 10
5.69
 20
-13.185
 30
0.0
 40
0.5
  1
baldor
100
AcDbAttributeDefinition
  3

  2
COMPANY
 70
     8
280
     0
  0
LWPOLYLINE
  5
197
330
174
100
AcDbEntity
  8
AM_9
100
AcDbPolyline
 90
       39
 70
     0
 43
0.0
 10
-0.4200000000000002
 20
-0.6550000000000004
 10
-0.4189273445397513
 20
-0.6288492146973198
 10
-0.415219455165759
 20
-0.5995284339153844
 10
-0.4089021930885147
 20
-0.5701803992196491
 10
-0.3997290270977575
 20
-0.5401922853927037
 10
-0.3879300347252944
 20
-0.5106352047024596
 10
-0.3738654598366776
 20
-0.4822405313224138
 10
-0.3574606473019982
 20
-0.4546925278984232
 10
-0.3382942026128197
 20
-0.4275065588899203
 10
-0.3169079432871593
 20
-0.401639337830833
 10
-0.2930414952220366
 20
-0.3769257829917634
 10
-0.2671727208398443
 20
-0.3539925382942068
 10
-0.2386477303222714
 20
-0.332488253088312
 10
-0.2083537419796746
 20
-0.3132899125493047
 10
-0.1769208218354816
 20
-0.2968157368319057
 10
-0.1441619212913122
 20
-0.282963549931102
 10
-0.1092127660796584
 20
-0.2716072382825966
 10
-0.073358664227943
 20
-0.2633670655449866
 10
-0.039428188537394
 20
-0.2586153382266175
 10
-0.0052075955543153
 20
-0.256725997186397
 10
0.0301183511016724
 20
-0.2578155332761726
 10
0.0652083411480872
 20
-0.2619592928251706
 10
0.0976730171832024
 20
-0.2685866944159185
 10
0.129477376552747
 20
-0.2777762384425619
 10
0.1612566221737831
 20
-0.2897900770646606
 10
0.1919238465829466
 20
-0.3042671741226352
 10
0.2212782386695478
 20
-0.3210581937579661
 10
0.2491640668691225
 20
-0.3399973423495306
 10
0.2760920953086554
 20
-0.3614997836492052
 10
0.3011458167464449
 20
-0.3848916875025393
 10
0.3245481625285372
 20
-0.4104260616602623
 10
0.3457035298370519
 20
-0.4374923693543799
 10
0.3649712724615045
 20
-0.4667170341896468
 10
0.3815578862567359
 20
-0.4970725668427722
 10
0.3949094255536392
 20
-0.527258847835852
 10
0.4055137322885067
 20
-0.558009240491442
 10
0.4134646606061098
 20
-0.5900605704509913
 10
0.418313000655518
 20
-0.6221620449958124
 10
0.42
 20
-0.6550000000000002
  0
LWPOLYLINE
  5
198
330
174
100
AcDbEntity
  8
AM_9
100
AcDbPolyline
 90
       11
 70
     0
 43
0.0
 10
-0.0000000000000001
 20
-0.5207881288322319
 10
-0.0250877670784053
 20
-0.5227538147957738
 10
-0.0494661355646458
 20
-0.528524858141765
 10
-0.0724251496041537
 20
-0.5379561653353958
 10
-0.093352873265532
 20
-0.5506833913133167
 10
-0.1117056650888437
 20
-0.5664069779478624
 10
-0.126919174900401
 20
-0.5845429716232969
 10
-0.1385448487726602
 20
-0.6046135059971409
 10
-0.1462527230898358
 20
-0.6259331983097199
 10
-0.1497531318853561
 20
-0.6477713876868472
 10
-0.1499999993909264
 20
-0.6549882934904316
  0
ELLIPSE
  5
199
330
174
100
AcDbEntity
  8
AM_9
100
AcDbEllipse
 10
0.0000000000000001
 20
-0.7049999999999998
 30
0.0
 11
0.15
 21
0.0
 31
0.0
210
0.0
220
0.0
230
1.0
 40
0.866025403784438
 41
1.570796326794897
 42
3.141592653589793
  0
LINE
  5
19A
330
174
100
AcDbEntity
  8
AM_9
100
AcDbLine
 10
0.1499999999999998
 20
-0.705
 30
0.0
 11
0.1499999999999998
 21
-0.6549996736214154
 31
0.0
  0
LINE
  5
19B
330
174
100
AcDbEntity
  8
AM_9
100
AcDbLine
 10
-0.15
 20
-0.6549720160113635
 30
0.0
 11
-0.15
 21
-0.705
 31
0.0
  0
ELLIPSE
  5
19C
330
174
100
AcDbEntity
  8
AM_9
100
AcDbEllipse
 10
-0.0000000000000001
 20
-0.7050000000000001
 30
0.0
 11
0.1499999999999998
 21
0.0
 31
0.0
210
0.0
220
0.0
230
1.0
 40
0.8660254037844395
 41
3.141592653589793
 42
7.853981633974483
  0
LWPOLYLINE
  5
19D
330
174
100
AcDbEntity
  8
AM_9
100
AcDbPolyline
 90
       20
 70
     0
 43
0.0
 10
-0.1499999993909264
 20
-0.6549882934904316
 10
-0.1490453375797663
 20
-0.66957820174835
 10
-0.1441234327418205
 20
-0.6906273748249933
 10
-0.135195104544017
 20
-0.7104672775398065
 10
-0.1224291370628005
 20
-0.7285986382016558
 10
-0.1062518418267299
 20
-0.7445517314204533
 10
-0.0869518747527651
 20
-0.7579791575292785
 10
-0.0651917869269165
 20
-0.7685015491498459
 10
-0.0415447370749206
 20
-0.7758330577086066
 10
-0.0167116261239287
 20
-0.7798406732179489
 10
0.0084630198679797
 20
-0.7803910716257546
 10
0.0333979979012351
 20
-0.7775491054844621
 10
0.0573096229401989
 20
-0.7713588377052901
 10
0.079616851591843
 20
-0.7620033264589393
 10
0.0997573480745596
 20
-0.7495965661340883
 10
0.1171021035348216
 20
-0.7345017253305264
 10
0.1311838050412281
 20
-0.7169551677428526
 10
0.1415596571126062
 20
-0.6974912021033136
 10
0.1478646381386034
 20
-0.6766393172582865
 10
0.1499999999992228
 20
-0.6549995812728859
  0
LWPOLYLINE
  5
19E
330
174
100
AcDbEntity
  8
AM_9
100
AcDbPolyline
 90
       12
 70
     0
 43
0.0
 10
0.1499999999992228
 20
-0.6549995812728859
 10
0.1499999847601065
 20
-0.6549414416700806
 10
0.1478667195178386
 20
-0.6331252784557192
 10
0.1416111285996278
 20
-0.6116993974033403
 10
0.131361461107736
 20
-0.5913098063959263
 10
0.1174617504930147
 20
-0.5725468832243055
 10
0.1001489643424161
 20
-0.5559245218910644
 10
0.0800182571640745
 20
-0.5420444661555701
 10
0.0575297547923432
 20
-0.5313733504346296
 10
0.0334006952855602
 20
-0.5242638248081929
 10
0.0168071227303073
 20
-0.521663408984882
 10
-0.0000000000000001
 20
-0.5207881288322319
  0
LWPOLYLINE
  5
19F
330
174
100
AcDbEntity
  8
AM_9
100
AcDbPolyline
 90
        9
 70
     0
 43
0.0
 10
0.42
 20
-0.6550000000000002
 10
0.419267132766594
 20
-0.6763492758664781
 10
0.4170751633467965
 20
-0.6973838659289797
 10
0.4133630729006823
 20
-0.7183464325362793
 10
0.4081749227022976
 20
-0.7388309226506841
 10
0.3981190515510321
 20
-0.7674362562960018
 10
0.3851341960748264
 20
-0.794719789299902
 10
0.3687647132363192
 20
-0.8213320081089086
 10
0.3495411420968444
 20
-0.8462269199216012
  0
LWPOLYLINE
  5
1A0
330
174
100
AcDbEntity
  8
AM_9
100
AcDbPolyline
 90
        3
 70
     0
 43
0.0
 10
0.3495411420968446
 20
-0.8462269199216012
 10
0.3279164683268886
 20
-0.880381158264256
 10
0.3225619811151294
 20
-0.8879491924311226
  0
LINE
  5
1A1
330
174
100
AcDbEntity
  8
AM_9
100
AcDbLine
 10
0.42375
 20
0.846226919921601
 30
0.0
 11
0.45135
 21
0.8028385640961696
 31
0.0
  0
LINE
  5
1A2
330
174
100
AcDbEntity
  8
AM_9
100
AcDbLine
 10
0.42375
 20
-0.846226919921601
 30
0.0
 11
0.42375
 21
0.846226919921601
 31
0.0
  0
LINE
  5
1A3
330
174
100
AcDbEntity
  8
AM_9
100
AcDbLine
 10
0.4513500000000001
 20
-0.8028385640961698
 30
0.0
 11
0.42375
 21
-0.846226919921601
 31
0.0
  0
LWPOLYLINE
  5
1A4
330
174
100
AcDbEntity
  8
AM_9
100
AcDbPolyline
 90
        7
 70
     0
 43
0.0
 10
-0.3225619811151297
 20
-0.8879491924311224
 10
-0.3081096552570964
 20
-0.9062200860554123
 10
-0.2921761436262935
 20
-0.9232193363521921
 10
-0.2717511931351808
 20
-0.9415503245876741
 10
-0.2497273513385199
 20
-0.9580890101174118
 10
-0.2264132694674605
 20
-0.9727929556080788
 10
-0.221916284707316
 20
-0.9753575469563285
  0
ELLIPSE
  5
1A5
330
174
100
AcDbEntity
  8
AM_9
100
AcDbEllipse
 10
-0.0000000000000001
 20
-0.705
 30
0.0
 11
-0.3200000000000001
 21
3.918869757271531E-17
 31
0.0
210
0.0
220
0.0
230
1.0
 40
0.8660254037844387
 41
0.0
 42
6.283185307179586
  0
ELLIPSE
  5
1A6
330
174
100
AcDbEntity
  8
AM_9
100
AcDbEllipse
 10
-0.0000000000000001
 20
-0.6549999999999999
 30
0.0
 11
0.42
 21
0.0
 31
0.0
210
0.0
220
0.0
230
1.0
 40
0.8660254037844388
 41
0.0
 42
3.141592653589793
  0
ELLIPSE
  5
1A7
330
174
100
AcDbEntity
  8
AM_9
100
AcDbEllipse
 10
-0.0000000000000004
 20
-0.6549999999999989
 30
0.0
 11
0.4200000000000005
 21
0.0
 31
0.0
210
0.0
220
0.0
230
1.0
 40
0.8660254037844394
 41
5.588108817925585
 42
6.048370354981311
  0
LINE
  5
1A8
330
174
100
AcDbEntity
  8
AM_9
100
AcDbLine
 10
-0.2242063889040702
 20
-0.9740715389899264
 30
0.0
 11
-0.2219191114561249
 21
-0.9753559788134982
 31
0.0
  0
LWPOLYLINE
  5
1A9
330
174
100
AcDbEntity
  8
AM_9
100
AcDbPolyline
 90
       21
 70
     0
 43
0.0
 10
-0.4191837996374528
 20
-0.678547136682546
 10
-0.4178193002180446
 20
-0.6934572488933141
 10
-0.4152007894657188
 20
-0.7119605081197898
 10
-0.4115714030988608
 20
-0.7303190812521574
 10
-0.4069399516115274
 20
-0.7484903826686762
 10
-0.4013171446427807
 20
-0.7664321937616887
 10
-0.394715622643139
 20
-0.7841026577401061
 10
-0.3871500079476384
 20
-0.8014602877428963
 10
-0.3786369702267289
 20
-0.8184639931600959
 10
-0.3691952999891152
 20
-0.8350731280289606
 10
-0.3588459828410244
 20
-0.8512475639776256
 10
-0.3476122667054216
 20
-0.8669477884811355
 10
-0.3355197142896408
 20
-0.8821350272894829
 10
-0.3225962338239131
 20
-0.8967713879537074
 10
-0.3088720824608462
 20
-0.9108200196179699
 10
-0.2943798386220441
 20
-0.9242452828686659
 10
-0.2791543418145035
 20
-0.9370129226075611
 10
-0.2632326007710807
 20
-0.9490902367470716
 10
-0.2466536729340084
 20
-0.9604462340244774
 10
-0.2294585200639782
 20
-0.9710517753169239
 10
-0.227174351071154
 20
-0.9723772454641993
  0
LWPOLYLINE
  5
1AA
330
174
100
AcDbEntity
  8
AM_9
100
AcDbPolyline
 90
        3
 70
     0
 43
0.0
 10
-0.4199971511666903
 20
-0.6563918333115188
 10
-0.4194200152831066
 20
-0.6748522692464771
 10
-0.4191837996374528
 20
-0.678547136682546
  0
LINE
  5
1AB
330
174
100
AcDbEntity
  8
AM_9
100
AcDbLine
 10
0.4199984913069075
 20
-0.6560128718717061
 30
0.0
 11
0.4199999890261621
 21
-0.6549136159173954
 31
0.0
  0
LWPOLYLINE
  5
1AC
330
174
100
AcDbEntity
  8
AM_9
100
AcDbPolyline
 90
       21
 70
     0
 43
0.0
 10
0.221772733163847
 20
-0.975437554229105
 10
0.2261797430489649
 20
-0.9729485292141737
 10
0.243588336354954
 20
-0.9624206621073198
 10
0.2603893561549231
 20
-0.9511221244991371
 10
0.2765392332161097
 20
-0.939081513544617
 10
0.2919960887740233
 20
-0.926329704245222
 10
0.3067199440334245
 20
-0.9128997641305792
 10
0.3206729251069037
 20
-0.8988268367623625
 10
0.3338194555943728
 20
-0.8841479943015392
 10
0.3461264288688192
 20
-0.8689020615123244
 10
0.3575633527324347
 20
-0.8531294156986502
 10
0.3681024604464587
 20
-0.8368717689258743
 10
0.3777187841100168
 20
-0.8201719402350521
 10
0.3863901887596154
 20
-0.8030736262385734
 10
0.3940973681092439
 20
-0.78562117842201
 10
0.4008238052640165
 20
-0.7678593947060353
 10
0.4065557037684082
 20
-0.7498333314796316
 10
0.4112818958214735
 20
-0.7315881406001431
 10
0.414993735330869
 20
-0.7131689339849216
 10
0.4176849837022107
 20
-0.6946206765888906
 10
0.4189916298561454
 20
-0.6811697222699403
  0
LWPOLYLINE
  5
1AD
330
174
100
AcDbEntity
  8
AM_9
100
AcDbPolyline
 90
       15
 70
     0
 43
0.0
 10
-0.221916284707316
 20
-0.9753575469563285
 10
-0.2021175987531523
 20
-0.985619723726349
 10
-0.1689165664889719
 20
-0.9997327907183521
 10
-0.1344857625534847
 20
-1.010924496157926
 10
-0.0992314713133682
 20
-1.019304838344192
 10
-0.0635599771352999
 20
-1.024983815576272
 10
-0.0266770546770007
 20
-1.028166393836902
 10
0.0104319257222004
 20
-1.028745616932077
 10
0.0474863759795055
 20
-1.026704922348495
 10
0.0842057080121169
 20
-1.022027747572853
 10
0.1178736698263446
 20
-1.015238403709905
 10
0.151046517924498
 20
-1.005935217388954
 10
0.1833453914186217
 20
-0.9940305874096721
 10
0.2143914294207605
 20
-0.9794369125717338
 10
0.2217649826013834
 20
-0.975441840640675
  0
LWPOLYLINE
  5
1AE
330
174
100
AcDbEntity
  8
AM_9
100
AcDbPolyline
 90
        6
 70
     0
 43
0.0
 10
0.2217649826013834
 20
-0.975441840640675
 10
0.2445521719485407
 20
-0.9615865419923552
 10
0.2727914027834523
 20
-0.9406884478376897
 10
0.2984416954196795
 20
-0.9168621996447611
 10
0.3109982184817887
 20
-0.9028188268525719
 10
0.3225619811151295
 20
-0.8879491924311225
  0
LINE
  5
1AF
330
174
100
AcDbEntity
  8
AM_9
100
AcDbLine
 10
-0.3495411420968447
 20
-0.846226919921601
 30
0.0
 11
-0.4237499999999998
 21
-0.846226919921601
 31
0.0
  0
LINE
  5
1B0
330
174
100
AcDbEntity
  8
AM_9
100
AcDbLine
 10
0.42375
 20
-0.846226919921601
 30
0.0
 11
0.3495411420968444
 21
-0.8462269199216014
 31
0.0
  0
LINE
  5
1B1
330
174
100
AcDbEntity
  8
AM_9
100
AcDbLine
 10
-0.4237499999999998
 20
-0.846226919921601
 30
0.0
 11
-0.45135
 21
-0.8028385640961697
 31
0.0
  0
LINE
  5
1B2
330
174
100
AcDbEntity
  8
AM_9
100
AcDbLine
 10
-0.45135
 20
0.8028385640961698
 30
0.0
 11
-0.4237499999999998
 21
0.846226919921601
 31
0.0
  0
LINE
  5
1B3
330
174
100
AcDbEntity
  8
AM_9
100
AcDbLine
 10
-0.4237499999999998
 20
-0.846226919921601
 30
0.0
 11
-0.4237499999999998
 21
0.846226919921601
 31
0.0
  0
LWPOLYLINE
  5
1B4
330
174
100
AcDbEntity
  8
AM_9
100
AcDbPolyline
 90
        9
 70
     0
 43
0.0
 10
-0.3495411420968446
 20
-0.8462269199216014
 10
-0.3671679674251261
 20
-0.8236199111802339
 10
-0.3824366058281524
 20
-0.7995773660648742
 10
-0.3955518463673843
 20
-0.7734633578279311
 10
-0.4059484944522742
 20
-0.7460785773180395
 10
-0.4120197073507944
 20
-0.7242947843034483
 10
-0.4164013281997299
 20
-0.7019379672086288
 10
-0.4190978245807719
 20
-0.6786677942766239
 10
-0.4200000000000002
 20
-0.6550000000000004
  0
ELLIPSE
  5
1B5
330
174
100
AcDbEntity
  8
AM_9
100
AcDbEllipse
 10
-0.0000000000000011
 20
-0.655
 30
0.0
 11
0.4199999999999991
 21
0.0
 31
0.0
210
0.0
220
0.0
230
1.0
 40
0.8660254037844385
 41
3.141592653589793
 42
3.836669142843794
  0
LWPOLYLINE
  5
1B6
330
174
100
AcDbEntity
  8
AM_9
100
AcDbPolyline
 90
        3
 70
     0
 43
0.0
 10
-0.3225619811151297
 20
-0.8879491924311224
 10
-0.3447782586370997
 20
-0.854305024510585
 10
-0.3495411420968448
 20
-0.8462269199216009
  0
LINE
  5
1B7
330
174
100
AcDbEntity
  8
AM_9
100
AcDbLine
 10
-0.4237499999999998
 20
0.846226919921601
 30
0.0
 11
0.42375
 21
0.846226919921601
 31
0.0
  0
LINE
  5
1B8
330
174
100
AcDbEntity
  8
AM_9
100
AcDbLine
 10
-0.2389499999999999
 20
0.9334847747672279
 30
0.0
 11
0.45135
 21
0.9334847747672279
 31
0.0
  0
LINE
  5
1B9
330
174
100
AcDbEntity
  8
AM_9
100
AcDbLine
 10
-0.2389499999999999
 20
0.901438995285994
 30
0.0
 11
-0.2389499999999999
 21
0.95645
 31
0.0
  0
LINE
  5
1BA
330
174
100
AcDbEntity
  8
AM_9
100
AcDbLine
 10
0.1393939393939445
 20
0.95645
 30
0.0
 11
-0.2389499999999999
 21
0.95645
 31
0.0
  0
LINE
  5
1BB
330
174
100
AcDbEntity
  8
AM_9
100
AcDbLine
 10
0.4513499999999998
 20
0.95645
 30
0.0
 11
0.1606060606060555
 21
0.95645
 31
0.0
  0
LINE
  5
1BC
330
174
100
AcDbEntity
  8
AM_9
100
AcDbLine
 10
-0.2389499999999999
 20
-0.95645
 30
0.0
 11
-0.2389499999999999
 21
-0.901438995285994
 31
0.0
  0
LINE
  5
1BD
330
174
100
AcDbEntity
  8
AM_9
100
AcDbLine
 10
-0.2389499999999999
 20
-0.9334847747672279
 30
0.0
 11
0.45135
 21
-0.9334847747672279
 31
0.0
  0
LINE
  5
1BE
330
174
100
AcDbEntity
  8
AM_9
100
AcDbLine
 10
-0.2389499999999999
 20
-0.95645
 30
0.0
 11
0.45135
 21
-0.95645
 31
0.0
  0
LINE
  5
1BF
330
174
100
AcDbEntity
  8
AM_9
100
AcDbLine
 10
-0.2389499999999999
 20
0.901438995285994
 30
0.0
 11
0.4513499999999998
 21
0.901438995285994
 31
0.0
  0
LINE
  5
1C0
330
174
100
AcDbEntity
  8
AM_9
100
AcDbLine
 10
0.4513499999999998
 20
-0.901438995285994
 30
0.0
 11
-0.2389499999999999
 21
-0.901438995285994
 31
0.0
  0
LINE
  5
1C1
330
174
100
AcDbEntity
  8
AM_9
100
AcDbLine
 10
-0.4513500000000001
 20
-0.9252
 30
0.0
 11
-0.2389499999999999
 21
-0.9252
 31
0.0
  0
LINE
  5
1C2
330
174
100
AcDbEntity
  8
AM_9
100
AcDbLine
 10
-0.2389499999999999
 20
0.9252
 30
0.0
 11
-0.45135
 21
0.9252
 31
0.0
  0
LINE
  5
1C3
330
174
100
AcDbEntity
  8
AM_9
100
AcDbLine
 10
0.45135
 20
-0.5219034177891537
 30
0.0
 11
0.45135
 21
0.5219034177891537
 31
0.0
  0
LINE
  5
1C4
330
174
100
AcDbEntity
  8
AM_9
100
AcDbLine
 10
-0.4513500000000001
 20
0.5219034177891536
 30
0.0
 11
-0.45135
 21
-0.5219034177891534
 31
0.0
  0
LINE
  5
1C5
330
174
100
AcDbEntity
  8
AM_9
100
AcDbLine
 10
-0.45135
 20
0.5718999999999997
 30
0.0
 11
0.4513500000000003
 21
0.5718999999999997
 31
0.0
  0
LINE
  5
1C6
330
174
100
AcDbEntity
  8
AM_9
100
AcDbLine
 10
-0.45135
 20
0.6249999999999999
 30
0.0
 11
0.4513500000000001
 21
0.6249999999999999
 31
0.0
  0
LINE
  5
1C7
330
174
100
AcDbEntity
  8
AM_9
100
AcDbLine
 10
-0.45135
 20
-0.625
 30
0.0
 11
0.4513500000000001
 21
-0.625
 31
0.0
  0
LINE
  5
1C8
330
174
100
AcDbEntity
  8
AM_9
100
AcDbLine
 10
-0.45135
 20
-0.5719000000000004
 30
0.0
 11
0.4513500000000001
 21
-0.5719000000000004
 31
0.0
  0
LINE
  5
1C9
330
174
100
AcDbEntity
  8
AM_7
100
AcDbLine
 10
0.0000000000000001
 20
-0.328125
 30
0.0
 11
0.0000000000000001
 21
0.328125
 31
0.0
  0
LINE
  5
1CA
330
174
100
AcDbEntity
  8
AM_7
100
AcDbLine
 10
0.5841000000000001
 20
0.0
 30
0.0
 11
-0.7915
 21
0.0
 31
0.0
  0
LINE
  5
1CB
330
174
100
AcDbEntity
  8
AM_4
100
AcDbLine
 10
-0.2654999999999998
 20
1.815
 30
0.0
 11
-0.2655
 21
1.4925
 31
0.0
  0
LINE
  5
1CC
330
174
100
AcDbEntity
  8
AM_4
100
AcDbLine
 10
-0.4779
 20
1.815
 30
0.0
 11
-0.2654999999999998
 21
1.815
 31
0.0
  0
LWPOLYLINE
  5
1CD
330
174
100
AcDbEntity
  8
AM_4
100
AcDbPolyline
 90
       19
 70
     0
 43
0.0
 10
-0.5309999999999999
 20
1.7619
 10
-0.5307979384686716
 20
1.766527969939901
 10
-0.5301932916849482
 20
1.771120718234114
 10
-0.5291906613759495
 20
1.775643291294944
 10
-0.5277976781637317
 20
1.780061269610593
 10
-0.5260249434916461
 20
1.784341029698431
 10
-0.5238859489409536
 20
1.78845
 10
-0.5213969735517454
 20
1.79235690877024
 10
-0.5185769599296177
 20
1.796032022074355
 10
-0.5154473700810056
 20
1.799447370081005
 10
-0.5120320220743553
 20
1.802576959929618
 10
-0.5083569087702405
 20
1.805396973551745
 10
-0.50445
 20
1.807885948940954
 10
-0.5003410296984312
 20
1.810024943491646
 10
-0.496061269610593
 20
1.811797678163731
 10
-0.4916432912949439
 20
1.813190661375949
 10
-0.4871207182341141
 20
1.814193291684948
 10
-0.4825279699399007
 20
1.814797938468672
 10
-0.4779000000000001
 20
1.815
  0
LINE
  5
1CE
330
174
100
AcDbEntity
  8
AM_4
100
AcDbLine
 10
0.2654999999999997
 20
-1.815
 30
0.0
 11
0.2654999999999999
 21
-1.4925
 31
0.0
  0
LINE
  5
1CF
330
174
100
AcDbEntity
  8
AM_4
100
AcDbLine
 10
0.2654999999999997
 20
-1.815
 30
0.0
 11
0.4778999999999999
 21
-1.815
 31
0.0
  0
LWPOLYLINE
  5
1D0
330
174
100
AcDbEntity
  8
AM_4
100
AcDbPolyline
 90
       19
 70
     0
 43
0.0
 10
0.5309999999999997
 20
-1.7619
 10
0.5307979384686714
 20
-1.766527969939901
 10
0.5301932916849479
 20
-1.771120718234114
 10
0.5291906613759492
 20
-1.775643291294944
 10
0.5277976781637315
 20
-1.780061269610593
 10
0.5260249434916459
 20
-1.784341029698431
 10
0.5238859489409534
 20
-1.78845
 10
0.5213969735517452
 20
-1.79235690877024
 10
0.5185769599296175
 20
-1.796032022074355
 10
0.5154473700810054
 20
-1.799447370081006
 10
0.512032022074355
 20
-1.802576959929618
 10
0.5083569087702404
 20
-1.805396973551745
 10
0.5044499999999998
 20
-1.807885948940954
 10
0.500341029698431
 20
-1.810024943491646
 10
0.4960612696105929
 20
-1.811797678163731
 10
0.4916432912949438
 20
-1.813190661375949
 10
0.487120718234114
 20
-1.814193291684948
 10
0.4825279699399006
 20
-1.814797938468672
 10
0.4779
 20
-1.815
  0
LINE
  5
1D1
330
174
100
AcDbEntity
  8
AM_4
100
AcDbLine
 10
-0.2655000000000001
 20
-1.4925
 30
0.0
 11
-0.2655000000000001
 21
-1.815
 31
0.0
  0
LWPOLYLINE
  5
1D2
330
174
100
AcDbEntity
  8
AM_4
100
AcDbPolyline
 90
       19
 70
     0
 43
0.0
 10
-0.4778999999999998
 20
-1.815
 10
-0.4825279699399004
 20
-1.814797938468672
 10
-0.4871207182341137
 20
-1.814193291684948
 10
-0.4916432912949436
 20
-1.813190661375949
 10
-0.4960612696105928
 20
-1.811797678163731
 10
-0.5003410296984309
 20
-1.810024943491646
 10
-0.5044499999999998
 20
-1.807885948940954
 10
-0.5083569087702403
 20
-1.805396973551745
 10
-0.512032022074355
 20
-1.802576959929618
 10
-0.5154473700810055
 20
-1.799447370081006
 10
-0.5185769599296175
 20
-1.796032022074355
 10
-0.5213969735517453
 20
-1.792356908770241
 10
-0.5238859489409535
 20
-1.78845
 10
-0.526024943491646
 20
-1.784341029698431
 10
-0.5277976781637316
 20
-1.780061269610593
 10
-0.5291906613759494
 20
-1.775643291294944
 10
-0.5301932916849481
 20
-1.771120718234114
 10
-0.5307979384686715
 20
-1.766527969939901
 10
-0.5309999999999999
 20
-1.761900000791252
  0
LINE
  5
1D3
330
174
100
AcDbEntity
  8
AM_4
100
AcDbLine
 10
-0.4778999999999999
 20
-1.815
 30
0.0
 11
-0.2655000000000001
 21
-1.815
 31
0.0
  0
LINE
  5
1D4
330
174
100
AcDbEntity
  8
AM_4
100
AcDbLine
 10
0.45135
 20
-1.331249999999999
 30
0.0
 11
0.4513500000000001
 21
-0.5219034177891536
 31
0.0
  0
LINE
  5
1D5
330
174
100
AcDbEntity
  8
AM_4
100
AcDbLine
 10
-0.4513499999999999
 20
-0.5219034177891528
 30
0.0
 11
-0.4513500000000001
 21
-1.331249999999999
 31
0.0
  0
LINE
  5
1D6
330
174
100
AcDbEntity
  8
AM_4
100
AcDbLine
 10
-0.4513500000000001
 20
-1.331249999999999
 30
0.0
 11
-0.5310000000000001
 21
-1.4109
 31
0.0
  0
LINE
  5
1D7
330
174
100
AcDbEntity
  8
AM_4
100
AcDbLine
 10
-0.5310000000000001
 20
-1.4109
 30
0.0
 11
-0.5310000000000001
 21
-1.7619
 31
0.0
  0
LINE
  5
1D8
330
174
100
AcDbEntity
  8
AM_4
100
AcDbLine
 10
-0.2655000000000001
 20
-1.7619
 30
0.0
 11
-0.5310000000000001
 21
-1.7619
 31
0.0
  0
LINE
  5
1D9
330
174
100
AcDbEntity
  8
AM_4
100
AcDbLine
 10
0.2654999999999999
 20
-1.4925
 30
0.0
 11
-0.2655000000000001
 21
-1.4925
 31
0.0
  0
LINE
  5
1DA
330
174
100
AcDbEntity
  8
AM_4
100
AcDbLine
 10
0.5309999999999997
 20
-1.7619
 30
0.0
 11
0.2654999999999998
 21
-1.7619
 31
0.0
  0
LINE
  5
1DB
330
174
100
AcDbEntity
  8
AM_4
100
AcDbLine
 10
0.5309999999999997
 20
-1.7619
 30
0.0
 11
0.5309999999999999
 21
-1.4109
 31
0.0
  0
LINE
  5
1DC
330
174
100
AcDbEntity
  8
AM_4
100
AcDbLine
 10
0.5309999999999999
 20
-1.4109
 30
0.0
 11
0.45135
 21
-1.331249999999999
 31
0.0
  0
LINE
  5
1DD
330
174
100
AcDbEntity
  8
AM_4
100
AcDbLine
 10
0.4513500000000001
 20
0.5219034177891537
 30
0.0
 11
0.4513500000000001
 21
1.331249999999999
 31
0.0
  0
LINE
  5
1DE
330
174
100
AcDbEntity
  8
AM_4
100
AcDbLine
 10
-0.45135
 20
1.331249999999999
 30
0.0
 11
-0.45135
 21
0.5219034177891535
 31
0.0
  0
LINE
  5
1DF
330
174
100
AcDbEntity
  8
AM_4
100
AcDbLine
 10
0.4513500000000001
 20
1.331249999999999
 30
0.0
 11
0.5310000000000001
 21
1.4109
 31
0.0
  0
LINE
  5
1E0
330
174
100
AcDbEntity
  8
AM_4
100
AcDbLine
 10
0.5310000000000001
 20
1.4109
 30
0.0
 11
0.5310000000000002
 21
1.7619
 31
0.0
  0
LINE
  5
1E1
330
174
100
AcDbEntity
  8
AM_4
100
AcDbLine
 10
0.2655000000000001
 20
1.4925
 30
0.0
 11
0.2655
 21
1.815
 31
0.0
  0
LINE
  5
1E2
330
174
100
AcDbEntity
  8
AM_4
100
AcDbLine
 10
-0.2655
 20
1.4925
 30
0.0
 11
0.2655000000000001
 21
1.4925
 31
0.0
  0
LINE
  5
1E3
330
174
100
AcDbEntity
  8
AM_4
100
AcDbLine
 10
-0.2655
 20
1.7619
 30
0.0
 11
-0.5309999999999997
 21
1.7619
 31
0.0
  0
LINE
  5
1E4
330
174
100
AcDbEntity
  8
AM_4
100
AcDbLine
 10
-0.5309999999999997
 20
1.7619
 30
0.0
 11
-0.5309999999999999
 21
1.4109
 31
0.0
  0
LINE
  5
1E5
330
174
100
AcDbEntity
  8
AM_4
100
AcDbLine
 10
-0.5309999999999999
 20
1.4109
 30
0.0
 11
-0.45135
 21
1.331249999999999
 31
0.0
  0
LINE
  5
1E6
330
174
100
AcDbEntity
  8
AM_4
100
AcDbLine
 10
0.5310000000000002
 20
1.7619
 30
0.0
 11
0.2655
 21
1.7619
 31
0.0
  0
LWPOLYLINE
  5
1E7
330
174
100
AcDbEntity
  8
AM_4
100
AcDbPolyline
 90
       19
 70
     0
 43
0.0
 10
0.4778999999999999
 20
1.815
 10
0.4825279699399005
 20
1.814797938468672
 10
0.487120718234114
 20
1.814193291684948
 10
0.4916432912949438
 20
1.813190661375949
 10
0.4960612696105929
 20
1.811797678163731
 10
0.5003410296984311
 20
1.810024943491646
 10
0.50445
 20
1.807885948940954
 10
0.5083569087702405
 20
1.805396973551745
 10
0.5120320220743553
 20
1.802576959929618
 10
0.5154473700810057
 20
1.799447370081005
 10
0.5185769599296178
 20
1.796032022074355
 10
0.5213969735517455
 20
1.79235690877024
 10
0.5238859489409537
 20
1.78845
 10
0.5260249434916462
 20
1.784341029698431
 10
0.5277976781637318
 20
1.780061269610593
 10
0.5291906613759496
 20
1.775643291294944
 10
0.5301932916849483
 20
1.771120718234114
 10
0.5307979384686717
 20
1.7665279699399
 10
0.5310000000000001
 20
1.7619
  0
LINE
  5
1E8
330
174
100
AcDbEntity
  8
AM_4
100
AcDbLine
 10
0.2655
 20
1.815
 30
0.0
 11
0.4778999999999999
 21
1.815
 31
0.0
  0
LWPOLYLINE
  5
1E9
330
174
100
AcDbEntity
  8
AM_4
100
AcDbPolyline
 90
       19
 70
     0
 43
0.0
 10
-0.3982499999999999
 20
-1.0
 10
-0.4028779699399005
 20
-0.9997979384686717
 10
-0.4074707182341138
 20
-0.9991932916849482
 10
-0.4119932912949437
 20
-0.9981906613759495
 10
-0.4164112696105928
 20
-0.9967976781637317
 10
-0.420691029698431
 20
-0.9950249434916462
 10
-0.4247999999999997
 20
-0.9928859489409536
 10
-0.4287069087702403
 20
-0.9903969735517455
 10
-0.4323820220743549
 20
-0.9875769599296178
 10
-0.4357973700810054
 20
-0.9844473700810057
 10
-0.4389269599296174
 20
-0.9810320220743552
 10
-0.4417469735517451
 20
-0.9773569087702406
 10
-0.4442359489409533
 20
-0.9734500000000001
 10
-0.4463749434916457
 20
-0.9693410296984313
 10
-0.4481476781637314
 20
-0.9650612696105931
 10
-0.4495406613759492
 20
-0.9606432912949441
 10
-0.4505432916849479
 20
-0.9561207182341143
 10
-0.4511479384686713
 20
-0.951527969939901
 10
-0.4513499999999996
 20
-0.9469000000000004
  0
LINE
  5
1EA
330
174
100
AcDbEntity
  8
AM_4
100
AcDbLine
 10
-0.3982499999999999
 20
-0.9999999999999999
 30
0.0
 11
0.3982500000000002
 21
-0.9999999999999999
 31
0.0
  0
LWPOLYLINE
  5
1EB
330
174
100
AcDbEntity
  8
AM_4
100
AcDbPolyline
 90
       19
 70
     0
 43
0.0
 10
0.4513499999999999
 20
-0.9469000000000002
 10
0.4511479384686716
 20
-0.9515279699399009
 10
0.4505432916849481
 20
-0.9561207182341142
 10
0.4495406613759494
 20
-0.960643291294944
 10
0.4481476781637316
 20
-0.965061269610593
 10
0.446374943491646
 20
-0.9693410296984313
 10
0.4442359489409536
 20
-0.9734499999999999
 10
0.4417469735517454
 20
-0.9773569087702405
 10
0.4389269599296177
 20
-0.9810320220743552
 10
0.4357973700810057
 20
-0.9844473700810056
 10
0.4323820220743553
 20
-0.9875769599296176
 10
0.4287069087702406
 20
-0.9903969735517454
 10
0.4248000000000001
 20
-0.9928859489409536
 10
0.4206910296984313
 20
-0.9950249434916459
 10
0.4164112696105932
 20
-0.9967976781637317
 10
0.4119932912949441
 20
-0.9981906613759495
 10
0.4074707182341142
 20
-0.9991932916849482
 10
0.4028779699399009
 20
-0.9997979384686715
 10
0.3982500000000003
 20
-0.9999999999999999
  0
ARC
  5
1EC
330
174
100
AcDbEntity
  8
AM_4
100
AcDbCircle
 10
0.0
 20
0.0000000000000002
 30
0.0
 40
0.6900000000000001
100
AcDbArc
 50
310.8537477580518
 51
49.14625224194816
  0
CIRCLE
  5
1ED
330
174
100
AcDbEntity
  8
AM_4
100
AcDbCircle
 10
0.0000000000000001
 20
0.0
 30
0.0
 40
0.3125
  0
ARC
  5
1EE
330
174
100
AcDbEntity
  8
AM_4
100
AcDbCircle
 10
-0.0000000000000007
 20
0.0000000000000004
 30
0.0
 40
0.6899999999999991
100
AcDbArc
 50
130.8537477580518
 51
229.1462522419482
  0
LINE
  5
1EF
330
174
100
AcDbEntity
  8
AM_4
100
AcDbLine
 10
0.4513500000000001
 20
-0.9469000000000001
 30
0.0
 11
-0.4513499999999999
 21
-0.9469
 31
0.0
  0
LINE
  5
1F0
330
174
100
AcDbEntity
  8
AM_4
100
AcDbLine
 10
-0.3982499999999994
 20
1.0
 30
0.0
 11
0.3982500000000003
 21
1.0
 31
0.0
  0
LWPOLYLINE
  5
1F1
330
174
100
AcDbEntity
  8
AM_4
100
AcDbPolyline
 90
       19
 70
     0
 43
0.0
 10
-0.4513499999999995
 20
0.9469000000000004
 10
-0.4511479384686712
 20
0.951527969939901
 10
-0.4505432916849478
 20
0.9561207182341143
 10
-0.4495406613759491
 20
0.9606432912949441
 10
-0.4481476781637313
 20
0.9650612696105931
 10
-0.4463749434916457
 20
0.9693410296984313
 10
-0.4442359489409533
 20
0.9734500000000001
 10
-0.4417469735517451
 20
0.9773569087702406
 10
-0.4389269599296174
 20
0.9810320220743552
 10
-0.4357973700810054
 20
0.9844473700810057
 10
-0.4323820220743549
 20
0.9875769599296178
 10
-0.4287069087702403
 20
0.9903969735517455
 10
-0.4247999999999998
 20
0.9928859489409536
 10
-0.420691029698431
 20
0.9950249434916462
 10
-0.4164112696105929
 20
0.9967976781637317
 10
-0.4119932912949438
 20
0.9981906613759495
 10
-0.407470718234114
 20
0.9991932916849482
 10
-0.4028779699399006
 20
0.9997979384686717
 10
-0.39825
 20
1.0
  0
LINE
  5
1F2
330
174
100
AcDbEntity
  8
AM_4
100
AcDbLine
 10
0.4513500000000001
 20
0.9469000000000006
 30
0.0
 11
-0.4513499999999998
 21
0.9469000000000001
 31
0.0
  0
LWPOLYLINE
  5
1F3
330
174
100
AcDbEntity
  8
AM_4
100
AcDbPolyline
 90
       19
 70
     0
 43
0.0
 10
0.39825
 20
1.0
 10
0.4028779699399006
 20
0.9997979384686718
 10
0.407470718234114
 20
0.9991932916849483
 10
0.4119932912949438
 20
0.9981906613759497
 10
0.4164112696105929
 20
0.996797678163732
 10
0.420691029698431
 20
0.9950249434916464
 10
0.4247999999999998
 20
0.992885948940954
 10
0.4287069087702404
 20
0.9903969735517457
 10
0.4323820220743551
 20
0.987576959929618
 10
0.4357973700810055
 20
0.9844473700810061
 10
0.4389269599296176
 20
0.9810320220743557
 10
0.4417469735517453
 20
0.9773569087702411
 10
0.4442359489409535
 20
0.9734500000000005
 10
0.446374943491646
 20
0.9693410296984318
 10
0.4481476781637316
 20
0.9650612696105937
 10
0.4495406613759493
 20
0.9606432912949446
 10
0.4505432916849481
 20
0.9561207182341148
 10
0.4511479384686716
 20
0.9515279699399014
 10
0.4513499999999999
 20
0.9469000000000009
  0
ENDBLK
  5
177
330
174
100
AcDbEntity
  8
0
100
AcDbBlockEnd
  0
ENDSEC
  0
SECTION
  2
ENTITIES
  0
INSERT
  5
6F
330
1F
100
AcDbEntity
  8
0
100
AcDbBlockReference
  2
1_125344_2
 10
0.0
 20
0.0
 30
0.0
  0
POINT
  5
1F5
330
1F
100
AcDbEntity
  8
ConnectionPoints
100
AcDbPoint
 10
-0.0000000000000001
 20
-0.705
 30
-1.221095819336059
  0
POINT
  5
1F6
330
1F
100
AcDbEntity
  8
ConnectionPoints
100
AcDbPoint
 10
-0.0000000000000001
 20
-0.705
 30
-1.221095819336059
  0
POINT
  5
1F7
330
1F
100
AcDbEntity
  8
ConnectionPoints
100
AcDbPoint
 10
-0.73
 20
0.0
 30
0.0
  0
ENDSEC
  0
SECTION
  2
OBJECTS
  0
DICTIONARY
  5
C
330
0
100
AcDbDictionary
281
     1
  3
ACAD_DETAILVIEWSTYLE
350
1FF
  3
ACAD_GROUP
350
D
  3
ACAD_LAYOUT
350
1A
  3
ACAD_MATERIAL
350
43
  3
ACAD_MLEADERSTYLE
350
6B
  3
ACAD_MLINESTYLE
350
17
  3
ACAD_PLOTSETTINGS
350
19
  3
ACAD_PLOTSTYLENAME
350
E
  3
ACAD_SCALELIST
350
47
  3
ACAD_SECTIONVIEWSTYLE
350
200
  3
ACAD_TABLESTYLE
350
69
  3
ACAD_VISUALSTYLE
350
2A
  3
ACDB_RECOMPOSE_DATA
350
1FC
  3
AcDbVariableDictionary
350
1F8
  0
SUN
  5
6D
330
29
100
AcDbSun
 90
        1
290
     0
 63
     7
421
 16777215
 40
1.0
291
     1
 91
  2455826
 92
 54000000
292
     0
 70
     2
 71
   256
280
     1
  0
DICTIONARY
  5
1FF
102
{ACAD_REACTORS
330
C
102
}
330
C
100
AcDbDictionary
281
     1
  0
DICTIONARY
  5
D
102
{ACAD_REACTORS
330
C
102
}
330
C
100
AcDbDictionary
281
     1
  0
DICTIONARY
  5
1A
102
{ACAD_REACTORS
330
C
102
}
330
C
100
AcDbDictionary
281
     1
  3
Layout1
350
1E
  3
Layout2
350
26
  3
Model
350
22
  0
DICTIONARY
  5
43
102
{ACAD_REACTORS
330
C
102
}
330
C
100
AcDbDictionary
281
     1
  3
ByBlock
350
45
  3
ByLayer
350
44
  3
Global
350
46
  0
DICTIONARY
  5
6B
102
{ACAD_REACTORS
330
C
102
}
330
C
100
AcDbDictionary
281
     1
  3
Standard
350
6C
  0
DICTIONARY
  5
17
102
{ACAD_REACTORS
330
C
102
}
330
C
100
AcDbDictionary
281
     1
  3
Standard
350
18
  0
DICTIONARY
  5
19
102
{ACAD_REACTORS
330
C
102
}
330
C
100
AcDbDictionary
281
     1
  0
ACDBDICTIONARYWDFLT
  5
E
102
{ACAD_REACTORS
330
C
102
}
330
C
100
AcDbDictionary
281
     1
  3
Normal
350
F
100
AcDbDictionaryWithDefault
340
F
  0
DICTIONARY
  5
47
102
{ACAD_REACTORS
330
C
102
}
330
C
100
AcDbDictionary
281
     1
  3
A0
350
48
  3
A1
350
49
  3
A2
350
4A
  3
A3
350
4B
  3
A4
350
4C
  3
A5
350
4D
  3
A6
350
4E
  3
A7
350
4F
  3
A8
350
50
  3
A9
350
51
  3
B0
350
52
  3
B1
350
53
  3
B2
350
54
  3
B3
350
55
  3
B4
350
56
  3
B5
350
57
  3
B6
350
58
  3
B7
350
59
  3
B8
350
5A
  3
B9
350
5B
  3
C0
350
5C
  3
C1
350
5D
  3
C2
350
5E
  3
C3
350
5F
  3
C4
350
60
  3
C5
350
61
  3
C6
350
62
  3
C7
350
63
  3
C8
350
64
  3
C9
350
65
  3
D0
350
66
  3
D1
350
67
  3
D2
350
68
  0
DICTIONARY
  5
200
102
{ACAD_REACTORS
330
C
102
}
330
C
100
AcDbDictionary
281
     1
  0
DICTIONARY
  5
69
102
{ACAD_REACTORS
330
C
102
}
330
C
100
AcDbDictionary
281
     1
  3
Standard
350
6A
  0
DICTIONARY
  5
2A
102
{ACAD_REACTORS
330
C
102
}
330
C
100
AcDbDictionary
281
     1
  3
2dWireframe
350
2F
  3
Basic
350
32
  3
Brighten
350
36
  3
ColorChange
350
3A
  3
Conceptual
350
34
  3
Dim
350
35
  3
EdgeColorOff
350
3D
  3
Facepattern
350
39
  3
Flat
350
2B
  3
FlatWithEdges
350
2C
  3
Gouraud
350
2D
  3
GouraudWithEdges
350
2E
  3
Hidden
350
31
  3
JitterOff
350
3B
  3
Linepattern
350
38
  3
OverhangOff
350
3C
  3
Realistic
350
33
  3
Shaded
350
42
  3
Shaded with edges
350
41
  3
Shades of Gray
350
3E
  3
Sketchy
350
3F
  3
Thicken
350
37
  3
Wireframe
350
30
  3
X-Ray
350
40
  0
XRECORD
  5
1FC
102
{ACAD_REACTORS
330
C
102
}
330
C
100
AcDbXrecord
280
     1
 90
        1
330
6A
  0
DICTIONARY
  5
1F8
102
{ACAD_REACTORS
330
C
102
}
330
C
100
AcDbDictionary
281
     1
  3
CANNOSCALE
350
1F9
  3
CMLEADERSTYLE
350
1FE
  3
CTABLESTYLE
350
1FD
  0
LAYOUT
  5
1E
102
{ACAD_REACTORS
330
1A
102
}
330
1A
100
AcDbPlotSettings
  1

  2
none_device
  4

  6

 40
0.0
 41
0.0
 42
0.0
 43
0.0
 44
0.0
 45
0.0
 46
0.0
 47
0.0
 48
0.0
 49
0.0
140
0.0
141
0.0
142
1.0
143
1.0
 70
   688
 72
     0
 73
     0
 74
     5
  7

 75
    16
 76
     0
 77
     2
 78
   300
147
1.0
148
0.0
149
0.0
100
AcDbLayout
  1
Layout1
 70
     1
 71
     1
 10
0.0
 20
0.0
 11
12.0
 21
9.0
 12
0.0
 22
0.0
 32
0.0
 14
1.000000000000000E+20
 24
1.000000000000000E+20
 34
1.000000000000000E+20
 15
-1.000000000000000E+20
 25
-1.000000000000000E+20
 35
-1.000000000000000E+20
146
0.0
 13
0.0
 23
0.0
 33
0.0
 16
1.0
 26
0.0
 36
0.0
 17
0.0
 27
1.0
 37
0.0
 76
     0
330
1B
  0
LAYOUT
  5
26
102
{ACAD_REACTORS
330
1A
102
}
330
1A
100
AcDbPlotSettings
  1

  2
none_device
  4

  6

 40
0.0
 41
0.0
 42
0.0
 43
0.0
 44
0.0
 45
0.0
 46
0.0
 47
0.0
 48
0.0
 49
0.0
140
0.0
141
0.0
142
1.0
143
1.0
 70
   688
 72
     0
 73
     0
 74
     5
  7

 75
    16
 76
     0
 77
     2
 78
   300
147
1.0
148
0.0
149
0.0
100
AcDbLayout
  1
Layout2
 70
     1
 71
     2
 10
0.0
 20
0.0
 11
0.0
 21
0.0
 12
0.0
 22
0.0
 32
0.0
 14
0.0
 24
0.0
 34
0.0
 15
0.0
 25
0.0
 35
0.0
146
0.0
 13
0.0
 23
0.0
 33
0.0
 16
1.0
 26
0.0
 36
0.0
 17
0.0
 27
1.0
 37
0.0
 76
     0
330
23
  0
LAYOUT
  5
22
102
{ACAD_REACTORS
330
1A
102
}
330
1A
100
AcDbPlotSettings
  1

  2
none_device
  4
Letter_(8.50_x_11.00_Inches)
  6

 40
6.35
 41
6.35
 42
6.35000508
 43
6.35000508
 44
215.9
 45
279.4
 46
0.0
 47
0.0
 48
0.0
 49
0.0
140
0.0
141
0.0
142
1.0
143
1.0
 70
  1712
 72
     0
 73
     0
 74
     0
  7

 75
     0
 76
     0
 77
     2
 78
   300
147
1.0
148
0.0
149
0.0
100
AcDbLayout
  1
Model
 70
     1
 71
     0
 10
0.0
 20
0.0
 11
12.0
 21
9.0
 12
0.0
 22
0.0
 32
0.0
 14
1.000000000000000E+20
 24
1.000000000000000E+20
 34
1.000000000000000E+20
 15
-1.000000000000000E+20
 25
-1.000000000000000E+20
 35
-1.000000000000000E+20
146
0.0
 13
0.0
 23
0.0
 33
0.0
 16
1.0
 26
0.0
 36
0.0
 17
0.0
 27
1.0
 37
0.0
 76
     0
330
1F
331
29
  0
MATERIAL
  5
45
102
{ACAD_REACTORS
330
43
102
}
330
43
100
AcDbMaterial
  1
ByBlock
 72
     1
 94
      127
  0
MATERIAL
  5
44
102
{ACAD_REACTORS
330
43
102
}
330
43
100
AcDbMaterial
  1
ByLayer
 72
     1
 94
      127
  0
MATERIAL
  5
46
102
{ACAD_REACTORS
330
43
102
}
330
43
100
AcDbMaterial
  1
Global
 72
     1
 94
      127
  0
MLEADERSTYLE
  5
6C
102
{ACAD_REACTORS
330
6B
102
}
330
6B
100
AcDbMLeaderStyle
179
     2
170
     2
171
     1
172
     0
 90
        2
 40
0.0
 41
0.0
173
     1
 91
-1056964608
340
14
 92
       -2
290
     1
 42
0.09
291
     1
 43
0.36
  3
Standard
341
0
 44
0.18
300

342
11
174
     1
178
     6
175
     1
176
     0
 93
-1056964608
 45
0.18
292
     0
297
     0
 46
0.18
343
0
 94
-1056964608
 47
1.0
 49
1.0
140
1.0
293
     1
141
0.0
294
     1
177
     0
142
1.0
295
     0
296
     0
143
0.125
271
     0
272
     9
273
     9
298
     0
  0
MLINESTYLE
  5
18
102
{ACAD_REACTORS
330
17
102
}
330
17
100
AcDbMlineStyle
  2
Standard
 70
     0
  3

 62
   256
 51
90.0
 52
90.0
 71
     2
 49
0.5
 62
   256
  6
BYLAYER
 49
-0.5
 62
   256
  6
BYLAYER
  0
ACDBPLACEHOLDER
  5
F
102
{ACAD_REACTORS
330
E
102
}
330
E
  0
SCALE
  5
48
102
{ACAD_REACTORS
330
47
102
}
330
47
100
AcDbScale
 70
     0
300
1:1
140
1.0
141
1.0
290
     1
  0
SCALE
  5
49
102
{ACAD_REACTORS
330
47
102
}
330
47
100
AcDbScale
 70
     0
300
1:2
140
1.0
141
2.0
290
     0
  0
SCALE
  5
4A
102
{ACAD_REACTORS
330
47
102
}
330
47
100
AcDbScale
 70
     0
300
1:4
140
1.0
141
4.0
290
     0
  0
SCALE
  5
4B
102
{ACAD_REACTORS
330
47
102
}
330
47
100
AcDbScale
 70
     0
300
1:5
140
1.0
141
5.0
290
     0
  0
SCALE
  5
4C
102
{ACAD_REACTORS
330
47
102
}
330
47
100
AcDbScale
 70
     0
300
1:8
140
1.0
141
8.0
290
     0
  0
SCALE
  5
4D
102
{ACAD_REACTORS
330
47
102
}
330
47
100
AcDbScale
 70
     0
300
1:10
140
1.0
141
10.0
290
     0
  0
SCALE
  5
4E
102
{ACAD_REACTORS
330
47
102
}
330
47
100
AcDbScale
 70
     0
300
1:16
140
1.0
141
16.0
290
     0
  0
SCALE
  5
4F
102
{ACAD_REACTORS
330
47
102
}
330
47
100
AcDbScale
 70
     0
300
1:20
140
1.0
141
20.0
290
     0
  0
SCALE
  5
50
102
{ACAD_REACTORS
330
47
102
}
330
47
100
AcDbScale
 70
     0
300
1:30
140
1.0
141
30.0
290
     0
  0
SCALE
  5
51
102
{ACAD_REACTORS
330
47
102
}
330
47
100
AcDbScale
 70
     0
300
1:40
140
1.0
141
40.0
290
     0
  0
SCALE
  5
52
102
{ACAD_REACTORS
330
47
102
}
330
47
100
AcDbScale
 70
     0
300
1:50
140
1.0
141
50.0
290
     0
  0
SCALE
  5
53
102
{ACAD_REACTORS
330
47
102
}
330
47
100
AcDbScale
 70
     0
300
1:100
140
1.0
141
100.0
290
     0
  0
SCALE
  5
54
102
{ACAD_REACTORS
330
47
102
}
330
47
100
AcDbScale
 70
     0
300
2:1
140
2.0
141
1.0
290
     0
  0
SCALE
  5
55
102
{ACAD_REACTORS
330
47
102
}
330
47
100
AcDbScale
 70
     0
300
4:1
140
4.0
141
1.0
290
     0
  0
SCALE
  5
56
102
{ACAD_REACTORS
330
47
102
}
330
47
100
AcDbScale
 70
     0
300
8:1
140
8.0
141
1.0
290
     0
  0
SCALE
  5
57
102
{ACAD_REACTORS
330
47
102
}
330
47
100
AcDbScale
 70
     0
300
10:1
140
10.0
141
1.0
290
     0
  0
SCALE
  5
58
102
{ACAD_REACTORS
330
47
102
}
330
47
100
AcDbScale
 70
     0
300
100:1
140
100.0
141
1.0
290
     0
  0
SCALE
  5
59
102
{ACAD_REACTORS
330
47
102
}
330
47
100
AcDbScale
 70
     0
300
1/128" = 1'-0"
140
0.0078125
141
12.0
290
     0
  0
SCALE
  5
5A
102
{ACAD_REACTORS
330
47
102
}
330
47
100
AcDbScale
 70
     0
300
1/64" = 1'-0"
140
0.015625
141
12.0
290
     0
  0
SCALE
  5
5B
102
{ACAD_REACTORS
330
47
102
}
330
47
100
AcDbScale
 70
     0
300
1/32" = 1'-0"
140
0.03125
141
12.0
290
     0
  0
SCALE
  5
5C
102
{ACAD_REACTORS
330
47
102
}
330
47
100
AcDbScale
 70
     0
300
1/16" = 1'-0"
140
0.0625
141
12.0
290
     0
  0
SCALE
  5
5D
102
{ACAD_REACTORS
330
47
102
}
330
47
100
AcDbScale
 70
     0
300
3/32" = 1'-0"
140
0.09375
141
12.0
290
     0
  0
SCALE
  5
5E
102
{ACAD_REACTORS
330
47
102
}
330
47
100
AcDbScale
 70
     0
300
1/8" = 1'-0"
140
0.125
141
12.0
290
     0
  0
SCALE
  5
5F
102
{ACAD_REACTORS
330
47
102
}
330
47
100
AcDbScale
 70
     0
300
3/16" = 1'-0"
140
0.1875
141
12.0
290
     0
  0
SCALE
  5
60
102
{ACAD_REACTORS
330
47
102
}
330
47
100
AcDbScale
 70
     0
300
1/4" = 1'-0"
140
0.25
141
12.0
290
     0
  0
SCALE
  5
61
102
{ACAD_REACTORS
330
47
102
}
330
47
100
AcDbScale
 70
     0
300
3/8" = 1'-0"
140
0.375
141
12.0
290
     0
  0
SCALE
  5
62
102
{ACAD_REACTORS
330
47
102
}
330
47
100
AcDbScale
 70
     0
300
1/2" = 1'-0"
140
0.5
141
12.0
290
     0
  0
SCALE
  5
63
102
{ACAD_REACTORS
330
47
102
}
330
47
100
AcDbScale
 70
     0
300
3/4" = 1'-0"
140
0.75
141
12.0
290
     0
  0
SCALE
  5
64
102
{ACAD_REACTORS
330
47
102
}
330
47
100
AcDbScale
 70
     0
300
1" = 1'-0"
140
1.0
141
12.0
290
     0
  0
SCALE
  5
65
102
{ACAD_REACTORS
330
47
102
}
330
47
100
AcDbScale
 70
     0
300
1-1/2" = 1'-0"
140
1.5
141
12.0
290
     0
  0
SCALE
  5
66
102
{ACAD_REACTORS
330
47
102
}
330
47
100
AcDbScale
 70
     0
300
3" = 1'-0"
140
3.0
141
12.0
290
     0
  0
SCALE
  5
67
102
{ACAD_REACTORS
330
47
102
}
330
47
100
AcDbScale
 70
     0
300
6" = 1'-0"
140
6.0
141
12.0
290
     0
  0
SCALE
  5
68
102
{ACAD_REACTORS
330
47
102
}
330
47
100
AcDbScale
 70
     0
300
1'-0" = 1'-0"
140
12.0
141
12.0
290
     0
  0
TABLESTYLE
  5
6A
102
{ACAD_REACTORS
330
69
102
}
102
{ACAD_XDICTIONARY
360
1FA
102
}
330
69
100
AcDbTableStyle
  3
Standard
 70
     0
 71
     0
 40
0.06
 41
0.06
280
     0
281
     0
  7
Standard
140
0.18
170
     2
 62
     0
 63
   257
283
     0
 90
        4
 91
        0
  1

274
    -2
284
     1
 64
     0
275
    -2
285
     1
 65
     0
276
    -2
286
     1
 66
     0
277
    -2
287
     1
 67
     0
278
    -2
288
     1
 68
     0
279
    -2
289
     1
 69
     0
  7
Standard
140
0.25
170
     5
 62
     0
 63
   257
283
     0
 90
        4
 91
        0
  1

274
    -2
284
     1
 64
     0
275
    -2
285
     1
 65
     0
276
    -2
286
     1
 66
     0
277
    -2
287
     1
 67
     0
278
    -2
288
     1
 68
     0
279
    -2
289
     1
 69
     0
  7
Standard
140
0.18
170
     5
 62
     0
 63
   257
283
     0
 90
        4
 91
        0
  1

274
    -2
284
     1
 64
     0
275
    -2
285
     1
 65
     0
276
    -2
286
     1
 66
     0
277
    -2
287
     1
 67
     0
278
    -2
288
     1
 68
     0
279
    -2
289
     1
 69
     0
  0
VISUALSTYLE
  5
2F
102
{ACAD_REACTORS
330
2A
102
}
330
2A
100
AcDbVisualStyle
  2
2dWireframe
 70
     4
177
     3
291
     0
 70
    58
 90
        0
176
     1
 90
        2
176
     1
 90
        0
176
     1
 90
        0
176
     1
 40
0.6
176
     1
 40
30.0
176
     1
 62
     7
420
 16777215
176
     1
 90
        1
176
     1
 90
        4
176
     1
 62
     7
176
     1
 62
   257
176
     1
 90
        1
176
     1
 90
        1
176
     1
 40
1.0
176
     1
 90
        0
176
     1
 62
   257
176
     1
 40
1.0
176
     1
 90
        1
176
     1
 90
        6
176
     1
 90
        2
176
     1
 62
     7
176
     1
 90
        5
176
     1
 90
        0
176
     1
 90
        0
176
     1
290
     0
176
     1
 90
        1
176
     1
 40
0.0
176
     1
 90
        0
176
     1
290
     1
176
     1
290
     1
176
     1
290
     0
176
     1
290
     0
176
     1
290
     0
176
     1
290
     0
176
     1
290
     0
176
     1
290
     0
176
     1
290
     0
176
     1
 90
       50
176
     1
 40
0.0
176
     1
 40
1.0
176
     1
 90
        0
176
     1
 62
    18
420
        0
176
     1
 90
       50
176
     1
 90
        3
176
     1
 62
     5
420
      255
176
     1
290
     0
176
     1
 90
       50
176
     1
 90
       50
176
     1
 90
       50
176
     1
290
     0
176
     1
 90
       50
176
     1
 62
   256
176
     0
 40
1.0
176
     0
 90
        2
176
     1
  1
strokes_ogs.tif
176
     1
290
     0
176
     1
 40
1.0
176
     1
 40
1.0
176
     1
  0
VISUALSTYLE
  5
32
102
{ACAD_REACTORS
330
2A
102
}
330
2A
100
AcDbVisualStyle
  2
Basic
 70
     7
177
     3
291
     1
 70
    58
 90
        1
176
     1
 90
        0
176
     1
 90
        1
176
     1
 90
        0
176
     1
 40
0.6
176
     1
 40
30.0
176
     1
 62
     7
420
 16777215
176
     1
 90
        0
176
     1
 90
        4
176
     1
 62
     7
176
     1
 62
   257
176
     1
 90
        1
176
     1
 90
        1
176
     1
 40
1.0
176
     1
 90
        8
176
     1
 62
     7
176
     1
 40
1.0
176
     1
 90
        1
176
     1
 90
        6
176
     1
 90
        2
176
     1
 62
     7
176
     1
 90
        5
176
     1
 90
        0
176
     1
 90
        0
176
     1
290
     0
176
     1
 90
        1
176
     1
 40
0.0
176
     1
 90
        0
176
     1
290
     0
176
     1
290
     1
176
     1
290
     1
176
     1
290
     0
176
     1
290
     0
176
     1
290
     0
176
     1
290
     0
176
     1
290
     0
176
     1
290
     0
176
     1
 90
       50
176
     1
 40
0.0
176
     1
 40
1.0
176
     1
 90
        0
176
     1
 62
    18
420
        0
176
     1
 90
       50
176
     1
 90
        3
176
     1
 62
     5
420
      255
176
     1
290
     0
176
     1
 90
       50
176
     1
 90
       50
176
     1
 90
       50
176
     1
290
     0
176
     1
 90
       50
176
     1
 62
   256
176
     0
 40
1.0
176
     0
 90
        2
176
     1
  1
strokes_ogs.tif
176
     1
290
     0
176
     1
 40
1.0
176
     1
 40
1.0
176
     1
  0
VISUALSTYLE
  5
36
102
{ACAD_REACTORS
330
2A
102
}
330
2A
100
AcDbVisualStyle
  2
Brighten
 70
    12
177
     3
291
     1
 70
    58
 90
        2
176
     1
 90
        2
176
     1
 90
        0
176
     1
 90
        0
176
     1
 40
0.6
176
     1
 40
30.0
176
     1
 62
     7
420
 16777215
176
     1
 90
        1
176
     1
 90
        4
176
     1
 62
     7
176
     1
 62
   257
176
     1
 90
        1
176
     1
 90
        1
176
     1
 40
1.0
176
     1
 90
        8
176
     1
 62
     7
176
     1
 40
1.0
176
     1
 90
        1
176
     1
 90
        6
176
     1
 90
        2
176
     1
 62
     7
176
     1
 90
        5
176
     1
 90
        0
176
     1
 90
        0
176
     1
290
     0
176
     1
 90
        1
176
     1
 40
50.0
176
     1
 90
        0
176
     1
290
     0
176
     1
290
     1
176
     1
290
     1
176
     1
290
     0
176
     1
290
     0
176
     1
290
     0
176
     1
290
     0
176
     1
290
     0
176
     1
290
     0
176
     1
 90
       50
176
     1
 40
0.0
176
     1
 40
1.0
176
     1
 90
        0
176
     1
 62
    18
420
        0
176
     1
 90
       50
176
     1
 90
        3
176
     1
 62
     5
420
      255
176
     1
290
     0
176
     1
 90
       50
176
     1
 90
       50
176
     1
 90
       50
176
     1
290
     0
176
     1
 90
       50
176
     1
 62
   256
176
     0
 40
1.0
176
     0
 90
        2
176
     1
  1
strokes_ogs.tif
176
     1
290
     0
176
     1
 40
1.0
176
     1
 40
1.0
176
     1
  0
VISUALSTYLE
  5
3A
102
{ACAD_REACTORS
330
2A
102
}
330
2A
100
AcDbVisualStyle
  2
ColorChange
 70
    16
177
     3
291
     1
 70
    58
 90
        2
176
     1
 90
        2
176
     1
 90
        3
176
     1
 90
        0
176
     1
 40
0.6
176
     1
 40
30.0
176
     1
 62
     8
420
  8421504
176
     1
 90
        1
176
     1
 90
        4
176
     1
 62
     7
176
     1
 62
   257
176
     1
 90
        1
176
     1
 90
        1
176
     1
 40
1.0
176
     1
 90
        8
176
     1
 62
     8
420
  8421504
176
     1
 40
1.0
176
     1
 90
        1
176
     1
 90
        6
176
     1
 90
        2
176
     1
 62
     7
176
     1
 90
        5
176
     1
 90
        0
176
     1
 90
        0
176
     1
290
     0
176
     1
 90
        1
176
     1
 40
0.0
176
     1
 90
        0
176
     1
290
     0
176
     1
290
     1
176
     1
290
     1
176
     1
290
     0
176
     1
290
     0
176
     1
290
     0
176
     1
290
     0
176
     1
290
     0
176
     1
290
     0
176
     1
 90
       50
176
     1
 40
0.0
176
     1
 40
1.0
176
     1
 90
        0
176
     1
 62
    18
420
        0
176
     1
 90
       50
176
     1
 90
        3
176
     1
 62
     5
420
      255
176
     1
290
     0
176
     1
 90
       50
176
     1
 90
       50
176
     1
 90
       50
176
     1
290
     0
176
     1
 90
       50
176
     1
 62
   256
176
     0
 40
1.0
176
     0
 90
        2
176
     1
  1
strokes_ogs.tif
176
     1
290
     0
176
     1
 40
1.0
176
     1
 40
1.0
176
     1
  0
VISUALSTYLE
  5
34
102
{ACAD_REACTORS
330
2A
102
}
330
2A
100
AcDbVisualStyle
  2
Conceptual
 70
     9
177
     3
291
     0
 70
    58
 90
        3
176
     1
 90
        2
176
     1
 90
        0
176
     1
 90
        0
176
     1
 40
0.6
176
     1
 40
30.0
176
     1
 62
     7
420
 16777215
176
     1
 90
        2
176
     1
 90
        2
176
     1
 62
     7
176
     1
 62
   257
176
     1
 90
        1
176
     1
 90
        1
176
     1
 40
179.0
176
     1
 90
        8
176
     1
 62
     7
176
     1
 40
1.0
176
     1
 90
        1
176
     1
 90
        6
176
     1
 90
        2
176
     1
 62
     7
176
     1
 90
        3
176
     1
 90
        0
176
     1
 90
        0
176
     1
290
     0
176
     1
 90
        1
176
     1
 40
0.0
176
     1
 90
        0
176
     1
290
     0
176
     1
290
     1
176
     1
290
     1
176
     1
290
     0
176
     1
290
     0
176
     1
290
     0
176
     1
290
     0
176
     1
290
     0
176
     1
290
     0
176
     1
 90
       50
176
     1
 40
0.0
176
     1
 40
1.0
176
     1
 90
        0
176
     1
 62
    18
420
        0
176
     1
 90
       50
176
     1
 90
        3
176
     1
 62
     5
420
      255
176
     1
290
     0
176
     1
 90
       50
176
     1
 90
       50
176
     1
 90
       50
176
     1
290
     0
176
     1
 90
       50
176
     1
 62
   256
176
     0
 40
1.0
176
     0
 90
        2
176
     1
  1
strokes_ogs.tif
176
     1
290
     0
176
     1
 40
1.0
176
     1
 40
1.0
176
     1
  0
VISUALSTYLE
  5
35
102
{ACAD_REACTORS
330
2A
102
}
330
2A
100
AcDbVisualStyle
  2
Dim
 70
    11
177
     3
291
     1
 70
    58
 90
        2
176
     1
 90
        2
176
     1
 90
        0
176
     1
 90
        0
176
     1
 40
0.6
176
     1
 40
30.0
176
     1
 62
     7
420
 16777215
176
     1
 90
        1
176
     1
 90
        4
176
     1
 62
     7
176
     1
 62
   257
176
     1
 90
        1
176
     1
 90
        1
176
     1
 40
1.0
176
     1
 90
        8
176
     1
 62
     7
176
     1
 40
1.0
176
     1
 90
        1
176
     1
 90
        6
176
     1
 90
        2
176
     1
 62
     7
176
     1
 90
        5
176
     1
 90
        0
176
     1
 90
        0
176
     1
290
     0
176
     1
 90
        1
176
     1
 40
-50.0
176
     1
 90
        0
176
     1
290
     0
176
     1
290
     1
176
     1
290
     1
176
     1
290
     0
176
     1
290
     0
176
     1
290
     0
176
     1
290
     0
176
     1
290
     0
176
     1
290
     0
176
     1
 90
       50
176
     1
 40
0.0
176
     1
 40
1.0
176
     1
 90
        0
176
     1
 62
    18
420
        0
176
     1
 90
       50
176
     1
 90
        3
176
     1
 62
     5
420
      255
176
     1
290
     0
176
     1
 90
       50
176
     1
 90
       50
176
     1
 90
       50
176
     1
290
     0
176
     1
 90
       50
176
     1
 62
   256
176
     0
 40
1.0
176
     0
 90
        2
176
     1
  1
strokes_ogs.tif
176
     1
290
     0
176
     1
 40
1.0
176
     1
 40
1.0
176
     1
  0
VISUALSTYLE
  5
3D
102
{ACAD_REACTORS
330
2A
102
}
330
2A
100
AcDbVisualStyle
  2
EdgeColorOff
 70
    22
177
     3
291
     1
 70
    58
 90
        2
176
     0
 90
        2
176
     0
 90
        0
176
     0
 90
        0
176
     0
 40
0.6
176
     0
 40
30.0
176
     0
 62
     7
420
 16777215
176
     0
 90
        1
176
     0
 90
        4
176
     0
 62
     7
176
     0
 62
   257
176
     0
 90
        1
176
     0
 90
        1
176
     0
 40
1.0
176
     0
 90
        8
176
     2
 62
     7
176
     0
 40
1.0
176
     0
 90
        1
176
     0
 90
        6
176
     0
 90
        2
176
     0
 62
     7
176
     0
 90
        5
176
     0
 90
        0
176
     0
 90
        0
176
     0
290
     0
176
     0
 90
        1
176
     0
 40
0.0
176
     0
 90
        0
176
     0
290
     0
176
     0
290
     1
176
     0
290
     1
176
     0
290
     0
176
     0
290
     0
176
     0
290
     0
176
     0
290
     0
176
     0
290
     0
176
     0
290
     0
176
     0
 90
       50
176
     0
 40
0.0
176
     0
 40
1.0
176
     0
 90
        0
176
     0
 62
    18
420
        0
176
     0
 90
       50
176
     0
 90
        3
176
     0
 62
     5
420
      255
176
     0
290
     0
176
     0
 90
       50
176
     0
 90
       50
176
     0
 90
       50
176
     0
290
     0
176
     0
 90
       50
176
     0
 62
   256
176
     0
 40
1.0
176
     0
 90
        2
176
     0
  1
strokes_ogs.tif
176
     0
290
     0
176
     0
 40
1.0
176
     0
 40
1.0
176
     0
  0
VISUALSTYLE
  5
39
102
{ACAD_REACTORS
330
2A
102
}
330
2A
100
AcDbVisualStyle
  2
Facepattern
 70
    15
177
     3
291
     1
 70
    58
 90
        2
176
     1
 90
        2
176
     1
 90
        0
176
     1
 90
        0
176
     1
 40
0.6
176
     1
 40
30.0
176
     1
 62
     7
420
 16777215
176
     1
 90
        1
176
     1
 90
        4
176
     1
 62
     7
176
     1
 62
   257
176
     1
 90
        1
176
     1
 90
        1
176
     1
 40
1.0
176
     1
 90
        8
176
     1
 62
     7
176
     1
 40
1.0
176
     1
 90
        1
176
     1
 90
        6
176
     1
 90
        2
176
     1
 62
     7
176
     1
 90
        5
176
     1
 90
        0
176
     1
 90
        0
176
     1
290
     0
176
     1
 90
        1
176
     1
 40
0.0
176
     1
 90
        0
176
     1
290
     0
176
     1
290
     1
176
     1
290
     1
176
     1
290
     0
176
     1
290
     0
176
     1
290
     0
176
     1
290
     0
176
     1
290
     0
176
     1
290
     0
176
     1
 90
       50
176
     1
 40
0.0
176
     1
 40
1.0
176
     1
 90
        0
176
     1
 62
    18
420
        0
176
     1
 90
       50
176
     1
 90
        3
176
     1
 62
     5
420
      255
176
     1
290
     0
176
     1
 90
       50
176
     1
 90
       50
176
     1
 90
       50
176
     1
290
     0
176
     1
 90
       50
176
     1
 62
   256
176
     0
 40
1.0
176
     0
 90
        2
176
     1
  1
strokes_ogs.tif
176
     1
290
     0
176
     1
 40
1.0
176
     1
 40
1.0
176
     1
  0
VISUALSTYLE
  5
2B
102
{ACAD_REACTORS
330
2A
102
}
330
2A
100
AcDbVisualStyle
  2
Flat
 70
     0
177
     3
291
     1
 70
    58
 90
        2
176
     1
 90
        1
176
     1
 90
        1
176
     1
 90
        2
176
     1
 40
0.6
176
     1
 40
30.0
176
     1
 62
     7
420
 16777215
176
     1
 90
        0
176
     1
 90
        0
176
     1
 62
     7
176
     1
 62
   257
176
     1
 90
        1
176
     1
 90
        1
176
     1
 40
1.0
176
     1
 90
        8
176
     1
 62
     7
176
     1
 40
1.0
176
     1
 90
        1
176
     1
 90
        6
176
     1
 90
        2
176
     1
 62
     7
176
     1
 90
        5
176
     1
 90
        0
176
     1
 90
        0
176
     1
290
     0
176
     1
 90
       13
176
     1
 40
0.0
176
     1
 90
        0
176
     1
290
     0
176
     1
290
     1
176
     1
290
     1
176
     1
290
     0
176
     1
290
     0
176
     1
290
     0
176
     1
290
     0
176
     1
290
     0
176
     1
290
     0
176
     1
 90
       50
176
     1
 40
0.0
176
     1
 40
1.0
176
     1
 90
        0
176
     1
 62
    18
420
        0
176
     1
 90
       50
176
     1
 90
        3
176
     1
 62
     5
420
      255
176
     1
290
     0
176
     1
 90
       50
176
     1
 90
       50
176
     1
 90
       50
176
     1
290
     0
176
     1
 90
       50
176
     1
 62
   256
176
     0
 40
1.0
176
     0
 90
        2
176
     1
  1
strokes_ogs.tif
176
     1
290
     0
176
     1
 40
1.0
176
     1
 40
1.0
176
     1
  0
VISUALSTYLE
  5
2C
102
{ACAD_REACTORS
330
2A
102
}
330
2A
100
AcDbVisualStyle
  2
FlatWithEdges
 70
     1
177
     3
291
     1
 70
    58
 90
        2
176
     1
 90
        1
176
     1
 90
        1
176
     1
 90
        2
176
     1
 40
0.6
176
     1
 40
30.0
176
     1
 62
     7
420
 16777215
176
     1
 90
        1
176
     1
 90
        0
176
     1
 62
     7
176
     1
 62
   257
176
     1
 90
        1
176
     1
 90
        1
176
     1
 40
1.0
176
     1
 90
        0
176
     1
 62
   257
176
     1
 40
1.0
176
     1
 90
        1
176
     1
 90
        6
176
     1
 90
        2
176
     1
 62
     7
176
     1
 90
        5
176
     1
 90
        0
176
     1
 90
        0
176
     1
290
     0
176
     1
 90
       13
176
     1
 40
0.0
176
     1
 90
        0
176
     1
290
     0
176
     1
290
     1
176
     1
290
     1
176
     1
290
     0
176
     1
290
     0
176
     1
290
     0
176
     1
290
     0
176
     1
290
     0
176
     1
290
     0
176
     1
 90
       50
176
     1
 40
0.0
176
     1
 40
1.0
176
     1
 90
        0
176
     1
 62
    18
420
        0
176
     1
 90
       50
176
     1
 90
        3
176
     1
 62
     5
420
      255
176
     1
290
     0
176
     1
 90
       50
176
     1
 90
       50
176
     1
 90
       50
176
     1
290
     0
176
     1
 90
       50
176
     1
 62
   256
176
     0
 40
1.0
176
     0
 90
        2
176
     1
  1
strokes_ogs.tif
176
     1
290
     0
176
     1
 40
1.0
176
     1
 40
1.0
176
     1
  0
VISUALSTYLE
  5
2D
102
{ACAD_REACTORS
330
2A
102
}
330
2A
100
AcDbVisualStyle
  2
Gouraud
 70
     2
177
     3
291
     1
 70
    58
 90
        2
176
     1
 90
        2
176
     1
 90
        1
176
     1
 90
        2
176
     1
 40
0.6
176
     1
 40
30.0
176
     1
 62
     7
420
 16777215
176
     1
 90
        0
176
     1
 90
        0
176
     1
 62
     7
176
     1
 62
   257
176
     1
 90
        1
176
     1
 90
        1
176
     1
 40
1.0
176
     1
 90
        0
176
     1
 62
     7
176
     1
 40
1.0
176
     1
 90
        1
176
     1
 90
        6
176
     1
 90
        2
176
     1
 62
     7
176
     1
 90
        5
176
     1
 90
        0
176
     1
 90
        0
176
     1
290
     0
176
     1
 90
       13
176
     1
 40
0.0
176
     1
 90
        0
176
     1
290
     0
176
     1
290
     1
176
     1
290
     1
176
     1
290
     0
176
     1
290
     0
176
     1
290
     0
176
     1
290
     0
176
     1
290
     0
176
     1
290
     0
176
     1
 90
       50
176
     1
 40
0.0
176
     1
 40
1.0
176
     1
 90
        0
176
     1
 62
    18
420
        0
176
     1
 90
       50
176
     1
 90
        3
176
     1
 62
     5
420
      255
176
     1
290
     0
176
     1
 90
       50
176
     1
 90
       50
176
     1
 90
       50
176
     1
290
     0
176
     1
 90
       50
176
     1
 62
   256
176
     0
 40
1.0
176
     0
 90
        2
176
     1
  1
strokes_ogs.tif
176
     1
290
     0
176
     1
 40
1.0
176
     1
 40
1.0
176
     1
  0
VISUALSTYLE
  5
2E
102
{ACAD_REACTORS
330
2A
102
}
330
2A
100
AcDbVisualStyle
  2
GouraudWithEdges
 70
     3
177
     3
291
     1
 70
    58
 90
        2
176
     1
 90
        2
176
     1
 90
        1
176
     1
 90
        2
176
     1
 40
0.6
176
     1
 40
30.0
176
     1
 62
     7
420
 16777215
176
     1
 90
        1
176
     1
 90
        0
176
     1
 62
     7
176
     1
 62
   257
176
     1
 90
        1
176
     1
 90
        1
176
     1
 40
1.0
176
     1
 90
        0
176
     1
 62
   257
176
     1
 40
1.0
176
     1
 90
        1
176
     1
 90
        6
176
     1
 90
        2
176
     1
 62
     7
176
     1
 90
        5
176
     1
 90
        0
176
     1
 90
        0
176
     1
290
     0
176
     1
 90
       13
176
     1
 40
0.0
176
     1
 90
        0
176
     1
290
     0
176
     1
290
     1
176
     1
290
     1
176
     1
290
     0
176
     1
290
     0
176
     1
290
     0
176
     1
290
     0
176
     1
290
     0
176
     1
290
     0
176
     1
 90
       50
176
     1
 40
0.0
176
     1
 40
1.0
176
     1
 90
        0
176
     1
 62
    18
420
        0
176
     1
 90
       50
176
     1
 90
        3
176
     1
 62
     5
420
      255
176
     1
290
     0
176
     1
 90
       50
176
     1
 90
       50
176
     1
 90
       50
176
     1
290
     0
176
     1
 90
       50
176
     1
 62
   256
176
     0
 40
1.0
176
     0
 90
        2
176
     1
  1
strokes_ogs.tif
176
     1
290
     0
176
     1
 40
1.0
176
     1
 40
1.0
176
     1
  0
VISUALSTYLE
  5
31
102
{ACAD_REACTORS
330
2A
102
}
330
2A
100
AcDbVisualStyle
  2
Hidden
 70
     6
177
     3
291
     0
 70
    58
 90
        1
176
     1
 90
        2
176
     1
 90
        2
176
     1
 90
        0
176
     1
 40
0.6
176
     1
 40
30.0
176
     1
 62
     7
420
 16777215
176
     1
 90
        2
176
     1
 90
        2
176
     1
 62
     7
176
     1
 62
   257
176
     1
 90
        2
176
     1
 90
        1
176
     1
 40
40.0
176
     1
 90
        0
176
     1
 62
   257
176
     1
 40
1.0
176
     1
 90
        1
176
     1
 90
        6
176
     1
 90
        2
176
     1
 62
     7
176
     1
 90
        3
176
     1
 90
        0
176
     1
 90
        0
176
     1
290
     0
176
     1
 90
        1
176
     1
 40
0.0
176
     1
 90
        0
176
     1
290
     0
176
     1
290
     1
176
     1
290
     1
176
     1
290
     0
176
     1
290
     0
176
     1
290
     0
176
     1
290
     0
176
     1
290
     0
176
     1
290
     0
176
     1
 90
       50
176
     1
 40
0.0
176
     1
 40
1.0
176
     1
 90
        0
176
     1
 62
    18
420
        0
176
     1
 90
       50
176
     1
 90
        3
176
     1
 62
     5
420
      255
176
     1
290
     0
176
     1
 90
       50
176
     1
 90
       50
176
     1
 90
       50
176
     1
290
     0
176
     1
 90
       50
176
     1
 62
   256
176
     0
 40
1.0
176
     0
 90
        2
176
     1
  1
strokes_ogs.tif
176
     1
290
     0
176
     1
 40
1.0
176
     1
 40
1.0
176
     1
  0
VISUALSTYLE
  5
3B
102
{ACAD_REACTORS
330
2A
102
}
330
2A
100
AcDbVisualStyle
  2
JitterOff
 70
    20
177
     3
291
     1
 70
    58
 90
        2
176
     0
 90
        2
176
     0
 90
        0
176
     0
 90
        0
176
     0
 40
0.6
176
     0
 40
30.0
176
     0
 62
     7
420
 16777215
176
     0
 90
        1
176
     0
 90
        4
176
     0
 62
     7
176
     0
 62
   257
176
     0
 90
        1
176
     0
 90
        1
176
     0
 40
1.0
176
     0
 90
       10
176
     2
 62
     7
176
     0
 40
1.0
176
     0
 90
        1
176
     0
 90
        6
176
     0
 90
        2
176
     0
 62
     7
176
     0
 90
        5
176
     0
 90
        0
176
     0
 90
        0
176
     0
290
     0
176
     0
 90
        1
176
     0
 40
0.0
176
     0
 90
        0
176
     0
290
     0
176
     0
290
     1
176
     0
290
     1
176
     0
290
     0
176
     0
290
     0
176
     0
290
     0
176
     0
290
     0
176
     0
290
     0
176
     0
290
     0
176
     0
 90
       50
176
     0
 40
0.0
176
     0
 40
1.0
176
     0
 90
        0
176
     0
 62
    18
420
        0
176
     0
 90
       50
176
     0
 90
        3
176
     0
 62
     5
420
      255
176
     0
290
     0
176
     0
 90
       50
176
     0
 90
       50
176
     0
 90
       50
176
     0
290
     0
176
     0
 90
       50
176
     0
 62
   256
176
     0
 40
1.0
176
     0
 90
        2
176
     0
  1
strokes_ogs.tif
176
     0
290
     0
176
     0
 40
1.0
176
     0
 40
1.0
176
     0
  0
VISUALSTYLE
  5
38
102
{ACAD_REACTORS
330
2A
102
}
330
2A
100
AcDbVisualStyle
  2
Linepattern
 70
    14
177
     3
291
     1
 70
    58
 90
        2
176
     1
 90
        2
176
     1
 90
        0
176
     1
 90
        0
176
     1
 40
0.6
176
     1
 40
30.0
176
     1
 62
     7
420
 16777215
176
     1
 90
        1
176
     1
 90
        4
176
     1
 62
     7
176
     1
 62
   257
176
     1
 90
        7
176
     1
 90
        7
176
     1
 40
1.0
176
     1
 90
        8
176
     1
 62
     7
176
     1
 40
1.0
176
     1
 90
        1
176
     1
 90
        6
176
     1
 90
        2
176
     1
 62
     7
176
     1
 90
        5
176
     1
 90
        0
176
     1
 90
        0
176
     1
290
     0
176
     1
 90
        1
176
     1
 40
0.0
176
     1
 90
        0
176
     1
290
     0
176
     1
290
     1
176
     1
290
     1
176
     1
290
     0
176
     1
290
     0
176
     1
290
     0
176
     1
290
     0
176
     1
290
     0
176
     1
290
     0
176
     1
 90
       50
176
     1
 40
0.0
176
     1
 40
1.0
176
     1
 90
        0
176
     1
 62
    18
420
        0
176
     1
 90
       50
176
     1
 90
        3
176
     1
 62
     5
420
      255
176
     1
290
     0
176
     1
 90
       50
176
     1
 90
       50
176
     1
 90
       50
176
     1
290
     0
176
     1
 90
       50
176
     1
 62
   256
176
     0
 40
1.0
176
     0
 90
        2
176
     1
  1
strokes_ogs.tif
176
     1
290
     0
176
     1
 40
1.0
176
     1
 40
1.0
176
     1
  0
VISUALSTYLE
  5
3C
102
{ACAD_REACTORS
330
2A
102
}
330
2A
100
AcDbVisualStyle
  2
OverhangOff
 70
    21
177
     3
291
     1
 70
    58
 90
        2
176
     0
 90
        2
176
     0
 90
        0
176
     0
 90
        0
176
     0
 40
0.6
176
     0
 40
30.0
176
     0
 62
     7
420
 16777215
176
     0
 90
        1
176
     0
 90
        4
176
     0
 62
     7
176
     0
 62
   257
176
     0
 90
        1
176
     0
 90
        1
176
     0
 40
1.0
176
     0
 90
        9
176
     2
 62
     7
176
     0
 40
1.0
176
     0
 90
        1
176
     0
 90
        6
176
     0
 90
        2
176
     0
 62
     7
176
     0
 90
        5
176
     0
 90
        0
176
     0
 90
        0
176
     0
290
     0
176
     0
 90
        1
176
     0
 40
0.0
176
     0
 90
        0
176
     0
290
     0
176
     0
290
     1
176
     0
290
     1
176
     0
290
     0
176
     0
290
     0
176
     0
290
     0
176
     0
290
     0
176
     0
290
     0
176
     0
290
     0
176
     0
 90
       50
176
     0
 40
0.0
176
     0
 40
1.0
176
     0
 90
        0
176
     0
 62
    18
420
        0
176
     0
 90
       50
176
     0
 90
        3
176
     0
 62
     5
420
      255
176
     0
290
     0
176
     0
 90
       50
176
     0
 90
       50
176
     0
 90
       50
176
     0
290
     0
176
     0
 90
       50
176
     0
 62
   256
176
     0
 40
1.0
176
     0
 90
        2
176
     0
  1
strokes_ogs.tif
176
     0
290
     0
176
     0
 40
1.0
176
     0
 40
1.0
176
     0
  0
VISUALSTYLE
  5
33
102
{ACAD_REACTORS
330
2A
102
}
330
2A
100
AcDbVisualStyle
  2
Realistic
 70
     8
177
     3
291
     0
 70
    58
 90
        2
176
     1
 90
        3
176
     1
 90
        0
176
     1
 90
        2
176
     1
 40
0.6
176
     1
 40
30.0
176
     1
 62
     7
420
 16777215
176
     1
 90
        0
176
     1
 90
        0
176
     1
 62
     7
176
     1
 62
   257
176
     1
 90
        1
176
     1
 90
        1
176
     1
 40
1.0
176
     1
 90
        8
176
     1
 62
   257
176
     1
 40
1.0
176
     1
 90
        1
176
     1
 90
        6
176
     1
 90
        2
176
     1
 62
     7
176
     1
 90
        3
176
     1
 90
        0
176
     1
 90
        0
176
     1
290
     0
176
     1
 90
       13
176
     1
 40
0.0
176
     1
 90
        0
176
     1
290
     0
176
     1
290
     1
176
     1
290
     1
176
     1
290
     0
176
     1
290
     0
176
     1
290
     0
176
     1
290
     0
176
     1
290
     0
176
     1
290
     0
176
     1
 90
       50
176
     1
 40
0.0
176
     1
 40
1.0
176
     1
 90
        0
176
     1
 62
    18
420
        0
176
     1
 90
       50
176
     1
 90
        3
176
     1
 62
     5
420
      255
176
     1
290
     0
176
     1
 90
       50
176
     1
 90
       50
176
     1
 90
       50
176
     1
290
     0
176
     1
 90
       50
176
     1
 62
   256
176
     0
 40
1.0
176
     0
 90
        2
176
     1
  1
strokes_ogs.tif
176
     1
290
     0
176
     1
 40
1.0
176
     1
 40
1.0
176
     1
  0
VISUALSTYLE
  5
42
102
{ACAD_REACTORS
330
2A
102
}
330
2A
100
AcDbVisualStyle
  2
Shaded
 70
    27
177
     3
291
     0
 70
    58
 90
        2
176
     1
 90
        2
176
     1
 90
        1
176
     1
 90
        2
176
     1
 40
0.6
176
     1
 40
30.0
176
     1
 62
     7
420
 16777215
176
     1
 90
        0
176
     1
 90
        4
176
     1
 62
     7
176
     1
 62
   257
176
     1
 90
        1
176
     1
 90
        1
176
     1
 40
1.0
176
     1
 90
        8
176
     1
 62
   257
176
     1
 40
1.0
176
     1
 90
        1
176
     1
 90
        6
176
     1
 90
        2
176
     1
 62
     8
420
  7895160
176
     1
 90
        3
176
     1
 90
        0
176
     1
 90
        0
176
     1
290
     0
176
     1
 90
        5
176
     1
 40
0.0
176
     1
 90
        0
176
     1
290
     0
176
     1
290
     1
176
     1
290
     1
176
     1
290
     0
176
     1
290
     0
176
     1
290
     0
176
     1
290
     0
176
     1
290
     0
176
     1
290
     0
176
     1
 90
       50
176
     1
 40
0.0
176
     1
 40
1.0
176
     1
 90
        0
176
     1
 62
    18
420
        0
176
     1
 90
       50
176
     1
 90
        3
176
     1
 62
     5
420
      255
176
     1
290
     0
176
     1
 90
       50
176
     1
 90
       50
176
     1
 90
       50
176
     1
290
     0
176
     1
 90
       50
176
     1
 62
   256
176
     0
 40
1.0
176
     0
 90
        2
176
     1
  1
strokes_ogs.tif
176
     1
290
     0
176
     1
 40
1.0
176
     1
 40
1.0
176
     1
  0
VISUALSTYLE
  5
41
102
{ACAD_REACTORS
330
2A
102
}
330
2A
100
AcDbVisualStyle
  2
Shaded with edges
 70
    26
177
     3
291
     0
 70
    58
 90
        2
176
     1
 90
        2
176
     1
 90
        1
176
     1
 90
        2
176
     1
 40
0.6
176
     1
 40
30.0
176
     1
 62
     7
420
 16777215
176
     1
 90
        1
176
     1
 90
       10
176
     1
 62
     7
176
     1
 62
   257
176
     1
 90
        2
176
     1
 90
        1
176
     1
 40
1.0
176
     1
 90
        8
176
     1
 62
   257
176
     1
 40
1.0
176
     1
 90
        1
176
     1
 90
        6
176
     1
 90
        2
176
     1
 62
     7
176
     1
 90
        3
176
     1
 90
        0
176
     1
 90
        0
176
     1
290
     0
176
     1
 90
        5
176
     1
 40
0.0
176
     1
 90
        0
176
     1
290
     0
176
     1
290
     1
176
     1
290
     1
176
     1
290
     0
176
     1
290
     0
176
     1
290
     0
176
     1
290
     0
176
     1
290
     0
176
     1
290
     0
176
     1
 90
       50
176
     1
 40
0.0
176
     1
 40
1.0
176
     1
 90
        0
176
     1
 62
    18
420
        0
176
     1
 90
       50
176
     1
 90
        3
176
     1
 62
     5
420
      255
176
     1
290
     0
176
     1
 90
       50
176
     1
 90
       50
176
     1
 90
       50
176
     1
290
     0
176
     1
 90
       50
176
     1
 62
   256
176
     0
 40
1.0
176
     0
 90
        2
176
     1
  1
strokes_ogs.tif
176
     1
290
     0
176
     1
 40
1.0
176
     1
 40
1.0
176
     1
  0
VISUALSTYLE
  5
3E
102
{ACAD_REACTORS
330
2A
102
}
330
2A
100
AcDbVisualStyle
  2
Shades of Gray
 70
    23
177
     3
291
     0
 70
    58
 90
        2
176
     1
 90
        2
176
     1
 90
        3
176
     1
 90
        0
176
     1
 40
0.6
176
     1
 40
30.0
176
     1
 62
     7
420
 16777215
176
     1
 90
        2
176
     1
 90
        2
176
     1
 62
     7
176
     1
 62
     7
176
     1
 90
        1
176
     1
 90
        1
176
     1
 40
40.0
176
     1
 90
        8
176
     1
 62
     7
176
     1
 40
1.0
176
     1
 90
        1
176
     1
 90
        6
176
     1
 90
        2
176
     1
 62
     7
176
     1
 90
        3
176
     1
 90
        0
176
     1
 90
        0
176
     1
290
     0
176
     1
 90
        1
176
     1
 40
0.0
176
     1
 90
        0
176
     1
290
     0
176
     1
290
     1
176
     1
290
     1
176
     1
290
     0
176
     1
290
     0
176
     1
290
     0
176
     1
290
     0
176
     1
290
     0
176
     1
290
     0
176
     1
 90
       50
176
     1
 40
0.0
176
     1
 40
1.0
176
     1
 90
        0
176
     1
 62
    18
420
        0
176
     1
 90
       50
176
     1
 90
        3
176
     1
 62
     5
420
      255
176
     1
290
     0
176
     1
 90
       50
176
     1
 90
       50
176
     1
 90
       50
176
     1
290
     0
176
     1
 90
       50
176
     1
 62
   256
176
     0
 40
1.0
176
     0
 90
        2
176
     1
  1
strokes_ogs.tif
176
     1
290
     0
176
     1
 40
1.0
176
     1
 40
1.0
176
     1
  0
VISUALSTYLE
  5
3F
102
{ACAD_REACTORS
330
2A
102
}
330
2A
100
AcDbVisualStyle
  2
Sketchy
 70
    24
177
     3
291
     0
 70
    58
 90
        1
176
     1
 90
        2
176
     1
 90
        2
176
     1
 90
        0
176
     1
 40
0.6
176
     1
 40
30.0
176
     1
 62
     7
420
 16777215
176
     1
 90
        2
176
     1
 90
        2
176
     1
 62
     7
176
     1
 62
     7
176
     1
 90
        1
176
     1
 90
        1
176
     1
 40
40.0
176
     1
 90
       11
176
     1
 62
     7
176
     1
 40
1.0
176
     1
 90
        1
176
     1
 90
        6
176
     1
 90
        2
176
     1
 62
     7
176
     1
 90
        6
176
     1
 90
        0
176
     1
 90
        0
176
     1
290
     0
176
     1
 90
        1
176
     1
 40
0.0
176
     1
 90
        0
176
     1
290
     0
176
     1
290
     1
176
     1
290
     1
176
     1
290
     0
176
     1
290
     0
176
     1
290
     0
176
     1
290
     0
176
     1
290
     0
176
     1
290
     0
176
     1
 90
       50
176
     1
 40
0.0
176
     1
 40
1.0
176
     1
 90
        0
176
     1
 62
    18
420
        0
176
     1
 90
       50
176
     1
 90
        3
176
     1
 62
     5
420
      255
176
     1
290
     0
176
     1
 90
       50
176
     1
 90
       50
176
     1
 90
       50
176
     1
290
     0
176
     1
 90
       50
176
     1
 62
   256
176
     0
 40
1.0
176
     0
 90
        2
176
     1
  1
strokes_ogs.tif
176
     1
290
     0
176
     1
 40
1.0
176
     1
 40
1.0
176
     1
  0
VISUALSTYLE
  5
37
102
{ACAD_REACTORS
330
2A
102
}
330
2A
100
AcDbVisualStyle
  2
Thicken
 70
    13
177
     3
291
     1
 70
    58
 90
        2
176
     1
 90
        2
176
     1
 90
        0
176
     1
 90
        0
176
     1
 40
0.6
176
     1
 40
30.0
176
     1
 62
     7
420
 16777215
176
     1
 90
        1
176
     1
 90
        4
176
     1
 62
     7
176
     1
 62
   257
176
     1
 90
        1
176
     1
 90
        1
176
     1
 40
1.0
176
     1
 90
       12
176
     1
 62
     7
176
     1
 40
1.0
176
     1
 90
        1
176
     1
 90
        6
176
     1
 90
        2
176
     1
 62
     7
176
     1
 90
        5
176
     1
 90
        0
176
     1
 90
        0
176
     1
290
     0
176
     1
 90
        1
176
     1
 40
0.0
176
     1
 90
        0
176
     1
290
     0
176
     1
290
     1
176
     1
290
     1
176
     1
290
     0
176
     1
290
     0
176
     1
290
     0
176
     1
290
     0
176
     1
290
     0
176
     1
290
     0
176
     1
 90
       50
176
     1
 40
0.0
176
     1
 40
1.0
176
     1
 90
        0
176
     1
 62
    18
420
        0
176
     1
 90
       50
176
     1
 90
        3
176
     1
 62
     5
420
      255
176
     1
290
     0
176
     1
 90
       50
176
     1
 90
       50
176
     1
 90
       50
176
     1
290
     0
176
     1
 90
       50
176
     1
 62
   256
176
     0
 40
1.0
176
     0
 90
        2
176
     1
  1
strokes_ogs.tif
176
     1
290
     0
176
     1
 40
1.0
176
     1
 40
1.0
176
     1
  0
VISUALSTYLE
  5
30
102
{ACAD_REACTORS
330
2A
102
}
330
2A
100
AcDbVisualStyle
  2
Wireframe
 70
     5
177
     3
291
     0
 70
    58
 90
        0
176
     1
 90
        2
176
     1
 90
        0
176
     1
 90
        0
176
     1
 40
0.6
176
     1
 40
30.0
176
     1
 62
     7
420
 16777215
176
     1
 90
        1
176
     1
 90
        4
176
     1
 62
     7
176
     1
 62
   257
176
     1
 90
        1
176
     1
 90
        1
176
     1
 40
1.0
176
     1
 90
        0
176
     1
 62
   257
176
     1
 40
1.0
176
     1
 90
        1
176
     1
 90
        6
176
     1
 90
        2
176
     1
 62
     7
176
     1
 90
        3
176
     1
 90
        0
176
     1
 90
        0
176
     1
290
     0
176
     1
 90
        1
176
     1
 40
0.0
176
     1
 90
        0
176
     1
290
     0
176
     1
290
     1
176
     1
290
     1
176
     1
290
     0
176
     1
290
     0
176
     1
290
     0
176
     1
290
     0
176
     1
290
     0
176
     1
290
     0
176
     1
 90
       50
176
     1
 40
0.0
176
     1
 40
1.0
176
     1
 90
        0
176
     1
 62
    18
420
        0
176
     1
 90
       50
176
     1
 90
        3
176
     1
 62
     5
420
      255
176
     1
290
     0
176
     1
 90
       50
176
     1
 90
       50
176
     1
 90
       50
176
     1
290
     0
176
     1
 90
       50
176
     1
 62
   256
176
     0
 40
1.0
176
     0
 90
        2
176
     1
  1
strokes_ogs.tif
176
     1
290
     0
176
     1
 40
1.0
176
     1
 40
1.0
176
     1
  0
VISUALSTYLE
  5
40
102
{ACAD_REACTORS
330
2A
102
}
330
2A
100
AcDbVisualStyle
  2
X-Ray
 70
    25
177
     3
291
     0
 70
    58
 90
        2
176
     1
 90
        2
176
     1
 90
        1
176
     1
 90
        1
176
     1
 40
0.5
176
     1
 40
30.0
176
     1
 62
     7
420
 16777215
176
     1
 90
        1
176
     1
 90
        0
176
     1
 62
     7
176
     1
 62
   257
176
     1
 90
        1
176
     1
 90
        1
176
     1
 40
1.0
176
     1
 90
        8
176
     1
 62
     7
176
     1
 40
1.0
176
     1
 90
        1
176
     1
 90
        6
176
     1
 90
        2
176
     1
 62
     7
176
     1
 90
        3
176
     1
 90
        0
176
     1
 90
        0
176
     1
290
     0
176
     1
 90
       13
176
     1
 40
0.0
176
     1
 90
        0
176
     1
290
     0
176
     1
290
     1
176
     1
290
     1
176
     1
290
     0
176
     1
290
     0
176
     1
290
     0
176
     1
290
     0
176
     1
290
     0
176
     1
290
     0
176
     1
 90
       50
176
     1
 40
0.0
176
     1
 40
1.0
176
     1
 90
        0
176
     1
 62
    18
420
        0
176
     1
 90
       50
176
     1
 90
        3
176
     1
 62
     5
420
      255
176
     1
290
     0
176
     1
 90
       50
176
     1
 90
       50
176
     1
 90
       50
176
     1
290
     0
176
     1
 90
       50
176
     1
 62
   256
176
     0
 40
1.0
176
     0
 90
        2
176
     1
  1
strokes_ogs.tif
176
     1
290
     0
176
     1
 40
1.0
176
     1
 40
1.0
176
     1
  0
DICTIONARYVAR
  5
1F9
102
{ACAD_REACTORS
330
1F8
102
}
330
1F8
100
DictionaryVariables
280
     0
  1
1:1
  0
DICTIONARYVAR
  5
1FE
102
{ACAD_REACTORS
330
1F8
102
}
330
1F8
100
DictionaryVariables
280
     0
  1
Standard
  0
DICTIONARYVAR
  5
1FD
102
{ACAD_REACTORS
330
1F8
102
}
330
1F8
100
DictionaryVariables
280
     0
  1
Standard
  0
DICTIONARY
  5
1FA
330
6A
100
AcDbDictionary
280
     1
281
     1
  3
ACAD_ROUNDTRIP_2008_TABLESTYLE_CELLSTYLEMAP
360
1FB
  0
CELLSTYLEMAP
  5
1FB
102
{ACAD_REACTORS
330
1FA
102
}
330
1FA
100
AcDbCellStyleMap
 90
        3
300
CELLSTYLE
  1
TABLEFORMAT_BEGIN
 90
        5
170
     1
 91
        0
 92
    32768
 62
   257
 93
        1
300
CONTENTFORMAT
  1
CONTENTFORMAT_BEGIN
 90
        0
 91
        0
 92
        4
 93
        0
300

 40
0.0
140
1.0
 94
        5
 62
     0
340
11
144
0.25
309
CONTENTFORMAT_END
171
     1
301
MARGIN
  1
CELLMARGIN_BEGIN
 40
0.06
 40
0.06
 40
0.06
 40
0.06
 40
0.06
 40
0.06
309
CELLMARGIN_END
 94
        6
 95
        1
302
GRIDFORMAT
  1
GRIDFORMAT_BEGIN
 90
        0
 91
        1
 62
     0
 92
       -2
340
14
 93
        0
 40
0.045
309
GRIDFORMAT_END
 95
        2
302
GRIDFORMAT
  1
GRIDFORMAT_BEGIN
 90
        0
 91
        1
 62
     0
 92
       -2
340
14
 93
        0
 40
0.045
309
GRIDFORMAT_END
 95
        4
302
GRIDFORMAT
  1
GRIDFORMAT_BEGIN
 90
        0
 91
        1
 62
     0
 92
       -2
340
14
 93
        0
 40
0.045
309
GRIDFORMAT_END
 95
        8
302
GRIDFORMAT
  1
GRIDFORMAT_BEGIN
 90
        0
 91
        1
 62
     0
 92
       -2
340
14
 93
        0
 40
0.045
309
GRIDFORMAT_END
 95
       16
302
GRIDFORMAT
  1
GRIDFORMAT_BEGIN
 90
        0
 91
        1
 62
     0
 92
       -2
340
14
 93
        0
 40
0.045
309
GRIDFORMAT_END
 95
       32
302
GRIDFORMAT
  1
GRIDFORMAT_BEGIN
 90
        0
 91
        1
 62
     0
 92
       -2
340
14
 93
        0
 40
0.045
309
GRIDFORMAT_END
309
TABLEFORMAT_END
  1
CELLSTYLE_BEGIN
 90
        1
 91
        1
300
_TITLE
309
CELLSTYLE_END
300
CELLSTYLE
  1
TABLEFORMAT_BEGIN
 90
        5
170
     1
 91
        0
 92
        0
 62
   257
 93
        1
300
CONTENTFORMAT
  1
CONTENTFORMAT_BEGIN
 90
        0
 91
        0
 92
        4
 93
        0
300

 40
0.0
140
1.0
 94
        5
 62
     0
340
11
144
0.18
309
CONTENTFORMAT_END
171
     1
301
MARGIN
  1
CELLMARGIN_BEGIN
 40
0.06
 40
0.06
 40
0.06
 40
0.06
 40
0.06
 40
0.06
309
CELLMARGIN_END
 94
        6
 95
        1
302
GRIDFORMAT
  1
GRIDFORMAT_BEGIN
 90
        0
 91
        1
 62
     0
 92
       -2
340
14
 93
        0
 40
0.045
309
GRIDFORMAT_END
 95
        2
302
GRIDFORMAT
  1
GRIDFORMAT_BEGIN
 90
        0
 91
        1
 62
     0
 92
       -2
340
14
 93
        0
 40
0.045
309
GRIDFORMAT_END
 95
        4
302
GRIDFORMAT
  1
GRIDFORMAT_BEGIN
 90
        0
 91
        1
 62
     0
 92
       -2
340
14
 93
        0
 40
0.045
309
GRIDFORMAT_END
 95
        8
302
GRIDFORMAT
  1
GRIDFORMAT_BEGIN
 90
        0
 91
        1
 62
     0
 92
       -2
340
14
 93
        0
 40
0.045
309
GRIDFORMAT_END
 95
       16
302
GRIDFORMAT
  1
GRIDFORMAT_BEGIN
 90
        0
 91
        1
 62
     0
 92
       -2
340
14
 93
        0
 40
0.045
309
GRIDFORMAT_END
 95
       32
302
GRIDFORMAT
  1
GRIDFORMAT_BEGIN
 90
        0
 91
        1
 62
     0
 92
       -2
340
14
 93
        0
 40
0.045
309
GRIDFORMAT_END
309
TABLEFORMAT_END
  1
CELLSTYLE_BEGIN
 90
        2
 91
        1
300
_HEADER
309
CELLSTYLE_END
300
CELLSTYLE
  1
TABLEFORMAT_BEGIN
 90
        5
170
     1
 91
        0
 92
        0
 62
   257
 93
        1
300
CONTENTFORMAT
  1
CONTENTFORMAT_BEGIN
 90
        0
 91
        0
 92
        4
 93
        0
300

 40
0.0
140
1.0
 94
        2
 62
     0
340
11
144
0.18
309
CONTENTFORMAT_END
171
     1
301
MARGIN
  1
CELLMARGIN_BEGIN
 40
0.06
 40
0.06
 40
0.06
 40
0.06
 40
0.06
 40
0.06
309
CELLMARGIN_END
 94
        6
 95
        1
302
GRIDFORMAT
  1
GRIDFORMAT_BEGIN
 90
        0
 91
        1
 62
     0
 92
       -2
340
14
 93
        0
 40
0.045
309
GRIDFORMAT_END
 95
        2
302
GRIDFORMAT
  1
GRIDFORMAT_BEGIN
 90
        0
 91
        1
 62
     0
 92
       -2
340
14
 93
        0
 40
0.045
309
GRIDFORMAT_END
 95
        4
302
GRIDFORMAT
  1
GRIDFORMAT_BEGIN
 90
        0
 91
        1
 62
     0
 92
       -2
340
14
 93
        0
 40
0.045
309
GRIDFORMAT_END
 95
        8
302
GRIDFORMAT
  1
GRIDFORMAT_BEGIN
 90
        0
 91
        1
 62
     0
 92
       -2
340
14
 93
        0
 40
0.045
309
GRIDFORMAT_END
 95
       16
302
GRIDFORMAT
  1
GRIDFORMAT_BEGIN
 90
        0
 91
        1
 62
     0
 92
       -2
340
14
 93
        0
 40
0.045
309
GRIDFORMAT_END
 95
       32
302
GRIDFORMAT
  1
GRIDFORMAT_BEGIN
 90
        0
 91
        1
 62
     0
 92
       -2
340
14
 93
        0
 40
0.045
309
GRIDFORMAT_END
309
TABLEFORMAT_END
  1
CELLSTYLE_BEGIN
 90
        3
 91
        2
300
_DATA
309
CELLSTYLE_END
  0
ENDSEC
  0
EOF