0
SECTION
  2
HEADER
  9
$ACADVER
  1
AC1027
  9
$ACADMAINTVER
 70
     8
  9
$DWGCODEPAGE
  3
ANSI_1252
  9
$REQUIREDVERSIONS
160
                 0
  9
$COMMENTS
  1
File was created by Cadenas
  9
$CUSTOMPROPERTYTAG
  1
NN
  9
$CUSTOMPROPERTY
  1
Set Screw Wide Slot Take Up Inch Bore
  9
$CUSTOMPROPERTYTAG
  1
NT
  9
$CUSTOMPROPERTY
  1
SC Take-Up Bearings -Wide Slot -(Normal Duty)
  9
$CUSTOMPROPERTYTAG
  1
NB
  9
$CUSTOMPROPERTY
  1
125344
  9
$CUSTOMPROPERTYTAG
  1
NBSYN
  9
$CUSTOMPROPERTY
  1
$PN.
  9
$CUSTOMPROPERTYTAG
  1
LINA
  9
$CUSTOMPROPERTY
  1
125344
  9
$CUSTOMPROPERTYTAG
  1
SERIES
  9
$CUSTOMPROPERTY
  1
204
  9
$CUSTOMPROPERTYTAG
  1
SS
  9
$CUSTOMPROPERTY
  1
5/8
  9
$CUSTOMPROPERTYTAG
  1
PN
  9
$CUSTOMPROPERTY
  1
125344
  9
$CUSTOMPROPERTYTAG
  1
DESCRIPTION
  9
$CUSTOMPROPERTY
  1
WSTU-SC-010
  9
$CUSTOMPROPERTYTAG
  1
W
  9
$CUSTOMPROPERTY
  1
2.0
  9
$CUSTOMPROPERTYTAG
  1
FS
  9
$CUSTOMPROPERTY
  1
WS300
  9
$CUSTOMPROPERTYTAG
  1
LF
  9
$CUSTOMPROPERTY
  1
RE-LUBE
  9
$CUSTOMPROPERTYTAG
  1
A
  9
$CUSTOMPROPERTY
  1
1.23
  9
$CUSTOMPROPERTYTAG
  1
B
  9
$CUSTOMPROPERTY
  1
3.69
  9
$CUSTOMPROPERTYTAG
  1
C
  9
$CUSTOMPROPERTY
  1
0.531
  9
$CUSTOMPROPERTYTAG
  1
D
  9
$CUSTOMPROPERTY
  1
2
  9
$CUSTOMPROPERTYTAG
  1
E
  9
$CUSTOMPROPERTY
  1
2.38
  9
$CUSTOMPROPERTYTAG
  1
F
  9
$CUSTOMPROPERTY
  1
5/8
  9
$CUSTOMPROPERTYTAG
  1
G
  9
$CUSTOMPROPERTY
  1
0.38
  9
$CUSTOMPROPERTYTAG
  1
H
  9
$CUSTOMPROPERTY
  1
0.63
  9
$CUSTOMPROPERTYTAG
  1
J
  9
$CUSTOMPROPERTY
  1
2
  9
$CUSTOMPROPERTYTAG
  1
K
  9
$CUSTOMPROPERTY
  1
1.25
  9
$CUSTOMPROPERTYTAG
  1
L
  9
$CUSTOMPROPERTY
  1
1.12
  9
$CUSTOMPROPERTYTAG
  1
M
  9
$CUSTOMPROPERTY
  1
2.985 / 3.015
  9
$CUSTOMPROPERTYTAG
  1
N
  9
$CUSTOMPROPERTY
  1
3.63
  9
$CUSTOMPROPERTYTAG
  1
R
  9
$CUSTOMPROPERTY
  1
0.50
  9
$CUSTOMPROPERTYTAG
  1
S
  9
$CUSTOMPROPERTY
  1
0.73
  9
$CUSTOMPROPERTYTAG
  1
T
  9
$CUSTOMPROPERTY
  1
1.38
  9
$CUSTOMPROPERTYTAG
  1
COMPANY
  9
$CUSTOMPROPERTY
  1
baldor
  9
$INSBASE
 10
0.0
 20
0.0
 30
0.0
  9
$EXTMIN
 10
1.000000000000000E+20
 20
1.000000000000000E+20
 30
1.000000000000000E+20
  9
$EXTMAX
 10
-1.000000000000000E+20
 20
-1.000000000000000E+20
 30
-1.000000000000000E+20
  9
$LIMMIN
 10
0.0
 20
0.0
  9
$LIMMAX
 10
12.0
 20
9.0
  9
$ORTHOMODE
 70
     0
  9
$REGENMODE
 70
     1
  9
$FILLMODE
 70
     1
  9
$QTEXTMODE
 70
     0
  9
$MIRRTEXT
 70
     1
  9
$LTSCALE
 40
1.0
  9
$ATTMODE
 70
     1
  9
$TEXTSIZE
 40
0.2
  9
$TRACEWID
 40
0.05
  9
$TEXTSTYLE
  7
Standard
  9
$CLAYER
  8
0
  9
$CELTYPE
  6
ByLayer
  9
$CECOLOR
 62
   256
  9
$CELTSCALE
 40
1.0
  9
$DISPSILH
 70
     0
  9
$DIMSCALE
 40
1.0
  9
$DIMASZ
 40
0.18
  9
$DIMEXO
 40
0.0625
  9
$DIMDLI
 40
0.38
  9
$DIMRND
 40
0.0
  9
$DIMDLE
 40
0.0
  9
$DIMEXE
 40
0.18
  9
$DIMTP
 40
0.0
  9
$DIMTM
 40
0.0
  9
$DIMTXT
 40
0.18
  9
$DIMCEN
 40
0.09
  9
$DIMTSZ
 40
0.0
  9
$DIMTOL
 70
     0
  9
$DIMLIM
 70
     0
  9
$DIMTIH
 70
     1
  9
$DIMTOH
 70
     1
  9
$DIMSE1
 70
     0
  9
$DIMSE2
 70
     0
  9
$DIMTAD
 70
     0
  9
$DIMZIN
 70
     0
  9
$DIMBLK
  1

  9
$DIMASO
 70
     1
  9
$DIMSHO
 70
     1
  9
$DIMPOST
  1

  9
$DIMAPOST
  1

  9
$DIMALT
 70
     0
  9
$DIMALTD
 70
     2
  9
$DIMALTF
 40
25.4
  9
$DIMLFAC
 40
1.0
  9
$DIMTOFL
 70
     0
  9
$DIMTVP
 40
0.0
  9
$DIMTIX
 70
     0
  9
$DIMSOXD
 70
     0
  9
$DIMSAH
 70
     0
  9
$DIMBLK1
  1

  9
$DIMBLK2
  1

  9
$DIMSTYLE
  2
Standard
  9
$DIMCLRD
 70
     0
  9
$DIMCLRE
 70
     0
  9
$DIMCLRT
 70
     0
  9
$DIMTFAC
 40
1.0
  9
$DIMGAP
 40
0.09
  9
$DIMJUST
 70
     0
  9
$DIMSD1
 70
     0
  9
$DIMSD2
 70
     0
  9
$DIMTOLJ
 70
     1
  9
$DIMTZIN
 70
     0
  9
$DIMALTZ
 70
     0
  9
$DIMALTTZ
 70
     0
  9
$DIMUPT
 70
     0
  9
$DIMDEC
 70
     4
  9
$DIMTDEC
 70
     4
  9
$DIMALTU
 70
     2
  9
$DIMALTTD
 70
     2
  9
$DIMTXSTY
  7
Standard
  9
$DIMAUNIT
 70
     0
  9
$DIMADEC
 70
     0
  9
$DIMALTRND
 40
0.0
  9
$DIMAZIN
 70
     0
  9
$DIMDSEP
 70
    46
  9
$DIMATFIT
 70
     3
  9
$DIMFRAC
 70
     0
  9
$DIMLDRBLK
  1

  9
$DIMLUNIT
 70
     2
  9
$DIMLWD
 70
    -2
  9
$DIMLWE
 70
    -2
  9
$DIMTMOVE
 70
     0
  9
$DIMFXL
 40
1.0
  9
$DIMFXLON
 70
     0
  9
$DIMJOGANG
 40
0.7853981633974483
  9
$DIMTFILL
 70
     0
  9
$DIMTFILLCLR
 70
     0
  9
$DIMARCSYM
 70
     0
  9
$DIMLTYPE
  6

  9
$DIMLTEX1
  6

  9
$DIMLTEX2
  6

  9
$DIMTXTDIRECTION
 70
     0
  9
$LUNITS
 70
     2
  9
$LUPREC
 70
     4
  9
$SKETCHINC
 40
0.1
  9
$FILLETRAD
 40
0.5
  9
$AUNITS
 70
     0
  9
$AUPREC
 70
     0
  9
$MENU
  1
.
  9
$ELEVATION
 40
0.0
  9
$PELEVATION
 40
0.0
  9
$THICKNESS
 40
0.0
  9
$LIMCHECK
 70
     0
  9
$CHAMFERA
 40
0.0
  9
$CHAMFERB
 40
0.0
  9
$CHAMFERC
 40
0.0
  9
$CHAMFERD
 40
0.0
  9
$SKPOLY
 70
     0
  9
$TDCREATE
 40
2458169.010018102
  9
$TDUCREATE
 40
2458168.968351435
  9
$TDUPDATE
 40
2458169.010018102
  9
$TDUUPDATE
 40
2458168.968351435
  9
$TDINDWG
 40
0.0000000116
  9
$TDUSRTIMER
 40
0.0000000116
  9
$USRTIMER
 70
     1
  9
$ANGBASE
 50
0.0
  9
$ANGDIR
 70
     0
  9
$PDMODE
 70
     0
  9
$PDSIZE
 40
0.0
  9
$PLINEWID
 40
0.0
  9
$SPLFRAME
 70
     0
  9
$SPLINETYPE
 70
     6
  9
$SPLINESEGS
 70
     8
  9
$HANDSEED
  5
1AC
  9
$SURFTAB1
 70
     6
  9
$SURFTAB2
 70
     6
  9
$SURFTYPE
 70
     6
  9
$SURFU
 70
     6
  9
$SURFV
 70
     6
  9
$UCSBASE
  2

  9
$UCSNAME
  2

  9
$UCSORG
 10
0.0
 20
0.0
 30
0.0
  9
$UCSXDIR
 10
1.0
 20
0.0
 30
0.0
  9
$UCSYDIR
 10
0.0
 20
1.0
 30
0.0
  9
$UCSORTHOREF
  2

  9
$UCSORTHOVIEW
 70
     0
  9
$UCSORGTOP
 10
0.0
 20
0.0
 30
0.0
  9
$UCSORGBOTTOM
 10
0.0
 20
0.0
 30
0.0
  9
$UCSORGLEFT
 10
0.0
 20
0.0
 30
0.0
  9
$UCSORGRIGHT
 10
0.0
 20
0.0
 30
0.0
  9
$UCSORGFRONT
 10
0.0
 20
0.0
 30
0.0
  9
$UCSORGBACK
 10
0.0
 20
0.0
 30
0.0
  9
$PUCSBASE
  2

  9
$PUCSNAME
  2

  9
$PUCSORG
 10
0.0
 20
0.0
 30
0.0
  9
$PUCSXDIR
 10
1.0
 20
0.0
 30
0.0
  9
$PUCSYDIR
 10
0.0
 20
1.0
 30
0.0
  9
$PUCSORTHOREF
  2

  9
$PUCSORTHOVIEW
 70
     0
  9
$PUCSORGTOP
 10
0.0
 20
0.0
 30
0.0
  9
$PUCSORGBOTTOM
 10
0.0
 20
0.0
 30
0.0
  9
$PUCSORGLEFT
 10
0.0
 20
0.0
 30
0.0
  9
$PUCSORGRIGHT
 10
0.0
 20
0.0
 30
0.0
  9
$PUCSORGFRONT
 10
0.0
 20
0.0
 30
0.0
  9
$PUCSORGBACK
 10
0.0
 20
0.0
 30
0.0
  9
$USERI1
 70
     0
  9
$USERI2
 70
     0
  9
$USERI3
 70
     0
  9
$USERI4
 70
     0
  9
$USERI5
 70
     0
  9
$USERR1
 40
0.0
  9
$USERR2
 40
0.0
  9
$USERR3
 40
0.0
  9
$USERR4
 40
0.0
  9
$USERR5
 40
0.0
  9
$WORLDVIEW
 70
     1
  9
$SHADEDGE
 70
     3
  9
$SHADEDIF
 70
    70
  9
$TILEMODE
 70
     1
  9
$MAXACTVP
 70
    64
  9
$PINSBASE
 10
0.0
 20
0.0
 30
0.0
  9
$PLIMCHECK
 70
     0
  9
$PEXTMIN
 10
1.000000000000000E+20
 20
1.000000000000000E+20
 30
1.000000000000000E+20
  9
$PEXTMAX
 10
-1.000000000000000E+20
 20
-1.000000000000000E+20
 30
-1.000000000000000E+20
  9
$PLIMMIN
 10
0.0
 20
0.0
  9
$PLIMMAX
 10
12.0
 20
9.0
  9
$UNITMODE
 70
     0
  9
$VISRETAIN
 70
     1
  9
$PLINEGEN
 70
     0
  9
$PSLTSCALE
 70
     1
  9
$TREEDEPTH
 70
  3020
  9
$CMLSTYLE
  2
Standard
  9
$CMLJUST
 70
     0
  9
$CMLSCALE
 40
1.0
  9
$PROXYGRAPHICS
 70
     1
  9
$MEASUREMENT
 70
     0
  9
$CELWEIGHT
370
    -1
  9
$ENDCAPS
280
     0
  9
$JOINSTYLE
280
     0
  9
$LWDISPLAY
290
     0
  9
$INSUNITS
 70
     1
  9
$HYPERLINKBASE
  1

  9
$STYLESHEET
  1

  9
$XEDIT
290
     1
  9
$CEPSNTYPE
380
     0
  9
$PSTYLEMODE
290
     1
  9
$FINGERPRINTGUID
  2
{32717375-A7EF-4222-B8ED-F5B7F511EDDA}
  9
$VERSIONGUID
  2
{FAEB1C32-E019-11D5-929B-00C0DF256EC4}
  9
$EXTNAMES
290
     1
  9
$PSVPSCALE
 40
0.0
  9
$OLESTARTUP
290
     0
  9
$SORTENTS
280
   127
  9
$INDEXCTL
280
     0
  9
$HIDETEXT
280
     1
  9
$XCLIPFRAME
280
     2
  9
$HALOGAP
280
     0
  9
$OBSCOLOR
 70
   257
  9
$OBSLTYPE
280
     0
  9
$INTERSECTIONDISPLAY
280
     0
  9
$INTERSECTIONCOLOR
 70
   257
  9
$DIMASSOC
280
     2
  9
$PROJECTNAME
  1

  9
$CAMERADISPLAY
290
     0
  9
$LENSLENGTH
 40
50.0
  9
$CAMERAHEIGHT
 40
0.0
  9
$STEPSPERSEC
 40
2.0
  9
$STEPSIZE
 40
6.0
  9
$3DDWFPREC
 40
2.0
  9
$PSOLWIDTH
 40
0.25
  9
$PSOLHEIGHT
 40
4.0
  9
$LOFTANG1
 40
1.570796326794897
  9
$LOFTANG2
 40
1.570796326794897
  9
$LOFTMAG1
 40
0.0
  9
$LOFTMAG2
 40
0.0
  9
$LOFTPARAM
 70
     7
  9
$LOFTNORMALS
280
     1
  9
$LATITUDE
 40
37.795
  9
$LONGITUDE
 40
-122.394
  9
$NORTHDIRECTION
 40
0.0
  9
$TIMEZONE
 70
 -8000
  9
$LIGHTGLYPHDISPLAY
280
     1
  9
$TILEMODELIGHTSYNCH
280
     1
  9
$CMATERIAL
347
44
  9
$SOLIDHIST
280
     0
  9
$SHOWHIST
280
     1
  9
$DWFFRAME
280
     2
  9
$DGNFRAME
280
     2
  9
$REALWORLDSCALE
290
     1
  9
$INTERFERECOLOR
 62
   256
  9
$CSHADOW
280
     0
  9
$SHADOWPLANELOCATION
 40
0.0
  0
ENDSEC
  0
SECTION
  2
CLASSES
  0
CLASS
  1
ACDBDICTIONARYWDFLT
  2
AcDbDictionaryWithDefault
  3
ObjectDBX Classes
 90
        0
 91
        4
280
     0
281
     0
  0
CLASS
  1
VISUALSTYLE
  2
AcDbVisualStyle
  3
ObjectDBX Classes
 90
     4095
 91
        4
280
     0
281
     0
  0
CLASS
  1
MATERIAL
  2
AcDbMaterial
  3
ObjectDBX Classes
 90
     1153
 91
        4
280
     0
281
     0
  0
CLASS
  1
SCALE
  2
AcDbScale
  3
ObjectDBX Classes
 90
     1153
 91
        4
280
     0
281
     0
  0
CLASS
  1
TABLESTYLE
  2
AcDbTableStyle
  3
ObjectDBX Classes
 90
     4095
 91
        4
280
     0
281
     0
  0
CLASS
  1
MLEADERSTYLE
  2
AcDbMLeaderStyle
  3
ACDB_MLEADERSTYLE_CLASS
 90
     4095
 91
        4
280
     0
281
     0
  0
CLASS
  1
SUN
  2
AcDbSun
  3
SCENEOE
 90
     1153
 91
        4
280
     0
281
     0
  0
CLASS
  1
DICTIONARYVAR
  2
AcDbDictionaryVar
  3
ObjectDBX Classes
 90
        0
 91
        4
280
     0
281
     0
  0
CLASS
  1
CELLSTYLEMAP
  2
AcDbCellStyleMap
  3
ObjectDBX Classes
 90
     1152
 91
        4
280
     0
281
     0
  0
ENDSEC
  0
SECTION
  2
TABLES
  0
TABLE
  2
VPORT
  5
8
330
0
100
AcDbSymbolTable
 70
     1
  0
VPORT
  5
29
330
8
100
AcDbSymbolTableRecord
100
AcDbViewportTableRecord
  2
*Active
 70
     0
 10
0.0
 20
0.0
 11
1.0
 21
1.0
 12
0.3081800913756219
 22
0.0
 13
0.0
 23
0.0
 14
0.5
 24
0.5
 15
0.5
 25
0.5
 16
0.0
 26
0.0
 36
1.0
 17
0.0
 27
0.0
 37
0.0
 40
3.702599999999999
 41
1.151966891804066
 42
50.0
 43
0.0
 44
0.0
 50
0.0
 51
0.0
 71
     0
 72
   100
 73
     1
 74
     3
 75
     0
 76
     0
 77
     0
 78
     0
281
     0
 65
     1
110
0.0
120
0.0
130
0.0
111
1.0
121
0.0
131
0.0
112
0.0
122
1.0
132
0.0
 79
     0
146
0.0
348
2F
 60
     3
 61
     5
292
     1
282
     1
141
0.0
142
0.0
 63
   250
361
6D
  0
ENDTAB
  0
TABLE
  2
LTYPE
  5
5
330
0
100
AcDbSymbolTable
 70
     3
  0
LTYPE
  5
14
330
5
100
AcDbSymbolTableRecord
100
AcDbLinetypeTableRecord
  2
ByBlock
 70
     0
  3

 72
    65
 73
     0
 40
0.0
  0
LTYPE
  5
15
330
5
100
AcDbSymbolTableRecord
100
AcDbLinetypeTableRecord
  2
ByLayer
 70
     0
  3

 72
    65
 73
     0
 40
0.0
  0
LTYPE
  5
16
330
5
100
AcDbSymbolTableRecord
100
AcDbLinetypeTableRecord
  2
Continuous
 70
     0
  3
Solid line
 72
    65
 73
     0
 40
0.0
  0
LTYPE
  5
A6
330
5
100
AcDbSymbolTableRecord
100
AcDbLinetypeTableRecord
  2
Dashed
 70
     0
  3

 72
    65
 73
     2
 40
2.0
 49
1.0
 74
     0
 49
-1.0
 74
     0
  0
LTYPE
  5
C0
330
5
100
AcDbSymbolTableRecord
100
AcDbLinetypeTableRecord
  2
Center
 70
     0
  3

 72
    65
 73
     4
 40
1.5
 49
0.45
 74
     0
 49
-0.5
 74
     0
 49
0.05
 74
     0
 49
-0.5
 74
     0
  0
ENDTAB
  0
TABLE
  2
LAYER
  5
2
330
0
100
AcDbSymbolTable
 70
     7
  0
LAYER
  5
10
330
2
100
AcDbSymbolTableRecord
100
AcDbLayerTableRecord
  2
0
 70
     0
 62
     7
  6
Continuous
370
    -3
390
F
347
46
348
0
  0
LAYER
  5
72
330
2
100
AcDbSymbolTableRecord
100
AcDbLayerTableRecord
  2
AM_6
 70
     0
 62
    -2
  6
Continuous
370
    35
390
F
347
46
348
0
  0
LAYER
  5
A7
330
2
100
AcDbSymbolTableRecord
100
AcDbLayerTableRecord
  2
AM_9
 70
     0
 62
     6
  6
Dashed
370
    25
390
F
347
46
348
0
  0
LAYER
  5
BB
330
2
100
AcDbSymbolTableRecord
100
AcDbLayerTableRecord
  2
AM_5
 70
     0
 62
     3
  6
Continuous
370
    25
390
F
347
46
348
0
  0
LAYER
  5
C1
330
2
100
AcDbSymbolTableRecord
100
AcDbLayerTableRecord
  2
AM_7
 70
     0
 62
     7
  6
Center
370
    25
390
F
347
46
348
0
  0
LAYER
  5
C3
330
2
100
AcDbSymbolTableRecord
100
AcDbLayerTableRecord
  2
AM_4
 70
     0
 62
     7
  6
Continuous
370
    50
390
F
347
46
348
0
  0
LAYER
  5
19F
330
2
100
AcDbSymbolTableRecord
100
AcDbLayerTableRecord
  2
ConnectionPoints
 70
     0
 62
     7
  6
Continuous
370
    50
390
F
347
46
348
0
  0
ENDTAB
  0
TABLE
  2
STYLE
  5
3
330
0
100
AcDbSymbolTable
 70
     1
  0
STYLE
  5
11
330
3
100
AcDbSymbolTableRecord
100
AcDbTextStyleTableRecord
  2
Standard
 70
     0
 40
0.0
 41
1.0
 50
0.0
 71
     0
 42
0.2
  3
txt
  4

  0
ENDTAB
  0
TABLE
  2
VIEW
  5
6
330
0
100
AcDbSymbolTable
 70
     0
  0
ENDTAB
  0
TABLE
  2
UCS
  5
7
330
0
100
AcDbSymbolTable
 70
     0
  0
ENDTAB
  0
TABLE
  2
APPID
  5
9
330
0
100
AcDbSymbolTable
 70
     1
  0
APPID
  5
12
330
9
100
AcDbSymbolTableRecord
100
AcDbRegAppTableRecord
  2
ACAD
 70
     0
  0
ENDTAB
  0
TABLE
  2
DIMSTYLE
  5
A
330
0
100
AcDbSymbolTable
 70
     1
100
AcDbDimStyleTable
  0
DIMSTYLE
105
27
330
A
100
AcDbSymbolTableRecord
100
AcDbDimStyleTableRecord
  2
Standard
 70
     0
178
     0
340
11
  0
ENDTAB
  0
TABLE
  2
BLOCK_RECORD
  5
1
330
0
100
AcDbSymbolTable
 70
     5
  0
BLOCK_RECORD
  5
1F
330
1
100
AcDbSymbolTableRecord
100
AcDbBlockTableRecord
  2
*Model_Space
340
22
 70
     0
280
     1
281
     0
  0
BLOCK_RECORD
  5
1B
330
1
100
AcDbSymbolTableRecord
100
AcDbBlockTableRecord
  2
*Paper_Space
340
1E
 70
     0
280
     1
281
     0
  0
BLOCK_RECORD
  5
23
330
1
100
AcDbSymbolTableRecord
100
AcDbBlockTableRecord
  2
*Paper_Space0
340
26
 70
     0
280
     1
281
     0
  0
BLOCK_RECORD
  5
6E
330
1
100
AcDbSymbolTableRecord
100
AcDbBlockTableRecord
  2
1_125344_0
340
0
102
{BLKREFS
331
6F
102
}
 70
     0
280
     1
281
     0
  0
BLOCK_RECORD
  5
90
330
1
100
AcDbSymbolTableRecord
100
AcDbBlockTableRecord
  2
2_123331_0_in_125344_0
340
0
102
{BLKREFS
331
91
102
}
 70
     0
280
     1
281
     0
  0
BLOCK_RECORD
  5
CC
330
1
100
AcDbSymbolTableRecord
100
AcDbBlockTableRecord
  2
3_405016_Inch_0_in_125344_0
340
0
102
{BLKREFS
331
CD
102
}
 70
     0
280
     1
281
     0
  0
BLOCK_RECORD
  5
143
330
1
100
AcDbSymbolTableRecord
100
AcDbBlockTableRecord
  2
4_125344H_0_in_125344_0
340
0
102
{BLKREFS
331
144
102
}
 70
     0
280
     1
281
     0
  0
ENDTAB
  0
ENDSEC
  0
SECTION
  2
BLOCKS
  0
BLOCK
  5
20
330
1F
100
AcDbEntity
  8
0
100
AcDbBlockBegin
  2
*Model_Space
 70
     0
 10
0.0
 20
0.0
 30
0.0
  3
*Model_Space
  1

  0
ENDBLK
  5
21
330
1F
100
AcDbEntity
  8
0
100
AcDbBlockEnd
  0
BLOCK
  5
1C
330
1B
100
AcDbEntity
 67
     1
  8
0
100
AcDbBlockBegin
  2
*Paper_Space
 70
     0
 10
0.0
 20
0.0
 30
0.0
  3
*Paper_Space
  1

  0
ENDBLK
  5
1D
330
1B
100
AcDbEntity
 67
     1
  8
0
100
AcDbBlockEnd
  0
BLOCK
  5
24
330
23
100
AcDbEntity
  8
0
100
AcDbBlockBegin
  2
*Paper_Space0
 70
     0
 10
0.0
 20
0.0
 30
0.0
  3
*Paper_Space0
  1

  0
ENDBLK
  5
25
330
23
100
AcDbEntity
  8
0
100
AcDbBlockEnd
  0
BLOCK
  5
70
330
6E
100
AcDbEntity
  8
0
100
AcDbBlockBegin
  2
1_125344_0
 70
     2
 10
0.0
 20
0.0
 30
0.0
  3
1_125344_0
  1

  0
ATTDEF
  5
73
330
6E
100
AcDbEntity
  8
AM_6
100
AcDbText
 10
7.399
 20
1.815
 30
0.0
 40
0.5
  1
Set Screw Wide Slot Take Up Inch Bore
100
AcDbAttributeDefinition
  3

  2
NN
 70
     8
280
     0
  0
ATTDEF
  5
74
330
6E
100
AcDbEntity
  8
AM_6
100
AcDbText
 10
7.399
 20
1.315
 30
0.0
 40
0.5
  1
SC Take-Up Bearings -Wide Slot -(Normal Duty)
100
AcDbAttributeDefinition
  3

  2
NT
 70
     8
280
     0
  0
ATTDEF
  5
75
330
6E
100
AcDbEntity
  8
AM_6
100
AcDbText
 10
7.399
 20
0.815
 30
0.0
 40
0.5
  1
125344
100
AcDbAttributeDefinition
  3

  2
NB
 70
     8
280
     0
  0
ATTDEF
  5
76
330
6E
100
AcDbEntity
  8
AM_6
100
AcDbText
 10
7.399
 20
0.3149999999999999
 30
0.0
 40
0.5
  1
$PN.
100
AcDbAttributeDefinition
  3

  2
NBSYN
 70
     8
280
     0
  0
ATTDEF
  5
77
330
6E
100
AcDbEntity
  8
AM_6
100
AcDbText
 10
7.399
 20
-0.1850000000000001
 30
0.0
 40
0.5
  1
125344
100
AcDbAttributeDefinition
  3

  2
LINA
 70
     8
280
     0
  0
ATTDEF
  5
78
330
6E
100
AcDbEntity
  8
AM_6
100
AcDbText
 10
7.399
 20
-0.685
 30
0.0
 40
0.5
  1
204
100
AcDbAttributeDefinition
  3

  2
SERIES
 70
     8
280
     0
  0
ATTDEF
  5
79
330
6E
100
AcDbEntity
  8
AM_6
100
AcDbText
 10
7.399
 20
-1.185
 30
0.0
 40
0.5
  1
5/8
100
AcDbAttributeDefinition
  3

  2
SS
 70
     8
280
     0
  0
ATTDEF
  5
7A
330
6E
100
AcDbEntity
  8
AM_6
100
AcDbText
 10
7.399
 20
-1.685
 30
0.0
 40
0.5
  1
125344
100
AcDbAttributeDefinition
  3

  2
PN
 70
     8
280
     0
  0
ATTDEF
  5
7B
330
6E
100
AcDbEntity
  8
AM_6
100
AcDbText
 10
7.399
 20
-2.185
 30
0.0
 40
0.5
  1
WSTU-SC-010
100
AcDbAttributeDefinition
  3

  2
DESCRIPTION
 70
     8
280
     0
  0
ATTDEF
  5
7C
330
6E
100
AcDbEntity
  8
AM_6
100
AcDbText
 10
7.399
 20
-2.685
 30
0.0
 40
0.5
  1
2.0
100
AcDbAttributeDefinition
  3

  2
W
 70
     8
280
     0
  0
ATTDEF
  5
7D
330
6E
100
AcDbEntity
  8
AM_6
100
AcDbText
 10
7.399
 20
-3.185
 30
0.0
 40
0.5
  1
WS300
100
AcDbAttributeDefinition
  3

  2
FS
 70
     8
280
     0
  0
ATTDEF
  5
7E
330
6E
100
AcDbEntity
  8
AM_6
100
AcDbText
 10
7.399
 20
-3.685
 30
0.0
 40
0.5
  1
RE-LUBE
100
AcDbAttributeDefinition
  3

  2
LF
 70
     8
280
     0
  0
ATTDEF
  5
7F
330
6E
100
AcDbEntity
  8
AM_6
100
AcDbText
 10
7.399
 20
-4.185
 30
0.0
 40
0.5
  1
1.23
100
AcDbAttributeDefinition
  3

  2
A
 70
     8
280
     0
  0
ATTDEF
  5
80
330
6E
100
AcDbEntity
  8
AM_6
100
AcDbText
 10
7.399
 20
-4.685
 30
0.0
 40
0.5
  1
3.69
100
AcDbAttributeDefinition
  3

  2
B
 70
     8
280
     0
  0
ATTDEF
  5
81
330
6E
100
AcDbEntity
  8
AM_6
100
AcDbText
 10
7.399
 20
-5.185
 30
0.0
 40
0.5
  1
0.531
100
AcDbAttributeDefinition
  3

  2
C
 70
     8
280
     0
  0
ATTDEF
  5
82
330
6E
100
AcDbEntity
  8
AM_6
100
AcDbText
 10
7.399
 20
-5.685
 30
0.0
 40
0.5
  1
2
100
AcDbAttributeDefinition
  3

  2
D
 70
     8
280
     0
  0
ATTDEF
  5
83
330
6E
100
AcDbEntity
  8
AM_6
100
AcDbText
 10
7.399
 20
-6.185
 30
0.0
 40
0.5
  1
2.38
100
AcDbAttributeDefinition
  3

  2
E
 70
     8
280
     0
  0
ATTDEF
  5
84
330
6E
100
AcDbEntity
  8
AM_6
100
AcDbText
 10
7.399
 20
-6.685
 30
0.0
 40
0.5
  1
5/8
100
AcDbAttributeDefinition
  3

  2
F
 70
     8
280
     0
  0
ATTDEF
  5
85
330
6E
100
AcDbEntity
  8
AM_6
100
AcDbText
 10
7.399
 20
-7.185
 30
0.0
 40
0.5
  1
0.38
100
AcDbAttributeDefinition
  3

  2
G
 70
     8
280
     0
  0
ATTDEF
  5
86
330
6E
100
AcDbEntity
  8
AM_6
100
AcDbText
 10
7.399
 20
-7.685
 30
0.0
 40
0.5
  1
0.63
100
AcDbAttributeDefinition
  3

  2
H
 70
     8
280
     0
  0
ATTDEF
  5
87
330
6E
100
AcDbEntity
  8
AM_6
100
AcDbText
 10
7.399
 20
-8.185
 30
0.0
 40
0.5
  1
2
100
AcDbAttributeDefinition
  3

  2
J
 70
     8
280
     0
  0
ATTDEF
  5
88
330
6E
100
AcDbEntity
  8
AM_6
100
AcDbText
 10
7.399
 20
-8.685
 30
0.0
 40
0.5
  1
1.25
100
AcDbAttributeDefinition
  3

  2
K
 70
     8
280
     0
  0
ATTDEF
  5
89
330
6E
100
AcDbEntity
  8
AM_6
100
AcDbText
 10
7.399
 20
-9.185
 30
0.0
 40
0.5
  1
1.12
100
AcDbAttributeDefinition
  3

  2
L
 70
     8
280
     0
  0
ATTDEF
  5
8A
330
6E
100
AcDbEntity
  8
AM_6
100
AcDbText
 10
7.399
 20
-9.685
 30
0.0
 40
0.5
  1
2.985 / 3.015
100
AcDbAttributeDefinition
  3

  2
M
 70
     8
280
     0
  0
ATTDEF
  5
8B
330
6E
100
AcDbEntity
  8
AM_6
100
AcDbText
 10
7.399
 20
-10.185
 30
0.0
 40
0.5
  1
3.63
100
AcDbAttributeDefinition
  3

  2
N
 70
     8
280
     0
  0
ATTDEF
  5
8C
330
6E
100
AcDbEntity
  8
AM_6
100
AcDbText
 10
7.399
 20
-10.685
 30
0.0
 40
0.5
  1
0.50
100
AcDbAttributeDefinition
  3

  2
R
 70
     8
280
     0
  0
ATTDEF
  5
8D
330
6E
100
AcDbEntity
  8
AM_6
100
AcDbText
 10
7.399
 20
-11.185
 30
0.0
 40
0.5
  1
0.73
100
AcDbAttributeDefinition
  3

  2
S
 70
     8
280
     0
  0
ATTDEF
  5
8E
330
6E
100
AcDbEntity
  8
AM_6
100
AcDbText
 10
7.399
 20
-11.685
 30
0.0
 40
0.5
  1
1.38
100
AcDbAttributeDefinition
  3

  2
T
 70
     8
280
     0
  0
ATTDEF
  5
8F
330
6E
100
AcDbEntity
  8
AM_6
100
AcDbText
 10
7.399
 20
-12.185
 30
0.0
 40
0.5
  1
baldor
100
AcDbAttributeDefinition
  3

  2
COMPANY
 70
     8
280
     0
  0
INSERT
  5
91
330
6E
100
AcDbEntity
  8
0
100
AcDbBlockReference
  2
2_123331_0_in_125344_0
 10
0.0
 20
0.0
 30
0.0
  0
INSERT
  5
CD
330
6E
100
AcDbEntity
  8
0
100
AcDbBlockReference
  2
3_405016_Inch_0_in_125344_0
 10
0.0
 20
0.0
 30
0.0
  0
INSERT
  5
144
330
6E
100
AcDbEntity
  8
0
100
AcDbBlockReference
  2
4_125344H_0_in_125344_0
 10
0.0
 20
0.0
 30
0.0
  0
ENDBLK
  5
71
330
6E
100
AcDbEntity
  8
0
100
AcDbBlockEnd
  0
BLOCK
  5
92
330
90
100
AcDbEntity
  8
0
100
AcDbBlockBegin
  2
2_123331_0_in_125344_0
 70
     2
 10
0.0
 20
0.0
 30
0.0
  3
2_123331_0_in_125344_0
  1

  0
ATTDEF
  5
94
330
90
100
AcDbEntity
  8
AM_6
100
AcDbText
 10
5.917384891961929
 20
0.95645
 30
0.0
 40
0.5
  1
Set Screw Insert Inch Bore
100
AcDbAttributeDefinition
  3

  2
NN
 70
     8
280
     0
  0
ATTDEF
  5
95
330
90
100
AcDbEntity
  8
AM_6
100
AcDbText
 10
5.917384891961929
 20
0.45645
 30
0.0
 40
0.5
  1
SC Normal Duty Bearing Inserts
100
AcDbAttributeDefinition
  3

  2
NT
 70
     8
280
     0
  0
ATTDEF
  5
96
330
90
100
AcDbEntity
  8
AM_6
100
AcDbText
 10
5.917384891961929
 20
-0.04355
 30
0.0
 40
0.5
  1
123331
100
AcDbAttributeDefinition
  3

  2
NB
 70
     8
280
     0
  0
ATTDEF
  5
97
330
90
100
AcDbEntity
  8
AM_6
100
AcDbText
 10
5.917384891961929
 20
-0.54355
 30
0.0
 40
0.5
  1
$PN.
100
AcDbAttributeDefinition
  3

  2
NBSYN
 70
     8
280
     0
  0
ATTDEF
  5
98
330
90
100
AcDbEntity
  8
AM_6
100
AcDbText
 10
5.917384891961929
 20
-1.04355
 30
0.0
 40
0.5
  1
123331
100
AcDbAttributeDefinition
  3

  2
LINA
 70
     8
280
     0
  0
ATTDEF
  5
99
330
90
100
AcDbEntity
  8
AM_6
100
AcDbText
 10
5.917384891961929
 20
-1.54355
 30
0.0
 40
0.5
  1
204
100
AcDbAttributeDefinition
  3

  2
SERIES
 70
     8
280
     0
  0
ATTDEF
  5
9A
330
90
100
AcDbEntity
  8
AM_6
100
AcDbText
 10
5.917384891961929
 20
-2.04355
 30
0.0
 40
0.5
  1
5/8
100
AcDbAttributeDefinition
  3

  2
SS
 70
     8
280
     0
  0
ATTDEF
  5
9B
330
90
100
AcDbEntity
  8
AM_6
100
AcDbText
 10
5.917384891961929
 20
-2.54355
 30
0.0
 40
0.5
  1
123331
100
AcDbAttributeDefinition
  3

  2
PN
 70
     8
280
     0
  0
ATTDEF
  5
9C
330
90
100
AcDbEntity
  8
AM_6
100
AcDbText
 10
5.917384891961929
 20
-3.04355
 30
0.0
 40
0.5
  1
INS-SC-010L
100
AcDbAttributeDefinition
  3

  2
DESCRIPTION
 70
     8
280
     0
  0
ATTDEF
  5
9D
330
90
100
AcDbEntity
  8
AM_6
100
AcDbText
 10
5.917384891961929
 20
-3.54355
 30
0.0
 40
0.5
  1
1.23
100
AcDbAttributeDefinition
  3

  2
A
 70
     8
280
     0
  0
ATTDEF
  5
9E
330
90
100
AcDbEntity
  8
AM_6
100
AcDbText
 10
5.917384891961929
 20
-4.04355
 30
0.0
 40
0.5
  1
0.58
100
AcDbAttributeDefinition
  3

  2
C
 70
     8
280
     0
  0
ATTDEF
  5
9F
330
90
100
AcDbEntity
  8
AM_6
100
AcDbText
 10
5.917384891961929
 20
-4.54355
 30
0.0
 40
0.5
  1
1.8504
100
AcDbAttributeDefinition
  3

  2
D
 70
     8
280
     0
  0
ATTDEF
  5
A0
330
90
100
AcDbEntity
  8
AM_6
100
AcDbText
 10
5.917384891961929
 20
-5.04355
 30
0.0
 40
0.5
  1
0.15
100
AcDbAttributeDefinition
  3

  2
J
 70
     8
280
     0
  0
ATTDEF
  5
A1
330
90
100
AcDbEntity
  8
AM_6
100
AcDbText
 10
5.917384891961929
 20
-5.54355
 30
0.0
 40
0.5
  1
1.12
100
AcDbAttributeDefinition
  3

  2
L
 70
     8
280
     0
  0
ATTDEF
  5
A2
330
90
100
AcDbEntity
  8
AM_6
100
AcDbText
 10
5.917384891961929
 20
-6.04355
 30
0.0
 40
0.5
  1
1/4-28
100
AcDbAttributeDefinition
  3

  2
N
 70
     8
280
     0
  0
ATTDEF
  5
A3
330
90
100
AcDbEntity
  8
AM_6
100
AcDbText
 10
5.917384891961929
 20
-6.54355
 30
0.0
 40
0.5
  1
0.5
100
AcDbAttributeDefinition
  3

  2
W
 70
     8
280
     0
  0
ATTDEF
  5
A4
330
90
100
AcDbEntity
  8
AM_6
100
AcDbText
 10
5.917384891961929
 20
-7.04355
 30
0.0
 40
0.5
  1
0.73
100
AcDbAttributeDefinition
  3

  2
Y
 70
     8
280
     0
  0
ATTDEF
  5
A5
330
90
100
AcDbEntity
  8
AM_6
100
AcDbText
 10
5.917384891961929
 20
-7.54355
 30
0.0
 40
0.5
  1
baldor
100
AcDbAttributeDefinition
  3

  2
COMPANY
 70
     8
280
     0
  0
LINE
  5
A8
330
90
100
AcDbEntity
  8
AM_9
100
AcDbLine
 10
0.0106060606060555
 20
0.95645
 30
0.0
 11
-0.0106060593285199
 21
0.95645
 31
0.0
  0
LINE
  5
A9
330
90
100
AcDbEntity
  8
AM_9
100
AcDbLine
 10
-0.0468980602313399
 20
0.9037227272727274
 30
0.0
 11
0.0468980602313402
 21
0.9037227272727274
 31
0.0
  0
ARC
  5
AA
330
90
100
AcDbEntity
  8
AM_9
100
AcDbCircle
 10
-0.0106060606060589
 20
0.903722727272727
 30
0.0
 40
0.0527272727272731
100
AcDbArc
 50
90.0
 51
172.1828301442397
  0
ARC
  5
AB
330
90
100
AcDbEntity
  8
AM_9
100
AcDbCircle
 10
0.0106060606060593
 20
0.9037227272727275
 30
0.0
 40
0.0527272727272725
100
AcDbArc
 50
7.895008289532209
 51
90.0
  0
LWPOLYLINE
  5
AC
330
90
100
AcDbEntity
  8
AM_9
100
AcDbPolyline
 90
       11
 70
     0
 43
0.0
 10
-0.0628560408564492
 20
0.9108010695372528
 10
-0.0604115984393537
 20
0.913414811729151
 10
-0.0512796680176578
 20
0.9165180918221283
 10
-0.0363957226551792
 20
0.9189565394807495
 10
-0.0173967574877829
 20
0.9204558301942697
 10
0.0036079236034035
 20
0.9208411288751254
 10
0.0242406929416624
 20
0.9200615442882166
 10
0.0421304978826238
 20
0.9182033362976303
 10
0.0552257413081038
 20
0.9154823228848287
 10
0.0620599232776919
 20
0.9122135569117049
 10
0.0628566708581498
 20
0.9107965281063647
  0
LWPOLYLINE
  5
AD
330
90
100
AcDbEntity
  8
AM_9
100
AcDbPolyline
 90
        4
 70
     0
 43
0.0
 10
0.0628566708581498
 20
0.9107965281063647
 10
0.0619040837405326
 20
0.9087683283552169
 10
0.054808239406616
 20
0.9055305937509938
 10
0.0468980602313402
 20
0.9037227272727273
  0
LWPOLYLINE
  5
AE
330
90
100
AcDbEntity
  8
AM_9
100
AcDbPolyline
 90
        4
 70
     0
 43
0.0
 10
-0.04689806023134
 20
0.903722727272728
 10
-0.0580787413212349
 20
0.9066295700236472
 10
-0.0627743225457531
 20
0.9099912065874454
 10
-0.0628560408564492
 20
0.9108010695372528
  0
LWPOLYLINE
  5
AF
330
90
100
AcDbEntity
  8
AM_9
100
AcDbPolyline
 90
        6
 70
     0
 43
0.0
 10
-0.0468980602313399
 20
0.9037227272727274
 10
-0.0303392714375277
 20
0.9015574702725296
 10
-0.0102711672983154
 20
0.9004084932910843
 10
0.0108084035857996
 20
0.900423598113824
 10
0.0305760837301668
 20
0.9015790813852643
 10
0.0468980602313402
 20
0.9037227272727274
  0
CIRCLE
  5
B0
330
90
100
AcDbEntity
  8
AM_9
100
AcDbCircle
 10
0.0
 20
0.0
 30
0.0
 40
0.8752
  0
LINE
  5
B1
330
90
100
AcDbEntity
  8
AM_9
100
AcDbLine
 10
0.3041898500704098
 20
-0.07245
 30
0.0
 11
0.551883139804071
 21
-0.07245
 31
0.0
  0
LINE
  5
B2
330
90
100
AcDbEntity
  8
AM_9
100
AcDbLine
 10
0.551883139804071
 20
0.07245
 30
0.0
 11
0.3040628080759911
 21
0.07245
 31
0.0
  0
LINE
  5
B3
330
90
100
AcDbEntity
  8
AM_9
100
AcDbLine
 10
0.0629033787215263
 20
-0.3063280356911453
 30
0.0
 11
0.1675738940571906
 21
-0.5307946802017794
 31
0.0
  0
LINE
  5
B4
330
90
100
AcDbEntity
  8
AM_9
100
AcDbLine
 10
0.2988978923988012
 20
-0.4695572940755521
 30
0.0
 11
0.1941318667697146
 21
-0.244885827079694
 31
0.0
  0
LINE
  5
B5
330
90
100
AcDbEntity
  8
AM_9
100
AcDbLine
 10
0.2988978923988012
 20
-0.4695572940755521
 30
0.0
 11
0.1675738940571906
 21
-0.5307946802017794
 31
0.0
  0
LINE
  5
B6
330
90
100
AcDbEntity
  8
AM_9
100
AcDbLine
 10
0.1675738940571906
 20
-0.5307946802017794
 30
0.0
 11
0.1663100630932481
 21
-0.534267027237219
 31
0.0
  0
LINE
  5
B7
330
90
100
AcDbEntity
  8
AM_9
100
AcDbLine
 10
0.3027554490495658
 20
-0.470961329873426
 30
0.0
 11
0.2988978923988012
 21
-0.4695572940755521
 31
0.0
  0
LINE
  5
B8
330
90
100
AcDbEntity
  8
AM_9
100
AcDbLine
 10
0.551883139804071
 20
0.07245
 30
0.0
 11
0.551883139804071
 21
-0.07245
 31
0.0
  0
LINE
  5
B9
330
90
100
AcDbEntity
  8
AM_9
100
AcDbLine
 10
0.551883139804071
 20
-0.07245
 30
0.0
 11
0.5544472698837078
 21
-0.0750141300796369
 31
0.0
  0
LINE
  5
BA
330
90
100
AcDbEntity
  8
AM_9
100
AcDbLine
 10
0.554443987315336
 20
0.075010847511265
 30
0.0
 11
0.551883139804071
 21
0.07245
 31
0.0
  0
LINE
  5
BC
330
90
100
AcDbEntity
  8
AM_5
100
AcDbLine
 10
0.2977100099089717
 20
0.095
 30
0.0
 11
0.5518831398040712
 21
0.095
 31
0.0
  0
LINE
  5
BD
330
90
100
AcDbEntity
  8
AM_5
100
AcDbLine
 10
0.2977100099089717
 20
-0.095
 30
0.0
 11
0.5518831398040712
 21
-0.095
 31
0.0
  0
LINE
  5
BE
330
90
100
AcDbEntity
  8
AM_5
100
AcDbLine
 10
0.2119169266590178
 20
-0.2296681653938928
 30
0.0
 11
0.3193351329964778
 21
-0.4600272522732995
 31
0.0
  0
LINE
  5
BF
330
90
100
AcDbEntity
  8
AM_5
100
AcDbLine
 10
0.0397184471220542
 20
-0.3099656351246257
 30
0.0
 11
0.1471366534595142
 21
-0.5403247220040324
 31
0.0
  0
LINE
  5
C2
330
90
100
AcDbEntity
  8
AM_7
100
AcDbLine
 10
0.0930480872081558
 20
-0.1995422669580669
 30
0.0
 11
0.2660054929103761
 21
-0.5704506204398581
 31
0.0
  0
CIRCLE
  5
C4
330
90
100
AcDbEntity
  8
AM_4
100
AcDbCircle
 10
0.0
 20
0.0
 30
0.0
 40
0.917384891961929
  0
CIRCLE
  5
C5
330
90
100
AcDbEntity
  8
AM_4
100
AcDbCircle
 10
0.0
 20
0.0
 30
0.0
 40
0.907521371649175
  0
CIRCLE
  5
C6
330
90
100
AcDbEntity
  8
AM_4
100
AcDbCircle
 10
0.0
 20
0.0
 30
0.0
 40
0.8566113704592063
  0
CIRCLE
  5
C7
330
90
100
AcDbEntity
  8
AM_4
100
AcDbCircle
 10
0.0
 20
0.0
 30
0.0
 40
0.885318185823121
  0
CIRCLE
  5
C8
330
90
100
AcDbEntity
  8
AM_4
100
AcDbCircle
 10
0.0
 20
0.0
 30
0.0
 40
0.3125
  0
CIRCLE
  5
C9
330
90
100
AcDbEntity
  8
AM_4
100
AcDbCircle
 10
0.0
 20
0.0
 30
0.0
 40
0.56
  0
CIRCLE
  5
CA
330
90
100
AcDbEntity
  8
AM_4
100
AcDbCircle
 10
0.0
 20
0.0
 30
0.0
 40
0.3349
  0
CIRCLE
  5
CB
330
90
100
AcDbEntity
  8
AM_4
100
AcDbCircle
 10
0.0
 20
0.0
 30
0.0
 40
0.5376000000000001
  0
ENDBLK
  5
93
330
90
100
AcDbEntity
  8
0
100
AcDbBlockEnd
  0
BLOCK
  5
CE
330
CC
100
AcDbEntity
  8
0
100
AcDbBlockBegin
  2
3_405016_Inch_0_in_125344_0
 70
     2
 10
0.0
 20
0.0
 30
0.0
  3
3_405016_Inch_0_in_125344_0
  1

  0
ATTDEF
  5
D0
330
CC
100
AcDbEntity
  8
AM_6
100
AcDbText
 10
4.049179100680399
 20
-0.4469256983551584
 30
0.0
 40
0.5
  1
405016 -Inch
100
AcDbAttributeDefinition
  3

  2
NN
 70
     8
280
     0
  0
ATTDEF
  5
D1
330
CC
100
AcDbEntity
  8
AM_6
100
AcDbText
 10
4.049179100680399
 20
-0.9469256983551584
 30
0.0
 40
0.5
  1
Grease Fitting
100
AcDbAttributeDefinition
  3

  2
NT
 70
     8
280
     0
  0
ATTDEF
  5
D2
330
CC
100
AcDbEntity
  8
AM_6
100
AcDbText
 10
4.049179100680399
 20
-1.446925698355158
 30
0.0
 40
0.5
  1
405016-Inch
100
AcDbAttributeDefinition
  3

  2
NB
 70
     8
280
     0
  0
ATTDEF
  5
D3
330
CC
100
AcDbEntity
  8
AM_6
100
AcDbText
 10
4.049179100680399
 20
-1.946925698355158
 30
0.0
 40
0.5
  1
$MN.-Inch
100
AcDbAttributeDefinition
  3

  2
NBSYN
 70
     8
280
     0
  0
ATTDEF
  5
D4
330
CC
100
AcDbEntity
  8
AM_6
100
AcDbText
 10
4.049179100680399
 20
-2.446925698355158
 30
0.0
 40
0.5
  1
405016
100
AcDbAttributeDefinition
  3

  2
LINA
 70
     8
280
     0
  0
ATTDEF
  5
D5
330
CC
100
AcDbEntity
  8
AM_6
100
AcDbText
 10
4.049179100680399
 20
-2.946925698355158
 30
0.0
 40
0.5
  1
405016
100
AcDbAttributeDefinition
  3

  2
MN
 70
     8
280
     0
  0
ATTDEF
  5
D6
330
CC
100
AcDbEntity
  8
AM_6
100
AcDbText
 10
4.049179100680399
 20
-3.446925698355158
 30
0.0
 40
0.5
  1
7/16 HEX
100
AcDbAttributeDefinition
  3

  2
H
 70
     8
280
     0
  0
ATTDEF
  5
D7
330
CC
100
AcDbEntity
  8
AM_6
100
AcDbText
 10
4.049179100680399
 20
-3.946925698355158
 30
0.0
 40
0.5
  1
0.383
100
AcDbAttributeDefinition
  3

  2
NDR
 70
     8
280
     0
  0
ATTDEF
  5
D8
330
CC
100
AcDbEntity
  8
AM_6
100
AcDbText
 10
4.049179100680399
 20
-4.446925698355159
 30
0.0
 40
0.5
  1
0.337
100
AcDbAttributeDefinition
  3

  2
KDR
 70
     8
280
     0
  0
ATTDEF
  5
D9
330
CC
100
AcDbEntity
  8
AM_6
100
AcDbText
 10
4.049179100680399
 20
-4.946925698355159
 30
0.0
 40
0.5
  1
0.1575
100
AcDbAttributeDefinition
  3

  2
BZE
 70
     8
280
     0
  0
ATTDEF
  5
DA
330
CC
100
AcDbEntity
  8
AM_6
100
AcDbText
 10
4.049179100680399
 20
-5.446925698355159
 30
0.0
 40
0.5
  1
0.4375
100
AcDbAttributeDefinition
  3

  2
HEX
 70
     8
280
     0
  0
ATTDEF
  5
DB
330
CC
100
AcDbEntity
  8
AM_6
100
AcDbText
 10
4.049179100680399
 20
-5.946925698355159
 30
0.0
 40
0.5
  1
0.281250
100
AcDbAttributeDefinition
  3

  2
HEX2
 70
     8
280
     0
  0
ATTDEF
  5
DC
330
CC
100
AcDbEntity
  8
AM_6
100
AcDbText
 10
4.049179100680399
 20
-6.446925698355159
 30
0.0
 40
0.5
  1
baldor
100
AcDbAttributeDefinition
  3

  2
COMPANY
 70
     8
280
     0
  0
LINE
  5
DD
330
CC
100
AcDbEntity
  8
AM_9
100
AcDbLine
 10
-0.9508208993196009
 20
-0.7356298934801195
 30
0.0
 11
-1.112484625196825
 21
-0.4556201065198805
 31
0.0
  0
LINE
  5
DE
330
CC
100
AcDbEntity
  8
AM_9
100
AcDbLine
 10
-1.112484625196825
 20
-0.4556201065198805
 30
0.0
 11
-1.144932598209308
 21
-0.4469256983551584
 31
0.0
  0
LINE
  5
DF
330
CC
100
AcDbEntity
  8
AM_9
100
AcDbLine
 10
-0.9595153074843226
 20
-0.7680778664926035
 30
0.0
 11
-0.9508208993196009
 21
-0.7356298934801195
 31
0.0
  0
ARC
  5
E0
330
CC
100
AcDbEntity
  8
AM_9
100
AcDbCircle
 10
-1.50255407557047
 20
-0.8675000000025795
 30
0.0
 40
0.1999999999962908
100
AcDbArc
 50
165.9462742902547
 51
254.0411739051023
  0
LINE
  5
E1
330
CC
100
AcDbEntity
  8
AM_9
100
AcDbLine
 10
-0.9595153074843226
 20
-0.7680778664926035
 30
0.0
 11
-1.144932598209308
 21
-0.4469256983551584
 31
0.0
  0
LINE
  5
E2
330
CC
100
AcDbEntity
  8
AM_9
100
AcDbLine
 10
-1.144932598209308
 20
-0.4469256983551584
 30
0.0
 11
-1.316851436261173
 21
-0.539146406375599
 31
0.0
  0
LINE
  5
E3
330
CC
100
AcDbEntity
  8
AM_9
100
AcDbLine
 10
-1.125340202410944
 20
-0.8708535936244011
 30
0.0
 11
-0.9595153074843226
 21
-0.7680778664926035
 31
0.0
  0
LINE
  5
E4
330
CC
100
AcDbEntity
  8
AM_9
100
AcDbLine
 10
-1.647963717150142
 20
-1.04520229571137
 30
0.0
 11
-1.659285290374019
 21
-1.051738809059826
 31
0.0
  0
LINE
  5
E5
330
CC
100
AcDbEntity
  8
AM_9
100
AcDbLine
 10
-1.729153598754933
 20
-0.9045772957113704
 30
0.0
 11
-1.74047517197881
 21
-0.9111138090598259
 31
0.0
  0
LWPOLYLINE
  5
E6
330
CC
100
AcDbEntity
  8
AM_9
100
AcDbPolyline
 90
        5
 70
     0
 43
0.0
 10
-1.729153598754933
 20
-0.9045772957113704
 10
-1.696483144112271
 20
-0.9533672121093315
 10
-1.680936252208532
 20
-0.9796988772646099
 10
-1.666510562933837
 20
-1.006595324422914
 10
-1.647963717150142
 20
-1.04520229571137
  0
LINE
  5
E7
330
CC
100
AcDbEntity
  8
AM_9
100
AcDbLine
 10
-1.447508374523677
 20
-0.9628419509435537
 30
0.0
 11
-1.557640281362195
 21
-0.7720878927647964
 31
0.0
  0
ELLIPSE
  5
E8
330
CC
100
AcDbEntity
  8
AM_9
100
AcDbEllipse
 10
-1.573170211061298
 20
-0.9082702448373409
 30
0.0
 11
-0.07031249999999992
 21
0.1217848224071867
 31
0.0
210
0.0
220
0.0
230
1.0
 40
0.9063077870366499
 41
5.859216366485141
 42
9.848746901463826
  0
LWPOLYLINE
  5
E9
330
CC
100
AcDbEntity
  8
AM_9
100
AcDbPolyline
 90
        5
 70
     0
 43
0.0
 10
-1.647963717150142
 20
-1.04520229571137
 10
-1.589885340936487
 20
-1.045585121917566
 10
-1.561067594143874
 20
-1.046658211919086
 10
-1.533408128775987
 20
-1.048363121169831
 10
-1.496788871111645
 20
-1.051671457656344
  0
LWPOLYLINE
  5
EA
330
CC
100
AcDbEntity
  8
AM_9
100
AcDbPolyline
 90
        5
 70
     0
 43
0.0
 10
-1.659168634321226
 20
-0.7704214576563438
 10
-1.680821597512766
 20
-0.8164568843635378
 10
-1.693607176117814
 20
-0.8413344966946625
 10
-1.707431498279265
 20
-0.8667686897126439
 10
-1.729153598754933
 20
-0.9045772957113704
  0
LWPOLYLINE
  5
EB
330
CC
100
AcDbEntity
  8
AM_9
100
AcDbPolyline
 90
        5
 70
     0
 43
0.0
 10
-1.457984975382041
 20
-0.9446959459662462
 10
-1.465952440458234
 20
-0.960209976006311
 10
-1.476708513892415
 20
-0.9743579756306698
 10
-1.489351565414859
 20
-0.9859559434157931
 10
-1.499761091034911
 20
-0.9929045281051567
  0
LWPOLYLINE
  5
EC
330
CC
100
AcDbEntity
  8
AM_9
100
AcDbPolyline
 90
       12
 70
     0
 43
0.0
 10
-1.457984975382041
 20
-0.9446959459662462
 10
-1.453030314909973
 20
-0.9287012162956051
 10
-1.451402202161116
 20
-0.8958778251052955
 10
-1.454690549322475
 20
-0.87818328717911
 10
-1.460636102356537
 20
-0.8609576332075928
 10
-1.469133995333177
 20
-0.8445213197667047
 10
-1.479860790653033
 20
-0.8294770462991155
 10
-1.492452000872283
 20
-0.8163848217275875
 10
-1.506682542733007
 20
-0.8054958498463315
 10
-1.522441341010132
 20
-0.7971335159361695
 10
-1.539288926380795
 20
-0.7917034871441516
 10
-1.547123175749961
 20
-0.7903040540337537
  0
LINE
  5
ED
330
CC
100
AcDbEntity
  8
AM_9
100
AcDbLine
 10
-1.609751301675343
 20
-0.802373288128892
 30
0.0
 11
-1.628170211061298
 21
-0.8130074504210526
 31
0.0
  0
LINE
  5
EE
330
CC
100
AcDbEntity
  8
AM_9
100
AcDbLine
 10
-1.518170211061298
 20
-1.003533039253629
 30
0.0
 11
-1.499751373034187
 21
-0.9928989181605159
 31
0.0
  0
LWPOLYLINE
  5
EF
330
CC
100
AcDbEntity
  8
AM_9
100
AcDbPolyline
 90
        3
 70
     0
 43
0.0
 10
-1.621310757116406
 20
-0.8102190035077146
 10
-1.614620639242185
 20
-0.8053813720298789
 10
-1.609758992077932
 20
-0.8023777286414944
  0
LWPOLYLINE
  5
F0
330
CC
100
AcDbEntity
  8
AM_9
100
AcDbPolyline
 90
       20
 70
     0
 43
0.0
 10
-1.499761091034911
 20
-0.9929045281051567
 10
-1.5042419885607
 20
-0.9953348025402612
 10
-1.520143865367581
 20
-1.001712011960484
 10
-1.537504835189299
 20
-1.005261709638181
 10
-1.554860312319544
 20
-1.005684256104104
 10
-1.572718023903833
 20
-1.002990967168627
 10
-1.589547785403907
 20
-0.9974171960405072
 10
-1.605864529304612
 20
-0.9887972390764892
 10
-1.620263580164446
 20
-0.9778809914909219
 10
-1.633195933030193
 20
-0.964336212655024
 10
-1.643555661189893
 20
-0.9493302713177414
 10
-1.65166583600659
 20
-0.9324082867497738
 10
-1.656842477197432
 20
-0.9150047030275386
 10
-1.65924241364158
 20
-0.8966073935114571
 10
-1.658664829684454
 20
-0.878747455120003
 10
-1.65509312587533
 20
-0.8609224816066245
 10
-1.648815578607666
 20
-0.8445960564441003
 10
-1.639657979544946
 20
-0.8293288727646309
 10
-1.628361790382934
 20
-0.8163704784891935
 10
-1.621310757116406
 20
-0.8102190035077146
  0
LWPOLYLINE
  5
F1
330
CC
100
AcDbEntity
  8
AM_9
100
AcDbPolyline
 90
        5
 70
     0
 43
0.0
 10
-1.609758992077932
 20
-0.8023777286414944
 10
-1.599559149502703
 20
-0.7972689428626644
 10
-1.582765726683043
 20
-0.7918204774364153
 10
-1.565366390529047
 20
-0.7894809397560726
 10
-1.547123175749944
 20
-0.7903040540337614
  0
ELLIPSE
  5
F2
330
CC
100
AcDbEntity
  8
AM_9
100
AcDbEllipse
 10
-1.573170211061298
 20
-0.908270244837341
 30
0.0
 11
-0.07031249999999976
 21
0.1217848224071867
 31
0.0
210
0.0
220
0.0
230
1.0
 40
0.9063077870366489
 41
3.76482126409195
 42
4.571432719802706
  0
ELLIPSE
  5
F3
330
CC
100
AcDbEntity
  8
AM_9
100
AcDbEllipse
 10
-1.5731702110613
 20
-0.9082702448373439
 30
0.0
 11
-0.07031250000001887
 21
0.1217848224071795
 31
0.0
210
0.0
220
0.0
230
1.0
 40
0.9063077870366862
 41
4.853345240966586
 42
5.659956696677302
  0
LWPOLYLINE
  5
F4
330
CC
100
AcDbEntity
  8
AM_9
100
AcDbPolyline
 90
        5
 70
     0
 43
0.0
 10
-1.659285290374019
 20
-1.051738809059826
 10
-1.681223336520743
 20
-1.018532427593056
 10
-1.702043765802638
 20
-0.9843124091789144
 10
-1.722030665459778
 20
-0.947967684420117
 10
-1.74047517197881
 20
-0.9111138090598259
  0
LWPOLYLINE
  5
F5
330
CC
100
AcDbEntity
  8
AM_9
100
AcDbPolyline
 90
        4
 70
     0
 43
0.0
 10
-1.556313827303237
 20
-1.057794986498873
 10
-1.585452452730537
 20
-1.056802555641742
 10
-1.623213727975569
 20
-1.05466027073816
 10
-1.659285290374019
 20
-1.051738809059826
  0
LWPOLYLINE
  5
F6
330
CC
100
AcDbEntity
  8
AM_9
100
AcDbPolyline
 90
        4
 70
     0
 43
0.0
 10
-1.74047517197881
 20
-0.9111138090598259
 10
-1.725528676857317
 20
-0.8795584709099017
 10
-1.709168781693059
 20
-0.8469977243283277
 10
-1.694201420122804
 20
-0.8188495217362597
  0
ELLIPSE
  5
F7
330
CC
100
AcDbEntity
  8
AM_9
100
AcDbEllipse
 10
-1.591470118599832
 20
-0.9188357013808583
 30
0.0
 11
-0.07031249999999997
 21
0.1217848224071866
 31
0.0
210
0.0
220
0.0
230
1.0
 40
0.9063077870366507
 41
0.2383364328489908
 42
2.908414161905653
  0
LWPOLYLINE
  5
F8
330
CC
100
AcDbEntity
  8
AM_9
100
AcDbPolyline
 90
       21
 70
     0
 43
0.0
 10
-1.533921763089871
 20
-0.9142717069062687
 10
-1.532390664128539
 20
-0.9192603407797297
 10
-1.529172571022297
 20
-0.9343154512406832
 10
-1.528014767187254
 20
-0.9492555776117669
 10
-1.528881647056486
 20
-0.9637240843464216
 10
-1.531687446246144
 20
-0.9774053623274844
 10
-1.536318282643979
 20
-0.990039632060099
 10
-1.542664220986328
 20
-1.001427798102317
 10
-1.550656927228121
 20
-1.011417420959909
 10
-1.560293982092793
 20
-1.019858020986286
 10
-1.571597078905343
 20
-1.026524459447643
 10
-1.584436863034928
 20
-1.031071074026499
 10
-1.598193663064698
 20
-1.033150826469783
 10
-1.61231852270964
 20
-1.032727619675672
 10
-1.62643347294942
 20
-1.029906953713399
 10
-1.640252186253597
 20
-1.024815800051722
 10
-1.653497054518011
 20
-1.017588264084268
 10
-1.665878381592577
 20
-1.008387384773175
 10
-1.677104602654317
 20
-0.9974222736060756
 10
-1.686900734431357
 20
-0.9849540384314995
 10
-1.691993477405486
 20
-0.9768728896471481
  0
LWPOLYLINE
  5
F9
330
CC
100
AcDbEntity
  8
AM_9
100
AcDbPolyline
 90
       20
 70
     0
 43
0.0
 10
-1.691993477405486
 20
-0.9768728896471481
 10
-1.695249096035267
 20
-0.9708545009918348
 10
-1.70144892545528
 20
-0.9563426342610947
 10
-1.705659335527477
 20
-0.9413673406966495
 10
-1.707814218071862
 20
-0.9263251643820132
 10
-1.707919938801131
 20
-0.9115858749267051
 10
-1.706040086107358
 20
-0.8974871676807902
 10
-1.702278333000698
 20
-0.8843172481758326
 10
-1.696751084518954
 20
-0.8723042726539438
 10
-1.689551415625465
 20
-0.8616198720311047
 10
-1.680714307294765
 20
-0.8524075512640551
 10
-1.670217068093525
 20
-0.8448458554509543
 10
-1.658085991212439
 20
-0.839224128691898
 10
-1.644696645616511
 20
-0.835925777140673
 10
-1.63069311964754
 20
-0.8351420799574686
 10
-1.616534659861492
 20
-0.8368142407287165
 10
-1.602537962252209
 20
-0.8408186207883159
 10
-1.588978933497
 20
-0.8470266689424529
 10
-1.576141528815688
 20
-0.8552922006898571
 10
-1.564347338989614
 20
-0.8654016421357136
  0
ELLIPSE
  5
FA
330
CC
100
AcDbEntity
  8
AM_9
100
AcDbEllipse
 10
-1.642471021863817
 20
-0.948281086609234
 30
0.0
 11
0.06659694825923303
 21
-0.1153492980140275
 31
0.0
210
0.0
220
0.0
230
1.0
 40
0.9063077870366489
 41
0.0
 42
6.283185307179586
  0
LINE
  5
FB
330
CC
100
AcDbEntity
  8
AM_5
100
AcDbLine
 10
-1.101012111190518
 20
-0.828716103579453
 30
0.0
 11
-0.9508208993196009
 21
-0.7356298934801195
 31
0.0
  0
LINE
  5
FC
330
CC
100
AcDbEntity
  8
AM_5
100
AcDbLine
 10
-1.125340202410944
 20
-0.8708535936244008
 30
0.0
 11
-1.101012111190518
 21
-0.828716103579453
 31
0.0
  0
LINE
  5
FD
330
CC
100
AcDbEntity
  8
AM_5
100
AcDbLine
 10
-1.268195253820321
 20
-0.539146406375599
 30
0.0
 11
-1.112484625196825
 21
-0.4556201065198805
 31
0.0
  0
LINE
  5
FE
330
CC
100
AcDbEntity
  8
AM_5
100
AcDbLine
 10
-1.316851436261173
 20
-0.539146406375599
 30
0.0
 11
-1.268195253820321
 21
-0.539146406375599
 31
0.0
  0
LINE
  5
FF
330
CC
100
AcDbEntity
  8
AM_5
100
AcDbLine
 10
-1.279700868267856
 20
-0.5192180975801702
 30
0.0
 11
-1.089506496742983
 21
-0.8486444123748818
 31
0.0
  0
ELLIPSE
  5
100
330
CC
100
AcDbEntity
  8
AM_9
100
AcDbEllipse
 10
-1.573170211061298
 20
-0.9082702448373411
 30
0.0
 11
-0.05499999999999951
 21
0.09526279441628815
 31
0.0
210
0.0
220
0.0
230
1.0
 40
0.9063077870366506
 41
0.0
 42
6.283185307179586
  0
LINE
  5
101
330
CC
100
AcDbEntity
  8
AM_7
100
AcDbLine
 10
-1.712554075566002
 20
-0.867499999999999
 30
0.0
 11
-1.292554075566001
 21
-0.867499999999999
 31
0.0
  0
LINE
  5
102
330
CC
100
AcDbEntity
  8
AM_7
100
AcDbLine
 10
-1.502554075566001
 20
-1.0775
 30
0.0
 11
-1.502554075566001
 21
-0.6574999999999982
 31
0.0
  0
LINE
  5
103
330
CC
100
AcDbEntity
  8
AM_4
100
AcDbLine
 10
-1.265981594385162
 20
-0.9835055570778459
 30
0.0
 11
-1.484731594385162
 21
-0.604619442922154
 31
0.0
  0
LINE
  5
104
330
CC
100
AcDbEntity
  8
AM_4
100
AcDbLine
 10
-1.493799194081776
 20
-0.5707787001516929
 30
0.0
 11
-1.484731594385162
 21
-0.604619442922154
 31
0.0
  0
LINE
  5
105
330
CC
100
AcDbEntity
  8
AM_4
100
AcDbLine
 10
-1.265981594385162
 20
-0.9835055570778459
 30
0.0
 11
-1.241208451311315
 21
-1.008278700151693
 31
0.0
  0
LINE
  5
106
330
CC
100
AcDbEntity
  8
AM_4
100
AcDbLine
 10
-1.170311454310103
 20
-0.9673462998483071
 30
0.0
 11
-1.179379054006718
 21
-0.933505557077846
 31
0.0
  0
LINE
  5
107
330
CC
100
AcDbEntity
  8
AM_4
100
AcDbLine
 10
-1.179379054006718
 20
-0.933505557077846
 30
0.0
 11
-1.398129054006718
 21
-0.554619442922154
 31
0.0
  0
LINE
  5
108
330
CC
100
AcDbEntity
  8
AM_4
100
AcDbLine
 10
-1.398129054006718
 20
-0.554619442922154
 30
0.0
 11
-1.422902197080565
 21
-0.5298462998483072
 31
0.0
  0
ARC
  5
109
330
CC
100
AcDbEntity
  8
AM_4
100
AcDbCircle
 10
-1.502554075566001
 20
-0.867499999999999
 30
0.0
 40
0.2000000000000007
100
AcDbArc
 50
254.0411739040746
 51
300.0
  0
ARC
  5
10A
330
CC
100
AcDbEntity
  8
AM_4
100
AcDbCircle
 10
-1.502554075566
 20
-0.8675000000000007
 30
0.0
 40
0.2000000000000009
100
AcDbArc
 50
120.0000000000001
 51
165.9462742912823
  0
LINE
  5
10B
330
CC
100
AcDbEntity
  8
AM_4
100
AcDbLine
 10
-1.321095819336059
 20
-0.5317949192431123
 30
0.0
 11
-1.388754054006718
 21
-0.5708574192431124
 31
0.0
  0
LINE
  5
10C
330
CC
100
AcDbEntity
  8
AM_4
100
AcDbLine
 10
-1.188754054006718
 20
-0.9172675807568876
 30
0.0
 11
-1.121095819336059
 21
-0.8782050807568877
 31
0.0
  0
LINE
  5
10D
330
CC
100
AcDbEntity
  8
AM_4
100
AcDbLine
 10
-1.557640281362195
 20
-0.7720878927647964
 30
0.0
 11
-1.602554075566001
 21
-0.6942949192431123
 31
0.0
  0
LINE
  5
10E
330
CC
100
AcDbEntity
  8
AM_4
100
AcDbLine
 10
-1.475356594385162
 20
-0.6208574192431122
 30
0.0
 11
-1.602554075566001
 21
-0.6942949192431123
 31
0.0
  0
LINE
  5
10F
330
CC
100
AcDbEntity
  8
AM_4
100
AcDbLine
 10
-1.402554075566001
 20
-1.040705080756888
 30
0.0
 11
-1.275356594385162
 21
-0.9672675807568877
 31
0.0
  0
LINE
  5
110
330
CC
100
AcDbEntity
  8
AM_4
100
AcDbLine
 10
-1.402554075566001
 20
-1.040705080756888
 30
0.0
 11
-1.447508374523677
 21
-0.9628419509435537
 31
0.0
  0
LWPOLYLINE
  5
111
330
CC
100
AcDbEntity
  8
AM_4
100
AcDbPolyline
 90
        3
 70
     0
 43
0.0
 10
-1.280635065846239
 20
-0.958125
 10
-1.294349258708623
 20
-0.9295845596074827
 10
-1.30435613700393
 20
-0.8989037001516929
  0
LWPOLYLINE
  5
112
330
CC
100
AcDbEntity
  8
AM_4
100
AcDbPolyline
 90
        3
 70
     0
 43
0.0
 10
-1.241208451311315
 20
-1.008278700151693
 10
-1.262686122228937
 20
-0.9843844323881152
 10
-1.280635065846239
 20
-0.958125
  0
LINE
  5
113
330
CC
100
AcDbEntity
  8
AM_4
100
AcDbLine
 10
-1.241208451311315
 20
-1.008278700151693
 30
0.0
 11
-1.170311454310103
 21
-0.9673462998483071
 31
0.0
  0
LWPOLYLINE
  5
114
330
CC
100
AcDbEntity
  8
AM_4
100
AcDbPolyline
 90
        3
 70
     0
 43
0.0
 10
-1.194032525467795
 20
-0.9081250000000001
 10
-1.180318332605411
 20
-0.9366654403925173
 10
-1.170311454310103
 20
-0.9673462998483071
  0
LINE
  5
115
330
CC
100
AcDbEntity
  8
AM_4
100
AcDbLine
 10
-1.493799194081776
 20
-0.5707787001516929
 30
0.0
 11
-1.422902197080565
 21
-0.5298462998483072
 31
0.0
  0
LWPOLYLINE
  5
116
330
CC
100
AcDbEntity
  8
AM_4
100
AcDbPolyline
 90
        3
 70
     0
 43
0.0
 10
-1.470078122924085
 20
-0.63
 10
-1.483792315786469
 20
-0.6014595596074827
 10
-1.493799194081776
 20
-0.5707787001516929
  0
LWPOLYLINE
  5
117
330
CC
100
AcDbEntity
  8
AM_4
100
AcDbPolyline
 90
        3
 70
     0
 43
0.0
 10
-1.430651508389161
 20
-0.6801537001516927
 10
-1.452129179306783
 20
-0.6562594323881152
 10
-1.470078122924085
 20
-0.63
  0
LWPOLYLINE
  5
118
330
CC
100
AcDbEntity
  8
AM_4
100
AcDbPolyline
 90
        3
 70
     0
 43
0.0
 10
-1.422902197080565
 20
-0.5298462998483072
 10
-1.401424526162942
 20
-0.5537405676118847
 10
-1.383475582545641
 20
-0.58
  0
LWPOLYLINE
  5
119
330
CC
100
AcDbEntity
  8
AM_4
100
AcDbPolyline
 90
        3
 70
     0
 43
0.0
 10
-1.233459140002719
 20
-0.8579712998483073
 10
-1.211981469085096
 20
-0.8818655676118848
 10
-1.194032525467795
 20
-0.9081250000000001
  0
LINE
  5
11A
330
CC
100
AcDbEntity
  8
AM_4
100
AcDbLine
 10
-1.430651508389161
 20
-0.6801537001516927
 30
0.0
 11
-1.359754511387949
 21
-0.6392212998483072
 31
0.0
  0
LWPOLYLINE
  5
11B
330
CC
100
AcDbEntity
  8
AM_4
100
AcDbPolyline
 90
        4
 70
     0
 43
0.0
 10
-1.375356594385162
 20
-0.7940624999999999
 10
-1.398328858820663
 20
-0.751438249398529
 10
-1.419008501926582
 20
-0.7074903532552733
 10
-1.430651508389161
 20
-0.6801537001516927
  0
LWPOLYLINE
  5
11C
330
CC
100
AcDbEntity
  8
AM_4
100
AcDbPolyline
 90
        3
 70
     0
 43
0.0
 10
-1.30435613700393
 20
-0.8989037001516929
 10
-1.341549747095001
 20
-0.8477886272510404
 10
-1.375356594385162
 20
-0.7940624999999999
  0
LINE
  5
11D
330
CC
100
AcDbEntity
  8
AM_4
100
AcDbLine
 10
-1.30435613700393
 20
-0.8989037001516929
 30
0.0
 11
-1.233459140002719
 21
-0.8579712998483073
 31
0.0
  0
LWPOLYLINE
  5
11E
330
CC
100
AcDbEntity
  8
AM_4
100
AcDbPolyline
 90
        3
 70
     0
 43
0.0
 10
-1.288754054006718
 20
-0.7440625
 10
-1.25925293972118
 20
-0.7999466903925173
 10
-1.233459140002719
 20
-0.8579712998483073
  0
LWPOLYLINE
  5
11F
330
CC
100
AcDbEntity
  8
AM_4
100
AcDbPolyline
 90
        3
 70
     0
 43
0.0
 10
-1.383475582545641
 20
-0.58
 10
-1.369761389683257
 20
-0.6085404403925173
 10
-1.359754511387949
 20
-0.6392212998483072
  0
LWPOLYLINE
  5
120
330
CC
100
AcDbEntity
  8
AM_4
100
AcDbPolyline
 90
        4
 70
     0
 43
0.0
 10
-1.359754511387949
 20
-0.6392212998483072
 10
-1.341901778577095
 20
-0.6629727657731171
 10
-1.314260078110529
 20
-0.7027364268392671
 10
-1.288754054006718
 20
-0.7440625
  0
LINE
  5
121
330
CC
100
AcDbEntity
  8
AM_4
100
AcDbLine
 10
-1.508476117331189
 20
-1.058419092407284
 30
0.0
 11
-1.556313827303237
 21
-1.057794986498873
 31
0.0
  0
LINE
  5
122
330
CC
100
AcDbEntity
  8
AM_4
100
AcDbLine
 10
-1.694201420122804
 20
-0.8188495217362597
 30
0.0
 11
-1.670855880540772
 21
-0.7771690924072835
 31
0.0
  0
LWPOLYLINE
  5
123
330
CC
100
AcDbEntity
  8
AM_4
100
AcDbPolyline
 90
        3
 70
     0
 43
0.0
 10
-1.507992254983367
 20
-0.7768897343505178
 10
-1.536054554952211
 20
-0.7742388430145477
 10
-1.565842659790198
 20
-0.7721875924132665
  0
LINE
  5
124
330
CC
100
AcDbEntity
  8
AM_4
100
AcDbLine
 10
-1.565842659790198
 20
-0.7721875924132665
 30
0.0
 11
-1.591851468816182
 21
-0.7710526668938884
 31
0.0
  0
LWPOLYLINE
  5
125
330
CC
100
AcDbEntity
  8
AM_4
100
AcDbPolyline
 90
        3
 70
     0
 43
0.0
 10
-1.591851468816182
 20
-0.7710526668938884
 10
-1.614841503508422
 20
-0.7705103698475838
 10
-1.659168634321226
 20
-0.7704214576563438
  0
LINE
  5
126
330
CC
100
AcDbEntity
  8
AM_4
100
AcDbLine
 10
-1.659168634321226
 20
-0.7704214576563438
 30
0.0
 11
-1.670855880540772
 21
-0.7771690924072835
 31
0.0
  0
LWPOLYLINE
  5
127
330
CC
100
AcDbEntity
  8
AM_4
100
AcDbPolyline
 90
        3
 70
     0
 43
0.0
 10
-1.670855880540772
 20
-0.7771690924072835
 10
-1.64117605930697
 20
-0.7796484915217363
 10
-1.610151376354714
 20
-0.7816181234374059
  0
LWPOLYLINE
  5
128
330
CC
100
AcDbEntity
  8
AM_4
100
AcDbPolyline
 90
        3
 70
     0
 43
0.0
 10
-1.496788871111645
 20
-1.051671457656344
 10
-1.479815188778121
 20
-1.022339189975666
 10
-1.463676931593939
 20
-0.9930574775994407
  0
LINE
  5
129
330
CC
100
AcDbEntity
  8
AM_4
100
AcDbLine
 10
-1.463676931593939
 20
-0.9930574775994407
 30
0.0
 11
-1.451655401412131
 21
-0.9699657255010712
 31
0.0
  0
LWPOLYLINE
  5
12A
330
CC
100
AcDbEntity
  8
AM_4
100
AcDbPolyline
 90
        3
 70
     0
 43
0.0
 10
-1.451655401412131
 20
-0.9699657255010712
 10
-1.442490414835574
 20
-0.9514216112135016
 10
-1.426802373378576
 20
-0.9175147343505179
  0
LWPOLYLINE
  5
12B
330
CC
100
AcDbEntity
  8
AM_4
100
AcDbPolyline
 90
        3
 70
     0
 43
0.0
 10
-1.481976839132472
 20
-1.003622934142958
 10
-1.495712016897045
 20
-1.031327936735335
 10
-1.508476117331189
 20
-1.058419092407284
  0
LINE
  5
12C
330
CC
100
AcDbEntity
  8
AM_4
100
AcDbLine
 10
-1.496788871111645
 20
-1.051671457656344
 30
0.0
 11
-1.508476117331189
 21
-1.058419092407284
 31
0.0
  0
LWPOLYLINE
  5
12D
330
CC
100
AcDbEntity
  8
AM_4
100
AcDbPolyline
 90
        3
 70
     0
 43
0.0
 10
-1.584142567328731
 20
-0.7827530489567841
 10
-1.552492016474707
 20
-0.7835555934942604
 10
-1.520047904294346
 20
-0.7838500667254668
  0
LWPOLYLINE
  5
12E
330
CC
100
AcDbEntity
  8
AM_4
100
AcDbPolyline
 90
        3
 70
     0
 43
0.0
 10
-1.438858022689554
 20
-0.9244750667254668
 10
-1.454745307252651
 20
-0.9525761834951973
 10
-1.469955308950665
 20
-0.9805311820445894
  0
LWPOLYLINE
  5
12F
330
CC
100
AcDbEntity
  8
AM_4
100
AcDbPolyline
 90
        3
 70
     0
 43
0.0
 10
-1.426802373378576
 20
-0.9175147343505179
 10
-1.439798261228187
 20
-0.8898909589556475
 10
-1.454012161342428
 20
-0.8622870384185166
  0
LINE
  5
130
330
CC
100
AcDbEntity
  8
AM_4
100
AcDbLine
 10
-1.454012161342428
 20
-0.8622870384185166
 30
0.0
 11
-1.473768561295696
 21
-0.8280679499247963
 31
0.0
  0
LWPOLYLINE
  5
131
330
CC
100
AcDbEntity
  8
AM_4
100
AcDbPolyline
 90
        3
 70
     0
 43
0.0
 10
-1.473768561295696
 20
-0.8280679499247963
 10
-1.48301719670959
 20
-0.8134112730526003
 10
-1.507992254983367
 20
-0.7768897343505178
  0
LINE
  5
132
330
CC
100
AcDbEntity
  8
AM_4
100
AcDbLine
 10
-1.507992254983367
 20
-0.7768897343505178
 30
0.0
 11
-1.520047904294346
 21
-0.7838500667254668
 31
0.0
  0
LINE
  5
133
330
CC
100
AcDbEntity
  8
AM_4
100
AcDbLine
 10
-1.520047904294346
 20
-0.7838500667254668
 30
0.0
 11
-1.492068468834231
 21
-0.8386334064683196
 31
0.0
  0
LINE
  5
134
330
CC
100
AcDbEntity
  8
AM_4
100
AcDbLine
 10
-1.472312068880961
 20
-0.8728524949620341
 30
0.0
 11
-1.438858022689554
 21
-0.9244750667254668
 31
0.0
  0
LINE
  5
135
330
CC
100
AcDbEntity
  8
AM_4
100
AcDbLine
 10
-1.426802373378576
 20
-0.9175147343505179
 30
0.0
 11
-1.438858022689554
 21
-0.9244750667254668
 31
0.0
  0
LINE
  5
136
330
CC
100
AcDbEntity
  8
AM_4
100
AcDbLine
 10
-1.610151376354714
 20
-0.7816181234374059
 30
0.0
 11
-1.584142567328731
 21
-0.7827530489567841
 31
0.0
  0
ELLIPSE
  5
137
330
CC
100
AcDbEntity
  8
AM_4
100
AcDbEllipse
 10
-1.591470118599832
 20
-0.9188357013808581
 30
0.0
 11
-0.07031250000000046
 21
0.1217848224071867
 31
0.0
210
0.0
220
0.0
230
1.0
 40
0.9063077870366505
 41
2.908414161905651
 42
3.56556159428424
  0
ELLIPSE
  5
138
330
CC
100
AcDbEntity
  8
AM_4
100
AcDbEllipse
 10
-1.591470118599831
 20
-0.91883570138086
 30
0.0
 11
-0.07031250000000244
 21
0.1217848224071872
 31
0.0
210
0.0
220
0.0
230
1.0
 40
0.9063077870366515
 41
5.859216366485124
 42
6.521521740028561
  0
LINE
  5
139
330
CC
100
AcDbEntity
  8
AM_4
100
AcDbLine
 10
-1.469955308950665
 20
-0.9805311820445894
 30
0.0
 11
-1.481976839132472
 21
-1.003622934142958
 31
0.0
  0
ELLIPSE
  5
13A
330
CC
100
AcDbEntity
  8
AM_4
100
AcDbEllipse
 10
-1.591470118599831
 20
-0.918835701380859
 30
0.0
 11
-0.07031250000000093
 21
0.1217848224071855
 31
0.0
210
0.0
220
0.0
230
1.0
 40
0.9063077870366515
 41
3.764821264091934
 42
4.571432719802701
  0
LINE
  5
13B
330
CC
100
AcDbEntity
  8
AM_4
100
AcDbLine
 10
-1.492068468834231
 20
-0.8386334064683196
 30
0.0
 11
-1.472312068880961
 21
-0.8728524949620341
 31
0.0
  0
ELLIPSE
  5
13C
330
CC
100
AcDbEntity
  8
AM_4
100
AcDbEllipse
 10
-1.591470118599833
 20
-0.9188357013808596
 30
0.0
 11
-0.07031250000000025
 21
0.1217848224071878
 31
0.0
210
0.0
220
0.0
230
1.0
 40
0.9063077870366515
 41
4.853345240966679
 42
5.659956696677439
  0
LINE
  5
13D
330
CC
100
AcDbEntity
  8
AM_4
100
AcDbLine
 10
-1.774903788993323
 20
-0.98971146297921
 30
0.0
 11
-1.774390571563538
 21
-0.9912136972108193
 31
0.0
  0
LWPOLYLINE
  5
13E
330
CC
100
AcDbEntity
  8
AM_4
100
AcDbPolyline
 90
        6
 70
     0
 43
0.0
 10
-1.779527707571859
 20
-0.9128057365533815
 10
-1.780542413966103
 20
-0.9179586005020709
 10
-1.782561385308673
 20
-0.9365259163582845
 10
-1.782113146484961
 20
-0.9554057257619011
 10
-1.779198344635556
 20
-0.9742490416047793
 10
-1.774903788993323
 20
-0.98971146297921
  0
LWPOLYLINE
  5
13F
330
CC
100
AcDbEntity
  8
AM_4
100
AcDbPolyline
 90
       36
 70
     0
 43
0.0
 10
-1.670491789140426
 20
-1.08744892632143
 10
-1.664043341503417
 20
-1.088825547864309
 10
-1.645748863478242
 20
-1.090945567580277
 10
-1.627538763616625
 20
-1.090451636716582
 10
-1.609763915939525
 20
-1.08736449587317
 10
-1.592760569822203
 20
-1.081757590321194
 10
-1.576842408571619
 20
-1.073751545001794
 10
-1.562295631963187
 20
-1.063507469723693
 10
-1.549379856368411
 20
-1.051224226882183
 10
-1.538321174125474
 20
-1.037130546149314
 10
-1.529311848211866
 20
-1.021479648919518
 10
-1.522512018427081
 20
-1.004549535809148
 10
-1.518047194320673
 20
-0.9866418303830095
 10
-1.5160044969238
 20
-0.968079216624035
 10
-1.516428792468708
 20
-0.9492007686972403
 10
-1.519319878255102
 20
-0.9303554143817454
 10
-1.524631373451329
 20
-0.9118944074193219
 10
-1.53227131610186
 20
-0.8941637762376111
 10
-1.542104020898696
 20
-0.877497390106728
 10
-1.553952514471331
 20
-0.8622109624451382
 10
-1.567599833334471
 20
-0.8485977293911284
 10
-1.582794560532506
 20
-0.8369198142142987
 10
-1.599253024851734
 20
-0.827404720524187
 10
-1.616663366437395
 20
-0.8202395086030533
 10
-1.634691067970289
 20
-0.8155649080978984
 10
-1.652986433746273
 20
-0.813470102781954
 10
-1.671193987423899
 20
-0.8139893114312543
 10
-1.688962950585269
 20
-0.8171012648511329
 10
-1.705957258611162
 20
-0.8227320314656003
 10
-1.721863475627841
 20
-0.8307605621956062
 10
-1.736395681905715
 20
-0.8410253874529107
 10
-1.749294509338134
 20
-0.853327279871638
 10
-1.760334232953742
 20
-0.8674372817416192
 10
-1.769322894207735
 20
-0.8831019275946389
 10
-1.776100673652482
 20
-0.9000429814365143
 10
-1.779527707571859
 20
-0.9128057365533815
  0
ELLIPSE
  5
140
330
CC
100
AcDbEntity
  8
AM_4
100
AcDbEllipse
 10
-1.653146003341139
 20
-0.9544442900387644
 30
0.0
 11
-0.06957427803573424
 21
0.1205061844578193
 31
0.0
210
0.0
220
0.0
230
1.0
 40
0.9063077870366205
 41
1.362619622875961
 42
1.570796326794897
  0
ELLIPSE
  5
141
330
CC
100
AcDbEntity
  8
AM_4
100
AcDbEllipse
 10
-1.681139665538645
 20
-0.9706064384440941
 30
0.0
 11
0.05174132036229494
 21
-0.08961859571819308
 31
0.0
210
0.0
220
0.0
230
1.0
 40
0.9063077870366495
 41
0.0
 42
6.283185307179586
  0
ELLIPSE
  5
142
330
CC
100
AcDbEntity
  8
AM_4
100
AcDbEllipse
 10
-1.653146003341162
 20
-0.954444290038774
 30
0.0
 11
-0.06957427803572004
 21
0.1205061844577911
 31
0.0
210
0.0
220
0.0
230
1.0
 40
0.9063077870366498
 41
1.570796326794897
 42
7.645804930055509
  0
ENDBLK
  5
CF
330
CC
100
AcDbEntity
  8
0
100
AcDbBlockEnd
  0
BLOCK
  5
145
330
143
100
AcDbEntity
  8
0
100
AcDbBlockBegin
  2
4_125344H_0_in_125344_0
 70
     2
 10
0.0
 20
0.0
 30
0.0
  3
4_125344H_0_in_125344_0
  1

  0
ATTDEF
  5
147
330
143
100
AcDbEntity
  8
AM_6
100
AcDbText
 10
7.399
 20
1.815
 30
0.0
 40
0.5
  1
WSTU-SC -Inch - housing
100
AcDbAttributeDefinition
  3

  2
NN
 70
     8
280
     0
  0
ATTDEF
  5
148
330
143
100
AcDbEntity
  8
AM_6
100
AcDbText
 10
7.399
 20
1.315
 30
0.0
 40
0.5
  1
SC Take-Up Bearings -Wide Slot -(Normal Duty)
100
AcDbAttributeDefinition
  3

  2
NT
 70
     8
280
     0
  0
ATTDEF
  5
149
330
143
100
AcDbEntity
  8
AM_6
100
AcDbText
 10
7.399
 20
0.815
 30
0.0
 40
0.5
  1
125344H
100
AcDbAttributeDefinition
  3

  2
NB
 70
     8
280
     0
  0
ATTDEF
  5
14A
330
143
100
AcDbEntity
  8
AM_6
100
AcDbText
 10
7.399
 20
0.3149999999999999
 30
0.0
 40
0.5
  1
$PN.H
100
AcDbAttributeDefinition
  3

  2
NBSYN
 70
     8
280
     0
  0
ATTDEF
  5
14B
330
143
100
AcDbEntity
  8
AM_6
100
AcDbText
 10
7.399
 20
-0.1850000000000001
 30
0.0
 40
0.5
  1
125344
100
AcDbAttributeDefinition
  3

  2
LINA
 70
     8
280
     0
  0
ATTDEF
  5
14C
330
143
100
AcDbEntity
  8
AM_6
100
AcDbText
 10
7.399
 20
-0.685
 30
0.0
 40
0.5
  1
204
100
AcDbAttributeDefinition
  3

  2
SERIES
 70
     8
280
     0
  0
ATTDEF
  5
14D
330
143
100
AcDbEntity
  8
AM_6
100
AcDbText
 10
7.399
 20
-1.185
 30
0.0
 40
0.5
  1
5/8
100
AcDbAttributeDefinition
  3

  2
SS
 70
     8
280
     0
  0
ATTDEF
  5
14E
330
143
100
AcDbEntity
  8
AM_6
100
AcDbText
 10
7.399
 20
-1.685
 30
0.0
 40
0.5
  1
125344
100
AcDbAttributeDefinition
  3

  2
PN
 70
     8
280
     0
  0
ATTDEF
  5
14F
330
143
100
AcDbEntity
  8
AM_6
100
AcDbText
 10
7.399
 20
-2.185
 30
0.0
 40
0.5
  1
WSTU-SC-010
100
AcDbAttributeDefinition
  3

  2
DESCRIPTION
 70
     8
280
     0
  0
ATTDEF
  5
150
330
143
100
AcDbEntity
  8
AM_6
100
AcDbText
 10
7.399
 20
-2.685
 30
0.0
 40
0.5
  1
2.0
100
AcDbAttributeDefinition
  3

  2
W
 70
     8
280
     0
  0
ATTDEF
  5
151
330
143
100
AcDbEntity
  8
AM_6
100
AcDbText
 10
7.399
 20
-3.185
 30
0.0
 40
0.5
  1
WS300
100
AcDbAttributeDefinition
  3

  2
FS
 70
     8
280
     0
  0
ATTDEF
  5
152
330
143
100
AcDbEntity
  8
AM_6
100
AcDbText
 10
7.399
 20
-3.685
 30
0.0
 40
0.5
  1
RE-LUBE
100
AcDbAttributeDefinition
  3

  2
LF
 70
     8
280
     0
  0
ATTDEF
  5
153
330
143
100
AcDbEntity
  8
AM_6
100
AcDbText
 10
7.399
 20
-4.185
 30
0.0
 40
0.5
  1
1.23
100
AcDbAttributeDefinition
  3

  2
A
 70
     8
280
     0
  0
ATTDEF
  5
154
330
143
100
AcDbEntity
  8
AM_6
100
AcDbText
 10
7.399
 20
-4.685
 30
0.0
 40
0.5
  1
3.69
100
AcDbAttributeDefinition
  3

  2
B
 70
     8
280
     0
  0
ATTDEF
  5
155
330
143
100
AcDbEntity
  8
AM_6
100
AcDbText
 10
7.399
 20
-5.185
 30
0.0
 40
0.5
  1
0.531
100
AcDbAttributeDefinition
  3

  2
C
 70
     8
280
     0
  0
ATTDEF
  5
156
330
143
100
AcDbEntity
  8
AM_6
100
AcDbText
 10
7.399
 20
-5.685
 30
0.0
 40
0.5
  1
2
100
AcDbAttributeDefinition
  3

  2
D
 70
     8
280
     0
  0
ATTDEF
  5
157
330
143
100
AcDbEntity
  8
AM_6
100
AcDbText
 10
7.399
 20
-6.185
 30
0.0
 40
0.5
  1
2.38
100
AcDbAttributeDefinition
  3

  2
E
 70
     8
280
     0
  0
ATTDEF
  5
158
330
143
100
AcDbEntity
  8
AM_6
100
AcDbText
 10
7.399
 20
-6.685
 30
0.0
 40
0.5
  1
5/8
100
AcDbAttributeDefinition
  3

  2
F
 70
     8
280
     0
  0
ATTDEF
  5
159
330
143
100
AcDbEntity
  8
AM_6
100
AcDbText
 10
7.399
 20
-7.185
 30
0.0
 40
0.5
  1
0.38
100
AcDbAttributeDefinition
  3

  2
G
 70
     8
280
     0
  0
ATTDEF
  5
15A
330
143
100
AcDbEntity
  8
AM_6
100
AcDbText
 10
7.399
 20
-7.685
 30
0.0
 40
0.5
  1
0.63
100
AcDbAttributeDefinition
  3

  2
H
 70
     8
280
     0
  0
ATTDEF
  5
15B
330
143
100
AcDbEntity
  8
AM_6
100
AcDbText
 10
7.399
 20
-8.185
 30
0.0
 40
0.5
  1
2
100
AcDbAttributeDefinition
  3

  2
J
 70
     8
280
     0
  0
ATTDEF
  5
15C
330
143
100
AcDbEntity
  8
AM_6
100
AcDbText
 10
7.399
 20
-8.685
 30
0.0
 40
0.5
  1
1.25
100
AcDbAttributeDefinition
  3

  2
K
 70
     8
280
     0
  0
ATTDEF
  5
15D
330
143
100
AcDbEntity
  8
AM_6
100
AcDbText
 10
7.399
 20
-9.185
 30
0.0
 40
0.5
  1
1.12
100
AcDbAttributeDefinition
  3

  2
L
 70
     8
280
     0
  0
ATTDEF
  5
15E
330
143
100
AcDbEntity
  8
AM_6
100
AcDbText
 10
7.399
 20
-9.685
 30
0.0
 40
0.5
  1
2.985 / 3.015
100
AcDbAttributeDefinition
  3

  2
M
 70
     8
280
     0
  0
ATTDEF
  5
15F
330
143
100
AcDbEntity
  8
AM_6
100
AcDbText
 10
7.399
 20
-10.185
 30
0.0
 40
0.5
  1
3.63
100
AcDbAttributeDefinition
  3

  2
N
 70
     8
280
     0
  0
ATTDEF
  5
160
330
143
100
AcDbEntity
  8
AM_6
100
AcDbText
 10
7.399
 20
-10.685
 30
0.0
 40
0.5
  1
0.50
100
AcDbAttributeDefinition
  3

  2
R
 70
     8
280
     0
  0
ATTDEF
  5
161
330
143
100
AcDbEntity
  8
AM_6
100
AcDbText
 10
7.399
 20
-11.185
 30
0.0
 40
0.5
  1
0.73
100
AcDbAttributeDefinition
  3

  2
S
 70
     8
280
     0
  0
ATTDEF
  5
162
330
143
100
AcDbEntity
  8
AM_6
100
AcDbText
 10
7.399
 20
-11.685
 30
0.0
 40
0.5
  1
1.38
100
AcDbAttributeDefinition
  3

  2
T
 70
     8
280
     0
  0
ATTDEF
  5
163
330
143
100
AcDbEntity
  8
AM_6
100
AcDbText
 10
7.399
 20
-12.185
 30
0.0
 40
0.5
  1
1390
100
AcDbAttributeDefinition
  3

  2
CAPS
 70
     8
280
     0
  0
ATTDEF
  5
164
330
143
100
AcDbEntity
  8
AM_6
100
AcDbText
 10
7.399
 20
-12.685
 30
0.0
 40
0.5
  1
2899
100
AcDbAttributeDefinition
  3

  2
CAPD
 70
     8
280
     0
  0
ATTDEF
  5
165
330
143
100
AcDbEntity
  8
AM_6
100
AcDbText
 10
7.399
 20
-13.185
 30
0.0
 40
0.5
  1
baldor
100
AcDbAttributeDefinition
  3

  2
COMPANY
 70
     8
280
     0
  0
LINE
  5
166
330
143
100
AcDbEntity
  8
AM_9
100
AcDbLine
 10
-1.146095819336059
 20
-0.8349038105676658
 30
0.0
 11
-1.052080509172515
 21
-0.7806240459367977
 31
0.0
  0
LINE
  5
167
330
143
100
AcDbEntity
  8
AM_9
100
AcDbLine
 10
-1.202031499116151
 20
-0.5207881288322318
 30
0.0
 11
-1.296095819336059
 21
-0.5750961894323343
 31
0.0
  0
LINE
  5
168
330
143
100
AcDbEntity
  8
AM_9
100
AcDbLine
 10
-0.2083333333333333
 20
-0.901438995285994
 30
0.0
 11
-0.2083333333333333
 21
-0.9334847747672279
 31
0.0
  0
ARC
  5
169
330
143
100
AcDbEntity
  8
AM_9
100
AcDbCircle
 10
0.0
 20
-0.0000000000000007
 30
0.0
 40
0.9564499999999994
100
AcDbArc
 50
257.419013877884
 51
282.580986122116
  0
LINE
  5
16A
330
143
100
AcDbEntity
  8
AM_9
100
AcDbLine
 10
0.2083333333333334
 20
-0.9334847747672279
 30
0.0
 11
0.2083333333333333
 21
-0.901438995285994
 31
0.0
  0
LINE
  5
16B
330
143
100
AcDbEntity
  8
AM_9
100
AcDbLine
 10
-0.2083333333333333
 20
0.9334847747672279
 30
0.0
 11
-0.2083333333333333
 21
0.901438995285994
 31
0.0
  0
LINE
  5
16C
330
143
100
AcDbEntity
  8
AM_9
100
AcDbLine
 10
0.2083333333333333
 20
0.901438995285994
 30
0.0
 11
0.2083333333333333
 21
0.9334847747672279
 31
0.0
  0
ARC
  5
16D
330
143
100
AcDbEntity
  8
AM_9
100
AcDbCircle
 10
-0.0000000000000001
 20
0.0000000000000006
 30
0.0
 40
0.9564499999999995
100
AcDbArc
 50
77.41901387788393
 51
102.5809861221161
  0
LINE
  5
16E
330
143
100
AcDbEntity
  8
AM_9
100
AcDbLine
 10
1.0
 20
1.4925
 30
0.0
 11
-1.0
 21
1.4925
 31
0.0
  0
LINE
  5
16F
330
143
100
AcDbEntity
  8
AM_9
100
AcDbLine
 10
1.0
 20
-1.4925
 30
0.0
 11
-1.0
 21
-1.4925
 31
0.0
  0
LINE
  5
170
330
143
100
AcDbEntity
  8
AM_9
100
AcDbLine
 10
2.0
 20
-0.3125
 30
0.0
 11
2.38
 21
-0.3125
 31
0.0
  0
LINE
  5
171
330
143
100
AcDbEntity
  8
AM_9
100
AcDbLine
 10
2.38
 20
0.3125
 30
0.0
 11
2.0
 21
0.3125
 31
0.0
  0
LINE
  5
172
330
143
100
AcDbEntity
  8
AM_7
100
AcDbLine
 10
-0.9714600000000001
 20
0.0
 30
0.0
 11
0.9714600000000001
 21
0.0
 31
0.0
  0
LINE
  5
173
330
143
100
AcDbEntity
  8
AM_7
100
AcDbLine
 10
0.0
 20
-0.9714600000000001
 30
0.0
 11
-0.0000000000000001
 21
0.9762725
 31
0.0
  0
LINE
  5
174
330
143
100
AcDbEntity
  8
AM_7
100
AcDbLine
 10
-1.707964476026123
 20
-0.98609375
 30
0.0
 11
-0.6876528085202471
 21
-0.3970165341081666
 31
0.0
  0
LINE
  5
175
330
143
100
AcDbEntity
  8
AM_7
100
AcDbLine
 10
2.399
 20
0.0
 30
0.0
 11
1.981
 21
0.0
 31
0.0
  0
LINE
  5
176
330
143
100
AcDbEntity
  8
AM_4
100
AcDbLine
 10
-1.381095819336059
 20
-0.4278718707889795
 30
0.0
 11
-1.061095819338018
 21
-0.9821281292076269
 31
0.0
  0
ARC
  5
177
330
143
100
AcDbEntity
  8
AM_4
100
AcDbCircle
 10
-0.9744932789576148
 20
-0.9321281292110197
 30
0.0
 40
0.1000000000000001
100
AcDbArc
 50
210.0000000000001
 51
255.1397299096492
  0
ARC
  5
178
330
143
100
AcDbEntity
  8
AM_4
100
AcDbCircle
 10
-1.294493278957613
 20
-0.37787187078898
 30
0.0
 40
0.1000000000000013
100
AcDbArc
 50
120.0000000000006
 51
209.9999999999995
  0
LINE
  5
179
330
143
100
AcDbEntity
  8
AM_4
100
AcDbLine
 10
-1.344493278957615
 20
-0.2912693304105357
 30
0.0
 11
-1.0
 21
-0.8879491924311224
 31
0.0
  0
LINE
  5
17A
330
143
100
AcDbEntity
  8
AM_4
100
AcDbLine
 10
-1.284659517109745
 20
-0.25672429190104
 30
0.0
 11
-1.344493278957615
 21
-0.2912693304105357
 31
0.0
  0
ARC
  5
17B
330
143
100
AcDbEntity
  8
AM_4
100
AcDbCircle
 10
-0.0000000000000004
 20
-0.0000000000000001
 30
0.0
 40
1.31
100
AcDbArc
 50
139.7612018740757
 51
220.2387981259243
  0
LWPOLYLINE
  5
17C
330
143
100
AcDbEntity
  8
AM_4
100
AcDbPolyline
 90
       19
 70
     0
 43
0.0
 10
2.38
 20
0.9469000000000004
 10
2.379797938468672
 20
0.951527969939901
 10
2.379193291684948
 20
0.9561207182341143
 10
2.37819066137595
 20
0.9606432912949441
 10
2.376797678163732
 20
0.9650612696105931
 10
2.375024943491646
 20
0.9693410296984313
 10
2.372885948940954
 20
0.9734500000000001
 10
2.370396973551745
 20
0.9773569087702406
 10
2.367576959929618
 20
0.9810320220743552
 10
2.364447370081006
 20
0.9844473700810057
 10
2.361032022074355
 20
0.9875769599296178
 10
2.357356908770241
 20
0.9903969735517455
 10
2.35345
 20
0.9928859489409536
 10
2.349341029698432
 20
0.9950249434916462
 10
2.345061269610593
 20
0.9967976781637317
 10
2.340643291294944
 20
0.9981906613759495
 10
2.336120718234114
 20
0.9991932916849482
 10
2.331527969939901
 20
0.9997979384686717
 10
2.3269
 20
1.0
  0
LINE
  5
17D
330
143
100
AcDbEntity
  8
AM_4
100
AcDbLine
 10
2.3269
 20
1.0
 30
0.0
 11
1.0
 21
1.0
 31
0.0
  0
LWPOLYLINE
  5
17E
330
143
100
AcDbEntity
  8
AM_4
100
AcDbPolyline
 90
       19
 70
     0
 43
0.0
 10
2.3269
 20
-1.0
 10
2.331527969939901
 20
-0.9997979384686717
 10
2.336120718234114
 20
-0.9991932916849482
 10
2.340643291294944
 20
-0.9981906613759495
 10
2.345061269610593
 20
-0.9967976781637317
 10
2.349341029698431
 20
-0.9950249434916462
 10
2.35345
 20
-0.9928859489409536
 10
2.357356908770241
 20
-0.9903969735517455
 10
2.361032022074355
 20
-0.9875769599296178
 10
2.364447370081006
 20
-0.9844473700810057
 10
2.367576959929618
 20
-0.9810320220743552
 10
2.370396973551745
 20
-0.9773569087702406
 10
2.372885948940954
 20
-0.9734500000000001
 10
2.375024943491646
 20
-0.9693410296984313
 10
2.376797678163732
 20
-0.9650612696105931
 10
2.37819066137595
 20
-0.9606432912949441
 10
2.379193291684948
 20
-0.9561207182341143
 10
2.379797938468672
 20
-0.951527969939901
 10
2.38
 20
-0.9469000000000004
  0
LINE
  5
17F
330
143
100
AcDbEntity
  8
AM_4
100
AcDbLine
 10
2.3269
 20
-0.9999999999999999
 30
0.0
 11
1.0
 21
-1.0
 31
0.0
  0
LINE
  5
180
330
143
100
AcDbEntity
  8
AM_4
100
AcDbLine
 10
2.38
 20
0.9469000000000001
 30
0.0
 11
2.38
 21
-0.9469
 31
0.0
  0
LINE
  5
181
330
143
100
AcDbEntity
  8
AM_4
100
AcDbLine
 10
2.0
 20
-0.5719000000000004
 30
0.0
 11
2.0
 21
0.5718999999999997
 31
0.0
  0
CIRCLE
  5
182
330
143
100
AcDbEntity
  8
AM_4
100
AcDbCircle
 10
0.0
 20
0.0
 30
0.0
 40
0.9252
  0
LINE
  5
183
330
143
100
AcDbEntity
  8
AM_4
100
AcDbLine
 10
2.38
 20
0.9469000000000001
 30
0.0
 11
1.0
 21
0.9469000000000001
 31
0.0
  0
ARC
  5
184
330
143
100
AcDbEntity
  8
AM_4
100
AcDbCircle
 10
-0.0000000000000002
 20
-0.0000000000000001
 30
0.0
 40
1.2824
100
AcDbArc
 50
141.2411596157947
 51
218.7588403842053
  0
LINE
  5
185
330
143
100
AcDbEntity
  8
AM_4
100
AcDbLine
 10
2.38
 20
-0.9469
 30
0.0
 11
1.0
 21
-0.9469
 31
0.0
  0
ARC
  5
186
330
143
100
AcDbEntity
  8
AM_4
100
AcDbCircle
 10
1.946900000000001
 20
-0.5719000000000006
 30
0.0
 40
0.0530999999999994
100
AcDbArc
 50
270.0
 51
0.0
  0
LINE
  5
187
330
143
100
AcDbEntity
  8
AM_4
100
AcDbLine
 10
1.4231
 20
-0.625
 30
0.0
 11
1.9469
 21
-0.625
 31
0.0
  0
ARC
  5
188
330
143
100
AcDbEntity
  8
AM_4
100
AcDbCircle
 10
1.4231
 20
-0.5719000000000001
 30
0.0
 40
0.0530999999999999
100
AcDbArc
 50
180.0
 51
270.0
  0
LINE
  5
189
330
143
100
AcDbEntity
  8
AM_4
100
AcDbLine
 10
1.37
 20
0.5719000000000003
 30
0.0
 11
1.37
 21
-0.5719000000000003
 31
0.0
  0
ARC
  5
18A
330
143
100
AcDbEntity
  8
AM_4
100
AcDbCircle
 10
1.4231
 20
0.5719000000000001
 30
0.0
 40
0.0530999999999999
100
AcDbArc
 50
90.0
 51
180.0
  0
LINE
  5
18B
330
143
100
AcDbEntity
  8
AM_4
100
AcDbLine
 10
1.946900000000001
 20
0.6249999999999999
 30
0.0
 11
1.4231
 21
0.625
 31
0.0
  0
ARC
  5
18C
330
143
100
AcDbEntity
  8
AM_4
100
AcDbCircle
 10
1.9469
 20
0.5718999999999999
 30
0.0
 40
0.0530999999999999
100
AcDbArc
 50
0.0
 51
90.0
  0
LWPOLYLINE
  5
18D
330
143
100
AcDbEntity
  8
AM_4
100
AcDbPolyline
 90
       19
 70
     0
 43
0.0
 10
0.9999999999999997
 20
1.7619
 10
0.9997979384686714
 20
1.766527969939901
 10
0.9991932916849481
 20
1.771120718234114
 10
0.9981906613759494
 20
1.775643291294944
 10
0.9967976781637315
 20
1.780061269610593
 10
0.9950249434916459
 20
1.784341029698431
 10
0.9928859489409535
 20
1.78845
 10
0.9903969735517454
 20
1.79235690877024
 10
0.9875769599296175
 20
1.796032022074355
 10
0.9844473700810055
 20
1.799447370081005
 10
0.9810320220743551
 20
1.802576959929618
 10
0.9773569087702404
 20
1.805396973551745
 10
0.9734499999999998
 20
1.807885948940954
 10
0.969341029698431
 20
1.810024943491646
 10
0.9650612696105929
 20
1.811797678163731
 10
0.9606432912949437
 20
1.813190661375949
 10
0.9561207182341138
 20
1.814193291684948
 10
0.9515279699399006
 20
1.814797938468672
 10
0.9469
 20
1.815
  0
LINE
  5
18E
330
143
100
AcDbEntity
  8
AM_4
100
AcDbLine
 10
0.9468999999999999
 20
1.815
 30
0.0
 11
-0.9469
 21
1.815
 31
0.0
  0
LWPOLYLINE
  5
18F
330
143
100
AcDbEntity
  8
AM_4
100
AcDbPolyline
 90
       19
 70
     0
 43
0.0
 10
-0.9469
 20
1.815
 10
-0.9515279699399006
 20
1.814797938468672
 10
-0.9561207182341138
 20
1.814193291684948
 10
-0.9606432912949436
 20
1.813190661375949
 10
-0.9650612696105929
 20
1.811797678163731
 10
-0.969341029698431
 20
1.810024943491646
 10
-0.9734499999999998
 20
1.807885948940954
 10
-0.9773569087702404
 20
1.805396973551745
 10
-0.981032022074355
 20
1.802576959929618
 10
-0.9844473700810055
 20
1.799447370081006
 10
-0.9875769599296175
 20
1.796032022074355
 10
-0.9903969735517452
 20
1.792356908770241
 10
-0.9928859489409534
 20
1.78845
 10
-0.9950249434916458
 20
1.784341029698431
 10
-0.9967976781637314
 20
1.780061269610593
 10
-0.9981906613759491
 20
1.775643291294944
 10
-0.999193291684948
 20
1.771120718234114
 10
-0.9997979384686714
 20
1.766527969939901
 10
-0.9999999999999997
 20
1.7619
  0
LINE
  5
190
330
143
100
AcDbEntity
  8
AM_4
100
AcDbLine
 10
1.0
 20
1.7619
 30
0.0
 11
1.0
 21
0.9469000000000001
 31
0.0
  0
LINE
  5
191
330
143
100
AcDbEntity
  8
AM_4
100
AcDbLine
 10
-0.9999999999999997
 20
1.7619
 30
0.0
 11
-1.0
 21
0.8028385640961698
 31
0.0
  0
LINE
  5
192
330
143
100
AcDbEntity
  8
AM_4
100
AcDbLine
 10
1.0
 20
1.7619
 30
0.0
 11
-0.9999999999999997
 21
1.7619
 31
0.0
  0
LINE
  5
193
330
143
100
AcDbEntity
  8
AM_4
100
AcDbLine
 10
1.0
 20
1.331249999999999
 30
0.0
 11
-1.0
 21
1.331249999999999
 31
0.0
  0
LINE
  5
194
330
143
100
AcDbEntity
  8
AM_4
100
AcDbLine
 10
1.0
 20
1.4109
 30
0.0
 11
-1.0
 21
1.4109
 31
0.0
  0
LINE
  5
195
330
143
100
AcDbEntity
  8
AM_4
100
AcDbLine
 10
1.0
 20
-1.331249999999999
 30
0.0
 11
-1.0
 21
-1.331249999999999
 31
0.0
  0
LINE
  5
196
330
143
100
AcDbEntity
  8
AM_4
100
AcDbLine
 10
1.0
 20
-0.9469
 30
0.0
 11
1.0
 21
-1.7619
 31
0.0
  0
LINE
  5
197
330
143
100
AcDbEntity
  8
AM_4
100
AcDbLine
 10
-1.0
 20
-0.8028385640961697
 30
0.0
 11
-1.0
 21
-1.7619
 31
0.0
  0
LINE
  5
198
330
143
100
AcDbEntity
  8
AM_4
100
AcDbLine
 10
1.0
 20
-1.4109
 30
0.0
 11
-1.0
 21
-1.4109
 31
0.0
  0
LWPOLYLINE
  5
199
330
143
100
AcDbEntity
  8
AM_4
100
AcDbPolyline
 90
       19
 70
     0
 43
0.0
 10
0.9469000000000001
 20
-1.815
 10
0.9515279699399007
 20
-1.814797938468672
 10
0.9561207182341142
 20
-1.814193291684948
 10
0.960643291294944
 20
-1.813190661375949
 10
0.965061269610593
 20
-1.811797678163731
 10
0.9693410296984313
 20
-1.810024943491646
 10
0.9734500000000001
 20
-1.807885948940954
 10
0.9773569087702406
 20
-1.805396973551745
 10
0.9810320220743554
 20
-1.802576959929618
 10
0.9844473700810057
 20
-1.799447370081006
 10
0.9875769599296179
 20
-1.796032022074355
 10
0.9903969735517456
 20
-1.792356908770241
 10
0.9928859489409537
 20
-1.78845
 10
0.9950249434916463
 20
-1.784341029698431
 10
0.996797678163732
 20
-1.780061269610593
 10
0.9981906613759497
 20
-1.775643291294944
 10
0.9991932916849485
 20
-1.771120718234114
 10
0.9997979384686719
 20
-1.766527969939901
 10
1.0
 20
-1.761900000791252
  0
LINE
  5
19A
330
143
100
AcDbEntity
  8
AM_4
100
AcDbLine
 10
0.9469
 20
-1.815
 30
0.0
 11
-0.9469000000000002
 21
-1.815
 31
0.0
  0
LINE
  5
19B
330
143
100
AcDbEntity
  8
AM_4
100
AcDbLine
 10
1.0
 20
-1.7619
 30
0.0
 11
-1.0
 21
-1.7619
 31
0.0
  0
LWPOLYLINE
  5
19C
330
143
100
AcDbEntity
  8
AM_4
100
AcDbPolyline
 90
       19
 70
     0
 43
0.0
 10
-1.0
 20
-1.761900000791252
 10
-0.9997979383997098
 20
-1.766527970728141
 10
-0.9991932915475491
 20
-1.771120719013345
 10
-0.9981906611711588
 20
-1.775643292059234
 10
-0.996797677893108
 20
-1.780061270354126
 10
-0.995024943157249
 20
-1.784341030415548
 10
-0.9928859485453281
 20
-1.788450000685244
 10
-0.9903969730979023
 20
-1.792356909418396
 10
-0.9875769594210112
 20
-1.796032022680489
 10
-0.9844473695215065
 20
-1.799447370640505
 10
-0.9810320214682215
 20
-1.802576960438224
 10
-0.9773569081220854
 20
-1.805396974005589
 10
-0.9734499993147562
 20
-1.80788594933658
 10
-0.9693410289813138
 20
-1.810024943826043
 10
-0.96506126886706
 20
-1.811797678434355
 10
-0.9606432905306538
 20
-1.81319066158074
 10
-0.9561207174548835
 20
-1.814193291822347
 10
-0.9515279691516602
 20
-1.814797938537634
 10
-0.9469000000000002
 20
-1.815
  0
LINE
  5
19D
330
143
100
AcDbEntity
  8
AM_4
100
AcDbLine
 10
2.0
 20
0.5219034177891535
 30
0.0
 11
2.38
 21
0.5219034177891535
 31
0.0
  0
LINE
  5
19E
330
143
100
AcDbEntity
  8
AM_4
100
AcDbLine
 10
2.38
 20
-0.5219034177891528
 30
0.0
 11
2.0
 21
-0.5219034177891535
 31
0.0
  0
ENDBLK
  5
146
330
143
100
AcDbEntity
  8
0
100
AcDbBlockEnd
  0
ENDSEC
  0
SECTION
  2
ENTITIES
  0
INSERT
  5
6F
330
1F
100
AcDbEntity
  8
0
100
AcDbBlockReference
  2
1_125344_0
 10
0.0
 20
0.0
 30
0.0
  0
POINT
  5
1A0
330
1F
100
AcDbEntity
  8
ConnectionPoints
100
AcDbPoint
 10
-1.221095819336059
 20
-0.705
 30
0.0
  0
POINT
  5
1A1
330
1F
100
AcDbEntity
  8
ConnectionPoints
100
AcDbPoint
 10
-1.221095819336059
 20
-0.705
 30
0.0
  0
POINT
  5
1A2
330
1F
100
AcDbEntity
  8
ConnectionPoints
100
AcDbPoint
 10
0.0
 20
0.0
 30
0.73
  0
ENDSEC
  0
SECTION
  2
OBJECTS
  0
DICTIONARY
  5
C
330
0
100
AcDbDictionary
281
     1
  3
ACAD_DETAILVIEWSTYLE
350
1AA
  3
ACAD_GROUP
350
D
  3
ACAD_LAYOUT
350
1A
  3
ACAD_MATERIAL
350
43
  3
ACAD_MLEADERSTYLE
350
6B
  3
ACAD_MLINESTYLE
350
17
  3
ACAD_PLOTSETTINGS
350
19
  3
ACAD_PLOTSTYLENAME
350
E
  3
ACAD_SCALELIST
350
47
  3
ACAD_SECTIONVIEWSTYLE
350
1AB
  3
ACAD_TABLESTYLE
350
69
  3
ACAD_VISUALSTYLE
350
2A
  3
ACDB_RECOMPOSE_DATA
350
1A7
  3
AcDbVariableDictionary
350
1A3
  0
SUN
  5
6D
330
29
100
AcDbSun
 90
        1
290
     0
 63
     7
421
 16777215
 40
1.0
291
     1
 91
  2455826
 92
 54000000
292
     0
 70
     2
 71
   256
280
     1
  0
DICTIONARY
  5
1AA
102
{ACAD_REACTORS
330
C
102
}
330
C
100
AcDbDictionary
281
     1
  0
DICTIONARY
  5
D
102
{ACAD_REACTORS
330
C
102
}
330
C
100
AcDbDictionary
281
     1
  0
DICTIONARY
  5
1A
102
{ACAD_REACTORS
330
C
102
}
330
C
100
AcDbDictionary
281
     1
  3
Layout1
350
1E
  3
Layout2
350
26
  3
Model
350
22
  0
DICTIONARY
  5
43
102
{ACAD_REACTORS
330
C
102
}
330
C
100
AcDbDictionary
281
     1
  3
ByBlock
350
45
  3
ByLayer
350
44
  3
Global
350
46
  0
DICTIONARY
  5
6B
102
{ACAD_REACTORS
330
C
102
}
330
C
100
AcDbDictionary
281
     1
  3
Standard
350
6C
  0
DICTIONARY
  5
17
102
{ACAD_REACTORS
330
C
102
}
330
C
100
AcDbDictionary
281
     1
  3
Standard
350
18
  0
DICTIONARY
  5
19
102
{ACAD_REACTORS
330
C
102
}
330
C
100
AcDbDictionary
281
     1
  0
ACDBDICTIONARYWDFLT
  5
E
102
{ACAD_REACTORS
330
C
102
}
330
C
100
AcDbDictionary
281
     1
  3
Normal
350
F
100
AcDbDictionaryWithDefault
340
F
  0
DICTIONARY
  5
47
102
{ACAD_REACTORS
330
C
102
}
330
C
100
AcDbDictionary
281
     1
  3
A0
350
48
  3
A1
350
49
  3
A2
350
4A
  3
A3
350
4B
  3
A4
350
4C
  3
A5
350
4D
  3
A6
350
4E
  3
A7
350
4F
  3
A8
350
50
  3
A9
350
51
  3
B0
350
52
  3
B1
350
53
  3
B2
350
54
  3
B3
350
55
  3
B4
350
56
  3
B5
350
57
  3
B6
350
58
  3
B7
350
59
  3
B8
350
5A
  3
B9
350
5B
  3
C0
350
5C
  3
C1
350
5D
  3
C2
350
5E
  3
C3
350
5F
  3
C4
350
60
  3
C5
350
61
  3
C6
350
62
  3
C7
350
63
  3
C8
350
64
  3
C9
350
65
  3
D0
350
66
  3
D1
350
67
  3
D2
350
68
  0
DICTIONARY
  5
1AB
102
{ACAD_REACTORS
330
C
102
}
330
C
100
AcDbDictionary
281
     1
  0
DICTIONARY
  5
69
102
{ACAD_REACTORS
330
C
102
}
330
C
100
AcDbDictionary
281
     1
  3
Standard
350
6A
  0
DICTIONARY
  5
2A
102
{ACAD_REACTORS
330
C
102
}
330
C
100
AcDbDictionary
281
     1
  3
2dWireframe
350
2F
  3
Basic
350
32
  3
Brighten
350
36
  3
ColorChange
350
3A
  3
Conceptual
350
34
  3
Dim
350
35
  3
EdgeColorOff
350
3D
  3
Facepattern
350
39
  3
Flat
350
2B
  3
FlatWithEdges
350
2C
  3
Gouraud
350
2D
  3
GouraudWithEdges
350
2E
  3
Hidden
350
31
  3
JitterOff
350
3B
  3
Linepattern
350
38
  3
OverhangOff
350
3C
  3
Realistic
350
33
  3
Shaded
350
42
  3
Shaded with edges
350
41
  3
Shades of Gray
350
3E
  3
Sketchy
350
3F
  3
Thicken
350
37
  3
Wireframe
350
30
  3
X-Ray
350
40
  0
XRECORD
  5
1A7
102
{ACAD_REACTORS
330
C
102
}
330
C
100
AcDbXrecord
280
     1
 90
        1
330
6A
  0
DICTIONARY
  5
1A3
102
{ACAD_REACTORS
330
C
102
}
330
C
100
AcDbDictionary
281
     1
  3
CANNOSCALE
350
1A4
  3
CMLEADERSTYLE
350
1A9
  3
CTABLESTYLE
350
1A8
  0
LAYOUT
  5
1E
102
{ACAD_REACTORS
330
1A
102
}
330
1A
100
AcDbPlotSettings
  1

  2
none_device
  4

  6

 40
0.0
 41
0.0
 42
0.0
 43
0.0
 44
0.0
 45
0.0
 46
0.0
 47
0.0
 48
0.0
 49
0.0
140
0.0
141
0.0
142
1.0
143
1.0
 70
   688
 72
     0
 73
     0
 74
     5
  7

 75
    16
 76
     0
 77
     2
 78
   300
147
1.0
148
0.0
149
0.0
100
AcDbLayout
  1
Layout1
 70
     1
 71
     1
 10
0.0
 20
0.0
 11
12.0
 21
9.0
 12
0.0
 22
0.0
 32
0.0
 14
1.000000000000000E+20
 24
1.000000000000000E+20
 34
1.000000000000000E+20
 15
-1.000000000000000E+20
 25
-1.000000000000000E+20
 35
-1.000000000000000E+20
146
0.0
 13
0.0
 23
0.0
 33
0.0
 16
1.0
 26
0.0
 36
0.0
 17
0.0
 27
1.0
 37
0.0
 76
     0
330
1B
  0
LAYOUT
  5
26
102
{ACAD_REACTORS
330
1A
102
}
330
1A
100
AcDbPlotSettings
  1

  2
none_device
  4

  6

 40
0.0
 41
0.0
 42
0.0
 43
0.0
 44
0.0
 45
0.0
 46
0.0
 47
0.0
 48
0.0
 49
0.0
140
0.0
141
0.0
142
1.0
143
1.0
 70
   688
 72
     0
 73
     0
 74
     5
  7

 75
    16
 76
     0
 77
     2
 78
   300
147
1.0
148
0.0
149
0.0
100
AcDbLayout
  1
Layout2
 70
     1
 71
     2
 10
0.0
 20
0.0
 11
0.0
 21
0.0
 12
0.0
 22
0.0
 32
0.0
 14
0.0
 24
0.0
 34
0.0
 15
0.0
 25
0.0
 35
0.0
146
0.0
 13
0.0
 23
0.0
 33
0.0
 16
1.0
 26
0.0
 36
0.0
 17
0.0
 27
1.0
 37
0.0
 76
     0
330
23
  0
LAYOUT
  5
22
102
{ACAD_REACTORS
330
1A
102
}
330
1A
100
AcDbPlotSettings
  1

  2
none_device
  4
Letter_(8.50_x_11.00_Inches)
  6

 40
6.35
 41
6.35
 42
6.35000508
 43
6.35000508
 44
215.9
 45
279.4
 46
0.0
 47
0.0
 48
0.0
 49
0.0
140
0.0
141
0.0
142
1.0
143
1.0
 70
  1712
 72
     0
 73
     0
 74
     0
  7

 75
     0
 76
     0
 77
     2
 78
   300
147
1.0
148
0.0
149
0.0
100
AcDbLayout
  1
Model
 70
     1
 71
     0
 10
0.0
 20
0.0
 11
12.0
 21
9.0
 12
0.0
 22
0.0
 32
0.0
 14
1.000000000000000E+20
 24
1.000000000000000E+20
 34
1.000000000000000E+20
 15
-1.000000000000000E+20
 25
-1.000000000000000E+20
 35
-1.000000000000000E+20
146
0.0
 13
0.0
 23
0.0
 33
0.0
 16
1.0
 26
0.0
 36
0.0
 17
0.0
 27
1.0
 37
0.0
 76
     0
330
1F
331
29
  0
MATERIAL
  5
45
102
{ACAD_REACTORS
330
43
102
}
330
43
100
AcDbMaterial
  1
ByBlock
 72
     1
 94
      127
  0
MATERIAL
  5
44
102
{ACAD_REACTORS
330
43
102
}
330
43
100
AcDbMaterial
  1
ByLayer
 72
     1
 94
      127
  0
MATERIAL
  5
46
102
{ACAD_REACTORS
330
43
102
}
330
43
100
AcDbMaterial
  1
Global
 72
     1
 94
      127
  0
MLEADERSTYLE
  5
6C
102
{ACAD_REACTORS
330
6B
102
}
330
6B
100
AcDbMLeaderStyle
179
     2
170
     2
171
     1
172
     0
 90
        2
 40
0.0
 41
0.0
173
     1
 91
-1056964608
340
14
 92
       -2
290
     1
 42
0.09
291
     1
 43
0.36
  3
Standard
341
0
 44
0.18
300

342
11
174
     1
178
     6
175
     1
176
     0
 93
-1056964608
 45
0.18
292
     0
297
     0
 46
0.18
343
0
 94
-1056964608
 47
1.0
 49
1.0
140
1.0
293
     1
141
0.0
294
     1
177
     0
142
1.0
295
     0
296
     0
143
0.125
271
     0
272
     9
273
     9
298
     0
  0
MLINESTYLE
  5
18
102
{ACAD_REACTORS
330
17
102
}
330
17
100
AcDbMlineStyle
  2
Standard
 70
     0
  3

 62
   256
 51
90.0
 52
90.0
 71
     2
 49
0.5
 62
   256
  6
BYLAYER
 49
-0.5
 62
   256
  6
BYLAYER
  0
ACDBPLACEHOLDER
  5
F
102
{ACAD_REACTORS
330
E
102
}
330
E
  0
SCALE
  5
48
102
{ACAD_REACTORS
330
47
102
}
330
47
100
AcDbScale
 70
     0
300
1:1
140
1.0
141
1.0
290
     1
  0
SCALE
  5
49
102
{ACAD_REACTORS
330
47
102
}
330
47
100
AcDbScale
 70
     0
300
1:2
140
1.0
141
2.0
290
     0
  0
SCALE
  5
4A
102
{ACAD_REACTORS
330
47
102
}
330
47
100
AcDbScale
 70
     0
300
1:4
140
1.0
141
4.0
290
     0
  0
SCALE
  5
4B
102
{ACAD_REACTORS
330
47
102
}
330
47
100
AcDbScale
 70
     0
300
1:5
140
1.0
141
5.0
290
     0
  0
SCALE
  5
4C
102
{ACAD_REACTORS
330
47
102
}
330
47
100
AcDbScale
 70
     0
300
1:8
140
1.0
141
8.0
290
     0
  0
SCALE
  5
4D
102
{ACAD_REACTORS
330
47
102
}
330
47
100
AcDbScale
 70
     0
300
1:10
140
1.0
141
10.0
290
     0
  0
SCALE
  5
4E
102
{ACAD_REACTORS
330
47
102
}
330
47
100
AcDbScale
 70
     0
300
1:16
140
1.0
141
16.0
290
     0
  0
SCALE
  5
4F
102
{ACAD_REACTORS
330
47
102
}
330
47
100
AcDbScale
 70
     0
300
1:20
140
1.0
141
20.0
290
     0
  0
SCALE
  5
50
102
{ACAD_REACTORS
330
47
102
}
330
47
100
AcDbScale
 70
     0
300
1:30
140
1.0
141
30.0
290
     0
  0
SCALE
  5
51
102
{ACAD_REACTORS
330
47
102
}
330
47
100
AcDbScale
 70
     0
300
1:40
140
1.0
141
40.0
290
     0
  0
SCALE
  5
52
102
{ACAD_REACTORS
330
47
102
}
330
47
100
AcDbScale
 70
     0
300
1:50
140
1.0
141
50.0
290
     0
  0
SCALE
  5
53
102
{ACAD_REACTORS
330
47
102
}
330
47
100
AcDbScale
 70
     0
300
1:100
140
1.0
141
100.0
290
     0
  0
SCALE
  5
54
102
{ACAD_REACTORS
330
47
102
}
330
47
100
AcDbScale
 70
     0
300
2:1
140
2.0
141
1.0
290
     0
  0
SCALE
  5
55
102
{ACAD_REACTORS
330
47
102
}
330
47
100
AcDbScale
 70
     0
300
4:1
140
4.0
141
1.0
290
     0
  0
SCALE
  5
56
102
{ACAD_REACTORS
330
47
102
}
330
47
100
AcDbScale
 70
     0
300
8:1
140
8.0
141
1.0
290
     0
  0
SCALE
  5
57
102
{ACAD_REACTORS
330
47
102
}
330
47
100
AcDbScale
 70
     0
300
10:1
140
10.0
141
1.0
290
     0
  0
SCALE
  5
58
102
{ACAD_REACTORS
330
47
102
}
330
47
100
AcDbScale
 70
     0
300
100:1
140
100.0
141
1.0
290
     0
  0
SCALE
  5
59
102
{ACAD_REACTORS
330
47
102
}
330
47
100
AcDbScale
 70
     0
300
1/128" = 1'-0"
140
0.0078125
141
12.0
290
     0
  0
SCALE
  5
5A
102
{ACAD_REACTORS
330
47
102
}
330
47
100
AcDbScale
 70
     0
300
1/64" = 1'-0"
140
0.015625
141
12.0
290
     0
  0
SCALE
  5
5B
102
{ACAD_REACTORS
330
47
102
}
330
47
100
AcDbScale
 70
     0
300
1/32" = 1'-0"
140
0.03125
141
12.0
290
     0
  0
SCALE
  5
5C
102
{ACAD_REACTORS
330
47
102
}
330
47
100
AcDbScale
 70
     0
300
1/16" = 1'-0"
140
0.0625
141
12.0
290
     0
  0
SCALE
  5
5D
102
{ACAD_REACTORS
330
47
102
}
330
47
100
AcDbScale
 70
     0
300
3/32" = 1'-0"
140
0.09375
141
12.0
290
     0
  0
SCALE
  5
5E
102
{ACAD_REACTORS
330
47
102
}
330
47
100
AcDbScale
 70
     0
300
1/8" = 1'-0"
140
0.125
141
12.0
290
     0
  0
SCALE
  5
5F
102
{ACAD_REACTORS
330
47
102
}
330
47
100
AcDbScale
 70
     0
300
3/16" = 1'-0"
140
0.1875
141
12.0
290
     0
  0
SCALE
  5
60
102
{ACAD_REACTORS
330
47
102
}
330
47
100
AcDbScale
 70
     0
300
1/4" = 1'-0"
140
0.25
141
12.0
290
     0
  0
SCALE
  5
61
102
{ACAD_REACTORS
330
47
102
}
330
47
100
AcDbScale
 70
     0
300
3/8" = 1'-0"
140
0.375
141
12.0
290
     0
  0
SCALE
  5
62
102
{ACAD_REACTORS
330
47
102
}
330
47
100
AcDbScale
 70
     0
300
1/2" = 1'-0"
140
0.5
141
12.0
290
     0
  0
SCALE
  5
63
102
{ACAD_REACTORS
330
47
102
}
330
47
100
AcDbScale
 70
     0
300
3/4" = 1'-0"
140
0.75
141
12.0
290
     0
  0
SCALE
  5
64
102
{ACAD_REACTORS
330
47
102
}
330
47
100
AcDbScale
 70
     0
300
1" = 1'-0"
140
1.0
141
12.0
290
     0
  0
SCALE
  5
65
102
{ACAD_REACTORS
330
47
102
}
330
47
100
AcDbScale
 70
     0
300
1-1/2" = 1'-0"
140
1.5
141
12.0
290
     0
  0
SCALE
  5
66
102
{ACAD_REACTORS
330
47
102
}
330
47
100
AcDbScale
 70
     0
300
3" = 1'-0"
140
3.0
141
12.0
290
     0
  0
SCALE
  5
67
102
{ACAD_REACTORS
330
47
102
}
330
47
100
AcDbScale
 70
     0
300
6" = 1'-0"
140
6.0
141
12.0
290
     0
  0
SCALE
  5
68
102
{ACAD_REACTORS
330
47
102
}
330
47
100
AcDbScale
 70
     0
300
1'-0" = 1'-0"
140
12.0
141
12.0
290
     0
  0
TABLESTYLE
  5
6A
102
{ACAD_REACTORS
330
69
102
}
102
{ACAD_XDICTIONARY
360
1A5
102
}
330
69
100
AcDbTableStyle
  3
Standard
 70
     0
 71
     0
 40
0.06
 41
0.06
280
     0
281
     0
  7
Standard
140
0.18
170
     2
 62
     0
 63
   257
283
     0
 90
        4
 91
        0
  1

274
    -2
284
     1
 64
     0
275
    -2
285
     1
 65
     0
276
    -2
286
     1
 66
     0
277
    -2
287
     1
 67
     0
278
    -2
288
     1
 68
     0
279
    -2
289
     1
 69
     0
  7
Standard
140
0.25
170
     5
 62
     0
 63
   257
283
     0
 90
        4
 91
        0
  1

274
    -2
284
     1
 64
     0
275
    -2
285
     1
 65
     0
276
    -2
286
     1
 66
     0
277
    -2
287
     1
 67
     0
278
    -2
288
     1
 68
     0
279
    -2
289
     1
 69
     0
  7
Standard
140
0.18
170
     5
 62
     0
 63
   257
283
     0
 90
        4
 91
        0
  1

274
    -2
284
     1
 64
     0
275
    -2
285
     1
 65
     0
276
    -2
286
     1
 66
     0
277
    -2
287
     1
 67
     0
278
    -2
288
     1
 68
     0
279
    -2
289
     1
 69
     0
  0
VISUALSTYLE
  5
2F
102
{ACAD_REACTORS
330
2A
102
}
330
2A
100
AcDbVisualStyle
  2
2dWireframe
 70
     4
177
     3
291
     0
 70
    58
 90
        0
176
     1
 90
        2
176
     1
 90
        0
176
     1
 90
        0
176
     1
 40
0.6
176
     1
 40
30.0
176
     1
 62
     7
420
 16777215
176
     1
 90
        1
176
     1
 90
        4
176
     1
 62
     7
176
     1
 62
   257
176
     1
 90
        1
176
     1
 90
        1
176
     1
 40
1.0
176
     1
 90
        0
176
     1
 62
   257
176
     1
 40
1.0
176
     1
 90
        1
176
     1
 90
        6
176
     1
 90
        2
176
     1
 62
     7
176
     1
 90
        5
176
     1
 90
        0
176
     1
 90
        0
176
     1
290
     0
176
     1
 90
        1
176
     1
 40
0.0
176
     1
 90
        0
176
     1
290
     1
176
     1
290
     1
176
     1
290
     0
176
     1
290
     0
176
     1
290
     0
176
     1
290
     0
176
     1
290
     0
176
     1
290
     0
176
     1
290
     0
176
     1
 90
       50
176
     1
 40
0.0
176
     1
 40
1.0
176
     1
 90
        0
176
     1
 62
    18
420
        0
176
     1
 90
       50
176
     1
 90
        3
176
     1
 62
     5
420
      255
176
     1
290
     0
176
     1
 90
       50
176
     1
 90
       50
176
     1
 90
       50
176
     1
290
     0
176
     1
 90
       50
176
     1
 62
   256
176
     0
 40
1.0
176
     0
 90
        2
176
     1
  1
strokes_ogs.tif
176
     1
290
     0
176
     1
 40
1.0
176
     1
 40
1.0
176
     1
  0
VISUALSTYLE
  5
32
102
{ACAD_REACTORS
330
2A
102
}
330
2A
100
AcDbVisualStyle
  2
Basic
 70
     7
177
     3
291
     1
 70
    58
 90
        1
176
     1
 90
        0
176
     1
 90
        1
176
     1
 90
        0
176
     1
 40
0.6
176
     1
 40
30.0
176
     1
 62
     7
420
 16777215
176
     1
 90
        0
176
     1
 90
        4
176
     1
 62
     7
176
     1
 62
   257
176
     1
 90
        1
176
     1
 90
        1
176
     1
 40
1.0
176
     1
 90
        8
176
     1
 62
     7
176
     1
 40
1.0
176
     1
 90
        1
176
     1
 90
        6
176
     1
 90
        2
176
     1
 62
     7
176
     1
 90
        5
176
     1
 90
        0
176
     1
 90
        0
176
     1
290
     0
176
     1
 90
        1
176
     1
 40
0.0
176
     1
 90
        0
176
     1
290
     0
176
     1
290
     1
176
     1
290
     1
176
     1
290
     0
176
     1
290
     0
176
     1
290
     0
176
     1
290
     0
176
     1
290
     0
176
     1
290
     0
176
     1
 90
       50
176
     1
 40
0.0
176
     1
 40
1.0
176
     1
 90
        0
176
     1
 62
    18
420
        0
176
     1
 90
       50
176
     1
 90
        3
176
     1
 62
     5
420
      255
176
     1
290
     0
176
     1
 90
       50
176
     1
 90
       50
176
     1
 90
       50
176
     1
290
     0
176
     1
 90
       50
176
     1
 62
   256
176
     0
 40
1.0
176
     0
 90
        2
176
     1
  1
strokes_ogs.tif
176
     1
290
     0
176
     1
 40
1.0
176
     1
 40
1.0
176
     1
  0
VISUALSTYLE
  5
36
102
{ACAD_REACTORS
330
2A
102
}
330
2A
100
AcDbVisualStyle
  2
Brighten
 70
    12
177
     3
291
     1
 70
    58
 90
        2
176
     1
 90
        2
176
     1
 90
        0
176
     1
 90
        0
176
     1
 40
0.6
176
     1
 40
30.0
176
     1
 62
     7
420
 16777215
176
     1
 90
        1
176
     1
 90
        4
176
     1
 62
     7
176
     1
 62
   257
176
     1
 90
        1
176
     1
 90
        1
176
     1
 40
1.0
176
     1
 90
        8
176
     1
 62
     7
176
     1
 40
1.0
176
     1
 90
        1
176
     1
 90
        6
176
     1
 90
        2
176
     1
 62
     7
176
     1
 90
        5
176
     1
 90
        0
176
     1
 90
        0
176
     1
290
     0
176
     1
 90
        1
176
     1
 40
50.0
176
     1
 90
        0
176
     1
290
     0
176
     1
290
     1
176
     1
290
     1
176
     1
290
     0
176
     1
290
     0
176
     1
290
     0
176
     1
290
     0
176
     1
290
     0
176
     1
290
     0
176
     1
 90
       50
176
     1
 40
0.0
176
     1
 40
1.0
176
     1
 90
        0
176
     1
 62
    18
420
        0
176
     1
 90
       50
176
     1
 90
        3
176
     1
 62
     5
420
      255
176
     1
290
     0
176
     1
 90
       50
176
     1
 90
       50
176
     1
 90
       50
176
     1
290
     0
176
     1
 90
       50
176
     1
 62
   256
176
     0
 40
1.0
176
     0
 90
        2
176
     1
  1
strokes_ogs.tif
176
     1
290
     0
176
     1
 40
1.0
176
     1
 40
1.0
176
     1
  0
VISUALSTYLE
  5
3A
102
{ACAD_REACTORS
330
2A
102
}
330
2A
100
AcDbVisualStyle
  2
ColorChange
 70
    16
177
     3
291
     1
 70
    58
 90
        2
176
     1
 90
        2
176
     1
 90
        3
176
     1
 90
        0
176
     1
 40
0.6
176
     1
 40
30.0
176
     1
 62
     8
420
  8421504
176
     1
 90
        1
176
     1
 90
        4
176
     1
 62
     7
176
     1
 62
   257
176
     1
 90
        1
176
     1
 90
        1
176
     1
 40
1.0
176
     1
 90
        8
176
     1
 62
     8
420
  8421504
176
     1
 40
1.0
176
     1
 90
        1
176
     1
 90
        6
176
     1
 90
        2
176
     1
 62
     7
176
     1
 90
        5
176
     1
 90
        0
176
     1
 90
        0
176
     1
290
     0
176
     1
 90
        1
176
     1
 40
0.0
176
     1
 90
        0
176
     1
290
     0
176
     1
290
     1
176
     1
290
     1
176
     1
290
     0
176
     1
290
     0
176
     1
290
     0
176
     1
290
     0
176
     1
290
     0
176
     1
290
     0
176
     1
 90
       50
176
     1
 40
0.0
176
     1
 40
1.0
176
     1
 90
        0
176
     1
 62
    18
420
        0
176
     1
 90
       50
176
     1
 90
        3
176
     1
 62
     5
420
      255
176
     1
290
     0
176
     1
 90
       50
176
     1
 90
       50
176
     1
 90
       50
176
     1
290
     0
176
     1
 90
       50
176
     1
 62
   256
176
     0
 40
1.0
176
     0
 90
        2
176
     1
  1
strokes_ogs.tif
176
     1
290
     0
176
     1
 40
1.0
176
     1
 40
1.0
176
     1
  0
VISUALSTYLE
  5
34
102
{ACAD_REACTORS
330
2A
102
}
330
2A
100
AcDbVisualStyle
  2
Conceptual
 70
     9
177
     3
291
     0
 70
    58
 90
        3
176
     1
 90
        2
176
     1
 90
        0
176
     1
 90
        0
176
     1
 40
0.6
176
     1
 40
30.0
176
     1
 62
     7
420
 16777215
176
     1
 90
        2
176
     1
 90
        2
176
     1
 62
     7
176
     1
 62
   257
176
     1
 90
        1
176
     1
 90
        1
176
     1
 40
179.0
176
     1
 90
        8
176
     1
 62
     7
176
     1
 40
1.0
176
     1
 90
        1
176
     1
 90
        6
176
     1
 90
        2
176
     1
 62
     7
176
     1
 90
        3
176
     1
 90
        0
176
     1
 90
        0
176
     1
290
     0
176
     1
 90
        1
176
     1
 40
0.0
176
     1
 90
        0
176
     1
290
     0
176
     1
290
     1
176
     1
290
     1
176
     1
290
     0
176
     1
290
     0
176
     1
290
     0
176
     1
290
     0
176
     1
290
     0
176
     1
290
     0
176
     1
 90
       50
176
     1
 40
0.0
176
     1
 40
1.0
176
     1
 90
        0
176
     1
 62
    18
420
        0
176
     1
 90
       50
176
     1
 90
        3
176
     1
 62
     5
420
      255
176
     1
290
     0
176
     1
 90
       50
176
     1
 90
       50
176
     1
 90
       50
176
     1
290
     0
176
     1
 90
       50
176
     1
 62
   256
176
     0
 40
1.0
176
     0
 90
        2
176
     1
  1
strokes_ogs.tif
176
     1
290
     0
176
     1
 40
1.0
176
     1
 40
1.0
176
     1
  0
VISUALSTYLE
  5
35
102
{ACAD_REACTORS
330
2A
102
}
330
2A
100
AcDbVisualStyle
  2
Dim
 70
    11
177
     3
291
     1
 70
    58
 90
        2
176
     1
 90
        2
176
     1
 90
        0
176
     1
 90
        0
176
     1
 40
0.6
176
     1
 40
30.0
176
     1
 62
     7
420
 16777215
176
     1
 90
        1
176
     1
 90
        4
176
     1
 62
     7
176
     1
 62
   257
176
     1
 90
        1
176
     1
 90
        1
176
     1
 40
1.0
176
     1
 90
        8
176
     1
 62
     7
176
     1
 40
1.0
176
     1
 90
        1
176
     1
 90
        6
176
     1
 90
        2
176
     1
 62
     7
176
     1
 90
        5
176
     1
 90
        0
176
     1
 90
        0
176
     1
290
     0
176
     1
 90
        1
176
     1
 40
-50.0
176
     1
 90
        0
176
     1
290
     0
176
     1
290
     1
176
     1
290
     1
176
     1
290
     0
176
     1
290
     0
176
     1
290
     0
176
     1
290
     0
176
     1
290
     0
176
     1
290
     0
176
     1
 90
       50
176
     1
 40
0.0
176
     1
 40
1.0
176
     1
 90
        0
176
     1
 62
    18
420
        0
176
     1
 90
       50
176
     1
 90
        3
176
     1
 62
     5
420
      255
176
     1
290
     0
176
     1
 90
       50
176
     1
 90
       50
176
     1
 90
       50
176
     1
290
     0
176
     1
 90
       50
176
     1
 62
   256
176
     0
 40
1.0
176
     0
 90
        2
176
     1
  1
strokes_ogs.tif
176
     1
290
     0
176
     1
 40
1.0
176
     1
 40
1.0
176
     1
  0
VISUALSTYLE
  5
3D
102
{ACAD_REACTORS
330
2A
102
}
330
2A
100
AcDbVisualStyle
  2
EdgeColorOff
 70
    22
177
     3
291
     1
 70
    58
 90
        2
176
     0
 90
        2
176
     0
 90
        0
176
     0
 90
        0
176
     0
 40
0.6
176
     0
 40
30.0
176
     0
 62
     7
420
 16777215
176
     0
 90
        1
176
     0
 90
        4
176
     0
 62
     7
176
     0
 62
   257
176
     0
 90
        1
176
     0
 90
        1
176
     0
 40
1.0
176
     0
 90
        8
176
     2
 62
     7
176
     0
 40
1.0
176
     0
 90
        1
176
     0
 90
        6
176
     0
 90
        2
176
     0
 62
     7
176
     0
 90
        5
176
     0
 90
        0
176
     0
 90
        0
176
     0
290
     0
176
     0
 90
        1
176
     0
 40
0.0
176
     0
 90
        0
176
     0
290
     0
176
     0
290
     1
176
     0
290
     1
176
     0
290
     0
176
     0
290
     0
176
     0
290
     0
176
     0
290
     0
176
     0
290
     0
176
     0
290
     0
176
     0
 90
       50
176
     0
 40
0.0
176
     0
 40
1.0
176
     0
 90
        0
176
     0
 62
    18
420
        0
176
     0
 90
       50
176
     0
 90
        3
176
     0
 62
     5
420
      255
176
     0
290
     0
176
     0
 90
       50
176
     0
 90
       50
176
     0
 90
       50
176
     0
290
     0
176
     0
 90
       50
176
     0
 62
   256
176
     0
 40
1.0
176
     0
 90
        2
176
     0
  1
strokes_ogs.tif
176
     0
290
     0
176
     0
 40
1.0
176
     0
 40
1.0
176
     0
  0
VISUALSTYLE
  5
39
102
{ACAD_REACTORS
330
2A
102
}
330
2A
100
AcDbVisualStyle
  2
Facepattern
 70
    15
177
     3
291
     1
 70
    58
 90
        2
176
     1
 90
        2
176
     1
 90
        0
176
     1
 90
        0
176
     1
 40
0.6
176
     1
 40
30.0
176
     1
 62
     7
420
 16777215
176
     1
 90
        1
176
     1
 90
        4
176
     1
 62
     7
176
     1
 62
   257
176
     1
 90
        1
176
     1
 90
        1
176
     1
 40
1.0
176
     1
 90
        8
176
     1
 62
     7
176
     1
 40
1.0
176
     1
 90
        1
176
     1
 90
        6
176
     1
 90
        2
176
     1
 62
     7
176
     1
 90
        5
176
     1
 90
        0
176
     1
 90
        0
176
     1
290
     0
176
     1
 90
        1
176
     1
 40
0.0
176
     1
 90
        0
176
     1
290
     0
176
     1
290
     1
176
     1
290
     1
176
     1
290
     0
176
     1
290
     0
176
     1
290
     0
176
     1
290
     0
176
     1
290
     0
176
     1
290
     0
176
     1
 90
       50
176
     1
 40
0.0
176
     1
 40
1.0
176
     1
 90
        0
176
     1
 62
    18
420
        0
176
     1
 90
       50
176
     1
 90
        3
176
     1
 62
     5
420
      255
176
     1
290
     0
176
     1
 90
       50
176
     1
 90
       50
176
     1
 90
       50
176
     1
290
     0
176
     1
 90
       50
176
     1
 62
   256
176
     0
 40
1.0
176
     0
 90
        2
176
     1
  1
strokes_ogs.tif
176
     1
290
     0
176
     1
 40
1.0
176
     1
 40
1.0
176
     1
  0
VISUALSTYLE
  5
2B
102
{ACAD_REACTORS
330
2A
102
}
330
2A
100
AcDbVisualStyle
  2
Flat
 70
     0
177
     3
291
     1
 70
    58
 90
        2
176
     1
 90
        1
176
     1
 90
        1
176
     1
 90
        2
176
     1
 40
0.6
176
     1
 40
30.0
176
     1
 62
     7
420
 16777215
176
     1
 90
        0
176
     1
 90
        0
176
     1
 62
     7
176
     1
 62
   257
176
     1
 90
        1
176
     1
 90
        1
176
     1
 40
1.0
176
     1
 90
        8
176
     1
 62
     7
176
     1
 40
1.0
176
     1
 90
        1
176
     1
 90
        6
176
     1
 90
        2
176
     1
 62
     7
176
     1
 90
        5
176
     1
 90
        0
176
     1
 90
        0
176
     1
290
     0
176
     1
 90
       13
176
     1
 40
0.0
176
     1
 90
        0
176
     1
290
     0
176
     1
290
     1
176
     1
290
     1
176
     1
290
     0
176
     1
290
     0
176
     1
290
     0
176
     1
290
     0
176
     1
290
     0
176
     1
290
     0
176
     1
 90
       50
176
     1
 40
0.0
176
     1
 40
1.0
176
     1
 90
        0
176
     1
 62
    18
420
        0
176
     1
 90
       50
176
     1
 90
        3
176
     1
 62
     5
420
      255
176
     1
290
     0
176
     1
 90
       50
176
     1
 90
       50
176
     1
 90
       50
176
     1
290
     0
176
     1
 90
       50
176
     1
 62
   256
176
     0
 40
1.0
176
     0
 90
        2
176
     1
  1
strokes_ogs.tif
176
     1
290
     0
176
     1
 40
1.0
176
     1
 40
1.0
176
     1
  0
VISUALSTYLE
  5
2C
102
{ACAD_REACTORS
330
2A
102
}
330
2A
100
AcDbVisualStyle
  2
FlatWithEdges
 70
     1
177
     3
291
     1
 70
    58
 90
        2
176
     1
 90
        1
176
     1
 90
        1
176
     1
 90
        2
176
     1
 40
0.6
176
     1
 40
30.0
176
     1
 62
     7
420
 16777215
176
     1
 90
        1
176
     1
 90
        0
176
     1
 62
     7
176
     1
 62
   257
176
     1
 90
        1
176
     1
 90
        1
176
     1
 40
1.0
176
     1
 90
        0
176
     1
 62
   257
176
     1
 40
1.0
176
     1
 90
        1
176
     1
 90
        6
176
     1
 90
        2
176
     1
 62
     7
176
     1
 90
        5
176
     1
 90
        0
176
     1
 90
        0
176
     1
290
     0
176
     1
 90
       13
176
     1
 40
0.0
176
     1
 90
        0
176
     1
290
     0
176
     1
290
     1
176
     1
290
     1
176
     1
290
     0
176
     1
290
     0
176
     1
290
     0
176
     1
290
     0
176
     1
290
     0
176
     1
290
     0
176
     1
 90
       50
176
     1
 40
0.0
176
     1
 40
1.0
176
     1
 90
        0
176
     1
 62
    18
420
        0
176
     1
 90
       50
176
     1
 90
        3
176
     1
 62
     5
420
      255
176
     1
290
     0
176
     1
 90
       50
176
     1
 90
       50
176
     1
 90
       50
176
     1
290
     0
176
     1
 90
       50
176
     1
 62
   256
176
     0
 40
1.0
176
     0
 90
        2
176
     1
  1
strokes_ogs.tif
176
     1
290
     0
176
     1
 40
1.0
176
     1
 40
1.0
176
     1
  0
VISUALSTYLE
  5
2D
102
{ACAD_REACTORS
330
2A
102
}
330
2A
100
AcDbVisualStyle
  2
Gouraud
 70
     2
177
     3
291
     1
 70
    58
 90
        2
176
     1
 90
        2
176
     1
 90
        1
176
     1
 90
        2
176
     1
 40
0.6
176
     1
 40
30.0
176
     1
 62
     7
420
 16777215
176
     1
 90
        0
176
     1
 90
        0
176
     1
 62
     7
176
     1
 62
   257
176
     1
 90
        1
176
     1
 90
        1
176
     1
 40
1.0
176
     1
 90
        0
176
     1
 62
     7
176
     1
 40
1.0
176
     1
 90
        1
176
     1
 90
        6
176
     1
 90
        2
176
     1
 62
     7
176
     1
 90
        5
176
     1
 90
        0
176
     1
 90
        0
176
     1
290
     0
176
     1
 90
       13
176
     1
 40
0.0
176
     1
 90
        0
176
     1
290
     0
176
     1
290
     1
176
     1
290
     1
176
     1
290
     0
176
     1
290
     0
176
     1
290
     0
176
     1
290
     0
176
     1
290
     0
176
     1
290
     0
176
     1
 90
       50
176
     1
 40
0.0
176
     1
 40
1.0
176
     1
 90
        0
176
     1
 62
    18
420
        0
176
     1
 90
       50
176
     1
 90
        3
176
     1
 62
     5
420
      255
176
     1
290
     0
176
     1
 90
       50
176
     1
 90
       50
176
     1
 90
       50
176
     1
290
     0
176
     1
 90
       50
176
     1
 62
   256
176
     0
 40
1.0
176
     0
 90
        2
176
     1
  1
strokes_ogs.tif
176
     1
290
     0
176
     1
 40
1.0
176
     1
 40
1.0
176
     1
  0
VISUALSTYLE
  5
2E
102
{ACAD_REACTORS
330
2A
102
}
330
2A
100
AcDbVisualStyle
  2
GouraudWithEdges
 70
     3
177
     3
291
     1
 70
    58
 90
        2
176
     1
 90
        2
176
     1
 90
        1
176
     1
 90
        2
176
     1
 40
0.6
176
     1
 40
30.0
176
     1
 62
     7
420
 16777215
176
     1
 90
        1
176
     1
 90
        0
176
     1
 62
     7
176
     1
 62
   257
176
     1
 90
        1
176
     1
 90
        1
176
     1
 40
1.0
176
     1
 90
        0
176
     1
 62
   257
176
     1
 40
1.0
176
     1
 90
        1
176
     1
 90
        6
176
     1
 90
        2
176
     1
 62
     7
176
     1
 90
        5
176
     1
 90
        0
176
     1
 90
        0
176
     1
290
     0
176
     1
 90
       13
176
     1
 40
0.0
176
     1
 90
        0
176
     1
290
     0
176
     1
290
     1
176
     1
290
     1
176
     1
290
     0
176
     1
290
     0
176
     1
290
     0
176
     1
290
     0
176
     1
290
     0
176
     1
290
     0
176
     1
 90
       50
176
     1
 40
0.0
176
     1
 40
1.0
176
     1
 90
        0
176
     1
 62
    18
420
        0
176
     1
 90
       50
176
     1
 90
        3
176
     1
 62
     5
420
      255
176
     1
290
     0
176
     1
 90
       50
176
     1
 90
       50
176
     1
 90
       50
176
     1
290
     0
176
     1
 90
       50
176
     1
 62
   256
176
     0
 40
1.0
176
     0
 90
        2
176
     1
  1
strokes_ogs.tif
176
     1
290
     0
176
     1
 40
1.0
176
     1
 40
1.0
176
     1
  0
VISUALSTYLE
  5
31
102
{ACAD_REACTORS
330
2A
102
}
330
2A
100
AcDbVisualStyle
  2
Hidden
 70
     6
177
     3
291
     0
 70
    58
 90
        1
176
     1
 90
        2
176
     1
 90
        2
176
     1
 90
        0
176
     1
 40
0.6
176
     1
 40
30.0
176
     1
 62
     7
420
 16777215
176
     1
 90
        2
176
     1
 90
        2
176
     1
 62
     7
176
     1
 62
   257
176
     1
 90
        2
176
     1
 90
        1
176
     1
 40
40.0
176
     1
 90
        0
176
     1
 62
   257
176
     1
 40
1.0
176
     1
 90
        1
176
     1
 90
        6
176
     1
 90
        2
176
     1
 62
     7
176
     1
 90
        3
176
     1
 90
        0
176
     1
 90
        0
176
     1
290
     0
176
     1
 90
        1
176
     1
 40
0.0
176
     1
 90
        0
176
     1
290
     0
176
     1
290
     1
176
     1
290
     1
176
     1
290
     0
176
     1
290
     0
176
     1
290
     0
176
     1
290
     0
176
     1
290
     0
176
     1
290
     0
176
     1
 90
       50
176
     1
 40
0.0
176
     1
 40
1.0
176
     1
 90
        0
176
     1
 62
    18
420
        0
176
     1
 90
       50
176
     1
 90
        3
176
     1
 62
     5
420
      255
176
     1
290
     0
176
     1
 90
       50
176
     1
 90
       50
176
     1
 90
       50
176
     1
290
     0
176
     1
 90
       50
176
     1
 62
   256
176
     0
 40
1.0
176
     0
 90
        2
176
     1
  1
strokes_ogs.tif
176
     1
290
     0
176
     1
 40
1.0
176
     1
 40
1.0
176
     1
  0
VISUALSTYLE
  5
3B
102
{ACAD_REACTORS
330
2A
102
}
330
2A
100
AcDbVisualStyle
  2
JitterOff
 70
    20
177
     3
291
     1
 70
    58
 90
        2
176
     0
 90
        2
176
     0
 90
        0
176
     0
 90
        0
176
     0
 40
0.6
176
     0
 40
30.0
176
     0
 62
     7
420
 16777215
176
     0
 90
        1
176
     0
 90
        4
176
     0
 62
     7
176
     0
 62
   257
176
     0
 90
        1
176
     0
 90
        1
176
     0
 40
1.0
176
     0
 90
       10
176
     2
 62
     7
176
     0
 40
1.0
176
     0
 90
        1
176
     0
 90
        6
176
     0
 90
        2
176
     0
 62
     7
176
     0
 90
        5
176
     0
 90
        0
176
     0
 90
        0
176
     0
290
     0
176
     0
 90
        1
176
     0
 40
0.0
176
     0
 90
        0
176
     0
290
     0
176
     0
290
     1
176
     0
290
     1
176
     0
290
     0
176
     0
290
     0
176
     0
290
     0
176
     0
290
     0
176
     0
290
     0
176
     0
290
     0
176
     0
 90
       50
176
     0
 40
0.0
176
     0
 40
1.0
176
     0
 90
        0
176
     0
 62
    18
420
        0
176
     0
 90
       50
176
     0
 90
        3
176
     0
 62
     5
420
      255
176
     0
290
     0
176
     0
 90
       50
176
     0
 90
       50
176
     0
 90
       50
176
     0
290
     0
176
     0
 90
       50
176
     0
 62
   256
176
     0
 40
1.0
176
     0
 90
        2
176
     0
  1
strokes_ogs.tif
176
     0
290
     0
176
     0
 40
1.0
176
     0
 40
1.0
176
     0
  0
VISUALSTYLE
  5
38
102
{ACAD_REACTORS
330
2A
102
}
330
2A
100
AcDbVisualStyle
  2
Linepattern
 70
    14
177
     3
291
     1
 70
    58
 90
        2
176
     1
 90
        2
176
     1
 90
        0
176
     1
 90
        0
176
     1
 40
0.6
176
     1
 40
30.0
176
     1
 62
     7
420
 16777215
176
     1
 90
        1
176
     1
 90
        4
176
     1
 62
     7
176
     1
 62
   257
176
     1
 90
        7
176
     1
 90
        7
176
     1
 40
1.0
176
     1
 90
        8
176
     1
 62
     7
176
     1
 40
1.0
176
     1
 90
        1
176
     1
 90
        6
176
     1
 90
        2
176
     1
 62
     7
176
     1
 90
        5
176
     1
 90
        0
176
     1
 90
        0
176
     1
290
     0
176
     1
 90
        1
176
     1
 40
0.0
176
     1
 90
        0
176
     1
290
     0
176
     1
290
     1
176
     1
290
     1
176
     1
290
     0
176
     1
290
     0
176
     1
290
     0
176
     1
290
     0
176
     1
290
     0
176
     1
290
     0
176
     1
 90
       50
176
     1
 40
0.0
176
     1
 40
1.0
176
     1
 90
        0
176
     1
 62
    18
420
        0
176
     1
 90
       50
176
     1
 90
        3
176
     1
 62
     5
420
      255
176
     1
290
     0
176
     1
 90
       50
176
     1
 90
       50
176
     1
 90
       50
176
     1
290
     0
176
     1
 90
       50
176
     1
 62
   256
176
     0
 40
1.0
176
     0
 90
        2
176
     1
  1
strokes_ogs.tif
176
     1
290
     0
176
     1
 40
1.0
176
     1
 40
1.0
176
     1
  0
VISUALSTYLE
  5
3C
102
{ACAD_REACTORS
330
2A
102
}
330
2A
100
AcDbVisualStyle
  2
OverhangOff
 70
    21
177
     3
291
     1
 70
    58
 90
        2
176
     0
 90
        2
176
     0
 90
        0
176
     0
 90
        0
176
     0
 40
0.6
176
     0
 40
30.0
176
     0
 62
     7
420
 16777215
176
     0
 90
        1
176
     0
 90
        4
176
     0
 62
     7
176
     0
 62
   257
176
     0
 90
        1
176
     0
 90
        1
176
     0
 40
1.0
176
     0
 90
        9
176
     2
 62
     7
176
     0
 40
1.0
176
     0
 90
        1
176
     0
 90
        6
176
     0
 90
        2
176
     0
 62
     7
176
     0
 90
        5
176
     0
 90
        0
176
     0
 90
        0
176
     0
290
     0
176
     0
 90
        1
176
     0
 40
0.0
176
     0
 90
        0
176
     0
290
     0
176
     0
290
     1
176
     0
290
     1
176
     0
290
     0
176
     0
290
     0
176
     0
290
     0
176
     0
290
     0
176
     0
290
     0
176
     0
290
     0
176
     0
 90
       50
176
     0
 40
0.0
176
     0
 40
1.0
176
     0
 90
        0
176
     0
 62
    18
420
        0
176
     0
 90
       50
176
     0
 90
        3
176
     0
 62
     5
420
      255
176
     0
290
     0
176
     0
 90
       50
176
     0
 90
       50
176
     0
 90
       50
176
     0
290
     0
176
     0
 90
       50
176
     0
 62
   256
176
     0
 40
1.0
176
     0
 90
        2
176
     0
  1
strokes_ogs.tif
176
     0
290
     0
176
     0
 40
1.0
176
     0
 40
1.0
176
     0
  0
VISUALSTYLE
  5
33
102
{ACAD_REACTORS
330
2A
102
}
330
2A
100
AcDbVisualStyle
  2
Realistic
 70
     8
177
     3
291
     0
 70
    58
 90
        2
176
     1
 90
        3
176
     1
 90
        0
176
     1
 90
        2
176
     1
 40
0.6
176
     1
 40
30.0
176
     1
 62
     7
420
 16777215
176
     1
 90
        0
176
     1
 90
        0
176
     1
 62
     7
176
     1
 62
   257
176
     1
 90
        1
176
     1
 90
        1
176
     1
 40
1.0
176
     1
 90
        8
176
     1
 62
   257
176
     1
 40
1.0
176
     1
 90
        1
176
     1
 90
        6
176
     1
 90
        2
176
     1
 62
     7
176
     1
 90
        3
176
     1
 90
        0
176
     1
 90
        0
176
     1
290
     0
176
     1
 90
       13
176
     1
 40
0.0
176
     1
 90
        0
176
     1
290
     0
176
     1
290
     1
176
     1
290
     1
176
     1
290
     0
176
     1
290
     0
176
     1
290
     0
176
     1
290
     0
176
     1
290
     0
176
     1
290
     0
176
     1
 90
       50
176
     1
 40
0.0
176
     1
 40
1.0
176
     1
 90
        0
176
     1
 62
    18
420
        0
176
     1
 90
       50
176
     1
 90
        3
176
     1
 62
     5
420
      255
176
     1
290
     0
176
     1
 90
       50
176
     1
 90
       50
176
     1
 90
       50
176
     1
290
     0
176
     1
 90
       50
176
     1
 62
   256
176
     0
 40
1.0
176
     0
 90
        2
176
     1
  1
strokes_ogs.tif
176
     1
290
     0
176
     1
 40
1.0
176
     1
 40
1.0
176
     1
  0
VISUALSTYLE
  5
42
102
{ACAD_REACTORS
330
2A
102
}
330
2A
100
AcDbVisualStyle
  2
Shaded
 70
    27
177
     3
291
     0
 70
    58
 90
        2
176
     1
 90
        2
176
     1
 90
        1
176
     1
 90
        2
176
     1
 40
0.6
176
     1
 40
30.0
176
     1
 62
     7
420
 16777215
176
     1
 90
        0
176
     1
 90
        4
176
     1
 62
     7
176
     1
 62
   257
176
     1
 90
        1
176
     1
 90
        1
176
     1
 40
1.0
176
     1
 90
        8
176
     1
 62
   257
176
     1
 40
1.0
176
     1
 90
        1
176
     1
 90
        6
176
     1
 90
        2
176
     1
 62
     8
420
  7895160
176
     1
 90
        3
176
     1
 90
        0
176
     1
 90
        0
176
     1
290
     0
176
     1
 90
        5
176
     1
 40
0.0
176
     1
 90
        0
176
     1
290
     0
176
     1
290
     1
176
     1
290
     1
176
     1
290
     0
176
     1
290
     0
176
     1
290
     0
176
     1
290
     0
176
     1
290
     0
176
     1
290
     0
176
     1
 90
       50
176
     1
 40
0.0
176
     1
 40
1.0
176
     1
 90
        0
176
     1
 62
    18
420
        0
176
     1
 90
       50
176
     1
 90
        3
176
     1
 62
     5
420
      255
176
     1
290
     0
176
     1
 90
       50
176
     1
 90
       50
176
     1
 90
       50
176
     1
290
     0
176
     1
 90
       50
176
     1
 62
   256
176
     0
 40
1.0
176
     0
 90
        2
176
     1
  1
strokes_ogs.tif
176
     1
290
     0
176
     1
 40
1.0
176
     1
 40
1.0
176
     1
  0
VISUALSTYLE
  5
41
102
{ACAD_REACTORS
330
2A
102
}
330
2A
100
AcDbVisualStyle
  2
Shaded with edges
 70
    26
177
     3
291
     0
 70
    58
 90
        2
176
     1
 90
        2
176
     1
 90
        1
176
     1
 90
        2
176
     1
 40
0.6
176
     1
 40
30.0
176
     1
 62
     7
420
 16777215
176
     1
 90
        1
176
     1
 90
       10
176
     1
 62
     7
176
     1
 62
   257
176
     1
 90
        2
176
     1
 90
        1
176
     1
 40
1.0
176
     1
 90
        8
176
     1
 62
   257
176
     1
 40
1.0
176
     1
 90
        1
176
     1
 90
        6
176
     1
 90
        2
176
     1
 62
     7
176
     1
 90
        3
176
     1
 90
        0
176
     1
 90
        0
176
     1
290
     0
176
     1
 90
        5
176
     1
 40
0.0
176
     1
 90
        0
176
     1
290
     0
176
     1
290
     1
176
     1
290
     1
176
     1
290
     0
176
     1
290
     0
176
     1
290
     0
176
     1
290
     0
176
     1
290
     0
176
     1
290
     0
176
     1
 90
       50
176
     1
 40
0.0
176
     1
 40
1.0
176
     1
 90
        0
176
     1
 62
    18
420
        0
176
     1
 90
       50
176
     1
 90
        3
176
     1
 62
     5
420
      255
176
     1
290
     0
176
     1
 90
       50
176
     1
 90
       50
176
     1
 90
       50
176
     1
290
     0
176
     1
 90
       50
176
     1
 62
   256
176
     0
 40
1.0
176
     0
 90
        2
176
     1
  1
strokes_ogs.tif
176
     1
290
     0
176
     1
 40
1.0
176
     1
 40
1.0
176
     1
  0
VISUALSTYLE
  5
3E
102
{ACAD_REACTORS
330
2A
102
}
330
2A
100
AcDbVisualStyle
  2
Shades of Gray
 70
    23
177
     3
291
     0
 70
    58
 90
        2
176
     1
 90
        2
176
     1
 90
        3
176
     1
 90
        0
176
     1
 40
0.6
176
     1
 40
30.0
176
     1
 62
     7
420
 16777215
176
     1
 90
        2
176
     1
 90
        2
176
     1
 62
     7
176
     1
 62
     7
176
     1
 90
        1
176
     1
 90
        1
176
     1
 40
40.0
176
     1
 90
        8
176
     1
 62
     7
176
     1
 40
1.0
176
     1
 90
        1
176
     1
 90
        6
176
     1
 90
        2
176
     1
 62
     7
176
     1
 90
        3
176
     1
 90
        0
176
     1
 90
        0
176
     1
290
     0
176
     1
 90
        1
176
     1
 40
0.0
176
     1
 90
        0
176
     1
290
     0
176
     1
290
     1
176
     1
290
     1
176
     1
290
     0
176
     1
290
     0
176
     1
290
     0
176
     1
290
     0
176
     1
290
     0
176
     1
290
     0
176
     1
 90
       50
176
     1
 40
0.0
176
     1
 40
1.0
176
     1
 90
        0
176
     1
 62
    18
420
        0
176
     1
 90
       50
176
     1
 90
        3
176
     1
 62
     5
420
      255
176
     1
290
     0
176
     1
 90
       50
176
     1
 90
       50
176
     1
 90
       50
176
     1
290
     0
176
     1
 90
       50
176
     1
 62
   256
176
     0
 40
1.0
176
     0
 90
        2
176
     1
  1
strokes_ogs.tif
176
     1
290
     0
176
     1
 40
1.0
176
     1
 40
1.0
176
     1
  0
VISUALSTYLE
  5
3F
102
{ACAD_REACTORS
330
2A
102
}
330
2A
100
AcDbVisualStyle
  2
Sketchy
 70
    24
177
     3
291
     0
 70
    58
 90
        1
176
     1
 90
        2
176
     1
 90
        2
176
     1
 90
        0
176
     1
 40
0.6
176
     1
 40
30.0
176
     1
 62
     7
420
 16777215
176
     1
 90
        2
176
     1
 90
        2
176
     1
 62
     7
176
     1
 62
     7
176
     1
 90
        1
176
     1
 90
        1
176
     1
 40
40.0
176
     1
 90
       11
176
     1
 62
     7
176
     1
 40
1.0
176
     1
 90
        1
176
     1
 90
        6
176
     1
 90
        2
176
     1
 62
     7
176
     1
 90
        6
176
     1
 90
        0
176
     1
 90
        0
176
     1
290
     0
176
     1
 90
        1
176
     1
 40
0.0
176
     1
 90
        0
176
     1
290
     0
176
     1
290
     1
176
     1
290
     1
176
     1
290
     0
176
     1
290
     0
176
     1
290
     0
176
     1
290
     0
176
     1
290
     0
176
     1
290
     0
176
     1
 90
       50
176
     1
 40
0.0
176
     1
 40
1.0
176
     1
 90
        0
176
     1
 62
    18
420
        0
176
     1
 90
       50
176
     1
 90
        3
176
     1
 62
     5
420
      255
176
     1
290
     0
176
     1
 90
       50
176
     1
 90
       50
176
     1
 90
       50
176
     1
290
     0
176
     1
 90
       50
176
     1
 62
   256
176
     0
 40
1.0
176
     0
 90
        2
176
     1
  1
strokes_ogs.tif
176
     1
290
     0
176
     1
 40
1.0
176
     1
 40
1.0
176
     1
  0
VISUALSTYLE
  5
37
102
{ACAD_REACTORS
330
2A
102
}
330
2A
100
AcDbVisualStyle
  2
Thicken
 70
    13
177
     3
291
     1
 70
    58
 90
        2
176
     1
 90
        2
176
     1
 90
        0
176
     1
 90
        0
176
     1
 40
0.6
176
     1
 40
30.0
176
     1
 62
     7
420
 16777215
176
     1
 90
        1
176
     1
 90
        4
176
     1
 62
     7
176
     1
 62
   257
176
     1
 90
        1
176
     1
 90
        1
176
     1
 40
1.0
176
     1
 90
       12
176
     1
 62
     7
176
     1
 40
1.0
176
     1
 90
        1
176
     1
 90
        6
176
     1
 90
        2
176
     1
 62
     7
176
     1
 90
        5
176
     1
 90
        0
176
     1
 90
        0
176
     1
290
     0
176
     1
 90
        1
176
     1
 40
0.0
176
     1
 90
        0
176
     1
290
     0
176
     1
290
     1
176
     1
290
     1
176
     1
290
     0
176
     1
290
     0
176
     1
290
     0
176
     1
290
     0
176
     1
290
     0
176
     1
290
     0
176
     1
 90
       50
176
     1
 40
0.0
176
     1
 40
1.0
176
     1
 90
        0
176
     1
 62
    18
420
        0
176
     1
 90
       50
176
     1
 90
        3
176
     1
 62
     5
420
      255
176
     1
290
     0
176
     1
 90
       50
176
     1
 90
       50
176
     1
 90
       50
176
     1
290
     0
176
     1
 90
       50
176
     1
 62
   256
176
     0
 40
1.0
176
     0
 90
        2
176
     1
  1
strokes_ogs.tif
176
     1
290
     0
176
     1
 40
1.0
176
     1
 40
1.0
176
     1
  0
VISUALSTYLE
  5
30
102
{ACAD_REACTORS
330
2A
102
}
330
2A
100
AcDbVisualStyle
  2
Wireframe
 70
     5
177
     3
291
     0
 70
    58
 90
        0
176
     1
 90
        2
176
     1
 90
        0
176
     1
 90
        0
176
     1
 40
0.6
176
     1
 40
30.0
176
     1
 62
     7
420
 16777215
176
     1
 90
        1
176
     1
 90
        4
176
     1
 62
     7
176
     1
 62
   257
176
     1
 90
        1
176
     1
 90
        1
176
     1
 40
1.0
176
     1
 90
        0
176
     1
 62
   257
176
     1
 40
1.0
176
     1
 90
        1
176
     1
 90
        6
176
     1
 90
        2
176
     1
 62
     7
176
     1
 90
        3
176
     1
 90
        0
176
     1
 90
        0
176
     1
290
     0
176
     1
 90
        1
176
     1
 40
0.0
176
     1
 90
        0
176
     1
290
     0
176
     1
290
     1
176
     1
290
     1
176
     1
290
     0
176
     1
290
     0
176
     1
290
     0
176
     1
290
     0
176
     1
290
     0
176
     1
290
     0
176
     1
 90
       50
176
     1
 40
0.0
176
     1
 40
1.0
176
     1
 90
        0
176
     1
 62
    18
420
        0
176
     1
 90
       50
176
     1
 90
        3
176
     1
 62
     5
420
      255
176
     1
290
     0
176
     1
 90
       50
176
     1
 90
       50
176
     1
 90
       50
176
     1
290
     0
176
     1
 90
       50
176
     1
 62
   256
176
     0
 40
1.0
176
     0
 90
        2
176
     1
  1
strokes_ogs.tif
176
     1
290
     0
176
     1
 40
1.0
176
     1
 40
1.0
176
     1
  0
VISUALSTYLE
  5
40
102
{ACAD_REACTORS
330
2A
102
}
330
2A
100
AcDbVisualStyle
  2
X-Ray
 70
    25
177
     3
291
     0
 70
    58
 90
        2
176
     1
 90
        2
176
     1
 90
        1
176
     1
 90
        1
176
     1
 40
0.5
176
     1
 40
30.0
176
     1
 62
     7
420
 16777215
176
     1
 90
        1
176
     1
 90
        0
176
     1
 62
     7
176
     1
 62
   257
176
     1
 90
        1
176
     1
 90
        1
176
     1
 40
1.0
176
     1
 90
        8
176
     1
 62
     7
176
     1
 40
1.0
176
     1
 90
        1
176
     1
 90
        6
176
     1
 90
        2
176
     1
 62
     7
176
     1
 90
        3
176
     1
 90
        0
176
     1
 90
        0
176
     1
290
     0
176
     1
 90
       13
176
     1
 40
0.0
176
     1
 90
        0
176
     1
290
     0
176
     1
290
     1
176
     1
290
     1
176
     1
290
     0
176
     1
290
     0
176
     1
290
     0
176
     1
290
     0
176
     1
290
     0
176
     1
290
     0
176
     1
 90
       50
176
     1
 40
0.0
176
     1
 40
1.0
176
     1
 90
        0
176
     1
 62
    18
420
        0
176
     1
 90
       50
176
     1
 90
        3
176
     1
 62
     5
420
      255
176
     1
290
     0
176
     1
 90
       50
176
     1
 90
       50
176
     1
 90
       50
176
     1
290
     0
176
     1
 90
       50
176
     1
 62
   256
176
     0
 40
1.0
176
     0
 90
        2
176
     1
  1
strokes_ogs.tif
176
     1
290
     0
176
     1
 40
1.0
176
     1
 40
1.0
176
     1
  0
DICTIONARYVAR
  5
1A4
102
{ACAD_REACTORS
330
1A3
102
}
330
1A3
100
DictionaryVariables
280
     0
  1
1:1
  0
DICTIONARYVAR
  5
1A9
102
{ACAD_REACTORS
330
1A3
102
}
330
1A3
100
DictionaryVariables
280
     0
  1
Standard
  0
DICTIONARYVAR
  5
1A8
102
{ACAD_REACTORS
330
1A3
102
}
330
1A3
100
DictionaryVariables
280
     0
  1
Standard
  0
DICTIONARY
  5
1A5
330
6A
100
AcDbDictionary
280
     1
281
     1
  3
ACAD_ROUNDTRIP_2008_TABLESTYLE_CELLSTYLEMAP
360
1A6
  0
CELLSTYLEMAP
  5
1A6
102
{ACAD_REACTORS
330
1A5
102
}
330
1A5
100
AcDbCellStyleMap
 90
        3
300
CELLSTYLE
  1
TABLEFORMAT_BEGIN
 90
        5
170
     1
 91
        0
 92
    32768
 62
   257
 93
        1
300
CONTENTFORMAT
  1
CONTENTFORMAT_BEGIN
 90
        0
 91
        0
 92
        4
 93
        0
300

 40
0.0
140
1.0
 94
        5
 62
     0
340
11
144
0.25
309
CONTENTFORMAT_END
171
     1
301
MARGIN
  1
CELLMARGIN_BEGIN
 40
0.06
 40
0.06
 40
0.06
 40
0.06
 40
0.06
 40
0.06
309
CELLMARGIN_END
 94
        6
 95
        1
302
GRIDFORMAT
  1
GRIDFORMAT_BEGIN
 90
        0
 91
        1
 62
     0
 92
       -2
340
14
 93
        0
 40
0.045
309
GRIDFORMAT_END
 95
        2
302
GRIDFORMAT
  1
GRIDFORMAT_BEGIN
 90
        0
 91
        1
 62
     0
 92
       -2
340
14
 93
        0
 40
0.045
309
GRIDFORMAT_END
 95
        4
302
GRIDFORMAT
  1
GRIDFORMAT_BEGIN
 90
        0
 91
        1
 62
     0
 92
       -2
340
14
 93
        0
 40
0.045
309
GRIDFORMAT_END
 95
        8
302
GRIDFORMAT
  1
GRIDFORMAT_BEGIN
 90
        0
 91
        1
 62
     0
 92
       -2
340
14
 93
        0
 40
0.045
309
GRIDFORMAT_END
 95
       16
302
GRIDFORMAT
  1
GRIDFORMAT_BEGIN
 90
        0
 91
        1
 62
     0
 92
       -2
340
14
 93
        0
 40
0.045
309
GRIDFORMAT_END
 95
       32
302
GRIDFORMAT
  1
GRIDFORMAT_BEGIN
 90
        0
 91
        1
 62
     0
 92
       -2
340
14
 93
        0
 40
0.045
309
GRIDFORMAT_END
309
TABLEFORMAT_END
  1
CELLSTYLE_BEGIN
 90
        1
 91
        1
300
_TITLE
309
CELLSTYLE_END
300
CELLSTYLE
  1
TABLEFORMAT_BEGIN
 90
        5
170
     1
 91
        0
 92
        0
 62
   257
 93
        1
300
CONTENTFORMAT
  1
CONTENTFORMAT_BEGIN
 90
        0
 91
        0
 92
        4
 93
        0
300

 40
0.0
140
1.0
 94
        5
 62
     0
340
11
144
0.18
309
CONTENTFORMAT_END
171
     1
301
MARGIN
  1
CELLMARGIN_BEGIN
 40
0.06
 40
0.06
 40
0.06
 40
0.06
 40
0.06
 40
0.06
309
CELLMARGIN_END
 94
        6
 95
        1
302
GRIDFORMAT
  1
GRIDFORMAT_BEGIN
 90
        0
 91
        1
 62
     0
 92
       -2
340
14
 93
        0
 40
0.045
309
GRIDFORMAT_END
 95
        2
302
GRIDFORMAT
  1
GRIDFORMAT_BEGIN
 90
        0
 91
        1
 62
     0
 92
       -2
340
14
 93
        0
 40
0.045
309
GRIDFORMAT_END
 95
        4
302
GRIDFORMAT
  1
GRIDFORMAT_BEGIN
 90
        0
 91
        1
 62
     0
 92
       -2
340
14
 93
        0
 40
0.045
309
GRIDFORMAT_END
 95
        8
302
GRIDFORMAT
  1
GRIDFORMAT_BEGIN
 90
        0
 91
        1
 62
     0
 92
       -2
340
14
 93
        0
 40
0.045
309
GRIDFORMAT_END
 95
       16
302
GRIDFORMAT
  1
GRIDFORMAT_BEGIN
 90
        0
 91
        1
 62
     0
 92
       -2
340
14
 93
        0
 40
0.045
309
GRIDFORMAT_END
 95
       32
302
GRIDFORMAT
  1
GRIDFORMAT_BEGIN
 90
        0
 91
        1
 62
     0
 92
       -2
340
14
 93
        0
 40
0.045
309
GRIDFORMAT_END
309
TABLEFORMAT_END
  1
CELLSTYLE_BEGIN
 90
        2
 91
        1
300
_HEADER
309
CELLSTYLE_END
300
CELLSTYLE
  1
TABLEFORMAT_BEGIN
 90
        5
170
     1
 91
        0
 92
        0
 62
   257
 93
        1
300
CONTENTFORMAT
  1
CONTENTFORMAT_BEGIN
 90
        0
 91
        0
 92
        4
 93
        0
300

 40
0.0
140
1.0
 94
        2
 62
     0
340
11
144
0.18
309
CONTENTFORMAT_END
171
     1
301
MARGIN
  1
CELLMARGIN_BEGIN
 40
0.06
 40
0.06
 40
0.06
 40
0.06
 40
0.06
 40
0.06
309
CELLMARGIN_END
 94
        6
 95
        1
302
GRIDFORMAT
  1
GRIDFORMAT_BEGIN
 90
        0
 91
        1
 62
     0
 92
       -2
340
14
 93
        0
 40
0.045
309
GRIDFORMAT_END
 95
        2
302
GRIDFORMAT
  1
GRIDFORMAT_BEGIN
 90
        0
 91
        1
 62
     0
 92
       -2
340
14
 93
        0
 40
0.045
309
GRIDFORMAT_END
 95
        4
302
GRIDFORMAT
  1
GRIDFORMAT_BEGIN
 90
        0
 91
        1
 62
     0
 92
       -2
340
14
 93
        0
 40
0.045
309
GRIDFORMAT_END
 95
        8
302
GRIDFORMAT
  1
GRIDFORMAT_BEGIN
 90
        0
 91
        1
 62
     0
 92
       -2
340
14
 93
        0
 40
0.045
309
GRIDFORMAT_END
 95
       16
302
GRIDFORMAT
  1
GRIDFORMAT_BEGIN
 90
        0
 91
        1
 62
     0
 92
       -2
340
14
 93
        0
 40
0.045
309
GRIDFORMAT_END
 95
       32
302
GRIDFORMAT
  1
GRIDFORMAT_BEGIN
 90
        0
 91
        1
 62
     0
 92
       -2
340
14
 93
        0
 40
0.045
309
GRIDFORMAT_END
309
TABLEFORMAT_END
  1
CELLSTYLE_BEGIN
 90
        3
 91
        2
300
_DATA
309
CELLSTYLE_END
  0
ENDSEC
  0
EOF