0
SECTION
  2
HEADER
  9
$ACADVER
  1
AC1027
  9
$ACADMAINTVER
 70
     8
  9
$DWGCODEPAGE
  3
ANSI_1252
  9
$REQUIREDVERSIONS
160
                 0
  9
$COMMENTS
  1
File was created by Cadenas
  9
$CUSTOMPROPERTYTAG
  1
NN
  9
$CUSTOMPROPERTY
  1
Set Screw Narrow Slot Take Up Inch Bore
  9
$CUSTOMPROPERTYTAG
  1
NT
  9
$CUSTOMPROPERTY
  1
SC Take-Up Bearings -Narrow Slot -(Normal Duty)
  9
$CUSTOMPROPERTYTAG
  1
NB
  9
$CUSTOMPROPERTY
  1
125153
  9
$CUSTOMPROPERTYTAG
  1
NBSYN
  9
$CUSTOMPROPERTY
  1
$PN.
  9
$CUSTOMPROPERTYTAG
  1
LINA
  9
$CUSTOMPROPERTY
  1
125153
  9
$CUSTOMPROPERTYTAG
  1
SERIES
  9
$CUSTOMPROPERTY
  1
206
  9
$CUSTOMPROPERTYTAG
  1
SS
  9
$CUSTOMPROPERTY
  1
1-3/16
  9
$CUSTOMPROPERTYTAG
  1
PN
  9
$CUSTOMPROPERTY
  1
125153
  9
$CUSTOMPROPERTYTAG
  1
DESCRIPTION
  9
$CUSTOMPROPERTY
  1
NSTU-SC-103
  9
$CUSTOMPROPERTYTAG
  1
W
  9
$CUSTOMPROPERTY
  1
2.7
  9
$CUSTOMPROPERTYTAG
  1
FS
  9
$CUSTOMPROPERTY
  1
NS308
  9
$CUSTOMPROPERTYTAG
  1
LF
  9
$CUSTOMPROPERTY
  1
RE-LUBE
  9
$CUSTOMPROPERTYTAG
  1
A
  9
$CUSTOMPROPERTY
  1
1.52
  9
$CUSTOMPROPERTYTAG
  1
B
  9
$CUSTOMPROPERTY
  1
4.31
  9
$CUSTOMPROPERTYTAG
  1
C
  9
$CUSTOMPROPERTY
  1
0.250
  9
$CUSTOMPROPERTYTAG
  1
D
  9
$CUSTOMPROPERTY
  1
2.50
  9
$CUSTOMPROPERTYTAG
  1
E
  9
$CUSTOMPROPERTY
  1
2.69
  9
$CUSTOMPROPERTYTAG
  1
F
  9
$CUSTOMPROPERTY
  1
3/4
  9
$CUSTOMPROPERTYTAG
  1
G
  9
$CUSTOMPROPERTY
  1
0.50
  9
$CUSTOMPROPERTYTAG
  1
H
  9
$CUSTOMPROPERTY
  1
0.94
  9
$CUSTOMPROPERTYTAG
  1
J
  9
$CUSTOMPROPERTY
  1
1.38
  9
$CUSTOMPROPERTYTAG
  1
L
  9
$CUSTOMPROPERTY
  1
1.57
  9
$CUSTOMPROPERTYTAG
  1
M
  9
$CUSTOMPROPERTY
  1
3.510 / 3.480
  9
$CUSTOMPROPERTYTAG
  1
N
  9
$CUSTOMPROPERTY
  1
4.13
  9
$CUSTOMPROPERTYTAG
  1
P
  9
$CUSTOMPROPERTY
  1
0.32
  9
$CUSTOMPROPERTYTAG
  1
R
  9
$CUSTOMPROPERTY
  1
0.58
  9
$CUSTOMPROPERTYTAG
  1
S
  9
$CUSTOMPROPERTY
  1
0.94
  9
$CUSTOMPROPERTYTAG
  1
COMPANY
  9
$CUSTOMPROPERTY
  1
baldor
  9
$INSBASE
 10
0.0
 20
0.0
 30
0.0
  9
$EXTMIN
 10
1.000000000000000E+20
 20
1.000000000000000E+20
 30
1.000000000000000E+20
  9
$EXTMAX
 10
-1.000000000000000E+20
 20
-1.000000000000000E+20
 30
-1.000000000000000E+20
  9
$LIMMIN
 10
0.0
 20
0.0
  9
$LIMMAX
 10
12.0
 20
9.0
  9
$ORTHOMODE
 70
     0
  9
$REGENMODE
 70
     1
  9
$FILLMODE
 70
     1
  9
$QTEXTMODE
 70
     0
  9
$MIRRTEXT
 70
     1
  9
$LTSCALE
 40
1.0
  9
$ATTMODE
 70
     1
  9
$TEXTSIZE
 40
0.2
  9
$TRACEWID
 40
0.05
  9
$TEXTSTYLE
  7
Standard
  9
$CLAYER
  8
0
  9
$CELTYPE
  6
ByLayer
  9
$CECOLOR
 62
   256
  9
$CELTSCALE
 40
1.0
  9
$DISPSILH
 70
     0
  9
$DIMSCALE
 40
1.0
  9
$DIMASZ
 40
0.18
  9
$DIMEXO
 40
0.0625
  9
$DIMDLI
 40
0.38
  9
$DIMRND
 40
0.0
  9
$DIMDLE
 40
0.0
  9
$DIMEXE
 40
0.18
  9
$DIMTP
 40
0.0
  9
$DIMTM
 40
0.0
  9
$DIMTXT
 40
0.18
  9
$DIMCEN
 40
0.09
  9
$DIMTSZ
 40
0.0
  9
$DIMTOL
 70
     0
  9
$DIMLIM
 70
     0
  9
$DIMTIH
 70
     1
  9
$DIMTOH
 70
     1
  9
$DIMSE1
 70
     0
  9
$DIMSE2
 70
     0
  9
$DIMTAD
 70
     0
  9
$DIMZIN
 70
     0
  9
$DIMBLK
  1

  9
$DIMASO
 70
     1
  9
$DIMSHO
 70
     1
  9
$DIMPOST
  1

  9
$DIMAPOST
  1

  9
$DIMALT
 70
     0
  9
$DIMALTD
 70
     2
  9
$DIMALTF
 40
25.4
  9
$DIMLFAC
 40
1.0
  9
$DIMTOFL
 70
     0
  9
$DIMTVP
 40
0.0
  9
$DIMTIX
 70
     0
  9
$DIMSOXD
 70
     0
  9
$DIMSAH
 70
     0
  9
$DIMBLK1
  1

  9
$DIMBLK2
  1

  9
$DIMSTYLE
  2
Standard
  9
$DIMCLRD
 70
     0
  9
$DIMCLRE
 70
     0
  9
$DIMCLRT
 70
     0
  9
$DIMTFAC
 40
1.0
  9
$DIMGAP
 40
0.09
  9
$DIMJUST
 70
     0
  9
$DIMSD1
 70
     0
  9
$DIMSD2
 70
     0
  9
$DIMTOLJ
 70
     1
  9
$DIMTZIN
 70
     0
  9
$DIMALTZ
 70
     0
  9
$DIMALTTZ
 70
     0
  9
$DIMUPT
 70
     0
  9
$DIMDEC
 70
     4
  9
$DIMTDEC
 70
     4
  9
$DIMALTU
 70
     2
  9
$DIMALTTD
 70
     2
  9
$DIMTXSTY
  7
Standard
  9
$DIMAUNIT
 70
     0
  9
$DIMADEC
 70
     0
  9
$DIMALTRND
 40
0.0
  9
$DIMAZIN
 70
     0
  9
$DIMDSEP
 70
    46
  9
$DIMATFIT
 70
     3
  9
$DIMFRAC
 70
     0
  9
$DIMLDRBLK
  1

  9
$DIMLUNIT
 70
     2
  9
$DIMLWD
 70
    -2
  9
$DIMLWE
 70
    -2
  9
$DIMTMOVE
 70
     0
  9
$DIMFXL
 40
1.0
  9
$DIMFXLON
 70
     0
  9
$DIMJOGANG
 40
0.7853981633974483
  9
$DIMTFILL
 70
     0
  9
$DIMTFILLCLR
 70
     0
  9
$DIMARCSYM
 70
     0
  9
$DIMLTYPE
  6

  9
$DIMLTEX1
  6

  9
$DIMLTEX2
  6

  9
$DIMTXTDIRECTION
 70
     0
  9
$LUNITS
 70
     2
  9
$LUPREC
 70
     4
  9
$SKETCHINC
 40
0.1
  9
$FILLETRAD
 40
0.5
  9
$AUNITS
 70
     0
  9
$AUPREC
 70
     0
  9
$MENU
  1
.
  9
$ELEVATION
 40
0.0
  9
$PELEVATION
 40
0.0
  9
$THICKNESS
 40
0.0
  9
$LIMCHECK
 70
     0
  9
$CHAMFERA
 40
0.0
  9
$CHAMFERB
 40
0.0
  9
$CHAMFERC
 40
0.0
  9
$CHAMFERD
 40
0.0
  9
$SKPOLY
 70
     0
  9
$TDCREATE
 40
2458168.975298055
  9
$TDUCREATE
 40
2458168.933631389
  9
$TDUPDATE
 40
2458168.975298241
  9
$TDUUPDATE
 40
2458168.933631574
  9
$TDINDWG
 40
0.0000000116
  9
$TDUSRTIMER
 40
0.0000000116
  9
$USRTIMER
 70
     1
  9
$ANGBASE
 50
0.0
  9
$ANGDIR
 70
     0
  9
$PDMODE
 70
     0
  9
$PDSIZE
 40
0.0
  9
$PLINEWID
 40
0.0
  9
$SPLFRAME
 70
     0
  9
$SPLINETYPE
 70
     6
  9
$SPLINESEGS
 70
     8
  9
$HANDSEED
  5
1F1
  9
$SURFTAB1
 70
     6
  9
$SURFTAB2
 70
     6
  9
$SURFTYPE
 70
     6
  9
$SURFU
 70
     6
  9
$SURFV
 70
     6
  9
$UCSBASE
  2

  9
$UCSNAME
  2

  9
$UCSORG
 10
0.0
 20
0.0
 30
0.0
  9
$UCSXDIR
 10
1.0
 20
0.0
 30
0.0
  9
$UCSYDIR
 10
0.0
 20
1.0
 30
0.0
  9
$UCSORTHOREF
  2

  9
$UCSORTHOVIEW
 70
     0
  9
$UCSORGTOP
 10
0.0
 20
0.0
 30
0.0
  9
$UCSORGBOTTOM
 10
0.0
 20
0.0
 30
0.0
  9
$UCSORGLEFT
 10
0.0
 20
0.0
 30
0.0
  9
$UCSORGRIGHT
 10
0.0
 20
0.0
 30
0.0
  9
$UCSORGFRONT
 10
0.0
 20
0.0
 30
0.0
  9
$UCSORGBACK
 10
0.0
 20
0.0
 30
0.0
  9
$PUCSBASE
  2

  9
$PUCSNAME
  2

  9
$PUCSORG
 10
0.0
 20
0.0
 30
0.0
  9
$PUCSXDIR
 10
1.0
 20
0.0
 30
0.0
  9
$PUCSYDIR
 10
0.0
 20
1.0
 30
0.0
  9
$PUCSORTHOREF
  2

  9
$PUCSORTHOVIEW
 70
     0
  9
$PUCSORGTOP
 10
0.0
 20
0.0
 30
0.0
  9
$PUCSORGBOTTOM
 10
0.0
 20
0.0
 30
0.0
  9
$PUCSORGLEFT
 10
0.0
 20
0.0
 30
0.0
  9
$PUCSORGRIGHT
 10
0.0
 20
0.0
 30
0.0
  9
$PUCSORGFRONT
 10
0.0
 20
0.0
 30
0.0
  9
$PUCSORGBACK
 10
0.0
 20
0.0
 30
0.0
  9
$USERI1
 70
     0
  9
$USERI2
 70
     0
  9
$USERI3
 70
     0
  9
$USERI4
 70
     0
  9
$USERI5
 70
     0
  9
$USERR1
 40
0.0
  9
$USERR2
 40
0.0
  9
$USERR3
 40
0.0
  9
$USERR4
 40
0.0
  9
$USERR5
 40
0.0
  9
$WORLDVIEW
 70
     1
  9
$SHADEDGE
 70
     3
  9
$SHADEDIF
 70
    70
  9
$TILEMODE
 70
     1
  9
$MAXACTVP
 70
    64
  9
$PINSBASE
 10
0.0
 20
0.0
 30
0.0
  9
$PLIMCHECK
 70
     0
  9
$PEXTMIN
 10
1.000000000000000E+20
 20
1.000000000000000E+20
 30
1.000000000000000E+20
  9
$PEXTMAX
 10
-1.000000000000000E+20
 20
-1.000000000000000E+20
 30
-1.000000000000000E+20
  9
$PLIMMIN
 10
0.0
 20
0.0
  9
$PLIMMAX
 10
12.0
 20
9.0
  9
$UNITMODE
 70
     0
  9
$VISRETAIN
 70
     1
  9
$PLINEGEN
 70
     0
  9
$PSLTSCALE
 70
     1
  9
$TREEDEPTH
 70
  3020
  9
$CMLSTYLE
  2
Standard
  9
$CMLJUST
 70
     0
  9
$CMLSCALE
 40
1.0
  9
$PROXYGRAPHICS
 70
     1
  9
$MEASUREMENT
 70
     0
  9
$CELWEIGHT
370
    -1
  9
$ENDCAPS
280
     0
  9
$JOINSTYLE
280
     0
  9
$LWDISPLAY
290
     0
  9
$INSUNITS
 70
     1
  9
$HYPERLINKBASE
  1

  9
$STYLESHEET
  1

  9
$XEDIT
290
     1
  9
$CEPSNTYPE
380
     0
  9
$PSTYLEMODE
290
     1
  9
$FINGERPRINTGUID
  2
{ED8C22C2-F354-4309-ABAB-DA771D398513}
  9
$VERSIONGUID
  2
{FAEB1C32-E019-11D5-929B-00C0DF256EC4}
  9
$EXTNAMES
290
     1
  9
$PSVPSCALE
 40
0.0
  9
$OLESTARTUP
290
     0
  9
$SORTENTS
280
   127
  9
$INDEXCTL
280
     0
  9
$HIDETEXT
280
     1
  9
$XCLIPFRAME
280
     2
  9
$HALOGAP
280
     0
  9
$OBSCOLOR
 70
   257
  9
$OBSLTYPE
280
     0
  9
$INTERSECTIONDISPLAY
280
     0
  9
$INTERSECTIONCOLOR
 70
   257
  9
$DIMASSOC
280
     2
  9
$PROJECTNAME
  1

  9
$CAMERADISPLAY
290
     0
  9
$LENSLENGTH
 40
50.0
  9
$CAMERAHEIGHT
 40
0.0
  9
$STEPSPERSEC
 40
2.0
  9
$STEPSIZE
 40
6.0
  9
$3DDWFPREC
 40
2.0
  9
$PSOLWIDTH
 40
0.25
  9
$PSOLHEIGHT
 40
4.0
  9
$LOFTANG1
 40
1.570796326794897
  9
$LOFTANG2
 40
1.570796326794897
  9
$LOFTMAG1
 40
0.0
  9
$LOFTMAG2
 40
0.0
  9
$LOFTPARAM
 70
     7
  9
$LOFTNORMALS
280
     1
  9
$LATITUDE
 40
37.795
  9
$LONGITUDE
 40
-122.394
  9
$NORTHDIRECTION
 40
0.0
  9
$TIMEZONE
 70
 -8000
  9
$LIGHTGLYPHDISPLAY
280
     1
  9
$TILEMODELIGHTSYNCH
280
     1
  9
$CMATERIAL
347
44
  9
$SOLIDHIST
280
     0
  9
$SHOWHIST
280
     1
  9
$DWFFRAME
280
     2
  9
$DGNFRAME
280
     2
  9
$REALWORLDSCALE
290
     1
  9
$INTERFERECOLOR
 62
   256
  9
$CSHADOW
280
     0
  9
$SHADOWPLANELOCATION
 40
0.0
  0
ENDSEC
  0
SECTION
  2
CLASSES
  0
CLASS
  1
ACDBDICTIONARYWDFLT
  2
AcDbDictionaryWithDefault
  3
ObjectDBX Classes
 90
        0
 91
        4
280
     0
281
     0
  0
CLASS
  1
VISUALSTYLE
  2
AcDbVisualStyle
  3
ObjectDBX Classes
 90
     4095
 91
        4
280
     0
281
     0
  0
CLASS
  1
MATERIAL
  2
AcDbMaterial
  3
ObjectDBX Classes
 90
     1153
 91
        4
280
     0
281
     0
  0
CLASS
  1
SCALE
  2
AcDbScale
  3
ObjectDBX Classes
 90
     1153
 91
        4
280
     0
281
     0
  0
CLASS
  1
TABLESTYLE
  2
AcDbTableStyle
  3
ObjectDBX Classes
 90
     4095
 91
        4
280
     0
281
     0
  0
CLASS
  1
MLEADERSTYLE
  2
AcDbMLeaderStyle
  3
ACDB_MLEADERSTYLE_CLASS
 90
     4095
 91
        4
280
     0
281
     0
  0
CLASS
  1
SUN
  2
AcDbSun
  3
SCENEOE
 90
     1153
 91
        4
280
     0
281
     0
  0
CLASS
  1
DICTIONARYVAR
  2
AcDbDictionaryVar
  3
ObjectDBX Classes
 90
        0
 91
        4
280
     0
281
     0
  0
CLASS
  1
CELLSTYLEMAP
  2
AcDbCellStyleMap
  3
ObjectDBX Classes
 90
     1152
 91
        4
280
     0
281
     0
  0
ENDSEC
  0
SECTION
  2
TABLES
  0
TABLE
  2
VPORT
  5
8
330
0
100
AcDbSymbolTable
 70
     1
  0
VPORT
  5
29
330
8
100
AcDbSymbolTableRecord
100
AcDbViewportTableRecord
  2
*Active
 70
     0
 10
0.0
 20
0.0
 11
1.0
 21
1.0
 12
0.3969916745000734
 22
-0.1284999999999998
 13
0.0
 23
0.0
 14
0.5
 24
0.5
 15
0.5
 25
0.5
 16
0.0
 26
0.0
 36
1.0
 17
0.0
 27
0.0
 37
0.0
 40
1.8105
 41
2.660829099154846
 42
50.0
 43
0.0
 44
0.0
 50
0.0
 51
0.0
 71
     0
 72
   100
 73
     1
 74
     3
 75
     0
 76
     0
 77
     0
 78
     0
281
     0
 65
     1
110
0.0
120
0.0
130
0.0
111
1.0
121
0.0
131
0.0
112
0.0
122
1.0
132
0.0
 79
     0
146
0.0
348
2F
 60
     3
 61
     5
292
     1
282
     1
141
0.0
142
0.0
 63
   250
361
6D
  0
ENDTAB
  0
TABLE
  2
LTYPE
  5
5
330
0
100
AcDbSymbolTable
 70
     3
  0
LTYPE
  5
14
330
5
100
AcDbSymbolTableRecord
100
AcDbLinetypeTableRecord
  2
ByBlock
 70
     0
  3

 72
    65
 73
     0
 40
0.0
  0
LTYPE
  5
15
330
5
100
AcDbSymbolTableRecord
100
AcDbLinetypeTableRecord
  2
ByLayer
 70
     0
  3

 72
    65
 73
     0
 40
0.0
  0
LTYPE
  5
16
330
5
100
AcDbSymbolTableRecord
100
AcDbLinetypeTableRecord
  2
Continuous
 70
     0
  3
Solid line
 72
    65
 73
     0
 40
0.0
  0
LTYPE
  5
A0
330
5
100
AcDbSymbolTableRecord
100
AcDbLinetypeTableRecord
  2
Dashed
 70
     0
  3

 72
    65
 73
     2
 40
2.0
 49
1.0
 74
     0
 49
-1.0
 74
     0
  0
LTYPE
  5
169
330
5
100
AcDbSymbolTableRecord
100
AcDbLinetypeTableRecord
  2
Center
 70
     0
  3

 72
    65
 73
     4
 40
1.5
 49
0.45
 74
     0
 49
-0.5
 74
     0
 49
0.05
 74
     0
 49
-0.5
 74
     0
  0
ENDTAB
  0
TABLE
  2
LAYER
  5
2
330
0
100
AcDbSymbolTable
 70
     7
  0
LAYER
  5
10
330
2
100
AcDbSymbolTableRecord
100
AcDbLayerTableRecord
  2
0
 70
     0
 62
     7
  6
Continuous
370
    -3
390
F
347
46
348
0
  0
LAYER
  5
72
330
2
100
AcDbSymbolTableRecord
100
AcDbLayerTableRecord
  2
AM_6
 70
     0
 62
    -2
  6
Continuous
370
    35
390
F
347
46
348
0
  0
LAYER
  5
A1
330
2
100
AcDbSymbolTableRecord
100
AcDbLayerTableRecord
  2
AM_9
 70
     0
 62
     6
  6
Dashed
370
    25
390
F
347
46
348
0
  0
LAYER
  5
E6
330
2
100
AcDbSymbolTableRecord
100
AcDbLayerTableRecord
  2
AM_4
 70
     0
 62
     7
  6
Continuous
370
    50
390
F
347
46
348
0
  0
LAYER
  5
164
330
2
100
AcDbSymbolTableRecord
100
AcDbLayerTableRecord
  2
AM_5
 70
     0
 62
     3
  6
Continuous
370
    25
390
F
347
46
348
0
  0
LAYER
  5
16A
330
2
100
AcDbSymbolTableRecord
100
AcDbLayerTableRecord
  2
AM_7
 70
     0
 62
     7
  6
Center
370
    25
390
F
347
46
348
0
  0
LAYER
  5
1E3
330
2
100
AcDbSymbolTableRecord
100
AcDbLayerTableRecord
  2
ConnectionPoints
 70
     0
 62
     7
  6
Continuous
370
    50
390
F
347
46
348
0
  0
ENDTAB
  0
TABLE
  2
STYLE
  5
3
330
0
100
AcDbSymbolTable
 70
     1
  0
STYLE
  5
11
330
3
100
AcDbSymbolTableRecord
100
AcDbTextStyleTableRecord
  2
Standard
 70
     0
 40
0.0
 41
1.0
 50
0.0
 71
     0
 42
0.2
  3
txt
  4

  0
ENDTAB
  0
TABLE
  2
VIEW
  5
6
330
0
100
AcDbSymbolTable
 70
     0
  0
ENDTAB
  0
TABLE
  2
UCS
  5
7
330
0
100
AcDbSymbolTable
 70
     0
  0
ENDTAB
  0
TABLE
  2
APPID
  5
9
330
0
100
AcDbSymbolTable
 70
     1
  0
APPID
  5
12
330
9
100
AcDbSymbolTableRecord
100
AcDbRegAppTableRecord
  2
ACAD
 70
     0
  0
ENDTAB
  0
TABLE
  2
DIMSTYLE
  5
A
330
0
100
AcDbSymbolTable
 70
     1
100
AcDbDimStyleTable
  0
DIMSTYLE
105
27
330
A
100
AcDbSymbolTableRecord
100
AcDbDimStyleTableRecord
  2
Standard
 70
     0
178
     0
340
11
  0
ENDTAB
  0
TABLE
  2
BLOCK_RECORD
  5
1
330
0
100
AcDbSymbolTable
 70
     5
  0
BLOCK_RECORD
  5
1F
330
1
100
AcDbSymbolTableRecord
100
AcDbBlockTableRecord
  2
*Model_Space
340
22
 70
     0
280
     1
281
     0
  0
BLOCK_RECORD
  5
1B
330
1
100
AcDbSymbolTableRecord
100
AcDbBlockTableRecord
  2
*Paper_Space
340
1E
 70
     0
280
     1
281
     0
  0
BLOCK_RECORD
  5
23
330
1
100
AcDbSymbolTableRecord
100
AcDbBlockTableRecord
  2
*Paper_Space0
340
26
 70
     0
280
     1
281
     0
  0
BLOCK_RECORD
  5
6E
330
1
100
AcDbSymbolTableRecord
100
AcDbBlockTableRecord
  2
1_125153_4
340
0
102
{BLKREFS
331
6F
102
}
 70
     0
280
     1
281
     0
  0
BLOCK_RECORD
  5
8F
330
1
100
AcDbSymbolTableRecord
100
AcDbBlockTableRecord
  2
2_405016_Inch_0_in_125153_4
340
0
102
{BLKREFS
331
90
102
}
 70
     0
280
     1
281
     0
  0
BLOCK_RECORD
  5
11A
330
1
100
AcDbSymbolTableRecord
100
AcDbBlockTableRecord
  2
3_123338_0_in_125153_4
340
0
102
{BLKREFS
331
11B
102
}
 70
     0
280
     1
281
     0
  0
BLOCK_RECORD
  5
17C
330
1
100
AcDbSymbolTableRecord
100
AcDbBlockTableRecord
  2
4_125153H_0_in_125153_4
340
0
102
{BLKREFS
331
17D
102
}
 70
     0
280
     1
281
     0
  0
ENDTAB
  0
ENDSEC
  0
SECTION
  2
BLOCKS
  0
BLOCK
  5
20
330
1F
100
AcDbEntity
  8
0
100
AcDbBlockBegin
  2
*Model_Space
 70
     0
 10
0.0
 20
0.0
 30
0.0
  3
*Model_Space
  1

  0
ENDBLK
  5
21
330
1F
100
AcDbEntity
  8
0
100
AcDbBlockEnd
  0
BLOCK
  5
1C
330
1B
100
AcDbEntity
 67
     1
  8
0
100
AcDbBlockBegin
  2
*Paper_Space
 70
     0
 10
0.0
 20
0.0
 30
0.0
  3
*Paper_Space
  1

  0
ENDBLK
  5
1D
330
1B
100
AcDbEntity
 67
     1
  8
0
100
AcDbBlockEnd
  0
BLOCK
  5
24
330
23
100
AcDbEntity
  8
0
100
AcDbBlockBegin
  2
*Paper_Space0
 70
     0
 10
0.0
 20
0.0
 30
0.0
  3
*Paper_Space0
  1

  0
ENDBLK
  5
25
330
23
100
AcDbEntity
  8
0
100
AcDbBlockEnd
  0
BLOCK
  5
70
330
6E
100
AcDbEntity
  8
0
100
AcDbBlockBegin
  2
1_125153_4
 70
     2
 10
0.0
 20
0.0
 30
0.0
  3
1_125153_4
  1

  0
ATTDEF
  5
73
330
6E
100
AcDbEntity
  8
AM_6
100
AcDbText
 10
7.7584775
 20
0.7589999999999998
 30
0.0
 40
0.5
  1
Set Screw Narrow Slot Take Up Inch Bore
100
AcDbAttributeDefinition
  3

  2
NN
 70
     8
280
     0
  0
ATTDEF
  5
74
330
6E
100
AcDbEntity
  8
AM_6
100
AcDbText
 10
7.7584775
 20
0.2589999999999998
 30
0.0
 40
0.5
  1
SC Take-Up Bearings -Narrow Slot -(Normal Duty)
100
AcDbAttributeDefinition
  3

  2
NT
 70
     8
280
     0
  0
ATTDEF
  5
75
330
6E
100
AcDbEntity
  8
AM_6
100
AcDbText
 10
7.7584775
 20
-0.2410000000000002
 30
0.0
 40
0.5
  1
125153
100
AcDbAttributeDefinition
  3

  2
NB
 70
     8
280
     0
  0
ATTDEF
  5
76
330
6E
100
AcDbEntity
  8
AM_6
100
AcDbText
 10
7.7584775
 20
-0.7410000000000002
 30
0.0
 40
0.5
  1
$PN.
100
AcDbAttributeDefinition
  3

  2
NBSYN
 70
     8
280
     0
  0
ATTDEF
  5
77
330
6E
100
AcDbEntity
  8
AM_6
100
AcDbText
 10
7.7584775
 20
-1.241
 30
0.0
 40
0.5
  1
125153
100
AcDbAttributeDefinition
  3

  2
LINA
 70
     8
280
     0
  0
ATTDEF
  5
78
330
6E
100
AcDbEntity
  8
AM_6
100
AcDbText
 10
7.7584775
 20
-1.741
 30
0.0
 40
0.5
  1
206
100
AcDbAttributeDefinition
  3

  2
SERIES
 70
     8
280
     0
  0
ATTDEF
  5
79
330
6E
100
AcDbEntity
  8
AM_6
100
AcDbText
 10
7.7584775
 20
-2.241
 30
0.0
 40
0.5
  1
1-3/16
100
AcDbAttributeDefinition
  3

  2
SS
 70
     8
280
     0
  0
ATTDEF
  5
7A
330
6E
100
AcDbEntity
  8
AM_6
100
AcDbText
 10
7.7584775
 20
-2.741
 30
0.0
 40
0.5
  1
125153
100
AcDbAttributeDefinition
  3

  2
PN
 70
     8
280
     0
  0
ATTDEF
  5
7B
330
6E
100
AcDbEntity
  8
AM_6
100
AcDbText
 10
7.7584775
 20
-3.241
 30
0.0
 40
0.5
  1
NSTU-SC-103
100
AcDbAttributeDefinition
  3

  2
DESCRIPTION
 70
     8
280
     0
  0
ATTDEF
  5
7C
330
6E
100
AcDbEntity
  8
AM_6
100
AcDbText
 10
7.7584775
 20
-3.741
 30
0.0
 40
0.5
  1
2.7
100
AcDbAttributeDefinition
  3

  2
W
 70
     8
280
     0
  0
ATTDEF
  5
7D
330
6E
100
AcDbEntity
  8
AM_6
100
AcDbText
 10
7.7584775
 20
-4.241
 30
0.0
 40
0.5
  1
NS308
100
AcDbAttributeDefinition
  3

  2
FS
 70
     8
280
     0
  0
ATTDEF
  5
7E
330
6E
100
AcDbEntity
  8
AM_6
100
AcDbText
 10
7.7584775
 20
-4.741
 30
0.0
 40
0.5
  1
RE-LUBE
100
AcDbAttributeDefinition
  3

  2
LF
 70
     8
280
     0
  0
ATTDEF
  5
7F
330
6E
100
AcDbEntity
  8
AM_6
100
AcDbText
 10
7.7584775
 20
-5.241
 30
0.0
 40
0.5
  1
1.52
100
AcDbAttributeDefinition
  3

  2
A
 70
     8
280
     0
  0
ATTDEF
  5
80
330
6E
100
AcDbEntity
  8
AM_6
100
AcDbText
 10
7.7584775
 20
-5.741
 30
0.0
 40
0.5
  1
4.31
100
AcDbAttributeDefinition
  3

  2
B
 70
     8
280
     0
  0
ATTDEF
  5
81
330
6E
100
AcDbEntity
  8
AM_6
100
AcDbText
 10
7.7584775
 20
-6.241
 30
0.0
 40
0.5
  1
0.250
100
AcDbAttributeDefinition
  3

  2
C
 70
     8
280
     0
  0
ATTDEF
  5
82
330
6E
100
AcDbEntity
  8
AM_6
100
AcDbText
 10
7.7584775
 20
-6.741
 30
0.0
 40
0.5
  1
2.50
100
AcDbAttributeDefinition
  3

  2
D
 70
     8
280
     0
  0
ATTDEF
  5
83
330
6E
100
AcDbEntity
  8
AM_6
100
AcDbText
 10
7.7584775
 20
-7.241
 30
0.0
 40
0.5
  1
2.69
100
AcDbAttributeDefinition
  3

  2
E
 70
     8
280
     0
  0
ATTDEF
  5
84
330
6E
100
AcDbEntity
  8
AM_6
100
AcDbText
 10
7.7584775
 20
-7.741
 30
0.0
 40
0.5
  1
3/4
100
AcDbAttributeDefinition
  3

  2
F
 70
     8
280
     0
  0
ATTDEF
  5
85
330
6E
100
AcDbEntity
  8
AM_6
100
AcDbText
 10
7.7584775
 20
-8.241
 30
0.0
 40
0.5
  1
0.50
100
AcDbAttributeDefinition
  3

  2
G
 70
     8
280
     0
  0
ATTDEF
  5
86
330
6E
100
AcDbEntity
  8
AM_6
100
AcDbText
 10
7.7584775
 20
-8.741
 30
0.0
 40
0.5
  1
0.94
100
AcDbAttributeDefinition
  3

  2
H
 70
     8
280
     0
  0
ATTDEF
  5
87
330
6E
100
AcDbEntity
  8
AM_6
100
AcDbText
 10
7.7584775
 20
-9.241
 30
0.0
 40
0.5
  1
1.38
100
AcDbAttributeDefinition
  3

  2
J
 70
     8
280
     0
  0
ATTDEF
  5
88
330
6E
100
AcDbEntity
  8
AM_6
100
AcDbText
 10
7.7584775
 20
-9.741
 30
0.0
 40
0.5
  1
1.57
100
AcDbAttributeDefinition
  3

  2
L
 70
     8
280
     0
  0
ATTDEF
  5
89
330
6E
100
AcDbEntity
  8
AM_6
100
AcDbText
 10
7.7584775
 20
-10.241
 30
0.0
 40
0.5
  1
3.510 / 3.480
100
AcDbAttributeDefinition
  3

  2
M
 70
     8
280
     0
  0
ATTDEF
  5
8A
330
6E
100
AcDbEntity
  8
AM_6
100
AcDbText
 10
7.7584775
 20
-10.741
 30
0.0
 40
0.5
  1
4.13
100
AcDbAttributeDefinition
  3

  2
N
 70
     8
280
     0
  0
ATTDEF
  5
8B
330
6E
100
AcDbEntity
  8
AM_6
100
AcDbText
 10
7.7584775
 20
-11.241
 30
0.0
 40
0.5
  1
0.32
100
AcDbAttributeDefinition
  3

  2
P
 70
     8
280
     0
  0
ATTDEF
  5
8C
330
6E
100
AcDbEntity
  8
AM_6
100
AcDbText
 10
7.7584775
 20
-11.741
 30
0.0
 40
0.5
  1
0.58
100
AcDbAttributeDefinition
  3

  2
R
 70
     8
280
     0
  0
ATTDEF
  5
8D
330
6E
100
AcDbEntity
  8
AM_6
100
AcDbText
 10
7.7584775
 20
-12.241
 30
0.0
 40
0.5
  1
0.94
100
AcDbAttributeDefinition
  3

  2
S
 70
     8
280
     0
  0
ATTDEF
  5
8E
330
6E
100
AcDbEntity
  8
AM_6
100
AcDbText
 10
7.7584775
 20
-12.741
 30
0.0
 40
0.5
  1
baldor
100
AcDbAttributeDefinition
  3

  2
COMPANY
 70
     8
280
     0
  0
INSERT
  5
90
330
6E
100
AcDbEntity
  8
0
100
AcDbBlockReference
  2
2_405016_Inch_0_in_125153_4
 10
0.0
 20
0.0
 30
0.0
  0
INSERT
  5
11B
330
6E
100
AcDbEntity
  8
0
100
AcDbBlockReference
  2
3_123338_0_in_125153_4
 10
0.0
 20
0.0
 30
0.0
  0
INSERT
  5
17D
330
6E
100
AcDbEntity
  8
0
100
AcDbBlockReference
  2
4_125153H_0_in_125153_4
 10
0.0
 20
0.0
 30
0.0
  0
ENDBLK
  5
71
330
6E
100
AcDbEntity
  8
0
100
AcDbBlockEnd
  0
BLOCK
  5
91
330
8F
100
AcDbEntity
  8
0
100
AcDbBlockBegin
  2
2_405016_Inch_0_in_125153_4
 70
     2
 10
0.0
 20
0.0
 30
0.0
  3
2_405016_Inch_0_in_125153_4
  1

  0
ATTDEF
  5
93
330
8F
100
AcDbEntity
  8
AM_6
100
AcDbText
 10
3.867313765885667
 20
0.2187499999999999
 30
0.0
 40
0.5
  1
405016 -Inch
100
AcDbAttributeDefinition
  3

  2
NN
 70
     8
280
     0
  0
ATTDEF
  5
94
330
8F
100
AcDbEntity
  8
AM_6
100
AcDbText
 10
3.867313765885667
 20
-0.2812500000000001
 30
0.0
 40
0.5
  1
Grease Fitting
100
AcDbAttributeDefinition
  3

  2
NT
 70
     8
280
     0
  0
ATTDEF
  5
95
330
8F
100
AcDbEntity
  8
AM_6
100
AcDbText
 10
3.867313765885667
 20
-0.78125
 30
0.0
 40
0.5
  1
405016-Inch
100
AcDbAttributeDefinition
  3

  2
NB
 70
     8
280
     0
  0
ATTDEF
  5
96
330
8F
100
AcDbEntity
  8
AM_6
100
AcDbText
 10
3.867313765885667
 20
-1.28125
 30
0.0
 40
0.5
  1
$MN.-Inch
100
AcDbAttributeDefinition
  3

  2
NBSYN
 70
     8
280
     0
  0
ATTDEF
  5
97
330
8F
100
AcDbEntity
  8
AM_6
100
AcDbText
 10
3.867313765885667
 20
-1.78125
 30
0.0
 40
0.5
  1
405016
100
AcDbAttributeDefinition
  3

  2
LINA
 70
     8
280
     0
  0
ATTDEF
  5
98
330
8F
100
AcDbEntity
  8
AM_6
100
AcDbText
 10
3.867313765885667
 20
-2.28125
 30
0.0
 40
0.5
  1
405016
100
AcDbAttributeDefinition
  3

  2
MN
 70
     8
280
     0
  0
ATTDEF
  5
99
330
8F
100
AcDbEntity
  8
AM_6
100
AcDbText
 10
3.867313765885667
 20
-2.78125
 30
0.0
 40
0.5
  1
7/16 HEX
100
AcDbAttributeDefinition
  3

  2
H
 70
     8
280
     0
  0
ATTDEF
  5
9A
330
8F
100
AcDbEntity
  8
AM_6
100
AcDbText
 10
3.867313765885667
 20
-3.28125
 30
0.0
 40
0.5
  1
0.383
100
AcDbAttributeDefinition
  3

  2
NDR
 70
     8
280
     0
  0
ATTDEF
  5
9B
330
8F
100
AcDbEntity
  8
AM_6
100
AcDbText
 10
3.867313765885667
 20
-3.78125
 30
0.0
 40
0.5
  1
0.337
100
AcDbAttributeDefinition
  3

  2
KDR
 70
     8
280
     0
  0
ATTDEF
  5
9C
330
8F
100
AcDbEntity
  8
AM_6
100
AcDbText
 10
3.867313765885667
 20
-4.28125
 30
0.0
 40
0.5
  1
0.1575
100
AcDbAttributeDefinition
  3

  2
BZE
 70
     8
280
     0
  0
ATTDEF
  5
9D
330
8F
100
AcDbEntity
  8
AM_6
100
AcDbText
 10
3.867313765885667
 20
-4.78125
 30
0.0
 40
0.5
  1
0.4375
100
AcDbAttributeDefinition
  3

  2
HEX
 70
     8
280
     0
  0
ATTDEF
  5
9E
330
8F
100
AcDbEntity
  8
AM_6
100
AcDbText
 10
3.867313765885667
 20
-5.28125
 30
0.0
 40
0.5
  1
0.281250
100
AcDbAttributeDefinition
  3

  2
HEX2
 70
     8
280
     0
  0
ATTDEF
  5
9F
330
8F
100
AcDbEntity
  8
AM_6
100
AcDbText
 10
3.867313765885667
 20
-5.78125
 30
0.0
 40
0.5
  1
baldor
100
AcDbAttributeDefinition
  3

  2
COMPANY
 70
     8
280
     0
  0
LINE
  5
A2
330
8F
100
AcDbEntity
  8
AM_9
100
AcDbLine
 10
-1.829829051944873
 20
-0.151074129835757
 30
0.0
 11
-1.841150625168751
 21
-0.1791093260592887
 31
0.0
  0
LINE
  5
A3
330
8F
100
AcDbEntity
  8
AM_9
100
AcDbLine
 10
-1.678654205906376
 20
-0.2099962668917053
 30
0.0
 11
-1.690341452125921
 21
-0.2389369657326276
 31
0.0
  0
LWPOLYLINE
  5
A4
330
8F
100
AcDbEntity
  8
AM_9
100
AcDbPolyline
 90
        3
 70
     0
 43
0.0
 10
-1.423073786106047
 20
-0.0000000000000001
 10
-1.444551457023669
 20
-0.0544416102741496
 10
-1.462500400640971
 20
-0.109375
  0
LWPOLYLINE
  5
A5
330
8F
100
AcDbEntity
  8
AM_9
100
AcDbPolyline
 90
        3
 70
     0
 43
0.0
 10
-1.462500400640971
 20
0.1093749999999999
 10
-1.444640750657047
 20
0.0546874999999999
 10
-1.423073786106047
 20
-0.0000000000000001
  0
LWPOLYLINE
  5
A6
330
8F
100
AcDbEntity
  8
AM_9
100
AcDbPolyline
 90
        3
 70
     0
 43
0.0
 10
-1.620723357484286
 20
-0.2987675689889718
 10
-1.636610642047382
 20
-0.2912216284034024
 10
-1.651820643745397
 20
-0.2813919000363599
  0
LWPOLYLINE
  5
A7
330
8F
100
AcDbEntity
  8
AM_9
100
AcDbPolyline
 90
        3
 70
     0
 43
0.0
 10
-1.375897860262527
 20
-0.109375
 10
-1.362183667400142
 20
-0.0546875000000001
 10
-1.352176789104835
 20
-0.0000000000000001
  0
LWPOLYLINE
  5
A8
330
8F
100
AcDbEntity
  8
AM_9
100
AcDbPolyline
 90
        3
 70
     0
 43
0.0
 10
-1.352176789104835
 20
-0.0000000000000001
 10
-1.36213099653411
 20
0.0544416102741495
 10
-1.375897860262527
 20
0.1093749999999999
  0
LWPOLYLINE
  5
A9
330
8F
100
AcDbEntity
  8
AM_9
100
AcDbPolyline
 90
        3
 70
     0
 43
0.0
 10
-1.619931128255981
 20
-0.2519097358202571
 10
-1.616264478851319
 20
-0.2570505402207574
 10
-1.608667708173308
 20
-0.2689146070947222
  0
LWPOLYLINE
  5
AA
330
8F
100
AcDbEntity
  8
AM_9
100
AcDbPolyline
 90
        3
 70
     0
 43
0.0
 10
-1.486221471798662
 20
0.2187499999999999
 10
-1.476267264369387
 20
0.1643083897258504
 10
-1.462500400640971
 20
0.1093749999999999
  0
LINE
  5
AB
330
8F
100
AcDbEntity
  8
AM_9
100
AcDbLine
 10
-1.423073786106047
 20
-0.0000000000000001
 30
0.0
 11
-1.352176789104835
 21
-0.0000000000000001
 31
0.0
  0
LWPOLYLINE
  5
AC
330
8F
100
AcDbEntity
  8
AM_9
100
AcDbPolyline
 90
        3
 70
     0
 43
0.0
 10
-1.462500400640971
 20
-0.109375
 10
-1.476214593503355
 20
-0.1640625
 10
-1.486221471798662
 20
-0.21875
  0
LINE
  5
AD
330
8F
100
AcDbEntity
  8
AM_9
100
AcDbLine
 10
-1.608667708173308
 20
-0.2689146070947222
 30
0.0
 11
-1.619942294630991
 21
-0.2640169194623288
 31
0.0
  0
LINE
  5
AE
330
8F
100
AcDbEntity
  8
AM_9
100
AcDbLine
 10
-1.608667708173308
 20
-0.2689146070947222
 30
0.0
 11
-1.62
 21
-0.2969763454009848
 31
0.0
  0
ELLIPSE
  5
AF
330
8F
100
AcDbEntity
  8
AM_9
100
AcDbEllipse
 10
-1.863005000333377
 20
-0.4687500000000001
 30
0.0
 11
-0.09595382955731768
 21
0.03874944547499719
 31
0.0
210
0.0
220
0.0
230
1.0
 40
0.2113091308703481
 41
3.04060964969654
 42
6.384168311072845
  0
ELLIPSE
  5
B0
330
8F
100
AcDbEntity
  8
AM_9
100
AcDbEllipse
 10
-1.835011338135894
 20
-0.3994303217889761
 30
0.0
 11
-0.1290248947933272
 21
0.05210467522533585
 31
0.0
210
0.0
220
0.0
230
1.0
 40
0.2113091308703495
 41
3.037804230047742
 42
5.801105639492173
  0
ELLIPSE
  5
B1
330
8F
100
AcDbEntity
  8
AM_9
100
AcDbEllipse
 10
-1.824336356658544
 20
-0.3729962569746625
 30
0.0
 11
-0.1235034625626006
 21
0.04987493162723382
 31
0.0
210
0.0
220
0.0
230
1.0
 40
0.2113091308703401
 41
3.391526207786791
 42
6.030686258051722
  0
LWPOLYLINE
  5
B2
330
8F
100
AcDbEntity
  8
AM_9
100
AcDbPolyline
 90
        5
 70
     0
 43
0.0
 10
-1.841150625168751
 20
-0.1791093260592887
 10
-1.863013013667376
 20
-0.1842540823997054
 10
-1.88390910059737
 20
-0.1862220679364951
 10
-1.903826720152279
 20
-0.1844124966919381
 10
-1.922340506773542
 20
-0.1791093260592887
  0
LWPOLYLINE
  5
B3
330
8F
100
AcDbEntity
  8
AM_9
100
AcDbPolyline
 90
        5
 70
     0
 43
0.0
 10
-1.690341452125921
 20
-0.2389369657326276
 10
-1.72918274081335
 20
-0.2295338871417796
 10
-1.767317787525269
 20
-0.216687117104632
 10
-1.804936581886452
 20
-0.1996402057054678
 10
-1.841150625168751
 20
-0.1791093260592887
  0
LWPOLYLINE
  5
B4
330
8F
100
AcDbEntity
  8
AM_9
100
AcDbPolyline
 90
        3
 70
     0
 43
0.0
 10
-1.663842173927204
 20
-0.2711532636537956
 10
-1.677577351691776
 20
-0.256181552758992
 10
-1.690341452125921
 20
-0.2389369657326276
  0
ELLIPSE
  5
B5
330
8F
100
AcDbEntity
  8
AM_9
100
AcDbEllipse
 10
-1.773335453394561
 20
-0.2467045921760234
 30
0.0
 11
-0.1303939210191769
 21
0.05265753494273692
 31
0.0
210
0.0
220
0.0
230
1.0
 40
0.2113091308703442
 41
3.806340372002941
 42
6.919181903097269
  0
LINE
  5
B6
330
8F
100
AcDbEntity
  8
AM_9
100
AcDbLine
 10
-1.407584956790766
 20
0.2000413016192557
 30
0.0
 11
-1.41532447479745
 21
0.2187499999999999
 31
0.0
  0
LWPOLYLINE
  5
B7
330
8F
100
AcDbEntity
  8
AM_9
100
AcDbPolyline
 90
        3
 70
     0
 43
0.0
 10
-1.387618896096417
 20
0.1466129695929905
 10
-1.39375751024645
 20
0.1640624999999999
 10
-1.407584956790766
 20
0.2000413016192557
  0
LINE
  5
B8
330
8F
100
AcDbEntity
  8
AM_9
100
AcDbLine
 10
-1.375897860262527
 20
0.1093749999999999
 30
0.0
 11
-1.387618896096417
 21
0.1466129695929905
 31
0.0
  0
LINE
  5
B9
330
8F
100
AcDbEntity
  8
AM_9
100
AcDbLine
 10
-1.38770345237325
 20
-0.1468612835773474
 30
0.0
 11
-1.375897860262527
 21
-0.109375
 31
0.0
  0
LWPOLYLINE
  5
BA
330
8F
100
AcDbEntity
  8
AM_9
100
AcDbPolyline
 90
        3
 70
     0
 43
0.0
 10
-1.4075848347088
 20
-0.2000409996967265
 10
-1.393846803879828
 20
-0.1643083897258504
 10
-1.38770345237325
 20
-0.1468612835773474
  0
LINE
  5
BB
330
8F
100
AcDbEntity
  8
AM_9
100
AcDbLine
 10
-1.41532447479745
 20
-0.21875
 30
0.0
 11
-1.4075848347088
 21
-0.2000409996967265
 31
0.0
  0
LINE
  5
BC
330
8F
100
AcDbEntity
  8
AM_9
100
AcDbLine
 10
-1.840963852796763
 20
-0.1204089378707286
 30
0.0
 11
-1.842049297786476
 21
-0.1230967854582223
 31
0.0
  0
LINE
  5
BD
330
8F
100
AcDbEntity
  8
AM_9
100
AcDbLine
 10
-1.635843624370888
 20
-0.2
 30
0.0
 11
-1.633175145026185
 21
-0.1933921425434559
 31
0.0
  0
ELLIPSE
  5
BE
330
8F
100
AcDbEntity
  8
AM_9
100
AcDbEllipse
 10
-1.755035545856028
 20
-0.2013892028241892
 30
0.0
 11
-0.10199702266389
 21
0.04118989399965082
 31
0.0
210
0.0
220
0.0
230
1.0
 40
0.2113091308703473
 41
3.141592653589793
 42
6.283185307179586
  0
LWPOLYLINE
  5
BF
330
8F
100
AcDbEntity
  8
AM_9
100
AcDbPolyline
 90
        4
 70
     0
 43
0.0
 10
-1.840968582451783
 20
-0.1204206514110938
 10
-1.841107748436312
 20
-0.1208367673933812
 10
-1.840530164479185
 20
-0.1245107513506023
 10
-1.838623801894526
 20
-0.1273616761480618
  0
LWPOLYLINE
  5
C0
330
8F
100
AcDbEntity
  8
AM_9
100
AcDbPolyline
 90
        5
 70
     0
 43
0.0
 10
-1.633174200824697
 20
-0.1933898041312625
 10
-1.633267536955848
 20
-0.1936098952159723
 10
-1.636483073908486
 20
-0.1971856748420371
 10
-1.642501437151269
 20
-0.1994144431868154
 10
-1.649365407731712
 20
-0.1999999999699528
  0
LWPOLYLINE
  5
C1
330
8F
100
AcDbEntity
  8
AM_9
100
AcDbPolyline
 90
        4
 70
     0
 43
0.0
 10
-1.742662538944149
 20
-0.1745741884610189
 10
-1.715273463570719
 20
-0.1876759562813857
 10
-1.69669202747659
 20
-0.1983452719285273
 10
-1.678654205906376
 20
-0.2099962668917053
  0
LWPOLYLINE
  5
C2
330
8F
100
AcDbEntity
  8
AM_9
100
AcDbPolyline
 90
        3
 70
     0
 43
0.0
 10
-1.829829051944873
 20
-0.151074129835757
 10
-1.80062444444535
 20
-0.1564222384464442
 10
-1.771953945503055
 20
-0.1639312493177433
  0
LWPOLYLINE
  5
C3
330
8F
100
AcDbEntity
  8
AM_9
100
AcDbPolyline
 90
        3
 70
     0
 43
0.0
 10
-1.678654205906376
 20
-0.2099962668917053
 10
-1.661680523572853
 20
-0.2163479371246912
 10
-1.64554226638867
 20
-0.2258378743019628
  0
LWPOLYLINE
  5
C4
330
8F
100
AcDbEntity
  8
AM_9
100
AcDbPolyline
 90
        5
 70
     0
 43
0.0
 10
-1.866739932289368
 20
-0.141958509815605
 10
-1.86286481284332
 20
-0.1420496512545706
 10
-1.848375897728569
 20
-0.1441228263802214
 10
-1.838858023429976
 20
-0.1470795994472237
 10
-1.829829051944873
 20
-0.151074129835757
  0
ELLIPSE
  5
C5
330
8F
100
AcDbEntity
  8
AM_9
100
AcDbEllipse
 10
-1.75503554585603
 20
-0.2013892028241877
 30
0.0
 11
-0.1303939210191756
 21
0.05265753494273437
 31
0.0
210
0.0
220
0.0
230
1.0
 40
0.2113091308703476
 41
3.814164134970074
 42
4.685670612141897
  0
ELLIPSE
  5
C6
330
8F
100
AcDbEntity
  8
AM_9
100
AcDbEllipse
 10
-1.755035545856031
 20
-0.2013892028241866
 30
0.0
 11
-0.1303939210191725
 21
0.05265753494273269
 31
0.0
210
0.0
220
0.0
230
1.0
 40
0.2113091308703457
 41
-1.280071041438323
 42
-0.6725714813802748
  0
LINE
  5
C7
330
8F
100
AcDbEntity
  8
AM_9
100
AcDbLine
 10
-1.651820643745397
 20
-0.2813919000363599
 30
0.0
 11
-1.663842173927204
 21
-0.2711532636537956
 31
0.0
  0
ELLIPSE
  5
C8
330
8F
100
AcDbEntity
  8
AM_9
100
AcDbEllipse
 10
-1.773335453394566
 20
-0.2467045921760201
 30
0.0
 11
-0.1303939210191769
 21
0.05265753494273435
 31
0.0
210
0.0
220
0.0
230
1.0
 40
0.2113091308703504
 41
2.800469246484374
 42
3.607080702195122
  0
ELLIPSE
  5
C9
330
8F
100
AcDbEntity
  8
AM_9
100
AcDbEllipse
 10
-1.773335453400631
 20
-0.2467045921711166
 30
0.0
 11
-0.1303939210273684
 21
0.05265753494707732
 31
0.0
210
0.0
220
0.0
230
1.0
 40
0.2113091308750462
 41
-3.777589249505538
 42
-3.7646285818581
  0
LWPOLYLINE
  5
CA
330
8F
100
AcDbEntity
  8
AM_9
100
AcDbPolyline
 90
        3
 70
     0
 43
0.0
 10
-1.900972847897919
 20
-0.20487016569614
 10
-1.900571639737966
 20
-0.2054783265529685
 10
-1.89998927778563
 20
-0.2063970388884475
  0
LWPOLYLINE
  5
CB
330
8F
100
AcDbEntity
  8
AM_9
100
AcDbPolyline
 90
       17
 70
     0
 43
0.0
 10
-1.639850310176773
 20
-0.1790373738501778
 10
-1.647817775252965
 20
-0.1733931390117467
 10
-1.658573848687147
 20
-0.167072978024251
 10
-1.671216900209591
 20
-0.1606047421316795
 10
-1.686107323355432
 20
-0.1538031670974776
 10
-1.702009200162312
 20
-0.1472336073736393
 10
-1.719370169984031
 20
-0.1407130262602576
 10
-1.736725647114276
 20
-0.1347930597680667
 10
-1.754583358698564
 20
-0.1293028157827817
 10
-1.771413120198639
 20
-0.1247141396218192
 10
-1.787729864099344
 20
-0.1208880884981781
 10
-1.802128914959177
 20
-0.1181545989145989
 10
-1.815061267824925
 20
-0.1164278875396128
 10
-1.825420995984625
 20
-0.1158549073091554
 10
-1.833531170801322
 20
-0.1164156227038167
 10
-1.838707811992163
 20
-0.1180609686233501
 10
-1.840968582451783
 20
-0.1204206514110938
  0
LWPOLYLINE
  5
CC
330
8F
100
AcDbEntity
  8
AM_9
100
AcDbPolyline
 90
        4
 70
     0
 43
0.0
 10
-1.639850310176773
 20
-0.1790373738501783
 10
-1.634895649704705
 20
-0.1842628795203941
 10
-1.632787765237962
 20
-0.1891729979031393
 10
-1.633174200824697
 20
-0.1933898041312625
  0
LINE
  5
CD
330
8F
100
AcDbEntity
  8
AM_9
100
AcDbLine
 10
-1.557221929179893
 20
0.2
 30
0.0
 11
-1.61991123102995
 21
0.2
 31
0.0
  0
LINE
  5
CE
330
8F
100
AcDbEntity
  8
AM_9
100
AcDbLine
 10
-1.619913875117326
 20
-0.2
 30
0.0
 11
-1.557221929179893
 21
-0.2
 31
0.0
  0
LINE
  5
CF
330
8F
100
AcDbEntity
  8
AM_9
100
AcDbLine
 10
-1.40296115413079
 20
0.1999999999999999
 30
0.0
 11
-1.47061938880145
 21
0.1999999999999999
 31
0.0
  0
LINE
  5
D0
330
8F
100
AcDbEntity
  8
AM_9
100
AcDbLine
 10
-1.47061938880145
 20
-0.2
 30
0.0
 11
-1.40296115413079
 21
-0.2
 31
0.0
  0
LINE
  5
D1
330
8F
100
AcDbEntity
  8
AM_9
100
AcDbLine
 10
-1.612516843183893
 20
0.2187499999999999
 30
0.0
 11
-1.41532447479745
 21
0.2187499999999999
 31
0.0
  0
LINE
  5
D2
330
8F
100
AcDbEntity
  8
AM_9
100
AcDbLine
 10
-1.620256361190577
 20
0.2000413016192557
 30
0.0
 11
-1.612516843183893
 21
0.2187499999999999
 31
0.0
  0
LWPOLYLINE
  5
D3
330
8F
100
AcDbEntity
  8
AM_9
100
AcDbPolyline
 90
        3
 70
     0
 43
0.0
 10
-1.565340917340373
 20
0.1093749999999999
 10
-1.583200567324296
 20
0.0546875
 10
-1.604767531875296
 20
0.0
  0
LWPOLYLINE
  5
D4
330
8F
100
AcDbEntity
  8
AM_9
100
AcDbPolyline
 90
        3
 70
     0
 43
0.0
 10
-1.541619846182681
 20
0.2187499999999999
 10
-1.551574053611956
 20
0.1643083897258504
 10
-1.565340917340373
 20
0.1093749999999999
  0
LINE
  5
D5
330
8F
100
AcDbEntity
  8
AM_9
100
AcDbLine
 10
-1.62
 20
0.0
 30
0.0
 11
-1.604767531875296
 21
0.0
 31
0.0
  0
LINE
  5
D6
330
8F
100
AcDbEntity
  8
AM_9
100
AcDbLine
 10
-1.612516843183893
 20
-0.21875
 30
0.0
 11
-1.620256483272543
 21
-0.2000409996967266
 31
0.0
  0
LINE
  5
D7
330
8F
100
AcDbEntity
  8
AM_9
100
AcDbLine
 10
-1.612516843183893
 20
-0.21875
 30
0.0
 11
-1.41532447479745
 21
-0.21875
 31
0.0
  0
LWPOLYLINE
  5
D8
330
8F
100
AcDbEntity
  8
AM_9
100
AcDbPolyline
 90
        3
 70
     0
 43
0.0
 10
-1.565340917340373
 20
-0.109375
 10
-1.551626724477988
 20
-0.1640625
 10
-1.541619846182681
 20
-0.21875
  0
LWPOLYLINE
  5
D9
330
8F
100
AcDbEntity
  8
AM_9
100
AcDbPolyline
 90
        3
 70
     0
 43
0.0
 10
-1.604767531875296
 20
0.0
 10
-1.583289860957674
 20
-0.0544416102741496
 10
-1.565340917340373
 20
-0.109375
  0
LINE
  5
DA
330
8F
100
AcDbEntity
  8
AM_9
100
AcDbLine
 10
-1.232416536508387
 20
0.1853871066562612
 30
0.0
 11
-1.401230235720824
 21
0.1914799425981716
 31
0.0
  0
LINE
  5
DB
330
8F
100
AcDbEntity
  8
AM_9
100
AcDbLine
 10
-1.401230235720824
 20
-0.1914799425981717
 30
0.0
 11
-1.232416536508387
 21
-0.1853871066562613
 31
0.0
  0
LINE
  5
DC
330
8F
100
AcDbEntity
  8
AM_9
100
AcDbLine
 10
-1.166849799226237
 20
0.1319978794387896
 30
0.0
 11
-1.180563926285306
 21
0.1513925839218323
 31
0.0
  0
LINE
  5
DD
330
8F
100
AcDbEntity
  8
AM_9
100
AcDbLine
 10
-1.180563926285306
 20
-0.1513925839218324
 30
0.0
 11
-1.167116666666667
 21
-0.1323752869924007
 31
0.0
  0
ELLIPSE
  5
DE
330
8F
100
AcDbEntity
  8
AM_9
100
AcDbEllipse
 10
-1.557221929179894
 20
0.0
 30
0.0
 11
1.339457436567413E-17
 21
0.2187499999999992
 31
0.0
210
0.0
220
0.0
230
1.0
 40
0.5000000000000008
 41
0.0
 42
6.283185307179586
  0
ELLIPSE
  5
DF
330
8F
100
AcDbEntity
  8
AM_9
100
AcDbEllipse
 10
-1.557221929179893
 20
0.0
 30
0.0
 11
1.224646799147354E-17
 21
0.2000000000000001
 31
0.0
210
0.0
220
0.0
230
1.0
 40
0.499999999999998
 41
0.0
 42
6.283185307179586
  0
ELLIPSE
  5
E0
330
8F
100
AcDbEntity
  8
AM_9
100
AcDbEllipse
 10
-1.470619388801451
 20
-0.0000000000000024
 30
0.0
 11
1.339457436567400E-17
 21
0.2187499999999972
 31
0.0
210
0.0
220
0.0
230
1.0
 40
0.5000000000000054
 41
0.0
 42
6.283185307179586
  0
ELLIPSE
  5
E1
330
8F
100
AcDbEntity
  8
AM_9
100
AcDbEllipse
 10
-1.47061938880145
 20
-0.0000000000000004
 30
0.0
 11
1.224646799147350E-17
 21
0.1999999999999996
 31
0.0
210
0.0
220
0.0
230
1.0
 40
0.5000000000000004
 41
0.0
 42
6.283185307179586
  0
ELLIPSE
  5
E2
330
8F
100
AcDbEntity
  8
AM_9
100
AcDbEllipse
 10
-1.40296115413079
 20
0.0000000000000001
 30
0.0
 11
1.224646799147352E-17
 21
0.1999999999999998
 31
0.0
210
0.0
220
0.0
230
1.0
 40
0.4999999999999976
 41
0.0
 42
6.283185307179586
  0
ELLIPSE
  5
E3
330
8F
100
AcDbEntity
  8
AM_9
100
AcDbEllipse
 10
-1.402961154130353
 20
0.0000000000000814
 30
0.0
 11
1.172668097676720E-17
 21
0.191511233850148
 31
0.0
210
0.0
220
0.0
230
1.0
 40
0.4999999999999719
 41
0.0
 42
6.283185307179586
  0
ELLIPSE
  5
E4
330
8F
100
AcDbEntity
  8
AM_9
100
AcDbEllipse
 10
-1.234089287641546
 20
-0.0000000000000004
 30
0.0
 11
1.135353457964638E-17
 21
0.1854172907249855
 31
0.0
210
0.0
220
0.0
230
1.0
 40
0.4999999999999956
 41
0.0
 42
6.283185307179586
  0
ELLIPSE
  5
E5
330
8F
100
AcDbEntity
  8
AM_9
100
AcDbEllipse
 10
-1.213518097052944
 20
-0.0000000000000001
 30
0.0
 11
9.899048221688862E-18
 21
0.1616637258772238
 31
0.0
210
0.0
220
0.0
230
1.0
 40
0.4999999999999993
 41
0.0
 42
6.283185307179586
  0
LWPOLYLINE
  5
E7
330
8F
100
AcDbEntity
  8
AM_4
100
AcDbPolyline
 90
        3
 70
     0
 43
0.0
 10
-1.633520736206863
 20
-0.2360765106845276
 10
-1.624355749630306
 20
-0.2462091938631851
 10
-1.619931128255981
 20
-0.2519097358202571
  0
LWPOLYLINE
  5
E8
330
8F
100
AcDbEntity
  8
AM_4
100
AcDbPolyline
 90
        3
 70
     0
 43
0.0
 10
-1.619942294630991
 20
-0.2640169194623288
 10
-1.621663596022919
 20
-0.2634308483997528
 10
-1.63587749613716
 20
-0.2602304684431305
  0
LWPOLYLINE
  5
E9
330
8F
100
AcDbEntity
  8
AM_4
100
AcDbPolyline
 90
        3
 70
     0
 43
0.0
 10
-1.654177403675693
 20
-0.3055458577949631
 10
-1.637795449056715
 20
-0.3030753670497808
 10
-1.620723357484286
 20
-0.2987675689889718
  0
LINE
  5
EA
330
8F
100
AcDbEntity
  8
AM_4
100
AcDbLine
 10
-1.62
 20
-0.2969763454009848
 30
0.0
 11
-1.620723357484286
 21
-0.2987675689889718
 31
0.0
  0
LINE
  5
EB
330
8F
100
AcDbEntity
  8
AM_4
100
AcDbLine
 10
-1.768365458462031
 20
-0.5093460834378319
 30
0.0
 11
-1.707753708194767
 21
-0.4540180898723598
 31
0.0
  0
LINE
  5
EC
330
8F
100
AcDbEntity
  8
AM_4
100
AcDbLine
 10
-1.964488875494642
 20
-0.3503396289636352
 30
0.0
 11
-1.959295453203912
 21
-0.4322420068738781
 31
0.0
  0
ELLIPSE
  5
ED
330
8F
100
AcDbEntity
  8
AM_4
100
AcDbEllipse
 10
-1.863005000333377
 20
-0.4687500000000001
 30
0.0
 11
-0.0959538295573177
 21
0.03874944547499708
 31
0.0
210
0.0
220
0.0
230
1.0
 40
0.2113091308703516
 41
0.1009830038932504
 42
3.04060964969654
  0
LINE
  5
EE
330
8F
100
AcDbEntity
  8
AM_4
100
AcDbLine
 10
-1.911018933549665
 20
-0.151074129835757
 30
0.0
 11
-1.922340506773542
 21
-0.1791093260592887
 31
0.0
  0
LWPOLYLINE
  5
EF
330
8F
100
AcDbEntity
  8
AM_4
100
AcDbPolyline
 90
        9
 70
     0
 43
0.0
 10
-1.940872131219343
 20
-0.3180480253268633
 10
-1.945883841929127
 20
-0.3199767393701462
 10
-1.950665260946753
 20
-0.322661486427581
 10
-1.954956798135814
 20
-0.3260834139940986
 10
-1.95863872618396
 20
-0.3302458352588528
 10
-1.961539862764198
 20
-0.3350620678966004
 10
-1.963606944381151
 20
-0.3407381372930446
 10
-1.964494150999853
 20
-0.3464205078388566
 10
-1.964461872995001
 20
-0.3507280656994365
  0
LWPOLYLINE
  5
F0
330
8F
100
AcDbEntity
  8
AM_4
100
AcDbPolyline
 90
       10
 70
     0
 43
0.0
 10
-1.708022307009831
 20
-0.4542605063879805
 10
-1.707055289042812
 20
-0.4533610372734647
 10
-1.703421843856435
 20
-0.4491494547317055
 10
-1.700580974922316
 20
-0.4442933409250082
 10
-1.698591992414413
 20
-0.4386090322084726
 10
-1.69777501431156
 20
-0.4329359594297731
 10
-1.697975611108901
 20
-0.4274819080980528
 10
-1.699028887792894
 20
-0.4223170622082265
 10
-1.700818843194809
 20
-0.4174141791031823
 10
-1.70222569720634
 20
-0.4145619586258478
  0
ELLIPSE
  5
F1
330
8F
100
AcDbEntity
  8
AM_4
100
AcDbEllipse
 10
-1.835011338135894
 20
-0.3994303217889761
 30
0.0
 11
-0.1290248947933272
 21
0.05210467522533585
 31
0.0
210
0.0
220
0.0
230
1.0
 40
0.211309130870348
 41
0.1040435326841651
 42
3.037804230047742
  0
LWPOLYLINE
  5
F2
330
8F
100
AcDbEntity
  8
AM_4
100
AcDbPolyline
 90
        3
 70
     0
 43
0.0
 10
-1.701913239089077
 20
-0.2987675689889718
 10
-1.688379973588687
 20
-0.3030606061861223
 10
-1.674820688963702
 20
-0.305456396233367
  0
ELLIPSE
  5
F3
330
8F
100
AcDbEntity
  8
AM_4
100
AcDbEllipse
 10
-1.773335453394564
 20
-0.2467045921760208
 30
0.0
 11
-0.1303939210191747
 21
0.05265753494273385
 31
0.0
210
0.0
220
0.0
230
1.0
 40
0.211309130870349
 41
1.711945269609632
 42
2.505596057672105
  0
LWPOLYLINE
  5
F4
330
8F
100
AcDbEntity
  8
AM_4
100
AcDbPolyline
 90
        4
 70
     0
 43
0.0
 10
-1.922340506773542
 20
-0.1791093260592886
 10
-1.907463388730466
 20
-0.1988355121406938
 10
-1.891034116487791
 20
-0.2156330920108724
 10
-1.885537097876448
 20
-0.2201680623457971
  0
LWPOLYLINE
  5
F5
330
8F
100
AcDbEntity
  8
AM_4
100
AcDbPolyline
 90
        3
 70
     0
 43
0.0
 10
-1.885537097876448
 20
-0.2201680623457971
 10
-1.872596576277821
 20
-0.229046210966002
 10
-1.852721215335504
 20
-0.2389369657326275
  0
LWPOLYLINE
  5
F6
330
8F
100
AcDbEntity
  8
AM_4
100
AcDbPolyline
 90
        4
 70
     0
 43
0.0
 10
-1.655633896090428
 20
-0.2602304684431209
 10
-1.664882531504321
 20
-0.2616913382589203
 10
-1.677180048953956
 20
-0.2647402074337706
 10
-1.689857589778099
 20
-0.2689146070947222
  0
LINE
  5
F7
330
8F
100
AcDbEntity
  8
AM_4
100
AcDbLine
 10
-1.842049297786476
 20
-0.1230967854582223
 30
0.0
 11
-1.857032568519918
 21
-0.1601993088245384
 31
0.0
  0
LINE
  5
F8
330
8F
100
AcDbEntity
  8
AM_4
100
AcDbLine
 10
-1.653038523192142
 20
-0.2425790968238376
 30
0.0
 11
-1.635843624370888
 21
-0.2
 31
0.0
  0
ELLIPSE
  5
F9
330
8F
100
AcDbEntity
  8
AM_4
100
AcDbEllipse
 10
-1.75503554585603
 20
-0.201389202824188
 30
0.0
 11
-0.1019970226638878
 21
0.04118989399964965
 31
0.0
210
0.0
220
0.0
230
1.0
 40
0.2113091308703497
 41
0.0
 42
3.141592653589793
  0
LWPOLYLINE
  5
FA
330
8F
100
AcDbEntity
  8
AM_4
100
AcDbPolyline
 90
        4
 70
     0
 43
0.0
 10
-1.911018933549665
 20
-0.151074129835757
 10
-1.894403091562136
 20
-0.145877822676052
 10
-1.878348478907003
 20
-0.1427138007556462
 10
-1.866739932289368
 20
-0.141958509815605
  0
LWPOLYLINE
  5
FB
330
8F
100
AcDbEntity
  8
AM_4
100
AcDbPolyline
 90
        7
 70
     0
 43
0.0
 10
-1.841033969115958
 20
-0.2099962668917053
 10
-1.851343105473288
 20
-0.1943573015029058
 10
-1.862686932307498
 20
-0.1805491420332303
 10
-1.875400906884305
 20
-0.1688997677199809
 10
-1.889296833073997
 20
-0.159872940321087
 10
-1.89997017271464
 20
-0.1549033058439655
 10
-1.911018933549665
 20
-0.151074129835757
  0
LINE
  5
FC
330
8F
100
AcDbEntity
  8
AM_4
100
AcDbLine
 10
-1.865410078746539
 20
-0.1419585097669023
 30
0.0
 11
-1.866848555394693
 21
-0.1419585097669023
 31
0.0
  0
ELLIPSE
  5
FD
330
8F
100
AcDbEntity
  8
AM_4
100
AcDbEllipse
 10
-1.755035545856038
 20
-0.2013892028241827
 30
0.0
 11
-0.1303939210191649
 21
0.05265753494272891
 31
0.0
210
0.0
220
0.0
230
1.0
 40
0.211309130870349
 41
5.610613825799293
 42
7.795870906981587
  0
ELLIPSE
  5
FE
330
8F
100
AcDbEntity
  8
AM_4
100
AcDbEllipse
 10
-1.773335453394563
 20
-0.2467045921760199
 30
0.0
 11
-0.1303939210191747
 21
0.05265753494273338
 31
0.0
210
0.0
220
0.0
230
1.0
 40
0.2113091308703544
 41
0.6359965959176836
 42
1.512685599801938
  0
LWPOLYLINE
  5
FF
330
8F
100
AcDbEntity
  8
AM_4
100
AcDbPolyline
 90
        3
 70
     0
 43
0.0
 10
-1.673933803628963
 20
-0.3055458577949631
 10
-1.664483604742654
 20
-0.3064767622622301
 10
-1.654177403675693
 20
-0.3055458577949631
  0
LWPOLYLINE
  5
100
330
8F
100
AcDbEntity
  8
AM_4
100
AcDbPolyline
 90
       20
 70
     0
 43
0.0
 10
-1.701987137101588
 20
-0.4150081904520678
 10
-1.702736568488334
 20
-0.41351737442027
 10
-1.70490009200944
 20
-0.4085514630504954
 10
-1.706940643143175
 20
-0.4024915109849318
 10
-1.708607267720725
 20
-0.3953927387155604
 10
-1.709642444931529
 20
-0.3874305602738344
 10
-1.709835604771654
 20
-0.3788666316638645
 10
-1.709053487960025
 20
-0.3699828171619732
 10
-1.706994076395137
 20
-0.3601349441178116
 10
-1.703761590552064
 20
-0.3507036790495742
 10
-1.699510940296571
 20
-0.3419477335240945
 10
-1.694422431268278
 20
-0.3340194464434293
 10
-1.688698526795092
 20
-0.3270241798484628
 10
-1.682569114372769
 20
-0.3210355596360495
 10
-1.676300553639761
 20
-0.3160979077857786
 10
-1.670189275337649
 20
-0.3122124890964547
 10
-1.664526591544356
 20
-0.3093189260742575
 10
-1.659543719418244
 20
-0.3072913892856138
 10
-1.655380216634215
 20
-0.305963267451924
 10
-1.652251670449814
 20
-0.3051955181496812
  0
LWPOLYLINE
  5
101
330
8F
100
AcDbEntity
  8
AM_4
100
AcDbPolyline
 90
       19
 70
     0
 43
0.0
 10
-1.89998927778563
 20
-0.2063970388884475
 10
-1.898658718549243
 20
-0.2086661485370827
 10
-1.896539206834058
 20
-0.2128561063534239
 10
-1.894386453622346
 20
-0.2181190070653761
 10
-1.892421593828282
 20
-0.2244721587335033
 10
-1.89090237349645
 20
-0.2318280370468346
 10
-1.890078525946564
 20
-0.2399819110831413
 10
-1.89014097160044
 20
-0.248660319320865
 10
-1.891201485758341
 20
-0.2575849403085623
 10
-1.893557820826729
 20
-0.2673532785087406
 10
-1.897054569196006
 20
-0.2766365205460324
 10
-1.901528000444687
 20
-0.2852024867753732
 10
-1.906791467771619
 20
-0.2929107186409954
 10
-1.912637139832481
 20
-0.2996655155910745
 10
-1.918826643175386
 20
-0.3053997746573119
 10
-1.925084759521985
 20
-0.3100780388299313
 10
-1.931111829508049
 20
-0.3137125686185535
 10
-1.936626209471373
 20
-0.3163804579013232
 10
-1.941356866726551
 20
-0.3182000262118566
  0
ELLIPSE
  5
102
330
8F
100
AcDbEntity
  8
AM_4
100
AcDbEllipse
 10
-1.824336356658548
 20
-0.3729962569746642
 30
0.0
 11
-0.1235034625625955
 21
0.04987493162723571
 31
0.0
210
0.0
220
0.0
230
1.0
 40
0.2113091308703476
 41
6.042568523153948
 42
9.6671978661992
  0
ELLIPSE
  5
103
330
8F
100
AcDbEntity
  8
AM_4
100
AcDbEllipse
 10
-1.75503554585603
 20
-0.2013892028241883
 30
0.0
 11
-0.1303939210191805
 21
0.05265753494272037
 31
0.0
210
0.0
220
0.0
230
1.0
 40
0.2113091308703631
 41
1.711945269609612
 42
2.518556725320348
  0
LINE
  5
104
330
8F
100
AcDbEntity
  8
AM_4
100
AcDbLine
 10
-1.63587749613716
 20
-0.2602304684431305
 30
0.0
 11
-1.655633896090428
 21
-0.2602304684431209
 31
0.0
  0
ELLIPSE
  5
105
330
8F
100
AcDbEntity
  8
AM_4
100
AcDbEllipse
 10
-1.755035545856029
 20
-0.2013892028241889
 30
0.0
 11
-0.1303939210191732
 21
0.05265753494273292
 31
0.0
210
0.0
220
0.0
230
1.0
 40
0.2113091308703512
 41
2.800469246484361
 42
3.607080702195125
  0
LINE
  5
106
330
8F
100
AcDbEntity
  8
AM_4
100
AcDbLine
 10
-1.64554226638867
 20
-0.2258378743019628
 30
0.0
 11
-1.633520736206863
 21
-0.2360765106845276
 31
0.0
  0
LWPOLYLINE
  5
107
330
8F
100
AcDbEntity
  8
AM_4
100
AcDbPolyline
 90
        3
 70
     0
 43
0.0
 10
-1.689857589778099
 20
-0.2689146070947222
 10
-1.717919889746943
 20
-0.251275593729576
 10
-1.747707994584929
 20
-0.2360765106845274
  0
LINE
  5
108
330
8F
100
AcDbEntity
  8
AM_4
100
AcDbLine
 10
-1.747707994584929
 20
-0.2360765106845274
 30
0.0
 11
-1.773716803610913
 21
-0.2258378743019626
 31
0.0
  0
LWPOLYLINE
  5
109
330
8F
100
AcDbEntity
  8
AM_4
100
AcDbPolyline
 90
        4
 70
     0
 43
0.0
 10
-1.773716803610913
 20
-0.2258378743019626
 10
-1.796706838303154
 20
-0.2189176876709014
 10
-1.818712708163839
 20
-0.2138633349839127
 10
-1.841033969115958
 20
-0.2099962668917053
  0
LINE
  5
10A
330
8F
100
AcDbEntity
  8
AM_4
100
AcDbLine
 10
-1.841033969115958
 20
-0.2099962668917053
 30
0.0
 11
-1.852721215335503
 21
-0.2389369657326276
 31
0.0
  0
LWPOLYLINE
  5
10B
330
8F
100
AcDbEntity
  8
AM_4
100
AcDbPolyline
 90
        3
 70
     0
 43
0.0
 10
-1.852721215335503
 20
-0.2389369657326276
 10
-1.823041394101702
 20
-0.2560939713202353
 10
-1.792016711149446
 20
-0.2711532636537956
  0
LINE
  5
10C
330
8F
100
AcDbEntity
  8
AM_4
100
AcDbLine
 10
-1.792016711149446
 20
-0.2711532636537956
 30
0.0
 11
-1.766007902123463
 21
-0.2813919000363599
 31
0.0
  0
LWPOLYLINE
  5
10D
330
8F
100
AcDbEntity
  8
AM_4
100
AcDbPolyline
 90
        3
 70
     0
 43
0.0
 10
-1.766007902123463
 20
-0.2813919000363599
 10
-1.734357351269439
 20
-0.2911775952746242
 10
-1.701913239089077
 20
-0.2987675689889718
  0
LINE
  5
10E
330
8F
100
AcDbEntity
  8
AM_4
100
AcDbLine
 10
-1.689857589778099
 20
-0.2689146070947222
 30
0.0
 11
-1.701913239089077
 21
-0.2987675689889718
 31
0.0
  0
ARC
  5
10F
330
8F
100
AcDbEntity
  8
AM_4
100
AcDbCircle
 10
-1.684419410360732
 20
-0.0000000000000002
 30
0.0
 40
0.2000000000000001
100
AcDbArc
 50
90.0
 51
219.6388957006104
  0
LWPOLYLINE
  5
110
330
8F
100
AcDbEntity
  8
AM_4
100
AcDbPolyline
 90
       10
 70
     0
 43
0.0
 10
-1.838623801894526
 20
-0.1273616761480618
 10
-1.836958460670062
 20
-0.1291842652280562
 10
-1.830680913402398
 20
-0.1344729790611519
 10
-1.821523314339677
 20
-0.1405186270901959
 10
-1.810227125177666
 20
-0.146827078301712
 10
-1.796485974036916
 20
-0.1535654953592165
 10
-1.781424484297434
 20
-0.1601799433259583
 10
-1.764631061477775
 20
-0.1668493358980661
 10
-1.747231725323779
 20
-0.1731116383367605
 10
-1.728988510544676
 20
-0.1790373738502114
  0
ELLIPSE
  5
111
330
8F
100
AcDbEntity
  8
AM_4
100
AcDbEllipse
 10
-1.684419410360733
 20
-0.0000000000000001
 30
0.0
 11
1.224646799147353E-17
 21
0.2
 31
0.0
210
0.0
220
0.0
230
1.0
 40
0.4999999999999992
 41
0.0
 42
2.679646633022827
  0
LINE
  5
112
330
8F
100
AcDbEntity
  8
AM_4
100
AcDbLine
 10
-1.62
 20
0.1999999999999999
 30
0.0
 11
-1.684419410360733
 21
0.2
 31
0.0
  0
LINE
  5
113
330
8F
100
AcDbEntity
  8
AM_4
100
AcDbLine
 10
-1.649513191958619
 20
-0.2
 30
0.0
 11
-1.62
 21
-0.2
 31
0.0
  0
LWPOLYLINE
  5
114
330
8F
100
AcDbEntity
  8
AM_4
100
AcDbPolyline
 90
        8
 70
     0
 43
0.0
 10
-1.649365407731712
 20
-0.1999999999699528
 10
-1.650852524971015
 20
-0.1999786710855127
 10
-1.661726125447764
 20
-0.1988321115509052
 10
-1.674124447161747
 20
-0.1961649429984259
 10
-1.688547877527739
 20
-0.1920694300574957
 10
-1.704060857388556
 20
-0.1870948030566195
 10
-1.721154261175527
 20
-0.181500594761393
 10
-1.728988510544693
 20
-0.1790373738501783
  0
LWPOLYLINE
  5
115
330
8F
100
AcDbEntity
  8
AM_4
100
AcDbPolyline
 90
        3
 70
     0
 43
0.0
 10
-1.651943457718817
 20
0.1093749999999999
 10
-1.634083807734893
 20
0.1640624999999999
 10
-1.620256361190577
 20
0.2000413016192557
  0
LWPOLYLINE
  5
116
330
8F
100
AcDbEntity
  8
AM_4
100
AcDbPolyline
 90
        3
 70
     0
 43
0.0
 10
-1.675664528876508
 20
0.0
 10
-1.665710321447233
 20
0.0544416102741495
 10
-1.651943457718817
 20
0.1093749999999999
  0
LINE
  5
117
330
8F
100
AcDbEntity
  8
AM_4
100
AcDbLine
 10
-1.675664528876508
 20
0.0
 30
0.0
 11
-1.62
 21
0.0
 31
0.0
  0
LWPOLYLINE
  5
118
330
8F
100
AcDbEntity
  8
AM_4
100
AcDbPolyline
 90
        3
 70
     0
 43
0.0
 10
-1.651943457718817
 20
-0.1093749999999999
 10
-1.665657650581201
 20
-0.0546875
 10
-1.675664528876508
 20
0.0
  0
LWPOLYLINE
  5
119
330
8F
100
AcDbEntity
  8
AM_4
100
AcDbPolyline
 90
        3
 70
     0
 43
0.0
 10
-1.620256483272543
 20
-0.2000409996967266
 10
-1.633994514101515
 20
-0.1643083897258504
 10
-1.651943457718817
 20
-0.1093749999999999
  0
ENDBLK
  5
92
330
8F
100
AcDbEntity
  8
0
100
AcDbBlockEnd
  0
BLOCK
  5
11C
330
11A
100
AcDbEntity
  8
0
100
AcDbBlockBegin
  2
3_123338_0_in_125153_4
 70
     2
 10
0.0
 20
0.0
 30
0.0
  3
3_123338_0_in_125153_4
  1

  0
ATTDEF
  5
11E
330
11A
100
AcDbEntity
  8
AM_6
100
AcDbText
 10
6.219944644847206
 20
0.6560000000000001
 30
0.0
 40
0.5
  1
Set Screw Insert Inch Bore
100
AcDbAttributeDefinition
  3

  2
NN
 70
     8
280
     0
  0
ATTDEF
  5
11F
330
11A
100
AcDbEntity
  8
AM_6
100
AcDbText
 10
6.219944644847206
 20
0.1560000000000001
 30
0.0
 40
0.5
  1
SC Normal Duty Bearing Inserts
100
AcDbAttributeDefinition
  3

  2
NT
 70
     8
280
     0
  0
ATTDEF
  5
120
330
11A
100
AcDbEntity
  8
AM_6
100
AcDbText
 10
6.219944644847206
 20
-0.3439999999999999
 30
0.0
 40
0.5
  1
123338
100
AcDbAttributeDefinition
  3

  2
NB
 70
     8
280
     0
  0
ATTDEF
  5
121
330
11A
100
AcDbEntity
  8
AM_6
100
AcDbText
 10
6.219944644847206
 20
-0.8439999999999999
 30
0.0
 40
0.5
  1
$PN.
100
AcDbAttributeDefinition
  3

  2
NBSYN
 70
     8
280
     0
  0
ATTDEF
  5
122
330
11A
100
AcDbEntity
  8
AM_6
100
AcDbText
 10
6.219944644847206
 20
-1.344
 30
0.0
 40
0.5
  1
123338
100
AcDbAttributeDefinition
  3

  2
LINA
 70
     8
280
     0
  0
ATTDEF
  5
123
330
11A
100
AcDbEntity
  8
AM_6
100
AcDbText
 10
6.219944644847206
 20
-1.844
 30
0.0
 40
0.5
  1
206
100
AcDbAttributeDefinition
  3

  2
SERIES
 70
     8
280
     0
  0
ATTDEF
  5
124
330
11A
100
AcDbEntity
  8
AM_6
100
AcDbText
 10
6.219944644847206
 20
-2.344
 30
0.0
 40
0.5
  1
1-3/16
100
AcDbAttributeDefinition
  3

  2
SS
 70
     8
280
     0
  0
ATTDEF
  5
125
330
11A
100
AcDbEntity
  8
AM_6
100
AcDbText
 10
6.219944644847206
 20
-2.844
 30
0.0
 40
0.5
  1
123338
100
AcDbAttributeDefinition
  3

  2
PN
 70
     8
280
     0
  0
ATTDEF
  5
126
330
11A
100
AcDbEntity
  8
AM_6
100
AcDbText
 10
6.219944644847206
 20
-3.344
 30
0.0
 40
0.5
  1
INS-SC-103
100
AcDbAttributeDefinition
  3

  2
DESCRIPTION
 70
     8
280
     0
  0
ATTDEF
  5
127
330
11A
100
AcDbEntity
  8
AM_6
100
AcDbText
 10
6.219944644847206
 20
-3.844
 30
0.0
 40
0.5
  1
1.52
100
AcDbAttributeDefinition
  3

  2
A
 70
     8
280
     0
  0
ATTDEF
  5
128
330
11A
100
AcDbEntity
  8
AM_6
100
AcDbText
 10
6.219944644847206
 20
-4.343999999999999
 30
0.0
 40
0.5
  1
0.69
100
AcDbAttributeDefinition
  3

  2
C
 70
     8
280
     0
  0
ATTDEF
  5
129
330
11A
100
AcDbEntity
  8
AM_6
100
AcDbText
 10
6.219944644847206
 20
-4.843999999999999
 30
0.0
 40
0.5
  1
2.4409
100
AcDbAttributeDefinition
  3

  2
D
 70
     8
280
     0
  0
ATTDEF
  5
12A
330
11A
100
AcDbEntity
  8
AM_6
100
AcDbText
 10
6.219944644847206
 20
-5.343999999999999
 30
0.0
 40
0.5
  1
0.16
100
AcDbAttributeDefinition
  3

  2
J
 70
     8
280
     0
  0
ATTDEF
  5
12B
330
11A
100
AcDbEntity
  8
AM_6
100
AcDbText
 10
6.219944644847206
 20
-5.843999999999999
 30
0.0
 40
0.5
  1
1.57
100
AcDbAttributeDefinition
  3

  2
L
 70
     8
280
     0
  0
ATTDEF
  5
12C
330
11A
100
AcDbEntity
  8
AM_6
100
AcDbText
 10
6.219944644847206
 20
-6.343999999999999
 30
0.0
 40
0.5
  1
5/16 - 24
100
AcDbAttributeDefinition
  3

  2
N
 70
     8
280
     0
  0
ATTDEF
  5
12D
330
11A
100
AcDbEntity
  8
AM_6
100
AcDbText
 10
6.219944644847206
 20
-6.843999999999999
 30
0.0
 40
0.5
  1
0.58
100
AcDbAttributeDefinition
  3

  2
W
 70
     8
280
     0
  0
ATTDEF
  5
12E
330
11A
100
AcDbEntity
  8
AM_6
100
AcDbText
 10
6.219944644847206
 20
-7.343999999999999
 30
0.0
 40
0.5
  1
0.94
100
AcDbAttributeDefinition
  3

  2
Y
 70
     8
280
     0
  0
ATTDEF
  5
12F
330
11A
100
AcDbEntity
  8
AM_6
100
AcDbText
 10
6.219944644847206
 20
-7.843999999999999
 30
0.0
 40
0.5
  1
baldor
100
AcDbAttributeDefinition
  3

  2
COMPANY
 70
     8
280
     0
  0
ELLIPSE
  5
130
330
11A
100
AcDbEntity
  8
AM_9
100
AcDbEllipse
 10
0.2452546587752429
 20
-0.6425000000000001
 30
0.0
 11
-2.318256390785696E-17
 21
-0.1261999999999868
 31
0.0
210
0.0
220
0.0
230
1.0
 40
0.9063077870366593
 41
1.470096267866012
 42
1.671496385723782
  0
LINE
  5
131
330
11A
100
AcDbEntity
  8
AM_9
100
AcDbLine
 10
0.2508985153991942
 20
-0.7687
 30
0.0
 11
0.3219474185708133
 21
-0.7687
 31
0.0
  0
LINE
  5
132
330
11A
100
AcDbEntity
  8
AM_9
100
AcDbLine
 10
0.3219474185708133
 20
-0.5163000000000002
 30
0.0
 11
0.2508985153991942
 21
-0.5163000000000001
 31
0.0
  0
LWPOLYLINE
  5
133
330
11A
100
AcDbEntity
  8
AM_9
100
AcDbPolyline
 90
       11
 70
     0
 43
0.0
 10
0.2509169345790018
 20
-0.7686999992271286
 10
0.2461548712500388
 20
-0.7685773302203855
 10
0.2270178231036488
 20
-0.7659682414683667
 10
0.2084647463782826
 20
-0.7599973427447874
 10
0.190840680567421
 20
-0.7508801080873682
 10
0.1744744880769874
 20
-0.7386506681195434
 10
0.1601001125185314
 20
-0.7237857408623963
 10
0.1480238047985228
 20
-0.7063323874740047
 10
0.1388989151351449
 20
-0.6870326249117911
 10
0.1341595487074033
 20
-0.6713611780191633
 10
0.1314580414016589
 20
-0.6551868801540162
  0
LWPOLYLINE
  5
134
330
11A
100
AcDbEntity
  8
AM_9
100
AcDbPolyline
 90
       11
 70
     0
 43
0.0
 10
0.2509422510992304
 20
-0.5163000007728715
 10
0.2556802407458187
 20
-0.5164226697796148
 10
0.2743556712730036
 20
-0.5190317585316341
 10
0.2918814163173467
 20
-0.5250026572552144
 10
0.3080342631953042
 20
-0.5341198919126342
 10
0.3226066097902248
 20
-0.5463493318804594
 10
0.3350815400494192
 20
-0.561214259137607
 10
0.3453300635278871
 20
-0.578667612525999
 10
0.3529356239469745
 20
-0.5979673750882131
 10
0.356840482124584
 20
-0.6136388219808411
 10
0.3590512761488058
 20
-0.6298131198459881
  0
LINE
  5
135
330
11A
100
AcDbEntity
  8
AM_9
100
AcDbLine
 10
0.58032196186948
 20
-0.6298131198459888
 30
0.0
 11
0.58032196186948
 21
-0.6551868801540114
 31
0.0
  0
LINE
  5
136
330
11A
100
AcDbEntity
  8
AM_9
100
AcDbLine
 10
0.59375
 20
-0.7687
 30
0.0
 11
0.7617924915141182
 21
-0.7687
 31
0.0
  0
LINE
  5
137
330
11A
100
AcDbEntity
  8
AM_9
100
AcDbLine
 10
0.7617924915141182
 20
-0.5163
 30
0.0
 11
0.59375
 21
-0.5163
 31
0.0
  0
LINE
  5
138
330
11A
100
AcDbEntity
  8
AM_9
100
AcDbLine
 10
0.7617924915141182
 20
-0.7687
 30
0.0
 11
0.7850000000000003
 21
-0.791907508485882
 31
0.0
  0
LINE
  5
139
330
11A
100
AcDbEntity
  8
AM_9
100
AcDbLine
 10
0.7850000000000003
 20
-0.493092491514118
 30
0.0
 11
0.7617924915141182
 21
-0.5163
 31
0.0
  0
LINE
  5
13A
330
11A
100
AcDbEntity
  8
AM_9
100
AcDbLine
 10
0.7617924915141182
 20
-0.5163
 30
0.0
 11
0.7617924915141182
 21
-0.7687
 31
0.0
  0
LWPOLYLINE
  5
13B
330
11A
100
AcDbEntity
  8
AM_9
100
AcDbPolyline
 90
        3
 70
     0
 43
0.0
 10
0.58032196186948
 20
-0.6298131198459888
 10
0.5801446883524786
 20
-0.6423896134723702
 10
0.58032196186948
 20
-0.6551868801540114
  0
LWPOLYLINE
  5
13C
330
11A
100
AcDbEntity
  8
AM_9
100
AcDbPolyline
 90
       10
 70
     0
 43
0.0
 10
0.58032196186948
 20
-0.6551868801540114
 10
0.5811283798916645
 20
-0.6756296153842869
 10
0.5826171560647964
 20
-0.6956989477436474
 10
0.5845361259446985
 20
-0.7137029496189342
 10
0.5867730197255684
 20
-0.7301923838076166
 10
0.5889973452087274
 20
-0.7440147780519116
 10
0.5910500553117917
 20
-0.7553164233791871
 10
0.592595584043195
 20
-0.7631519942955585
 10
0.5935408988038294
 20
-0.7677125235463994
 10
0.5937499999996976
 20
-0.7686999999985773
  0
LINE
  5
13D
330
11A
100
AcDbEntity
  8
AM_9
100
AcDbLine
 10
0.1314580414016589
 20
-0.6551868801540162
 30
0.0
 11
0.1314580414016589
 21
-0.629813119845984
 31
0.0
  0
LWPOLYLINE
  5
13E
330
11A
100
AcDbEntity
  8
AM_9
100
AcDbPolyline
 90
       10
 70
     0
 43
0.0
 10
0.1314580414016589
 20
-0.629813119845984
 10
0.1353243765617049
 20
-0.6090785845070924
 10
0.1425075850592714
 20
-0.5893010522563483
 10
0.1527743270052417
 20
-0.5710625593074857
 10
0.1657289515427146
 20
-0.55480761619238
 10
0.1812122612948592
 20
-0.5408142981755572
 10
0.1985288920834445
 20
-0.5296835766208108
 10
0.2171884856196728
 20
-0.5217676406711563
 10
0.2365610804830202
 20
-0.5172874764536002
 10
0.2509422510992304
 20
-0.5163000007728715
  0
LWPOLYLINE
  5
13F
330
11A
100
AcDbEntity
  8
AM_9
100
AcDbPolyline
 90
        3
 70
     0
 43
0.0
 10
0.3590512761488057
 20
-0.6298131198459881
 10
0.3596265718440443
 20
-0.63782957578473
 10
0.3590512761488057
 20
-0.655186880154012
  0
LWPOLYLINE
  5
140
330
11A
100
AcDbEntity
  8
AM_9
100
AcDbPolyline
 90
       10
 70
     0
 43
0.0
 10
0.3590512761488057
 20
-0.655186880154012
 10
0.3558847818015615
 20
-0.6759214154929037
 10
0.3499417144535585
 20
-0.6956989477436479
 10
0.3413231848129151
 20
-0.7139374406925109
 10
0.3302330357228102
 20
-0.7301923838076171
 10
0.3166547267021241
 20
-0.7441857018244403
 10
0.3010482018717867
 20
-0.7553164233791873
 10
0.283707124869644
 20
-0.7632323593288423
 10
0.2651213653659574
 20
-0.7677125235463994
 10
0.2509169345790018
 20
-0.7686999992271286
  0
LINE
  5
141
330
11A
100
AcDbEntity
  8
AM_9
100
AcDbLine
 10
0.59375
 20
-0.9086000000000001
 30
0.0
 11
0.59375
 21
-0.7687
 31
0.0
  0
LINE
  5
142
330
11A
100
AcDbEntity
  8
AM_9
100
AcDbLine
 10
0.59375
 20
-0.5163
 30
0.0
 11
0.59375
 21
0.5485999999999999
 31
0.0
  0
LINE
  5
143
330
11A
100
AcDbEntity
  8
AM_9
100
AcDbLine
 10
-0.59375
 20
0.5485999999999999
 30
0.0
 11
-0.59375
 21
-0.9086000000000001
 31
0.0
  0
LWPOLYLINE
  5
144
330
11A
100
AcDbEntity
  8
AM_9
100
AcDbPolyline
 90
       11
 70
     0
 43
0.0
 10
0.5937499999996976
 20
-0.5163000000014227
 10
0.593729382345369
 20
-0.5163970382575678
 10
0.5931753780723631
 20
-0.5190317585316331
 10
0.5919844082511483
 20
-0.5248865776687786
 10
0.5902193408632332
 20
-0.5341198919126317
 10
0.5881287419803501
 20
-0.5461527393052126
 10
0.5858498051271748
 20
-0.5612142591376033
 10
0.5837142164045243
 20
-0.5783933394041789
 10
0.5818898325125936
 20
-0.5979673750882084
 10
0.5809077072920399
 20
-0.613497553701553
 10
0.5803219618694802
 20
-0.6298131198459888
  0
LINE
  5
145
330
11A
100
AcDbEntity
  8
AM_9
100
AcDbLine
 10
0.59375
 20
0.5485999999999999
 30
0.0
 11
0.62515
 21
0.58
 31
0.0
  0
LINE
  5
146
330
11A
100
AcDbEntity
  8
AM_9
100
AcDbLine
 10
-0.62515
 20
0.58
 30
0.0
 11
-0.59375
 21
0.5485999999999999
 31
0.0
  0
LINE
  5
147
330
11A
100
AcDbEntity
  8
AM_9
100
AcDbLine
 10
-0.59375
 20
-0.9086000000000001
 30
0.0
 11
-0.62515
 21
-0.9400000000000002
 31
0.0
  0
LINE
  5
148
330
11A
100
AcDbEntity
  8
AM_9
100
AcDbLine
 10
0.62515
 20
-0.9400000000000002
 30
0.0
 11
0.59375
 21
-0.9086000000000001
 31
0.0
  0
LINE
  5
149
330
11A
100
AcDbEntity
  8
AM_9
100
AcDbLine
 10
0.783991705502307
 20
-0.499530349343897
 30
0.0
 11
0.784999999999933
 21
-0.4930924915145382
 31
0.0
  0
LWPOLYLINE
  5
14A
330
11A
100
AcDbEntity
  8
AM_9
100
AcDbPolyline
 90
       39
 70
     0
 43
0.0
 10
0.3259524891853897
 20
-0.4932552940713206
 10
0.305725960583553
 20
-0.4963759991159
 10
0.2860658271896632
 20
-0.5032632547473496
 10
0.2684447178769288
 20
-0.5130863324833894
 10
0.2523114151166441
 20
-0.525697929555566
 10
0.2370946264262543
 20
-0.5418999152718718
 10
0.2243335702691512
 20
-0.560367113579667
 10
0.2135987568712764
 20
-0.5824276316625745
 10
0.2063041050425356
 20
-0.6059759683212381
 10
0.2025554444575479
 20
-0.6318876458581847
 10
0.2029385601421145
 20
-0.6580863516528264
 10
0.2076471722673425
 20
-0.684422596366129
 10
0.2165401858989177
 20
-0.7095599557620526
 10
0.2293322532864112
 20
-0.7325513244550143
 10
0.2456758604201461
 20
-0.7528495414996794
 10
0.2642075542938392
 20
-0.7689597213874071
 10
0.2849874517590124
 20
-0.7812401908680116
 10
0.3053678409135245
 20
-0.7885304752549189
 10
0.3263700943589354
 20
-0.7917672936869923
 10
0.3456284820412263
 20
-0.7909466961716145
 10
0.3642520958862889
 20
-0.7865808666760421
 10
0.3814749300106249
 20
-0.7789477028294343
 10
0.397231913811313
 20
-0.7683456256369642
 10
0.4119313763494578
 20
-0.7543060333513064
 10
0.4244685749996154
 20
-0.7378068480233553
 10
0.4354368361906045
 20
-0.7176111549687215
 10
0.4435663998781961
 20
-0.6956185019686556
 10
0.4490115679285949
 20
-0.6706856909133797
 10
0.4510663036760306
 20
-0.6450103370751255
 10
0.4495680782837959
 20
-0.6183945441782902
 10
0.4444394463399229
 20
-0.5924568094243536
 10
0.4356635513791897
 20
-0.5679039386886984
 10
0.4233882717103121
 20
-0.5455496247713347
 10
0.4082565416959296
 20
-0.5267468388265586
 10
0.3902488548782735
 20
-0.511464028779264
 10
0.3713351422956065
 20
-0.5011276317032023
 10
0.350798217923498
 20
-0.4948839598915226
 10
0.3384672463806815
 20
-0.493314918574031
 10
0.3259524624744007
 20
-0.4932552649646035
  0
LINE
  5
14B
330
11A
100
AcDbEntity
  8
AM_9
100
AcDbLine
 10
0.7850000000000003
 20
-0.493092491514118
 30
0.0
 11
0.7850000000000003
 21
-0.3449999999999999
 31
0.0
  0
LINE
  5
14C
330
11A
100
AcDbEntity
  8
AM_9
100
AcDbLine
 10
-0.7850000000000003
 20
-0.3449999999999999
 30
0.0
 11
-0.7850000000000003
 21
-0.5
 31
0.0
  0
LINE
  5
14D
330
11A
100
AcDbEntity
  8
AM_9
100
AcDbLine
 10
0.779063762040277
 20
-0.5362015955400118
 30
0.0
 11
0.7781025381147565
 21
-0.5448901992485293
 31
0.0
  0
LINE
  5
14E
330
11A
100
AcDbEntity
  8
AM_9
100
AcDbLine
 10
0.7850000000000003
 20
0.3449999999999999
 30
0.0
 11
0.7850000000000003
 21
0.5000000000000001
 31
0.0
  0
LINE
  5
14F
330
11A
100
AcDbEntity
  8
AM_9
100
AcDbLine
 10
-0.7850000000000003
 20
0.5000000000000001
 30
0.0
 11
-0.7850000000000003
 21
0.3449999999999999
 31
0.0
  0
LINE
  5
150
330
11A
100
AcDbEntity
  8
AM_9
100
AcDbLine
 10
1.167116666666667
 20
-0.1919999999999999
 30
0.0
 11
1.167116666666667
 21
-0.128
 31
0.0
  0
LINE
  5
151
330
11A
100
AcDbEntity
  8
AM_9
100
AcDbLine
 10
-1.167116666666667
 20
-0.128
 30
0.0
 11
-1.167116666666667
 21
-0.1919999999999999
 31
0.0
  0
LINE
  5
152
330
11A
100
AcDbEntity
  8
AM_9
100
AcDbLine
 10
-1.146492216502145
 20
0.3449999999999999
 30
0.0
 11
1.146492216502145
 21
0.3449999999999999
 31
0.0
  0
ARC
  5
153
330
11A
100
AcDbEntity
  8
AM_9
100
AcDbCircle
 10
1.146492216502145
 20
0.3130000000000001
 30
0.0
 40
0.0319999999999998
100
AcDbArc
 50
15.27001663184375
 51
90.0
  0
ARC
  5
154
330
11A
100
AcDbEntity
  8
AM_9
100
AcDbCircle
 10
-1.146492216502145
 20
0.3130000000000001
 30
0.0
 40
0.0319999999999999
100
AcDbArc
 50
90.0
 51
164.7299833681563
  0
LINE
  5
155
330
11A
100
AcDbEntity
  8
AM_9
100
AcDbLine
 10
-1.146492216502144
 20
-0.345
 30
0.0
 11
1.146492216502144
 21
-0.345
 31
0.0
  0
ARC
  5
156
330
11A
100
AcDbEntity
  8
AM_9
100
AcDbCircle
 10
1.146492216502144
 20
-0.3129999999999998
 30
0.0
 40
0.0320000000000003
100
AcDbArc
 50
270.0
 51
344.7299833681562
  0
ARC
  5
157
330
11A
100
AcDbEntity
  8
AM_9
100
AcDbCircle
 10
-1.146492216502144
 20
-0.3129999999999997
 30
0.0
 40
0.0320000000000003
100
AcDbArc
 50
195.2700166318439
 51
270.0
  0
LINE
  5
158
330
11A
100
AcDbEntity
  8
AM_9
100
AcDbLine
 10
-1.177362468450551
 20
-0.3214277840885185
 30
0.0
 11
1.177362468450538
 21
-0.3214277840885185
 31
0.0
  0
LINE
  5
159
330
11A
100
AcDbEntity
  8
AM_9
100
AcDbLine
 10
-1.20525275461209
 20
-0.192
 30
0.0
 11
1.205252754612077
 21
-0.192
 31
0.0
  0
ARC
  5
15A
330
11A
100
AcDbEntity
  8
AM_9
100
AcDbCircle
 10
-0.0000000000000171
 20
0.0000000000000032
 30
0.0
 40
1.220450000000018
100
AcDbArc
 50
344.7299833681562
 51
350.9486832420234
  0
ARC
  5
15B
330
11A
100
AcDbEntity
  8
AM_9
100
AcDbCircle
 10
-0.0000000000082199
 20
-0.0000000000017686
 30
0.0
 40
1.220449999991617
100
AcDbArc
 50
189.0513167579551
 51
195.2700166318651
  0
LINE
  5
15C
330
11A
100
AcDbEntity
  8
AM_9
100
AcDbLine
 10
-1.213719161297193
 20
-0.1279999999999997
 30
0.0
 11
1.213719161297209
 21
-0.1279999999999997
 31
0.0
  0
LINE
  5
15D
330
11A
100
AcDbEntity
  8
AM_9
100
AcDbLine
 10
-1.177362468450522
 20
0.3214277840885187
 30
0.0
 11
1.177362468450538
 21
0.3214277840885187
 31
0.0
  0
ARC
  5
15E
330
11A
100
AcDbEntity
  8
AM_9
100
AcDbCircle
 10
-0.0000000000000036
 20
-0.0000000000000002
 30
0.0
 40
1.220450000000004
100
AcDbArc
 50
354.121386729169
 51
15.27001663184377
  0
ARC
  5
15F
330
11A
100
AcDbEntity
  8
AM_9
100
AcDbCircle
 10
0.0000000000003293
 20
0.0000000000000185
 30
0.0
 40
1.220450000000297
100
AcDbArc
 50
164.7299833681609
 51
185.8786132708304
  0
ARC
  5
160
330
11A
100
AcDbEntity
  8
AM_9
100
AcDbCircle
 10
-0.0000000000000001
 20
0.1600000000000001
 30
0.0
 40
0.1041666666666621
100
AcDbArc
 50
301.9639779769195
 51
238.0360220225066
  0
LINE
  5
161
330
11A
100
AcDbEntity
  8
AM_9
100
AcDbLine
 10
-0.0551443738796307
 20
0.0716269697596204
 30
0.0
 11
-0.0509921549817424
 21
0.0691687216955274
 31
0.0
  0
LINE
  5
162
330
11A
100
AcDbEntity
  8
AM_9
100
AcDbLine
 10
0.0506448003519729
 20
0.0689747467545341
 30
0.0
 11
0.0551443738787448
 21
0.0716269697590681
 31
0.0
  0
LWPOLYLINE
  5
163
330
11A
100
AcDbEntity
  8
AM_9
100
AcDbPolyline
 90
        8
 70
     0
 43
0.0
 10
-0.0509921549817424
 20
0.0691687216955274
 10
-0.0412845612707666
 20
0.0643717198228401
 10
-0.0261137618426319
 20
0.0591817640677391
 10
-0.0091930148101163
 20
0.0562724301254296
 10
0.0084756710460482
 20
0.056211612074037
 10
0.025457745071121
 20
0.0590147131351111
 10
0.0421956561908417
 20
0.0647693812003826
 10
0.0506448003519729
 20
0.0689747467545341
  0
LINE
  5
165
330
11A
100
AcDbEntity
  8
AM_5
100
AcDbLine
 10
0.59375
 20
-0.48625
 30
0.0
 11
0.7850000000000003
 21
-0.48625
 31
0.0
  0
LINE
  5
166
330
11A
100
AcDbEntity
  8
AM_5
100
AcDbLine
 10
0.59375
 20
-0.7987500000000001
 30
0.0
 11
0.7850000000000003
 21
-0.7987500000000001
 31
0.0
  0
ELLIPSE
  5
167
330
11A
100
AcDbEntity
  8
AM_9
100
AcDbEllipse
 10
0.3219474185708099
 20
-0.642499999999994
 30
0.0
 11
-2.318256390785825E-17
 21
-0.1261999999999938
 31
0.0
210
0.0
220
0.0
230
1.0
 40
0.9063077870366478
 41
0.0
 42
6.283185307179586
  0
CIRCLE
  5
168
330
11A
100
AcDbEntity
  8
AM_9
100
AcDbCircle
 10
-0.0000000000000001
 20
0.1600000000000001
 30
0.0
 40
0.0414393939393896
  0
LINE
  5
16B
330
11A
100
AcDbEntity
  8
AM_7
100
AcDbLine
 10
0.0
 20
-1.016
 30
0.0
 11
0.0
 21
0.6560000000000001
 31
0.0
  0
LINE
  5
16C
330
11A
100
AcDbEntity
  8
AM_7
100
AcDbLine
 10
0.8039210179963503
 20
-0.6425000000000001
 30
0.0
 11
0.5381934353872481
 21
-0.6425000000000001
 31
0.0
  0
LINE
  5
16D
330
11A
100
AcDbEntity
  8
AM_7
100
AcDbLine
 10
-0.1093749999999946
 20
0.16
 30
0.0
 11
0.1093749999999951
 21
0.16
 31
0.0
  0
LINE
  5
16E
330
11A
100
AcDbEntity
  8
AM_4
100
AcDbLine
 10
-0.7535999999999999
 20
0.58
 30
0.0
 11
0.7535999999999999
 21
0.58
 31
0.0
  0
LINE
  5
16F
330
11A
100
AcDbEntity
  8
AM_4
100
AcDbLine
 10
-0.7535999999999999
 20
0.58
 30
0.0
 11
-0.7849999999999999
 21
0.5486
 31
0.0
  0
LINE
  5
170
330
11A
100
AcDbEntity
  8
AM_4
100
AcDbLine
 10
0.7849999999999999
 20
0.5486
 30
0.0
 11
0.7535999999999999
 21
0.58
 31
0.0
  0
LINE
  5
171
330
11A
100
AcDbEntity
  8
AM_4
100
AcDbLine
 10
-0.7535999999999999
 20
-0.9400000000000002
 30
0.0
 11
0.7535999999999999
 21
-0.9400000000000002
 31
0.0
  0
LINE
  5
172
330
11A
100
AcDbEntity
  8
AM_4
100
AcDbLine
 10
0.7535999999999999
 20
-0.9400000000000002
 30
0.0
 11
0.7849999999999999
 21
-0.9086000000000001
 31
0.0
  0
LINE
  5
173
330
11A
100
AcDbEntity
  8
AM_4
100
AcDbLine
 10
-0.7849999999999999
 20
-0.9086000000000001
 30
0.0
 11
-0.7535999999999999
 21
-0.9400000000000002
 31
0.0
  0
LINE
  5
174
330
11A
100
AcDbEntity
  8
AM_4
100
AcDbLine
 10
-0.7850000000000003
 20
-0.9086000000000001
 30
0.0
 11
0.7850000000000003
 21
-0.9086000000000001
 31
0.0
  0
LWPOLYLINE
  5
175
330
11A
100
AcDbEntity
  8
AM_4
100
AcDbPolyline
 90
        5
 70
     0
 43
0.0
 10
0.7786138104133803
 20
-0.540179115396086
 10
0.780371112774161
 20
-0.5253892710878252
 10
0.7820602857319962
 20
-0.5127074529787558
 10
0.7835928758922489
 20
-0.5021543234539815
 10
0.783991705502307
 20
-0.499530349343897
  0
LINE
  5
176
330
11A
100
AcDbEntity
  8
AM_4
100
AcDbLine
 10
0.7850000000000003
 20
-0.9086000000000001
 30
0.0
 11
0.7850000000000003
 21
-0.791907508485882
 31
0.0
  0
LINE
  5
177
330
11A
100
AcDbEntity
  8
AM_4
100
AcDbLine
 10
-0.7850000000000003
 20
-0.5
 30
0.0
 11
-0.7850000000000003
 21
-0.9086000000000001
 31
0.0
  0
LWPOLYLINE
  5
178
330
11A
100
AcDbEntity
  8
AM_4
100
AcDbPolyline
 90
       16
 70
     0
 43
0.0
 10
0.7849999999998611
 20
-0.7919075084850126
 10
0.7849813170143549
 20
-0.7917906200868995
 10
0.7845682524620718
 20
-0.7891837418441834
 10
0.7836220724715955
 20
-0.7830393514398176
 10
0.7822828312745126
 20
-0.7738753549410519
 10
0.7806234734068151
 20
-0.7615881729748183
 10
0.7787577990913429
 20
-0.746109917185921
 10
0.7768870904846138
 20
-0.727897394924442
 10
0.7751466455863546
 20
-0.7065521981090018
 10
0.7738014185831578
 20
-0.6830628268600961
 10
0.7730254571536487
 20
-0.6577045207778288
 10
0.7729681866069915
 20
-0.6312350495451327
 10
0.7736634943448161
 20
-0.6051663113996827
 10
0.7750788608370761
 20
-0.579423160007814
 10
0.7767049953425684
 20
-0.559083044128707
 10
0.7786138104133803
 20
-0.540179115396086
  0
LINE
  5
179
330
11A
100
AcDbEntity
  8
AM_4
100
AcDbLine
 10
-0.7850000000000003
 20
0.5486
 30
0.0
 11
0.7850000000000003
 21
0.5486
 31
0.0
  0
LINE
  5
17A
330
11A
100
AcDbEntity
  8
AM_4
100
AcDbLine
 10
0.7850000000000003
 20
0.5000000000000001
 30
0.0
 11
0.7850000000000003
 21
0.5486
 31
0.0
  0
LINE
  5
17B
330
11A
100
AcDbEntity
  8
AM_4
100
AcDbLine
 10
-0.7850000000000003
 20
0.5486
 30
0.0
 11
-0.7850000000000003
 21
0.5000000000000001
 31
0.0
  0
ENDBLK
  5
11D
330
11A
100
AcDbEntity
  8
0
100
AcDbBlockEnd
  0
BLOCK
  5
17E
330
17C
100
AcDbEntity
  8
0
100
AcDbBlockBegin
  2
4_125153H_0_in_125153_4
 70
     2
 10
0.0
 20
0.0
 30
0.0
  3
4_125153H_0_in_125153_4
  1

  0
ATTDEF
  5
180
330
17C
100
AcDbEntity
  8
AM_6
100
AcDbText
 10
7.7584775
 20
0.7589999999999998
 30
0.0
 40
0.5
  1
NSTU-SC -Inch - HOUSING
100
AcDbAttributeDefinition
  3

  2
NN
 70
     8
280
     0
  0
ATTDEF
  5
181
330
17C
100
AcDbEntity
  8
AM_6
100
AcDbText
 10
7.7584775
 20
0.2589999999999998
 30
0.0
 40
0.5
  1
SC Take-Up Bearings -Narrow Slot -(Normal Duty)
100
AcDbAttributeDefinition
  3

  2
NT
 70
     8
280
     0
  0
ATTDEF
  5
182
330
17C
100
AcDbEntity
  8
AM_6
100
AcDbText
 10
7.7584775
 20
-0.2410000000000002
 30
0.0
 40
0.5
  1
125153H
100
AcDbAttributeDefinition
  3

  2
NB
 70
     8
280
     0
  0
ATTDEF
  5
183
330
17C
100
AcDbEntity
  8
AM_6
100
AcDbText
 10
7.7584775
 20
-0.7410000000000002
 30
0.0
 40
0.5
  1
$PN.H
100
AcDbAttributeDefinition
  3

  2
NBSYN
 70
     8
280
     0
  0
ATTDEF
  5
184
330
17C
100
AcDbEntity
  8
AM_6
100
AcDbText
 10
7.7584775
 20
-1.241
 30
0.0
 40
0.5
  1
125153
100
AcDbAttributeDefinition
  3

  2
LINA
 70
     8
280
     0
  0
ATTDEF
  5
185
330
17C
100
AcDbEntity
  8
AM_6
100
AcDbText
 10
7.7584775
 20
-1.741
 30
0.0
 40
0.5
  1
206
100
AcDbAttributeDefinition
  3

  2
SERIES
 70
     8
280
     0
  0
ATTDEF
  5
186
330
17C
100
AcDbEntity
  8
AM_6
100
AcDbText
 10
7.7584775
 20
-2.241
 30
0.0
 40
0.5
  1
1-3/16
100
AcDbAttributeDefinition
  3

  2
SS
 70
     8
280
     0
  0
ATTDEF
  5
187
330
17C
100
AcDbEntity
  8
AM_6
100
AcDbText
 10
7.7584775
 20
-2.741
 30
0.0
 40
0.5
  1
125153
100
AcDbAttributeDefinition
  3

  2
PN
 70
     8
280
     0
  0
ATTDEF
  5
188
330
17C
100
AcDbEntity
  8
AM_6
100
AcDbText
 10
7.7584775
 20
-3.241
 30
0.0
 40
0.5
  1
NSTU-SC-103
100
AcDbAttributeDefinition
  3

  2
DESCRIPTION
 70
     8
280
     0
  0
ATTDEF
  5
189
330
17C
100
AcDbEntity
  8
AM_6
100
AcDbText
 10
7.7584775
 20
-3.741
 30
0.0
 40
0.5
  1
2.7
100
AcDbAttributeDefinition
  3

  2
W
 70
     8
280
     0
  0
ATTDEF
  5
18A
330
17C
100
AcDbEntity
  8
AM_6
100
AcDbText
 10
7.7584775
 20
-4.241
 30
0.0
 40
0.5
  1
NS308
100
AcDbAttributeDefinition
  3

  2
FS
 70
     8
280
     0
  0
ATTDEF
  5
18B
330
17C
100
AcDbEntity
  8
AM_6
100
AcDbText
 10
7.7584775
 20
-4.741
 30
0.0
 40
0.5
  1
1.52
100
AcDbAttributeDefinition
  3

  2
A
 70
     8
280
     0
  0
ATTDEF
  5
18C
330
17C
100
AcDbEntity
  8
AM_6
100
AcDbText
 10
7.7584775
 20
-5.241
 30
0.0
 40
0.5
  1
4.31
100
AcDbAttributeDefinition
  3

  2
B
 70
     8
280
     0
  0
ATTDEF
  5
18D
330
17C
100
AcDbEntity
  8
AM_6
100
AcDbText
 10
7.7584775
 20
-5.741
 30
0.0
 40
0.5
  1
0.250
100
AcDbAttributeDefinition
  3

  2
C
 70
     8
280
     0
  0
ATTDEF
  5
18E
330
17C
100
AcDbEntity
  8
AM_6
100
AcDbText
 10
7.7584775
 20
-6.241
 30
0.0
 40
0.5
  1
2.50
100
AcDbAttributeDefinition
  3

  2
D
 70
     8
280
     0
  0
ATTDEF
  5
18F
330
17C
100
AcDbEntity
  8
AM_6
100
AcDbText
 10
7.7584775
 20
-6.741
 30
0.0
 40
0.5
  1
2.69
100
AcDbAttributeDefinition
  3

  2
E
 70
     8
280
     0
  0
ATTDEF
  5
190
330
17C
100
AcDbEntity
  8
AM_6
100
AcDbText
 10
7.7584775
 20
-7.241
 30
0.0
 40
0.5
  1
3/4
100
AcDbAttributeDefinition
  3

  2
F
 70
     8
280
     0
  0
ATTDEF
  5
191
330
17C
100
AcDbEntity
  8
AM_6
100
AcDbText
 10
7.7584775
 20
-7.741
 30
0.0
 40
0.5
  1
0.50
100
AcDbAttributeDefinition
  3

  2
G
 70
     8
280
     0
  0
ATTDEF
  5
192
330
17C
100
AcDbEntity
  8
AM_6
100
AcDbText
 10
7.7584775
 20
-8.241
 30
0.0
 40
0.5
  1
0.94
100
AcDbAttributeDefinition
  3

  2
H
 70
     8
280
     0
  0
ATTDEF
  5
193
330
17C
100
AcDbEntity
  8
AM_6
100
AcDbText
 10
7.7584775
 20
-8.741
 30
0.0
 40
0.5
  1
1.38
100
AcDbAttributeDefinition
  3

  2
J
 70
     8
280
     0
  0
ATTDEF
  5
194
330
17C
100
AcDbEntity
  8
AM_6
100
AcDbText
 10
7.7584775
 20
-9.241
 30
0.0
 40
0.5
  1
1.57
100
AcDbAttributeDefinition
  3

  2
L
 70
     8
280
     0
  0
ATTDEF
  5
195
330
17C
100
AcDbEntity
  8
AM_6
100
AcDbText
 10
7.7584775
 20
-9.741
 30
0.0
 40
0.5
  1
3.510 / 3.480
100
AcDbAttributeDefinition
  3

  2
M
 70
     8
280
     0
  0
ATTDEF
  5
196
330
17C
100
AcDbEntity
  8
AM_6
100
AcDbText
 10
7.7584775
 20
-10.241
 30
0.0
 40
0.5
  1
4.13
100
AcDbAttributeDefinition
  3

  2
N
 70
     8
280
     0
  0
ATTDEF
  5
197
330
17C
100
AcDbEntity
  8
AM_6
100
AcDbText
 10
7.7584775
 20
-10.741
 30
0.0
 40
0.5
  1
0.32
100
AcDbAttributeDefinition
  3

  2
P
 70
     8
280
     0
  0
ATTDEF
  5
198
330
17C
100
AcDbEntity
  8
AM_6
100
AcDbText
 10
7.7584775
 20
-11.241
 30
0.0
 40
0.5
  1
0.58
100
AcDbAttributeDefinition
  3

  2
R
 70
     8
280
     0
  0
ATTDEF
  5
199
330
17C
100
AcDbEntity
  8
AM_6
100
AcDbText
 10
7.7584775
 20
-11.741
 30
0.0
 40
0.5
  1
0.94
100
AcDbAttributeDefinition
  3

  2
S
 70
     8
280
     0
  0
ATTDEF
  5
19A
330
17C
100
AcDbEntity
  8
AM_6
100
AcDbText
 10
7.7584775
 20
-12.241
 30
0.0
 40
0.5
  1
2250
100
AcDbAttributeDefinition
  3

  2
CAPS
 70
     8
280
     0
  0
ATTDEF
  5
19B
330
17C
100
AcDbEntity
  8
AM_6
100
AcDbText
 10
7.7584775
 20
-12.741
 30
0.0
 40
0.5
  1
4368
100
AcDbAttributeDefinition
  3

  2
CAPD
 70
     8
280
     0
  0
ATTDEF
  5
19C
330
17C
100
AcDbEntity
  8
AM_6
100
AcDbText
 10
7.7584775
 20
-13.241
 30
0.0
 40
0.5
  1
baldor
100
AcDbAttributeDefinition
  3

  2
COMPANY
 70
     8
280
     0
  0
LINE
  5
19D
330
17C
100
AcDbEntity
  8
AM_9
100
AcDbLine
 10
-1.402957161025586
 20
-0.15
 30
0.0
 11
-1.099852262806237
 21
-0.15
 31
0.0
  0
LINE
  5
19E
330
17C
100
AcDbEntity
  8
AM_9
100
AcDbLine
 10
-1.099852262806237
 20
0.1499999999999999
 30
0.0
 11
-1.402922232298634
 21
0.1499999999999999
 31
0.0
  0
LWPOLYLINE
  5
19F
330
17C
100
AcDbEntity
  8
AM_9
100
AcDbPolyline
 90
       20
 70
     0
 43
0.0
 10
-1.402968111452725
 20
0.1499999993545993
 10
-1.394353703549632
 20
0.1490267745408327
 10
-1.381808328631004
 20
0.1441766019061267
 10
-1.369208539239649
 20
0.1350743729682622
 10
-1.357643921391375
 20
0.1224617504957495
 10
-1.346875831248897
 20
0.105990444546366
 10
-1.337850886448974
 20
0.0869567550423922
 10
-1.330438388340339
 20
0.0648656223571344
 10
-1.32533494088853
 20
0.0415660650801616
 10
-1.322454910109392
 20
0.016383590812737
 10
-1.322072762232001
 20
-0.008460770691813
 10
-1.324166799667751
 20
-0.0337785978764739
 10
-1.328526859464027
 20
-0.0574000846058307
 10
-1.335227052054993
 20
-0.0800524805390116
 10
-1.343666821565039
 20
-0.099905079000326
 10
-1.353988090758821
 20
-0.1174606956360532
 10
-1.365283195414607
 20
-0.1312925988560124
 10
-1.377770117049904
 20
-0.1417386439439372
 10
-1.390315857832241
 20
-0.1479091568035664
 10
-1.40296320419109
 20
-0.1499999999439649
  0
LWPOLYLINE
  5
1A0
330
17C
100
AcDbEntity
  8
AM_9
100
AcDbPolyline
 90
       12
 70
     0
 43
0.0
 10
-1.40296320419109
 20
-0.1499999999439649
 10
-1.403262329832062
 20
-0.1499987897915635
 10
-1.415457221777337
 20
-0.1478449286146905
 10
-1.427316748148491
 20
-0.1414034289226933
 10
-1.437886785193617
 20
-0.131217986147051
 10
-1.447537664414774
 20
-0.1169997595933314
 10
-1.45557045075392
 20
-0.0998658628037298
 10
-1.462264972835308
 20
-0.0793686823835877
 10
-1.467148342968
 20
-0.0571809359253644
 10
-1.470418127431404
 20
-0.032691387381967
 10
-1.47154997502583
 20
-0.0165455345467421
 10
-1.471934143043257
 20
0.0
  0
LINE
  5
1A1
330
17C
100
AcDbEntity
  8
AM_9
100
AcDbLine
 10
2.35
 20
0.3750000000000001
 30
0.0
 11
2.35
 21
0.6899999999999998
 31
0.0
  0
LINE
  5
1A2
330
17C
100
AcDbEntity
  8
AM_9
100
AcDbLine
 10
2.03
 20
0.6899999999999998
 30
0.0
 11
2.03
 21
0.3749999999999998
 31
0.0
  0
LINE
  5
1A3
330
17C
100
AcDbEntity
  8
AM_9
100
AcDbLine
 10
2.35
 20
-0.6899999999999998
 30
0.0
 11
2.35
 21
-0.3749999999999999
 31
0.0
  0
LINE
  5
1A4
330
17C
100
AcDbEntity
  8
AM_9
100
AcDbLine
 10
2.03
 20
-0.3749999999999999
 30
0.0
 11
2.03
 21
-0.6900000000000001
 31
0.0
  0
LINE
  5
1A5
330
17C
100
AcDbEntity
  8
AM_9
100
AcDbLine
 10
2.348617569356534
 20
-0.3744122504787661
 30
0.0
 11
2.349999999967329
 21
-0.3749999999860606
 31
0.0
  0
LINE
  5
1A6
330
17C
100
AcDbEntity
  8
AM_9
100
AcDbLine
 10
1.75
 20
0.3749999999999999
 30
0.0
 11
1.75
 21
-0.3749999999999999
 31
0.0
  0
LWPOLYLINE
  5
1A7
330
17C
100
AcDbEntity
  8
AM_9
100
AcDbPolyline
 90
       23
 70
     0
 43
0.0
 10
2.03
 20
0.3749999999999999
 10
2.031997302716337
 20
0.3741521780625
 10
2.03814675046068
 20
0.3715971062799747
 10
2.047847339836106
 20
0.3677395529334196
 10
2.061303694897208
 20
0.3627502432075143
 10
2.078316092112752
 20
0.3570690343350532
 10
2.098801894212291
 20
0.3512009318029581
 10
2.122458004417134
 20
0.3458134195882453
 10
2.135558913146995
 20
0.3434959376175933
 10
2.149146153092783
 20
0.341605088965487
 10
2.175026893722942
 20
0.3394837167105133
 10
2.202303401167014
 20
0.3393764483288085
 10
2.226264691059636
 20
0.3410866866613981
 10
2.249876996401682
 20
0.3443983953186876
 10
2.271806646858942
 20
0.3488801047212404
 10
2.292173194557665
 20
0.354209488419097
 10
2.311040615752141
 20
0.3601053049618367
 10
2.32702794679631
 20
0.3657890897815468
 10
2.339066055755283
 20
0.3704668527391314
 10
2.343628137484356
 20
0.3723256007841406
 10
2.346995108612056
 20
0.3737277941605512
 10
2.349915232500954
 20
0.3749638403710875
 10
2.349999999967329
 20
0.3749999999860606
  0
LINE
  5
1A8
330
17C
100
AcDbEntity
  8
AM_9
100
AcDbLine
 10
1.75
 20
-0.3749999999999999
 30
0.0
 11
2.03
 21
-0.3749999999999999
 31
0.0
  0
LINE
  5
1A9
330
17C
100
AcDbEntity
  8
AM_9
100
AcDbLine
 10
2.35
 20
-0.3750000000000001
 30
0.0
 11
2.69
 21
-0.3749999999999999
 31
0.0
  0
LINE
  5
1AA
330
17C
100
AcDbEntity
  8
AM_9
100
AcDbLine
 10
2.69
 20
0.3749999999999999
 30
0.0
 11
2.35
 21
0.3749999999999999
 31
0.0
  0
LINE
  5
1AB
330
17C
100
AcDbEntity
  8
AM_9
100
AcDbLine
 10
2.03
 20
0.3749999999999999
 30
0.0
 11
1.75
 21
0.3749999999999999
 31
0.0
  0
LWPOLYLINE
  5
1AC
330
17C
100
AcDbEntity
  8
AM_9
100
AcDbPolyline
 90
       23
 70
     0
 43
0.0
 10
2.349999999967329
 20
-0.3749999999860606
 10
2.34855716354838
 20
-0.3743866639084619
 10
2.343437731240092
 20
-0.3722474141859237
 10
2.334514866612369
 20
-0.3686591198817559
 10
2.322103194651517
 20
-0.363972875414002
 10
2.306150676689222
 20
-0.358491254698583
 10
2.286341326701011
 20
-0.352571483858963
 10
2.263127369711885
 20
-0.3469475640510808
 10
2.237926259976097
 20
-0.3425228844840829
 10
2.224212346590341
 20
-0.3408758561502758
 10
2.210180233674187
 20
-0.3397532072418813
 10
2.184813423645203
 20
-0.33919301374628
 10
2.158799019351194
 20
-0.3405855269876381
 10
2.135671685337975
 20
-0.3434771692180079
 10
2.113381571482429
 20
-0.3477001345822317
 10
2.092316745298556
 20
-0.3529405307542152
 10
2.07328763061672
 20
-0.3586736360078045
 10
2.056533015818854
 20
-0.364470075405938
 10
2.043192978009165
 20
-0.3695636639414343
 10
2.034606770532534
 20
-0.3730577110372181
 10
2.031871743738536
 20
-0.3742048378039797
 10
2.030341538009763
 20
-0.3748544043826721
 10
2.03
 20
-0.3749999999999999
  0
LINE
  5
1AD
330
17C
100
AcDbEntity
  8
AM_9
100
AcDbLine
 10
2.349999999967329
 20
0.3749999999860606
 30
0.0
 11
2.348269435062816
 21
0.3742648982673944
 31
0.0
  0
LWPOLYLINE
  5
1AE
330
17C
100
AcDbEntity
  8
AM_9
100
AcDbPolyline
 90
       11
 70
     0
 43
0.0
 10
-1.471934143043257
 20
0.0
 10
-1.471069529548948
 20
0.0247650702497748
 10
-1.468385846321596
 20
0.0495301404995497
 10
-1.464069906134819
 20
0.0722136518996324
 10
-1.457934565452677
 20
0.0934745697729637
 10
-1.450393210742328
 20
0.1115874755234072
 10
-1.441156159000969
 20
0.1270141761849459
 10
-1.430895944648902
 20
0.1384805590578318
 10
-1.419258416636373
 20
0.1462835369215424
 10
-1.407212937821343
 20
0.1497565502403551
 10
-1.402968111452725
 20
0.1499999993545993
  0
LINE
  5
1AF
330
17C
100
AcDbEntity
  8
AM_9
100
AcDbLine
 10
0.3958333333333333
 20
-0.15
 30
0.0
 11
0.3958333333333333
 21
0.5000000000000001
 31
0.0
  0
LINE
  5
1B0
330
17C
100
AcDbEntity
  8
AM_9
100
AcDbLine
 10
-0.3958333333333333
 20
-0.15
 30
0.0
 11
-0.3958333333333333
 21
0.5000000000000001
 31
0.0
  0
LINE
  5
1B1
330
17C
100
AcDbEntity
  8
AM_9
100
AcDbLine
 10
1.22045
 20
-0.5
 30
0.0
 11
1.22045
 21
0.5
 31
0.0
  0
LINE
  5
1B2
330
17C
100
AcDbEntity
  8
AM_9
100
AcDbLine
 10
-1.22045
 20
0.5
 30
0.0
 11
-1.22045
 21
-0.5
 31
0.0
  0
LINE
  5
1B3
330
17C
100
AcDbEntity
  8
AM_9
100
AcDbLine
 10
0.3958333333333333
 20
-0.15
 30
0.0
 11
-0.3958333333333333
 21
-0.15
 31
0.0
  0
ELLIPSE
  5
1B4
330
17C
100
AcDbEntity
  8
AM_9
100
AcDbEllipse
 10
-1.099852262806237
 20
0.0
 30
0.0
 11
-2.755455298081546E-17
 21
-0.1500000000000001
 31
0.0
210
0.0
220
0.0
230
1.0
 40
0.4999999999999994
 41
0.0
 42
6.283185307179586
  0
LINE
  5
1B5
330
17C
100
AcDbEntity
  8
AM_7
100
AcDbLine
 10
1.2519725
 20
0.0
 30
0.0
 11
2.7584775
 21
0.0
 31
0.0
  0
LINE
  5
1B6
330
17C
100
AcDbEntity
  8
AM_7
100
AcDbLine
 10
2.19
 20
0.7589999999999998
 30
0.0
 11
2.19
 21
-0.7589999999999998
 31
0.0
  0
LINE
  5
1B7
330
17C
100
AcDbEntity
  8
AM_4
100
AcDbLine
 10
1.32045
 20
-0.5
 30
0.0
 11
1.32045
 21
-0.6066666666666665
 31
0.0
  0
ARC
  5
1B8
330
17C
100
AcDbEntity
  8
AM_4
100
AcDbCircle
 10
1.403783333333333
 20
-0.6066666666666667
 30
0.0
 40
0.0833333333333333
100
AcDbArc
 50
180.0
 51
270.0
  0
LINE
  5
1B9
330
17C
100
AcDbEntity
  8
AM_4
100
AcDbLine
 10
1.32045
 20
0.6066666666666665
 30
0.0
 11
1.32045
 21
0.5
 31
0.0
  0
ARC
  5
1BA
330
17C
100
AcDbEntity
  8
AM_4
100
AcDbCircle
 10
1.403783333333333
 20
0.6066666666666667
 30
0.0
 40
0.0833333333333334
100
AcDbArc
 50
90.0
 51
180.0
  0
LINE
  5
1BB
330
17C
100
AcDbEntity
  8
AM_4
100
AcDbLine
 10
2.69
 20
0.6066666666666668
 30
0.0
 11
2.69
 21
-0.6066666666578754
 31
0.0
  0
ARC
  5
1BC
330
17C
100
AcDbEntity
  8
AM_4
100
AcDbCircle
 10
2.606666666666667
 20
-0.6066666666666674
 30
0.0
 40
0.0833333333333325
100
AcDbArc
 50
270.0
 51
0.0
  0
ARC
  5
1BD
330
17C
100
AcDbEntity
  8
AM_4
100
AcDbCircle
 10
2.606666666666667
 20
0.6066666666666674
 30
0.0
 40
0.0833333333333326
100
AcDbArc
 50
0.0
 51
90.0
  0
LINE
  5
1BE
330
17C
100
AcDbEntity
  8
AM_4
100
AcDbLine
 10
2.606666666666666
 20
0.6899999999999998
 30
0.0
 11
2.606666666666666
 21
-0.6900000000000001
 31
0.0
  0
LINE
  5
1BF
330
17C
100
AcDbEntity
  8
AM_4
100
AcDbLine
 10
1.403783333333333
 20
-0.5
 30
0.0
 11
1.403783333333333
 21
-0.6900000000000001
 31
0.0
  0
LWPOLYLINE
  5
1C0
330
17C
100
AcDbEntity
  8
AM_4
100
AcDbPolyline
 90
       20
 70
     0
 43
0.0
 10
2.03
 20
0.6900000000000001
 10
2.032140695186946
 20
0.6895067513201453
 10
2.038744453112479
 20
0.6880248836083205
 10
2.049228912398575
 20
0.6857962518886263
 10
2.063871820805275
 20
0.6829409327218399
 10
2.081788263482063
 20
0.6798601179067848
 10
2.103290384396641
 20
0.6767706830515654
 10
2.126929988850567
 20
0.6741497061531582
 10
2.153181233050637
 20
0.6722020690236467
 10
2.179300636844817
 20
0.6712782406513164
 10
2.206525437208576
 20
0.671396373295935
 10
2.2319685811294
 20
0.6725038005855544
 10
2.256939965558993
 20
0.6745227638775724
 10
2.279607367282519
 20
0.6771480490050195
 10
2.300400415249582
 20
0.6802119167489498
 10
2.318058731664014
 20
0.683300108850713
 10
2.332545545830736
 20
0.6861626867122567
 10
2.342655639677508
 20
0.6883340354256423
 10
2.348620003712706
 20
0.6896813072556186
 10
2.34999999999742
 20
0.6899999999994019
  0
LINE
  5
1C1
330
17C
100
AcDbEntity
  8
AM_4
100
AcDbLine
 10
1.403783333333333
 20
-0.6900000000000001
 30
0.0
 11
2.03
 21
-0.6900000000000001
 31
0.0
  0
LINE
  5
1C2
330
17C
100
AcDbEntity
  8
AM_4
100
AcDbLine
 10
2.35
 20
-0.6900000000000001
 30
0.0
 11
2.606666666666666
 21
-0.6900000000000001
 31
0.0
  0
LINE
  5
1C3
330
17C
100
AcDbEntity
  8
AM_4
100
AcDbLine
 10
2.606666666666666
 20
0.6900000000000001
 30
0.0
 11
2.35
 21
0.6900000000000001
 31
0.0
  0
LINE
  5
1C4
330
17C
100
AcDbEntity
  8
AM_4
100
AcDbLine
 10
2.03
 20
0.6900000000000001
 30
0.0
 11
1.403783333333333
 21
0.6900000000000001
 31
0.0
  0
LINE
  5
1C5
330
17C
100
AcDbEntity
  8
AM_4
100
AcDbLine
 10
1.403783333333333
 20
0.6900000000000001
 30
0.0
 11
1.403783333333333
 21
0.5
 31
0.0
  0
LWPOLYLINE
  5
1C6
330
17C
100
AcDbEntity
  8
AM_4
100
AcDbPolyline
 90
       21
 70
     0
 43
0.0
 10
2.34999999999742
 20
-0.6899999999994019
 10
2.349914545399701
 20
-0.689980189447779
 10
2.346758026933689
 20
-0.6892554526502807
 10
2.339543043560536
 20
-0.6876504358155738
 10
2.328078204457363
 20
-0.6852485611412616
 10
2.313045938683022
 20
-0.6823784162958161
 10
2.294181942129107
 20
-0.6792303564077452
 10
2.272533212320225
 20
-0.6762482762535482
 10
2.247806266272367
 20
-0.6736776413243591
 10
2.222251654225126
 20
-0.6719673870064358
 10
2.194943172524084
 20
-0.671211170165249
 10
2.168929179778923
 20
-0.6715236253958523
 10
2.142771120070543
 20
-0.6728525597033803
 10
2.118752490926386
 20
-0.6749638564761781
 10
2.096057487226439
 20
-0.6777353434093656
 10
2.076063058469616
 20
-0.6807948491618441
 10
2.058733146158331
 20
-0.6839086100624044
 10
2.045316239328239
 20
-0.686610071730763
 10
2.035719718082652
 20
-0.688696163332203
 10
2.031464933014099
 20
-0.6896617775868289
 10
2.03
 20
-0.6900000000000001
  0
LWPOLYLINE
  5
1C7
330
17C
100
AcDbEntity
  8
AM_4
100
AcDbPolyline
 90
       16
 70
     0
 43
0.0
 10
1.498838873160569
 20
0.3133974596215561
 10
1.492309113911526
 20
0.280509056698828
 10
1.486333060498135
 20
0.2467508191065521
 10
1.480929025776446
 20
0.2117759174636621
 10
1.476248489511196
 20
0.1760954365793983
 10
1.47067984622156
 20
0.1207750158604942
 10
1.467125805359619
 20
0.064483554121283
 10
1.46593149278483
 20
0.0253366161023848
 10
1.465778893329453
 20
-0.0139485183595023
 10
1.466671016851621
 20
-0.0531401135919835
 10
1.469480586731618
 20
-0.1051844015593654
 10
1.474039966577452
 20
-0.1565050256945602
 10
1.480417110991242
 20
-0.2081519620674735
 10
1.488304828457589
 20
-0.2583626567640434
 10
1.493386062105238
 20
-0.2861842066786962
 10
1.498838873160569
 20
-0.313397459621556
  0
LINE
  5
1C8
330
17C
100
AcDbEntity
  8
AM_4
100
AcDbLine
 10
-1.62
 20
0.313397459621556
 30
0.0
 11
-1.62
 21
-0.3133974596215561
 31
0.0
  0
LWPOLYLINE
  5
1C9
330
17C
100
AcDbEntity
  8
AM_4
100
AcDbPolyline
 90
        7
 70
     0
 43
0.0
 10
1.496262009141447
 20
0.5
 10
1.49468490722988
 20
0.4587944546631771
 10
1.49435015630679
 20
0.4140631459970535
 10
1.494763406023573
 20
0.3900174282359386
 10
1.495621220112367
 20
0.3652630982762805
 10
1.496971596079832
 20
0.3396346133855729
 10
1.498838873160569
 20
0.3133974596215561
  0
LINE
  5
1CA
330
17C
100
AcDbEntity
  8
AM_4
100
AcDbLine
 10
1.25
 20
0.313397459621556
 30
0.0
 11
1.498838873160569
 21
0.3133974596215561
 31
0.0
  0
LINE
  5
1CB
330
17C
100
AcDbEntity
  8
AM_4
100
AcDbLine
 10
-1.57
 20
0.5
 30
0.0
 11
-1.62
 21
0.313397459621556
 31
0.0
  0
LINE
  5
1CC
330
17C
100
AcDbEntity
  8
AM_4
100
AcDbLine
 10
-1.57
 20
0.5
 30
0.0
 11
1.496262009141447
 21
0.5
 31
0.0
  0
LINE
  5
1CD
330
17C
100
AcDbEntity
  8
AM_4
100
AcDbLine
 10
-1.62
 20
0.313397459621556
 30
0.0
 11
-1.25
 21
0.313397459621556
 31
0.0
  0
LWPOLYLINE
  5
1CE
330
17C
100
AcDbEntity
  8
AM_4
100
AcDbPolyline
 90
        7
 70
     0
 43
0.0
 10
1.498838873160569
 20
-0.313397459621556
 10
1.495709344414249
 20
-0.3632708440600398
 10
1.494378981130115
 20
-0.4110699911805727
 10
1.49432499469471
 20
-0.4344657603242578
 10
1.494645209411253
 20
-0.4570608719548954
 10
1.495305758826394
 20
-0.478980754498666
 10
1.496262009141447
 20
-0.5
  0
LINE
  5
1CF
330
17C
100
AcDbEntity
  8
AM_4
100
AcDbLine
 10
1.25
 20
-0.3133974596215559
 30
0.0
 11
1.498838873160569
 21
-0.313397459621556
 31
0.0
  0
LINE
  5
1D0
330
17C
100
AcDbEntity
  8
AM_4
100
AcDbLine
 10
-1.62
 20
-0.3133974596215561
 30
0.0
 11
-1.57
 21
-0.5
 31
0.0
  0
LINE
  5
1D1
330
17C
100
AcDbEntity
  8
AM_4
100
AcDbLine
 10
-1.62
 20
-0.3133974596215561
 30
0.0
 11
-1.25
 21
-0.3133974596215559
 31
0.0
  0
LINE
  5
1D2
330
17C
100
AcDbEntity
  8
AM_4
100
AcDbLine
 10
-1.57
 20
-0.5
 30
0.0
 11
1.496262009141447
 21
-0.5
 31
0.0
  0
LINE
  5
1D3
330
17C
100
AcDbEntity
  8
AM_4
100
AcDbLine
 10
1.25
 20
-0.3749999999999998
 30
0.0
 11
-1.25
 21
-0.3749999999999998
 31
0.0
  0
LINE
  5
1D4
330
17C
100
AcDbEntity
  8
AM_4
100
AcDbLine
 10
1.2
 20
-0.325
 30
0.0
 11
-1.2
 21
-0.325
 31
0.0
  0
LINE
  5
1D5
330
17C
100
AcDbEntity
  8
AM_4
100
AcDbLine
 10
1.25
 20
0.3750000000000001
 30
0.0
 11
-1.25
 21
0.3750000000000001
 31
0.0
  0
LINE
  5
1D6
330
17C
100
AcDbEntity
  8
AM_4
100
AcDbLine
 10
-1.25
 20
0.3750000000000001
 30
0.0
 11
-1.25
 21
-0.3749999999999998
 31
0.0
  0
LINE
  5
1D7
330
17C
100
AcDbEntity
  8
AM_4
100
AcDbLine
 10
-1.2
 20
-0.3250000000000002
 30
0.0
 11
-1.25
 21
-0.3749999999999998
 31
0.0
  0
LINE
  5
1D8
330
17C
100
AcDbEntity
  8
AM_4
100
AcDbLine
 10
-1.2
 20
-0.325
 30
0.0
 11
-1.2
 21
-0.1249999999999998
 31
0.0
  0
LINE
  5
1D9
330
17C
100
AcDbEntity
  8
AM_4
100
AcDbLine
 10
-1.25
 20
0.3750000000000002
 30
0.0
 11
-1.2
 21
0.3250000000000006
 31
0.0
  0
LINE
  5
1DA
330
17C
100
AcDbEntity
  8
AM_4
100
AcDbLine
 10
-1.25
 20
-0.1249999999999999
 30
0.0
 11
1.25
 21
-0.1249999999999999
 31
0.0
  0
LINE
  5
1DB
330
17C
100
AcDbEntity
  8
AM_4
100
AcDbLine
 10
1.2
 20
-0.325
 30
0.0
 11
1.2
 21
-0.1249999999999999
 31
0.0
  0
LINE
  5
1DC
330
17C
100
AcDbEntity
  8
AM_4
100
AcDbLine
 10
1.25
 20
-0.3749999999999996
 30
0.0
 11
1.2
 21
-0.325
 31
0.0
  0
LINE
  5
1DD
330
17C
100
AcDbEntity
  8
AM_4
100
AcDbLine
 10
1.25
 20
0.3750000000000001
 30
0.0
 11
1.25
 21
-0.3749999999999998
 31
0.0
  0
LINE
  5
1DE
330
17C
100
AcDbEntity
  8
AM_4
100
AcDbLine
 10
1.2
 20
0.3250000000000003
 30
0.0
 11
-1.2
 21
0.3250000000000003
 31
0.0
  0
LINE
  5
1DF
330
17C
100
AcDbEntity
  8
AM_4
100
AcDbLine
 10
-1.2
 20
0.1250000000000001
 30
0.0
 11
-1.2
 21
0.3250000000000003
 31
0.0
  0
LINE
  5
1E0
330
17C
100
AcDbEntity
  8
AM_4
100
AcDbLine
 10
1.25
 20
0.1250000000000001
 30
0.0
 11
-1.25
 21
0.1250000000000001
 31
0.0
  0
LINE
  5
1E1
330
17C
100
AcDbEntity
  8
AM_4
100
AcDbLine
 10
1.2
 20
0.3250000000000003
 30
0.0
 11
1.25
 21
0.3750000000000001
 31
0.0
  0
LINE
  5
1E2
330
17C
100
AcDbEntity
  8
AM_4
100
AcDbLine
 10
1.2
 20
0.1250000000000001
 30
0.0
 11
1.2
 21
0.3250000000000003
 31
0.0
  0
ENDBLK
  5
17F
330
17C
100
AcDbEntity
  8
0
100
AcDbBlockEnd
  0
ENDSEC
  0
SECTION
  2
ENTITIES
  0
INSERT
  5
6F
330
1F
100
AcDbEntity
  8
0
100
AcDbBlockReference
  2
1_125153_4
 10
0.0
 20
0.0
 30
0.0
  0
POINT
  5
1E4
330
1F
100
AcDbEntity
  8
ConnectionPoints
100
AcDbPoint
 10
0.0
 20
0.58
 30
0.0
  0
POINT
  5
1E5
330
1F
100
AcDbEntity
  8
ConnectionPoints
100
AcDbPoint
 10
0.0
 20
-0.94
 30
0.0000000000000001
  0
POINT
  5
1E6
330
1F
100
AcDbEntity
  8
ConnectionPoints
100
AcDbPoint
 10
-1.40296115413079
 20
0.0
 30
-0.8099999999999997
  0
POINT
  5
1E7
330
1F
100
AcDbEntity
  8
ConnectionPoints
100
AcDbPoint
 10
0.0
 20
-0.94
 30
0.0000000000000001
  0
ENDSEC
  0
SECTION
  2
OBJECTS
  0
DICTIONARY
  5
C
330
0
100
AcDbDictionary
281
     1
  3
ACAD_DETAILVIEWSTYLE
350
1EF
  3
ACAD_GROUP
350
D
  3
ACAD_LAYOUT
350
1A
  3
ACAD_MATERIAL
350
43
  3
ACAD_MLEADERSTYLE
350
6B
  3
ACAD_MLINESTYLE
350
17
  3
ACAD_PLOTSETTINGS
350
19
  3
ACAD_PLOTSTYLENAME
350
E
  3
ACAD_SCALELIST
350
47
  3
ACAD_SECTIONVIEWSTYLE
350
1F0
  3
ACAD_TABLESTYLE
350
69
  3
ACAD_VISUALSTYLE
350
2A
  3
ACDB_RECOMPOSE_DATA
350
1EC
  3
AcDbVariableDictionary
350
1E8
  0
SUN
  5
6D
330
29
100
AcDbSun
 90
        1
290
     0
 63
     7
421
 16777215
 40
1.0
291
     1
 91
  2455826
 92
 54000000
292
     0
 70
     2
 71
   256
280
     1
  0
DICTIONARY
  5
1EF
102
{ACAD_REACTORS
330
C
102
}
330
C
100
AcDbDictionary
281
     1
  0
DICTIONARY
  5
D
102
{ACAD_REACTORS
330
C
102
}
330
C
100
AcDbDictionary
281
     1
  0
DICTIONARY
  5
1A
102
{ACAD_REACTORS
330
C
102
}
330
C
100
AcDbDictionary
281
     1
  3
Layout1
350
1E
  3
Layout2
350
26
  3
Model
350
22
  0
DICTIONARY
  5
43
102
{ACAD_REACTORS
330
C
102
}
330
C
100
AcDbDictionary
281
     1
  3
ByBlock
350
45
  3
ByLayer
350
44
  3
Global
350
46
  0
DICTIONARY
  5
6B
102
{ACAD_REACTORS
330
C
102
}
330
C
100
AcDbDictionary
281
     1
  3
Standard
350
6C
  0
DICTIONARY
  5
17
102
{ACAD_REACTORS
330
C
102
}
330
C
100
AcDbDictionary
281
     1
  3
Standard
350
18
  0
DICTIONARY
  5
19
102
{ACAD_REACTORS
330
C
102
}
330
C
100
AcDbDictionary
281
     1
  0
ACDBDICTIONARYWDFLT
  5
E
102
{ACAD_REACTORS
330
C
102
}
330
C
100
AcDbDictionary
281
     1
  3
Normal
350
F
100
AcDbDictionaryWithDefault
340
F
  0
DICTIONARY
  5
47
102
{ACAD_REACTORS
330
C
102
}
330
C
100
AcDbDictionary
281
     1
  3
A0
350
48
  3
A1
350
49
  3
A2
350
4A
  3
A3
350
4B
  3
A4
350
4C
  3
A5
350
4D
  3
A6
350
4E
  3
A7
350
4F
  3
A8
350
50
  3
A9
350
51
  3
B0
350
52
  3
B1
350
53
  3
B2
350
54
  3
B3
350
55
  3
B4
350
56
  3
B5
350
57
  3
B6
350
58
  3
B7
350
59
  3
B8
350
5A
  3
B9
350
5B
  3
C0
350
5C
  3
C1
350
5D
  3
C2
350
5E
  3
C3
350
5F
  3
C4
350
60
  3
C5
350
61
  3
C6
350
62
  3
C7
350
63
  3
C8
350
64
  3
C9
350
65
  3
D0
350
66
  3
D1
350
67
  3
D2
350
68
  0
DICTIONARY
  5
1F0
102
{ACAD_REACTORS
330
C
102
}
330
C
100
AcDbDictionary
281
     1
  0
DICTIONARY
  5
69
102
{ACAD_REACTORS
330
C
102
}
330
C
100
AcDbDictionary
281
     1
  3
Standard
350
6A
  0
DICTIONARY
  5
2A
102
{ACAD_REACTORS
330
C
102
}
330
C
100
AcDbDictionary
281
     1
  3
2dWireframe
350
2F
  3
Basic
350
32
  3
Brighten
350
36
  3
ColorChange
350
3A
  3
Conceptual
350
34
  3
Dim
350
35
  3
EdgeColorOff
350
3D
  3
Facepattern
350
39
  3
Flat
350
2B
  3
FlatWithEdges
350
2C
  3
Gouraud
350
2D
  3
GouraudWithEdges
350
2E
  3
Hidden
350
31
  3
JitterOff
350
3B
  3
Linepattern
350
38
  3
OverhangOff
350
3C
  3
Realistic
350
33
  3
Shaded
350
42
  3
Shaded with edges
350
41
  3
Shades of Gray
350
3E
  3
Sketchy
350
3F
  3
Thicken
350
37
  3
Wireframe
350
30
  3
X-Ray
350
40
  0
XRECORD
  5
1EC
102
{ACAD_REACTORS
330
C
102
}
330
C
100
AcDbXrecord
280
     1
 90
        1
330
6A
  0
DICTIONARY
  5
1E8
102
{ACAD_REACTORS
330
C
102
}
330
C
100
AcDbDictionary
281
     1
  3
CANNOSCALE
350
1E9
  3
CMLEADERSTYLE
350
1EE
  3
CTABLESTYLE
350
1ED
  0
LAYOUT
  5
1E
102
{ACAD_REACTORS
330
1A
102
}
330
1A
100
AcDbPlotSettings
  1

  2
none_device
  4

  6

 40
0.0
 41
0.0
 42
0.0
 43
0.0
 44
0.0
 45
0.0
 46
0.0
 47
0.0
 48
0.0
 49
0.0
140
0.0
141
0.0
142
1.0
143
1.0
 70
   688
 72
     0
 73
     0
 74
     5
  7

 75
    16
 76
     0
 77
     2
 78
   300
147
1.0
148
0.0
149
0.0
100
AcDbLayout
  1
Layout1
 70
     1
 71
     1
 10
0.0
 20
0.0
 11
12.0
 21
9.0
 12
0.0
 22
0.0
 32
0.0
 14
1.000000000000000E+20
 24
1.000000000000000E+20
 34
1.000000000000000E+20
 15
-1.000000000000000E+20
 25
-1.000000000000000E+20
 35
-1.000000000000000E+20
146
0.0
 13
0.0
 23
0.0
 33
0.0
 16
1.0
 26
0.0
 36
0.0
 17
0.0
 27
1.0
 37
0.0
 76
     0
330
1B
  0
LAYOUT
  5
26
102
{ACAD_REACTORS
330
1A
102
}
330
1A
100
AcDbPlotSettings
  1

  2
none_device
  4

  6

 40
0.0
 41
0.0
 42
0.0
 43
0.0
 44
0.0
 45
0.0
 46
0.0
 47
0.0
 48
0.0
 49
0.0
140
0.0
141
0.0
142
1.0
143
1.0
 70
   688
 72
     0
 73
     0
 74
     5
  7

 75
    16
 76
     0
 77
     2
 78
   300
147
1.0
148
0.0
149
0.0
100
AcDbLayout
  1
Layout2
 70
     1
 71
     2
 10
0.0
 20
0.0
 11
0.0
 21
0.0
 12
0.0
 22
0.0
 32
0.0
 14
0.0
 24
0.0
 34
0.0
 15
0.0
 25
0.0
 35
0.0
146
0.0
 13
0.0
 23
0.0
 33
0.0
 16
1.0
 26
0.0
 36
0.0
 17
0.0
 27
1.0
 37
0.0
 76
     0
330
23
  0
LAYOUT
  5
22
102
{ACAD_REACTORS
330
1A
102
}
330
1A
100
AcDbPlotSettings
  1

  2
none_device
  4
Letter_(8.50_x_11.00_Inches)
  6

 40
6.35
 41
6.35
 42
6.35000508
 43
6.35000508
 44
215.9
 45
279.4
 46
0.0
 47
0.0
 48
0.0
 49
0.0
140
0.0
141
0.0
142
1.0
143
1.0
 70
  1712
 72
     0
 73
     0
 74
     0
  7

 75
     0
 76
     0
 77
     2
 78
   300
147
1.0
148
0.0
149
0.0
100
AcDbLayout
  1
Model
 70
     1
 71
     0
 10
0.0
 20
0.0
 11
12.0
 21
9.0
 12
0.0
 22
0.0
 32
0.0
 14
1.000000000000000E+20
 24
1.000000000000000E+20
 34
1.000000000000000E+20
 15
-1.000000000000000E+20
 25
-1.000000000000000E+20
 35
-1.000000000000000E+20
146
0.0
 13
0.0
 23
0.0
 33
0.0
 16
1.0
 26
0.0
 36
0.0
 17
0.0
 27
1.0
 37
0.0
 76
     0
330
1F
331
29
  0
MATERIAL
  5
45
102
{ACAD_REACTORS
330
43
102
}
330
43
100
AcDbMaterial
  1
ByBlock
 72
     1
 94
      127
  0
MATERIAL
  5
44
102
{ACAD_REACTORS
330
43
102
}
330
43
100
AcDbMaterial
  1
ByLayer
 72
     1
 94
      127
  0
MATERIAL
  5
46
102
{ACAD_REACTORS
330
43
102
}
330
43
100
AcDbMaterial
  1
Global
 72
     1
 94
      127
  0
MLEADERSTYLE
  5
6C
102
{ACAD_REACTORS
330
6B
102
}
330
6B
100
AcDbMLeaderStyle
179
     2
170
     2
171
     1
172
     0
 90
        2
 40
0.0
 41
0.0
173
     1
 91
-1056964608
340
14
 92
       -2
290
     1
 42
0.09
291
     1
 43
0.36
  3
Standard
341
0
 44
0.18
300

342
11
174
     1
178
     6
175
     1
176
     0
 93
-1056964608
 45
0.18
292
     0
297
     0
 46
0.18
343
0
 94
-1056964608
 47
1.0
 49
1.0
140
1.0
293
     1
141
0.0
294
     1
177
     0
142
1.0
295
     0
296
     0
143
0.125
271
     0
272
     9
273
     9
298
     0
  0
MLINESTYLE
  5
18
102
{ACAD_REACTORS
330
17
102
}
330
17
100
AcDbMlineStyle
  2
Standard
 70
     0
  3

 62
   256
 51
90.0
 52
90.0
 71
     2
 49
0.5
 62
   256
  6
BYLAYER
 49
-0.5
 62
   256
  6
BYLAYER
  0
ACDBPLACEHOLDER
  5
F
102
{ACAD_REACTORS
330
E
102
}
330
E
  0
SCALE
  5
48
102
{ACAD_REACTORS
330
47
102
}
330
47
100
AcDbScale
 70
     0
300
1:1
140
1.0
141
1.0
290
     1
  0
SCALE
  5
49
102
{ACAD_REACTORS
330
47
102
}
330
47
100
AcDbScale
 70
     0
300
1:2
140
1.0
141
2.0
290
     0
  0
SCALE
  5
4A
102
{ACAD_REACTORS
330
47
102
}
330
47
100
AcDbScale
 70
     0
300
1:4
140
1.0
141
4.0
290
     0
  0
SCALE
  5
4B
102
{ACAD_REACTORS
330
47
102
}
330
47
100
AcDbScale
 70
     0
300
1:5
140
1.0
141
5.0
290
     0
  0
SCALE
  5
4C
102
{ACAD_REACTORS
330
47
102
}
330
47
100
AcDbScale
 70
     0
300
1:8
140
1.0
141
8.0
290
     0
  0
SCALE
  5
4D
102
{ACAD_REACTORS
330
47
102
}
330
47
100
AcDbScale
 70
     0
300
1:10
140
1.0
141
10.0
290
     0
  0
SCALE
  5
4E
102
{ACAD_REACTORS
330
47
102
}
330
47
100
AcDbScale
 70
     0
300
1:16
140
1.0
141
16.0
290
     0
  0
SCALE
  5
4F
102
{ACAD_REACTORS
330
47
102
}
330
47
100
AcDbScale
 70
     0
300
1:20
140
1.0
141
20.0
290
     0
  0
SCALE
  5
50
102
{ACAD_REACTORS
330
47
102
}
330
47
100
AcDbScale
 70
     0
300
1:30
140
1.0
141
30.0
290
     0
  0
SCALE
  5
51
102
{ACAD_REACTORS
330
47
102
}
330
47
100
AcDbScale
 70
     0
300
1:40
140
1.0
141
40.0
290
     0
  0
SCALE
  5
52
102
{ACAD_REACTORS
330
47
102
}
330
47
100
AcDbScale
 70
     0
300
1:50
140
1.0
141
50.0
290
     0
  0
SCALE
  5
53
102
{ACAD_REACTORS
330
47
102
}
330
47
100
AcDbScale
 70
     0
300
1:100
140
1.0
141
100.0
290
     0
  0
SCALE
  5
54
102
{ACAD_REACTORS
330
47
102
}
330
47
100
AcDbScale
 70
     0
300
2:1
140
2.0
141
1.0
290
     0
  0
SCALE
  5
55
102
{ACAD_REACTORS
330
47
102
}
330
47
100
AcDbScale
 70
     0
300
4:1
140
4.0
141
1.0
290
     0
  0
SCALE
  5
56
102
{ACAD_REACTORS
330
47
102
}
330
47
100
AcDbScale
 70
     0
300
8:1
140
8.0
141
1.0
290
     0
  0
SCALE
  5
57
102
{ACAD_REACTORS
330
47
102
}
330
47
100
AcDbScale
 70
     0
300
10:1
140
10.0
141
1.0
290
     0
  0
SCALE
  5
58
102
{ACAD_REACTORS
330
47
102
}
330
47
100
AcDbScale
 70
     0
300
100:1
140
100.0
141
1.0
290
     0
  0
SCALE
  5
59
102
{ACAD_REACTORS
330
47
102
}
330
47
100
AcDbScale
 70
     0
300
1/128" = 1'-0"
140
0.0078125
141
12.0
290
     0
  0
SCALE
  5
5A
102
{ACAD_REACTORS
330
47
102
}
330
47
100
AcDbScale
 70
     0
300
1/64" = 1'-0"
140
0.015625
141
12.0
290
     0
  0
SCALE
  5
5B
102
{ACAD_REACTORS
330
47
102
}
330
47
100
AcDbScale
 70
     0
300
1/32" = 1'-0"
140
0.03125
141
12.0
290
     0
  0
SCALE
  5
5C
102
{ACAD_REACTORS
330
47
102
}
330
47
100
AcDbScale
 70
     0
300
1/16" = 1'-0"
140
0.0625
141
12.0
290
     0
  0
SCALE
  5
5D
102
{ACAD_REACTORS
330
47
102
}
330
47
100
AcDbScale
 70
     0
300
3/32" = 1'-0"
140
0.09375
141
12.0
290
     0
  0
SCALE
  5
5E
102
{ACAD_REACTORS
330
47
102
}
330
47
100
AcDbScale
 70
     0
300
1/8" = 1'-0"
140
0.125
141
12.0
290
     0
  0
SCALE
  5
5F
102
{ACAD_REACTORS
330
47
102
}
330
47
100
AcDbScale
 70
     0
300
3/16" = 1'-0"
140
0.1875
141
12.0
290
     0
  0
SCALE
  5
60
102
{ACAD_REACTORS
330
47
102
}
330
47
100
AcDbScale
 70
     0
300
1/4" = 1'-0"
140
0.25
141
12.0
290
     0
  0
SCALE
  5
61
102
{ACAD_REACTORS
330
47
102
}
330
47
100
AcDbScale
 70
     0
300
3/8" = 1'-0"
140
0.375
141
12.0
290
     0
  0
SCALE
  5
62
102
{ACAD_REACTORS
330
47
102
}
330
47
100
AcDbScale
 70
     0
300
1/2" = 1'-0"
140
0.5
141
12.0
290
     0
  0
SCALE
  5
63
102
{ACAD_REACTORS
330
47
102
}
330
47
100
AcDbScale
 70
     0
300
3/4" = 1'-0"
140
0.75
141
12.0
290
     0
  0
SCALE
  5
64
102
{ACAD_REACTORS
330
47
102
}
330
47
100
AcDbScale
 70
     0
300
1" = 1'-0"
140
1.0
141
12.0
290
     0
  0
SCALE
  5
65
102
{ACAD_REACTORS
330
47
102
}
330
47
100
AcDbScale
 70
     0
300
1-1/2" = 1'-0"
140
1.5
141
12.0
290
     0
  0
SCALE
  5
66
102
{ACAD_REACTORS
330
47
102
}
330
47
100
AcDbScale
 70
     0
300
3" = 1'-0"
140
3.0
141
12.0
290
     0
  0
SCALE
  5
67
102
{ACAD_REACTORS
330
47
102
}
330
47
100
AcDbScale
 70
     0
300
6" = 1'-0"
140
6.0
141
12.0
290
     0
  0
SCALE
  5
68
102
{ACAD_REACTORS
330
47
102
}
330
47
100
AcDbScale
 70
     0
300
1'-0" = 1'-0"
140
12.0
141
12.0
290
     0
  0
TABLESTYLE
  5
6A
102
{ACAD_REACTORS
330
69
102
}
102
{ACAD_XDICTIONARY
360
1EA
102
}
330
69
100
AcDbTableStyle
  3
Standard
 70
     0
 71
     0
 40
0.06
 41
0.06
280
     0
281
     0
  7
Standard
140
0.18
170
     2
 62
     0
 63
   257
283
     0
 90
        4
 91
        0
  1

274
    -2
284
     1
 64
     0
275
    -2
285
     1
 65
     0
276
    -2
286
     1
 66
     0
277
    -2
287
     1
 67
     0
278
    -2
288
     1
 68
     0
279
    -2
289
     1
 69
     0
  7
Standard
140
0.25
170
     5
 62
     0
 63
   257
283
     0
 90
        4
 91
        0
  1

274
    -2
284
     1
 64
     0
275
    -2
285
     1
 65
     0
276
    -2
286
     1
 66
     0
277
    -2
287
     1
 67
     0
278
    -2
288
     1
 68
     0
279
    -2
289
     1
 69
     0
  7
Standard
140
0.18
170
     5
 62
     0
 63
   257
283
     0
 90
        4
 91
        0
  1

274
    -2
284
     1
 64
     0
275
    -2
285
     1
 65
     0
276
    -2
286
     1
 66
     0
277
    -2
287
     1
 67
     0
278
    -2
288
     1
 68
     0
279
    -2
289
     1
 69
     0
  0
VISUALSTYLE
  5
2F
102
{ACAD_REACTORS
330
2A
102
}
330
2A
100
AcDbVisualStyle
  2
2dWireframe
 70
     4
177
     3
291
     0
 70
    58
 90
        0
176
     1
 90
        2
176
     1
 90
        0
176
     1
 90
        0
176
     1
 40
0.6
176
     1
 40
30.0
176
     1
 62
     7
420
 16777215
176
     1
 90
        1
176
     1
 90
        4
176
     1
 62
     7
176
     1
 62
   257
176
     1
 90
        1
176
     1
 90
        1
176
     1
 40
1.0
176
     1
 90
        0
176
     1
 62
   257
176
     1
 40
1.0
176
     1
 90
        1
176
     1
 90
        6
176
     1
 90
        2
176
     1
 62
     7
176
     1
 90
        5
176
     1
 90
        0
176
     1
 90
        0
176
     1
290
     0
176
     1
 90
        1
176
     1
 40
0.0
176
     1
 90
        0
176
     1
290
     1
176
     1
290
     1
176
     1
290
     0
176
     1
290
     0
176
     1
290
     0
176
     1
290
     0
176
     1
290
     0
176
     1
290
     0
176
     1
290
     0
176
     1
 90
       50
176
     1
 40
0.0
176
     1
 40
1.0
176
     1
 90
        0
176
     1
 62
    18
420
        0
176
     1
 90
       50
176
     1
 90
        3
176
     1
 62
     5
420
      255
176
     1
290
     0
176
     1
 90
       50
176
     1
 90
       50
176
     1
 90
       50
176
     1
290
     0
176
     1
 90
       50
176
     1
 62
   256
176
     0
 40
1.0
176
     0
 90
        2
176
     1
  1
strokes_ogs.tif
176
     1
290
     0
176
     1
 40
1.0
176
     1
 40
1.0
176
     1
  0
VISUALSTYLE
  5
32
102
{ACAD_REACTORS
330
2A
102
}
330
2A
100
AcDbVisualStyle
  2
Basic
 70
     7
177
     3
291
     1
 70
    58
 90
        1
176
     1
 90
        0
176
     1
 90
        1
176
     1
 90
        0
176
     1
 40
0.6
176
     1
 40
30.0
176
     1
 62
     7
420
 16777215
176
     1
 90
        0
176
     1
 90
        4
176
     1
 62
     7
176
     1
 62
   257
176
     1
 90
        1
176
     1
 90
        1
176
     1
 40
1.0
176
     1
 90
        8
176
     1
 62
     7
176
     1
 40
1.0
176
     1
 90
        1
176
     1
 90
        6
176
     1
 90
        2
176
     1
 62
     7
176
     1
 90
        5
176
     1
 90
        0
176
     1
 90
        0
176
     1
290
     0
176
     1
 90
        1
176
     1
 40
0.0
176
     1
 90
        0
176
     1
290
     0
176
     1
290
     1
176
     1
290
     1
176
     1
290
     0
176
     1
290
     0
176
     1
290
     0
176
     1
290
     0
176
     1
290
     0
176
     1
290
     0
176
     1
 90
       50
176
     1
 40
0.0
176
     1
 40
1.0
176
     1
 90
        0
176
     1
 62
    18
420
        0
176
     1
 90
       50
176
     1
 90
        3
176
     1
 62
     5
420
      255
176
     1
290
     0
176
     1
 90
       50
176
     1
 90
       50
176
     1
 90
       50
176
     1
290
     0
176
     1
 90
       50
176
     1
 62
   256
176
     0
 40
1.0
176
     0
 90
        2
176
     1
  1
strokes_ogs.tif
176
     1
290
     0
176
     1
 40
1.0
176
     1
 40
1.0
176
     1
  0
VISUALSTYLE
  5
36
102
{ACAD_REACTORS
330
2A
102
}
330
2A
100
AcDbVisualStyle
  2
Brighten
 70
    12
177
     3
291
     1
 70
    58
 90
        2
176
     1
 90
        2
176
     1
 90
        0
176
     1
 90
        0
176
     1
 40
0.6
176
     1
 40
30.0
176
     1
 62
     7
420
 16777215
176
     1
 90
        1
176
     1
 90
        4
176
     1
 62
     7
176
     1
 62
   257
176
     1
 90
        1
176
     1
 90
        1
176
     1
 40
1.0
176
     1
 90
        8
176
     1
 62
     7
176
     1
 40
1.0
176
     1
 90
        1
176
     1
 90
        6
176
     1
 90
        2
176
     1
 62
     7
176
     1
 90
        5
176
     1
 90
        0
176
     1
 90
        0
176
     1
290
     0
176
     1
 90
        1
176
     1
 40
50.0
176
     1
 90
        0
176
     1
290
     0
176
     1
290
     1
176
     1
290
     1
176
     1
290
     0
176
     1
290
     0
176
     1
290
     0
176
     1
290
     0
176
     1
290
     0
176
     1
290
     0
176
     1
 90
       50
176
     1
 40
0.0
176
     1
 40
1.0
176
     1
 90
        0
176
     1
 62
    18
420
        0
176
     1
 90
       50
176
     1
 90
        3
176
     1
 62
     5
420
      255
176
     1
290
     0
176
     1
 90
       50
176
     1
 90
       50
176
     1
 90
       50
176
     1
290
     0
176
     1
 90
       50
176
     1
 62
   256
176
     0
 40
1.0
176
     0
 90
        2
176
     1
  1
strokes_ogs.tif
176
     1
290
     0
176
     1
 40
1.0
176
     1
 40
1.0
176
     1
  0
VISUALSTYLE
  5
3A
102
{ACAD_REACTORS
330
2A
102
}
330
2A
100
AcDbVisualStyle
  2
ColorChange
 70
    16
177
     3
291
     1
 70
    58
 90
        2
176
     1
 90
        2
176
     1
 90
        3
176
     1
 90
        0
176
     1
 40
0.6
176
     1
 40
30.0
176
     1
 62
     8
420
  8421504
176
     1
 90
        1
176
     1
 90
        4
176
     1
 62
     7
176
     1
 62
   257
176
     1
 90
        1
176
     1
 90
        1
176
     1
 40
1.0
176
     1
 90
        8
176
     1
 62
     8
420
  8421504
176
     1
 40
1.0
176
     1
 90
        1
176
     1
 90
        6
176
     1
 90
        2
176
     1
 62
     7
176
     1
 90
        5
176
     1
 90
        0
176
     1
 90
        0
176
     1
290
     0
176
     1
 90
        1
176
     1
 40
0.0
176
     1
 90
        0
176
     1
290
     0
176
     1
290
     1
176
     1
290
     1
176
     1
290
     0
176
     1
290
     0
176
     1
290
     0
176
     1
290
     0
176
     1
290
     0
176
     1
290
     0
176
     1
 90
       50
176
     1
 40
0.0
176
     1
 40
1.0
176
     1
 90
        0
176
     1
 62
    18
420
        0
176
     1
 90
       50
176
     1
 90
        3
176
     1
 62
     5
420
      255
176
     1
290
     0
176
     1
 90
       50
176
     1
 90
       50
176
     1
 90
       50
176
     1
290
     0
176
     1
 90
       50
176
     1
 62
   256
176
     0
 40
1.0
176
     0
 90
        2
176
     1
  1
strokes_ogs.tif
176
     1
290
     0
176
     1
 40
1.0
176
     1
 40
1.0
176
     1
  0
VISUALSTYLE
  5
34
102
{ACAD_REACTORS
330
2A
102
}
330
2A
100
AcDbVisualStyle
  2
Conceptual
 70
     9
177
     3
291
     0
 70
    58
 90
        3
176
     1
 90
        2
176
     1
 90
        0
176
     1
 90
        0
176
     1
 40
0.6
176
     1
 40
30.0
176
     1
 62
     7
420
 16777215
176
     1
 90
        2
176
     1
 90
        2
176
     1
 62
     7
176
     1
 62
   257
176
     1
 90
        1
176
     1
 90
        1
176
     1
 40
179.0
176
     1
 90
        8
176
     1
 62
     7
176
     1
 40
1.0
176
     1
 90
        1
176
     1
 90
        6
176
     1
 90
        2
176
     1
 62
     7
176
     1
 90
        3
176
     1
 90
        0
176
     1
 90
        0
176
     1
290
     0
176
     1
 90
        1
176
     1
 40
0.0
176
     1
 90
        0
176
     1
290
     0
176
     1
290
     1
176
     1
290
     1
176
     1
290
     0
176
     1
290
     0
176
     1
290
     0
176
     1
290
     0
176
     1
290
     0
176
     1
290
     0
176
     1
 90
       50
176
     1
 40
0.0
176
     1
 40
1.0
176
     1
 90
        0
176
     1
 62
    18
420
        0
176
     1
 90
       50
176
     1
 90
        3
176
     1
 62
     5
420
      255
176
     1
290
     0
176
     1
 90
       50
176
     1
 90
       50
176
     1
 90
       50
176
     1
290
     0
176
     1
 90
       50
176
     1
 62
   256
176
     0
 40
1.0
176
     0
 90
        2
176
     1
  1
strokes_ogs.tif
176
     1
290
     0
176
     1
 40
1.0
176
     1
 40
1.0
176
     1
  0
VISUALSTYLE
  5
35
102
{ACAD_REACTORS
330
2A
102
}
330
2A
100
AcDbVisualStyle
  2
Dim
 70
    11
177
     3
291
     1
 70
    58
 90
        2
176
     1
 90
        2
176
     1
 90
        0
176
     1
 90
        0
176
     1
 40
0.6
176
     1
 40
30.0
176
     1
 62
     7
420
 16777215
176
     1
 90
        1
176
     1
 90
        4
176
     1
 62
     7
176
     1
 62
   257
176
     1
 90
        1
176
     1
 90
        1
176
     1
 40
1.0
176
     1
 90
        8
176
     1
 62
     7
176
     1
 40
1.0
176
     1
 90
        1
176
     1
 90
        6
176
     1
 90
        2
176
     1
 62
     7
176
     1
 90
        5
176
     1
 90
        0
176
     1
 90
        0
176
     1
290
     0
176
     1
 90
        1
176
     1
 40
-50.0
176
     1
 90
        0
176
     1
290
     0
176
     1
290
     1
176
     1
290
     1
176
     1
290
     0
176
     1
290
     0
176
     1
290
     0
176
     1
290
     0
176
     1
290
     0
176
     1
290
     0
176
     1
 90
       50
176
     1
 40
0.0
176
     1
 40
1.0
176
     1
 90
        0
176
     1
 62
    18
420
        0
176
     1
 90
       50
176
     1
 90
        3
176
     1
 62
     5
420
      255
176
     1
290
     0
176
     1
 90
       50
176
     1
 90
       50
176
     1
 90
       50
176
     1
290
     0
176
     1
 90
       50
176
     1
 62
   256
176
     0
 40
1.0
176
     0
 90
        2
176
     1
  1
strokes_ogs.tif
176
     1
290
     0
176
     1
 40
1.0
176
     1
 40
1.0
176
     1
  0
VISUALSTYLE
  5
3D
102
{ACAD_REACTORS
330
2A
102
}
330
2A
100
AcDbVisualStyle
  2
EdgeColorOff
 70
    22
177
     3
291
     1
 70
    58
 90
        2
176
     0
 90
        2
176
     0
 90
        0
176
     0
 90
        0
176
     0
 40
0.6
176
     0
 40
30.0
176
     0
 62
     7
420
 16777215
176
     0
 90
        1
176
     0
 90
        4
176
     0
 62
     7
176
     0
 62
   257
176
     0
 90
        1
176
     0
 90
        1
176
     0
 40
1.0
176
     0
 90
        8
176
     2
 62
     7
176
     0
 40
1.0
176
     0
 90
        1
176
     0
 90
        6
176
     0
 90
        2
176
     0
 62
     7
176
     0
 90
        5
176
     0
 90
        0
176
     0
 90
        0
176
     0
290
     0
176
     0
 90
        1
176
     0
 40
0.0
176
     0
 90
        0
176
     0
290
     0
176
     0
290
     1
176
     0
290
     1
176
     0
290
     0
176
     0
290
     0
176
     0
290
     0
176
     0
290
     0
176
     0
290
     0
176
     0
290
     0
176
     0
 90
       50
176
     0
 40
0.0
176
     0
 40
1.0
176
     0
 90
        0
176
     0
 62
    18
420
        0
176
     0
 90
       50
176
     0
 90
        3
176
     0
 62
     5
420
      255
176
     0
290
     0
176
     0
 90
       50
176
     0
 90
       50
176
     0
 90
       50
176
     0
290
     0
176
     0
 90
       50
176
     0
 62
   256
176
     0
 40
1.0
176
     0
 90
        2
176
     0
  1
strokes_ogs.tif
176
     0
290
     0
176
     0
 40
1.0
176
     0
 40
1.0
176
     0
  0
VISUALSTYLE
  5
39
102
{ACAD_REACTORS
330
2A
102
}
330
2A
100
AcDbVisualStyle
  2
Facepattern
 70
    15
177
     3
291
     1
 70
    58
 90
        2
176
     1
 90
        2
176
     1
 90
        0
176
     1
 90
        0
176
     1
 40
0.6
176
     1
 40
30.0
176
     1
 62
     7
420
 16777215
176
     1
 90
        1
176
     1
 90
        4
176
     1
 62
     7
176
     1
 62
   257
176
     1
 90
        1
176
     1
 90
        1
176
     1
 40
1.0
176
     1
 90
        8
176
     1
 62
     7
176
     1
 40
1.0
176
     1
 90
        1
176
     1
 90
        6
176
     1
 90
        2
176
     1
 62
     7
176
     1
 90
        5
176
     1
 90
        0
176
     1
 90
        0
176
     1
290
     0
176
     1
 90
        1
176
     1
 40
0.0
176
     1
 90
        0
176
     1
290
     0
176
     1
290
     1
176
     1
290
     1
176
     1
290
     0
176
     1
290
     0
176
     1
290
     0
176
     1
290
     0
176
     1
290
     0
176
     1
290
     0
176
     1
 90
       50
176
     1
 40
0.0
176
     1
 40
1.0
176
     1
 90
        0
176
     1
 62
    18
420
        0
176
     1
 90
       50
176
     1
 90
        3
176
     1
 62
     5
420
      255
176
     1
290
     0
176
     1
 90
       50
176
     1
 90
       50
176
     1
 90
       50
176
     1
290
     0
176
     1
 90
       50
176
     1
 62
   256
176
     0
 40
1.0
176
     0
 90
        2
176
     1
  1
strokes_ogs.tif
176
     1
290
     0
176
     1
 40
1.0
176
     1
 40
1.0
176
     1
  0
VISUALSTYLE
  5
2B
102
{ACAD_REACTORS
330
2A
102
}
330
2A
100
AcDbVisualStyle
  2
Flat
 70
     0
177
     3
291
     1
 70
    58
 90
        2
176
     1
 90
        1
176
     1
 90
        1
176
     1
 90
        2
176
     1
 40
0.6
176
     1
 40
30.0
176
     1
 62
     7
420
 16777215
176
     1
 90
        0
176
     1
 90
        0
176
     1
 62
     7
176
     1
 62
   257
176
     1
 90
        1
176
     1
 90
        1
176
     1
 40
1.0
176
     1
 90
        8
176
     1
 62
     7
176
     1
 40
1.0
176
     1
 90
        1
176
     1
 90
        6
176
     1
 90
        2
176
     1
 62
     7
176
     1
 90
        5
176
     1
 90
        0
176
     1
 90
        0
176
     1
290
     0
176
     1
 90
       13
176
     1
 40
0.0
176
     1
 90
        0
176
     1
290
     0
176
     1
290
     1
176
     1
290
     1
176
     1
290
     0
176
     1
290
     0
176
     1
290
     0
176
     1
290
     0
176
     1
290
     0
176
     1
290
     0
176
     1
 90
       50
176
     1
 40
0.0
176
     1
 40
1.0
176
     1
 90
        0
176
     1
 62
    18
420
        0
176
     1
 90
       50
176
     1
 90
        3
176
     1
 62
     5
420
      255
176
     1
290
     0
176
     1
 90
       50
176
     1
 90
       50
176
     1
 90
       50
176
     1
290
     0
176
     1
 90
       50
176
     1
 62
   256
176
     0
 40
1.0
176
     0
 90
        2
176
     1
  1
strokes_ogs.tif
176
     1
290
     0
176
     1
 40
1.0
176
     1
 40
1.0
176
     1
  0
VISUALSTYLE
  5
2C
102
{ACAD_REACTORS
330
2A
102
}
330
2A
100
AcDbVisualStyle
  2
FlatWithEdges
 70
     1
177
     3
291
     1
 70
    58
 90
        2
176
     1
 90
        1
176
     1
 90
        1
176
     1
 90
        2
176
     1
 40
0.6
176
     1
 40
30.0
176
     1
 62
     7
420
 16777215
176
     1
 90
        1
176
     1
 90
        0
176
     1
 62
     7
176
     1
 62
   257
176
     1
 90
        1
176
     1
 90
        1
176
     1
 40
1.0
176
     1
 90
        0
176
     1
 62
   257
176
     1
 40
1.0
176
     1
 90
        1
176
     1
 90
        6
176
     1
 90
        2
176
     1
 62
     7
176
     1
 90
        5
176
     1
 90
        0
176
     1
 90
        0
176
     1
290
     0
176
     1
 90
       13
176
     1
 40
0.0
176
     1
 90
        0
176
     1
290
     0
176
     1
290
     1
176
     1
290
     1
176
     1
290
     0
176
     1
290
     0
176
     1
290
     0
176
     1
290
     0
176
     1
290
     0
176
     1
290
     0
176
     1
 90
       50
176
     1
 40
0.0
176
     1
 40
1.0
176
     1
 90
        0
176
     1
 62
    18
420
        0
176
     1
 90
       50
176
     1
 90
        3
176
     1
 62
     5
420
      255
176
     1
290
     0
176
     1
 90
       50
176
     1
 90
       50
176
     1
 90
       50
176
     1
290
     0
176
     1
 90
       50
176
     1
 62
   256
176
     0
 40
1.0
176
     0
 90
        2
176
     1
  1
strokes_ogs.tif
176
     1
290
     0
176
     1
 40
1.0
176
     1
 40
1.0
176
     1
  0
VISUALSTYLE
  5
2D
102
{ACAD_REACTORS
330
2A
102
}
330
2A
100
AcDbVisualStyle
  2
Gouraud
 70
     2
177
     3
291
     1
 70
    58
 90
        2
176
     1
 90
        2
176
     1
 90
        1
176
     1
 90
        2
176
     1
 40
0.6
176
     1
 40
30.0
176
     1
 62
     7
420
 16777215
176
     1
 90
        0
176
     1
 90
        0
176
     1
 62
     7
176
     1
 62
   257
176
     1
 90
        1
176
     1
 90
        1
176
     1
 40
1.0
176
     1
 90
        0
176
     1
 62
     7
176
     1
 40
1.0
176
     1
 90
        1
176
     1
 90
        6
176
     1
 90
        2
176
     1
 62
     7
176
     1
 90
        5
176
     1
 90
        0
176
     1
 90
        0
176
     1
290
     0
176
     1
 90
       13
176
     1
 40
0.0
176
     1
 90
        0
176
     1
290
     0
176
     1
290
     1
176
     1
290
     1
176
     1
290
     0
176
     1
290
     0
176
     1
290
     0
176
     1
290
     0
176
     1
290
     0
176
     1
290
     0
176
     1
 90
       50
176
     1
 40
0.0
176
     1
 40
1.0
176
     1
 90
        0
176
     1
 62
    18
420
        0
176
     1
 90
       50
176
     1
 90
        3
176
     1
 62
     5
420
      255
176
     1
290
     0
176
     1
 90
       50
176
     1
 90
       50
176
     1
 90
       50
176
     1
290
     0
176
     1
 90
       50
176
     1
 62
   256
176
     0
 40
1.0
176
     0
 90
        2
176
     1
  1
strokes_ogs.tif
176
     1
290
     0
176
     1
 40
1.0
176
     1
 40
1.0
176
     1
  0
VISUALSTYLE
  5
2E
102
{ACAD_REACTORS
330
2A
102
}
330
2A
100
AcDbVisualStyle
  2
GouraudWithEdges
 70
     3
177
     3
291
     1
 70
    58
 90
        2
176
     1
 90
        2
176
     1
 90
        1
176
     1
 90
        2
176
     1
 40
0.6
176
     1
 40
30.0
176
     1
 62
     7
420
 16777215
176
     1
 90
        1
176
     1
 90
        0
176
     1
 62
     7
176
     1
 62
   257
176
     1
 90
        1
176
     1
 90
        1
176
     1
 40
1.0
176
     1
 90
        0
176
     1
 62
   257
176
     1
 40
1.0
176
     1
 90
        1
176
     1
 90
        6
176
     1
 90
        2
176
     1
 62
     7
176
     1
 90
        5
176
     1
 90
        0
176
     1
 90
        0
176
     1
290
     0
176
     1
 90
       13
176
     1
 40
0.0
176
     1
 90
        0
176
     1
290
     0
176
     1
290
     1
176
     1
290
     1
176
     1
290
     0
176
     1
290
     0
176
     1
290
     0
176
     1
290
     0
176
     1
290
     0
176
     1
290
     0
176
     1
 90
       50
176
     1
 40
0.0
176
     1
 40
1.0
176
     1
 90
        0
176
     1
 62
    18
420
        0
176
     1
 90
       50
176
     1
 90
        3
176
     1
 62
     5
420
      255
176
     1
290
     0
176
     1
 90
       50
176
     1
 90
       50
176
     1
 90
       50
176
     1
290
     0
176
     1
 90
       50
176
     1
 62
   256
176
     0
 40
1.0
176
     0
 90
        2
176
     1
  1
strokes_ogs.tif
176
     1
290
     0
176
     1
 40
1.0
176
     1
 40
1.0
176
     1
  0
VISUALSTYLE
  5
31
102
{ACAD_REACTORS
330
2A
102
}
330
2A
100
AcDbVisualStyle
  2
Hidden
 70
     6
177
     3
291
     0
 70
    58
 90
        1
176
     1
 90
        2
176
     1
 90
        2
176
     1
 90
        0
176
     1
 40
0.6
176
     1
 40
30.0
176
     1
 62
     7
420
 16777215
176
     1
 90
        2
176
     1
 90
        2
176
     1
 62
     7
176
     1
 62
   257
176
     1
 90
        2
176
     1
 90
        1
176
     1
 40
40.0
176
     1
 90
        0
176
     1
 62
   257
176
     1
 40
1.0
176
     1
 90
        1
176
     1
 90
        6
176
     1
 90
        2
176
     1
 62
     7
176
     1
 90
        3
176
     1
 90
        0
176
     1
 90
        0
176
     1
290
     0
176
     1
 90
        1
176
     1
 40
0.0
176
     1
 90
        0
176
     1
290
     0
176
     1
290
     1
176
     1
290
     1
176
     1
290
     0
176
     1
290
     0
176
     1
290
     0
176
     1
290
     0
176
     1
290
     0
176
     1
290
     0
176
     1
 90
       50
176
     1
 40
0.0
176
     1
 40
1.0
176
     1
 90
        0
176
     1
 62
    18
420
        0
176
     1
 90
       50
176
     1
 90
        3
176
     1
 62
     5
420
      255
176
     1
290
     0
176
     1
 90
       50
176
     1
 90
       50
176
     1
 90
       50
176
     1
290
     0
176
     1
 90
       50
176
     1
 62
   256
176
     0
 40
1.0
176
     0
 90
        2
176
     1
  1
strokes_ogs.tif
176
     1
290
     0
176
     1
 40
1.0
176
     1
 40
1.0
176
     1
  0
VISUALSTYLE
  5
3B
102
{ACAD_REACTORS
330
2A
102
}
330
2A
100
AcDbVisualStyle
  2
JitterOff
 70
    20
177
     3
291
     1
 70
    58
 90
        2
176
     0
 90
        2
176
     0
 90
        0
176
     0
 90
        0
176
     0
 40
0.6
176
     0
 40
30.0
176
     0
 62
     7
420
 16777215
176
     0
 90
        1
176
     0
 90
        4
176
     0
 62
     7
176
     0
 62
   257
176
     0
 90
        1
176
     0
 90
        1
176
     0
 40
1.0
176
     0
 90
       10
176
     2
 62
     7
176
     0
 40
1.0
176
     0
 90
        1
176
     0
 90
        6
176
     0
 90
        2
176
     0
 62
     7
176
     0
 90
        5
176
     0
 90
        0
176
     0
 90
        0
176
     0
290
     0
176
     0
 90
        1
176
     0
 40
0.0
176
     0
 90
        0
176
     0
290
     0
176
     0
290
     1
176
     0
290
     1
176
     0
290
     0
176
     0
290
     0
176
     0
290
     0
176
     0
290
     0
176
     0
290
     0
176
     0
290
     0
176
     0
 90
       50
176
     0
 40
0.0
176
     0
 40
1.0
176
     0
 90
        0
176
     0
 62
    18
420
        0
176
     0
 90
       50
176
     0
 90
        3
176
     0
 62
     5
420
      255
176
     0
290
     0
176
     0
 90
       50
176
     0
 90
       50
176
     0
 90
       50
176
     0
290
     0
176
     0
 90
       50
176
     0
 62
   256
176
     0
 40
1.0
176
     0
 90
        2
176
     0
  1
strokes_ogs.tif
176
     0
290
     0
176
     0
 40
1.0
176
     0
 40
1.0
176
     0
  0
VISUALSTYLE
  5
38
102
{ACAD_REACTORS
330
2A
102
}
330
2A
100
AcDbVisualStyle
  2
Linepattern
 70
    14
177
     3
291
     1
 70
    58
 90
        2
176
     1
 90
        2
176
     1
 90
        0
176
     1
 90
        0
176
     1
 40
0.6
176
     1
 40
30.0
176
     1
 62
     7
420
 16777215
176
     1
 90
        1
176
     1
 90
        4
176
     1
 62
     7
176
     1
 62
   257
176
     1
 90
        7
176
     1
 90
        7
176
     1
 40
1.0
176
     1
 90
        8
176
     1
 62
     7
176
     1
 40
1.0
176
     1
 90
        1
176
     1
 90
        6
176
     1
 90
        2
176
     1
 62
     7
176
     1
 90
        5
176
     1
 90
        0
176
     1
 90
        0
176
     1
290
     0
176
     1
 90
        1
176
     1
 40
0.0
176
     1
 90
        0
176
     1
290
     0
176
     1
290
     1
176
     1
290
     1
176
     1
290
     0
176
     1
290
     0
176
     1
290
     0
176
     1
290
     0
176
     1
290
     0
176
     1
290
     0
176
     1
 90
       50
176
     1
 40
0.0
176
     1
 40
1.0
176
     1
 90
        0
176
     1
 62
    18
420
        0
176
     1
 90
       50
176
     1
 90
        3
176
     1
 62
     5
420
      255
176
     1
290
     0
176
     1
 90
       50
176
     1
 90
       50
176
     1
 90
       50
176
     1
290
     0
176
     1
 90
       50
176
     1
 62
   256
176
     0
 40
1.0
176
     0
 90
        2
176
     1
  1
strokes_ogs.tif
176
     1
290
     0
176
     1
 40
1.0
176
     1
 40
1.0
176
     1
  0
VISUALSTYLE
  5
3C
102
{ACAD_REACTORS
330
2A
102
}
330
2A
100
AcDbVisualStyle
  2
OverhangOff
 70
    21
177
     3
291
     1
 70
    58
 90
        2
176
     0
 90
        2
176
     0
 90
        0
176
     0
 90
        0
176
     0
 40
0.6
176
     0
 40
30.0
176
     0
 62
     7
420
 16777215
176
     0
 90
        1
176
     0
 90
        4
176
     0
 62
     7
176
     0
 62
   257
176
     0
 90
        1
176
     0
 90
        1
176
     0
 40
1.0
176
     0
 90
        9
176
     2
 62
     7
176
     0
 40
1.0
176
     0
 90
        1
176
     0
 90
        6
176
     0
 90
        2
176
     0
 62
     7
176
     0
 90
        5
176
     0
 90
        0
176
     0
 90
        0
176
     0
290
     0
176
     0
 90
        1
176
     0
 40
0.0
176
     0
 90
        0
176
     0
290
     0
176
     0
290
     1
176
     0
290
     1
176
     0
290
     0
176
     0
290
     0
176
     0
290
     0
176
     0
290
     0
176
     0
290
     0
176
     0
290
     0
176
     0
 90
       50
176
     0
 40
0.0
176
     0
 40
1.0
176
     0
 90
        0
176
     0
 62
    18
420
        0
176
     0
 90
       50
176
     0
 90
        3
176
     0
 62
     5
420
      255
176
     0
290
     0
176
     0
 90
       50
176
     0
 90
       50
176
     0
 90
       50
176
     0
290
     0
176
     0
 90
       50
176
     0
 62
   256
176
     0
 40
1.0
176
     0
 90
        2
176
     0
  1
strokes_ogs.tif
176
     0
290
     0
176
     0
 40
1.0
176
     0
 40
1.0
176
     0
  0
VISUALSTYLE
  5
33
102
{ACAD_REACTORS
330
2A
102
}
330
2A
100
AcDbVisualStyle
  2
Realistic
 70
     8
177
     3
291
     0
 70
    58
 90
        2
176
     1
 90
        3
176
     1
 90
        0
176
     1
 90
        2
176
     1
 40
0.6
176
     1
 40
30.0
176
     1
 62
     7
420
 16777215
176
     1
 90
        0
176
     1
 90
        0
176
     1
 62
     7
176
     1
 62
   257
176
     1
 90
        1
176
     1
 90
        1
176
     1
 40
1.0
176
     1
 90
        8
176
     1
 62
   257
176
     1
 40
1.0
176
     1
 90
        1
176
     1
 90
        6
176
     1
 90
        2
176
     1
 62
     7
176
     1
 90
        3
176
     1
 90
        0
176
     1
 90
        0
176
     1
290
     0
176
     1
 90
       13
176
     1
 40
0.0
176
     1
 90
        0
176
     1
290
     0
176
     1
290
     1
176
     1
290
     1
176
     1
290
     0
176
     1
290
     0
176
     1
290
     0
176
     1
290
     0
176
     1
290
     0
176
     1
290
     0
176
     1
 90
       50
176
     1
 40
0.0
176
     1
 40
1.0
176
     1
 90
        0
176
     1
 62
    18
420
        0
176
     1
 90
       50
176
     1
 90
        3
176
     1
 62
     5
420
      255
176
     1
290
     0
176
     1
 90
       50
176
     1
 90
       50
176
     1
 90
       50
176
     1
290
     0
176
     1
 90
       50
176
     1
 62
   256
176
     0
 40
1.0
176
     0
 90
        2
176
     1
  1
strokes_ogs.tif
176
     1
290
     0
176
     1
 40
1.0
176
     1
 40
1.0
176
     1
  0
VISUALSTYLE
  5
42
102
{ACAD_REACTORS
330
2A
102
}
330
2A
100
AcDbVisualStyle
  2
Shaded
 70
    27
177
     3
291
     0
 70
    58
 90
        2
176
     1
 90
        2
176
     1
 90
        1
176
     1
 90
        2
176
     1
 40
0.6
176
     1
 40
30.0
176
     1
 62
     7
420
 16777215
176
     1
 90
        0
176
     1
 90
        4
176
     1
 62
     7
176
     1
 62
   257
176
     1
 90
        1
176
     1
 90
        1
176
     1
 40
1.0
176
     1
 90
        8
176
     1
 62
   257
176
     1
 40
1.0
176
     1
 90
        1
176
     1
 90
        6
176
     1
 90
        2
176
     1
 62
     8
420
  7895160
176
     1
 90
        3
176
     1
 90
        0
176
     1
 90
        0
176
     1
290
     0
176
     1
 90
        5
176
     1
 40
0.0
176
     1
 90
        0
176
     1
290
     0
176
     1
290
     1
176
     1
290
     1
176
     1
290
     0
176
     1
290
     0
176
     1
290
     0
176
     1
290
     0
176
     1
290
     0
176
     1
290
     0
176
     1
 90
       50
176
     1
 40
0.0
176
     1
 40
1.0
176
     1
 90
        0
176
     1
 62
    18
420
        0
176
     1
 90
       50
176
     1
 90
        3
176
     1
 62
     5
420
      255
176
     1
290
     0
176
     1
 90
       50
176
     1
 90
       50
176
     1
 90
       50
176
     1
290
     0
176
     1
 90
       50
176
     1
 62
   256
176
     0
 40
1.0
176
     0
 90
        2
176
     1
  1
strokes_ogs.tif
176
     1
290
     0
176
     1
 40
1.0
176
     1
 40
1.0
176
     1
  0
VISUALSTYLE
  5
41
102
{ACAD_REACTORS
330
2A
102
}
330
2A
100
AcDbVisualStyle
  2
Shaded with edges
 70
    26
177
     3
291
     0
 70
    58
 90
        2
176
     1
 90
        2
176
     1
 90
        1
176
     1
 90
        2
176
     1
 40
0.6
176
     1
 40
30.0
176
     1
 62
     7
420
 16777215
176
     1
 90
        1
176
     1
 90
       10
176
     1
 62
     7
176
     1
 62
   257
176
     1
 90
        2
176
     1
 90
        1
176
     1
 40
1.0
176
     1
 90
        8
176
     1
 62
   257
176
     1
 40
1.0
176
     1
 90
        1
176
     1
 90
        6
176
     1
 90
        2
176
     1
 62
     7
176
     1
 90
        3
176
     1
 90
        0
176
     1
 90
        0
176
     1
290
     0
176
     1
 90
        5
176
     1
 40
0.0
176
     1
 90
        0
176
     1
290
     0
176
     1
290
     1
176
     1
290
     1
176
     1
290
     0
176
     1
290
     0
176
     1
290
     0
176
     1
290
     0
176
     1
290
     0
176
     1
290
     0
176
     1
 90
       50
176
     1
 40
0.0
176
     1
 40
1.0
176
     1
 90
        0
176
     1
 62
    18
420
        0
176
     1
 90
       50
176
     1
 90
        3
176
     1
 62
     5
420
      255
176
     1
290
     0
176
     1
 90
       50
176
     1
 90
       50
176
     1
 90
       50
176
     1
290
     0
176
     1
 90
       50
176
     1
 62
   256
176
     0
 40
1.0
176
     0
 90
        2
176
     1
  1
strokes_ogs.tif
176
     1
290
     0
176
     1
 40
1.0
176
     1
 40
1.0
176
     1
  0
VISUALSTYLE
  5
3E
102
{ACAD_REACTORS
330
2A
102
}
330
2A
100
AcDbVisualStyle
  2
Shades of Gray
 70
    23
177
     3
291
     0
 70
    58
 90
        2
176
     1
 90
        2
176
     1
 90
        3
176
     1
 90
        0
176
     1
 40
0.6
176
     1
 40
30.0
176
     1
 62
     7
420
 16777215
176
     1
 90
        2
176
     1
 90
        2
176
     1
 62
     7
176
     1
 62
     7
176
     1
 90
        1
176
     1
 90
        1
176
     1
 40
40.0
176
     1
 90
        8
176
     1
 62
     7
176
     1
 40
1.0
176
     1
 90
        1
176
     1
 90
        6
176
     1
 90
        2
176
     1
 62
     7
176
     1
 90
        3
176
     1
 90
        0
176
     1
 90
        0
176
     1
290
     0
176
     1
 90
        1
176
     1
 40
0.0
176
     1
 90
        0
176
     1
290
     0
176
     1
290
     1
176
     1
290
     1
176
     1
290
     0
176
     1
290
     0
176
     1
290
     0
176
     1
290
     0
176
     1
290
     0
176
     1
290
     0
176
     1
 90
       50
176
     1
 40
0.0
176
     1
 40
1.0
176
     1
 90
        0
176
     1
 62
    18
420
        0
176
     1
 90
       50
176
     1
 90
        3
176
     1
 62
     5
420
      255
176
     1
290
     0
176
     1
 90
       50
176
     1
 90
       50
176
     1
 90
       50
176
     1
290
     0
176
     1
 90
       50
176
     1
 62
   256
176
     0
 40
1.0
176
     0
 90
        2
176
     1
  1
strokes_ogs.tif
176
     1
290
     0
176
     1
 40
1.0
176
     1
 40
1.0
176
     1
  0
VISUALSTYLE
  5
3F
102
{ACAD_REACTORS
330
2A
102
}
330
2A
100
AcDbVisualStyle
  2
Sketchy
 70
    24
177
     3
291
     0
 70
    58
 90
        1
176
     1
 90
        2
176
     1
 90
        2
176
     1
 90
        0
176
     1
 40
0.6
176
     1
 40
30.0
176
     1
 62
     7
420
 16777215
176
     1
 90
        2
176
     1
 90
        2
176
     1
 62
     7
176
     1
 62
     7
176
     1
 90
        1
176
     1
 90
        1
176
     1
 40
40.0
176
     1
 90
       11
176
     1
 62
     7
176
     1
 40
1.0
176
     1
 90
        1
176
     1
 90
        6
176
     1
 90
        2
176
     1
 62
     7
176
     1
 90
        6
176
     1
 90
        0
176
     1
 90
        0
176
     1
290
     0
176
     1
 90
        1
176
     1
 40
0.0
176
     1
 90
        0
176
     1
290
     0
176
     1
290
     1
176
     1
290
     1
176
     1
290
     0
176
     1
290
     0
176
     1
290
     0
176
     1
290
     0
176
     1
290
     0
176
     1
290
     0
176
     1
 90
       50
176
     1
 40
0.0
176
     1
 40
1.0
176
     1
 90
        0
176
     1
 62
    18
420
        0
176
     1
 90
       50
176
     1
 90
        3
176
     1
 62
     5
420
      255
176
     1
290
     0
176
     1
 90
       50
176
     1
 90
       50
176
     1
 90
       50
176
     1
290
     0
176
     1
 90
       50
176
     1
 62
   256
176
     0
 40
1.0
176
     0
 90
        2
176
     1
  1
strokes_ogs.tif
176
     1
290
     0
176
     1
 40
1.0
176
     1
 40
1.0
176
     1
  0
VISUALSTYLE
  5
37
102
{ACAD_REACTORS
330
2A
102
}
330
2A
100
AcDbVisualStyle
  2
Thicken
 70
    13
177
     3
291
     1
 70
    58
 90
        2
176
     1
 90
        2
176
     1
 90
        0
176
     1
 90
        0
176
     1
 40
0.6
176
     1
 40
30.0
176
     1
 62
     7
420
 16777215
176
     1
 90
        1
176
     1
 90
        4
176
     1
 62
     7
176
     1
 62
   257
176
     1
 90
        1
176
     1
 90
        1
176
     1
 40
1.0
176
     1
 90
       12
176
     1
 62
     7
176
     1
 40
1.0
176
     1
 90
        1
176
     1
 90
        6
176
     1
 90
        2
176
     1
 62
     7
176
     1
 90
        5
176
     1
 90
        0
176
     1
 90
        0
176
     1
290
     0
176
     1
 90
        1
176
     1
 40
0.0
176
     1
 90
        0
176
     1
290
     0
176
     1
290
     1
176
     1
290
     1
176
     1
290
     0
176
     1
290
     0
176
     1
290
     0
176
     1
290
     0
176
     1
290
     0
176
     1
290
     0
176
     1
 90
       50
176
     1
 40
0.0
176
     1
 40
1.0
176
     1
 90
        0
176
     1
 62
    18
420
        0
176
     1
 90
       50
176
     1
 90
        3
176
     1
 62
     5
420
      255
176
     1
290
     0
176
     1
 90
       50
176
     1
 90
       50
176
     1
 90
       50
176
     1
290
     0
176
     1
 90
       50
176
     1
 62
   256
176
     0
 40
1.0
176
     0
 90
        2
176
     1
  1
strokes_ogs.tif
176
     1
290
     0
176
     1
 40
1.0
176
     1
 40
1.0
176
     1
  0
VISUALSTYLE
  5
30
102
{ACAD_REACTORS
330
2A
102
}
330
2A
100
AcDbVisualStyle
  2
Wireframe
 70
     5
177
     3
291
     0
 70
    58
 90
        0
176
     1
 90
        2
176
     1
 90
        0
176
     1
 90
        0
176
     1
 40
0.6
176
     1
 40
30.0
176
     1
 62
     7
420
 16777215
176
     1
 90
        1
176
     1
 90
        4
176
     1
 62
     7
176
     1
 62
   257
176
     1
 90
        1
176
     1
 90
        1
176
     1
 40
1.0
176
     1
 90
        0
176
     1
 62
   257
176
     1
 40
1.0
176
     1
 90
        1
176
     1
 90
        6
176
     1
 90
        2
176
     1
 62
     7
176
     1
 90
        3
176
     1
 90
        0
176
     1
 90
        0
176
     1
290
     0
176
     1
 90
        1
176
     1
 40
0.0
176
     1
 90
        0
176
     1
290
     0
176
     1
290
     1
176
     1
290
     1
176
     1
290
     0
176
     1
290
     0
176
     1
290
     0
176
     1
290
     0
176
     1
290
     0
176
     1
290
     0
176
     1
 90
       50
176
     1
 40
0.0
176
     1
 40
1.0
176
     1
 90
        0
176
     1
 62
    18
420
        0
176
     1
 90
       50
176
     1
 90
        3
176
     1
 62
     5
420
      255
176
     1
290
     0
176
     1
 90
       50
176
     1
 90
       50
176
     1
 90
       50
176
     1
290
     0
176
     1
 90
       50
176
     1
 62
   256
176
     0
 40
1.0
176
     0
 90
        2
176
     1
  1
strokes_ogs.tif
176
     1
290
     0
176
     1
 40
1.0
176
     1
 40
1.0
176
     1
  0
VISUALSTYLE
  5
40
102
{ACAD_REACTORS
330
2A
102
}
330
2A
100
AcDbVisualStyle
  2
X-Ray
 70
    25
177
     3
291
     0
 70
    58
 90
        2
176
     1
 90
        2
176
     1
 90
        1
176
     1
 90
        1
176
     1
 40
0.5
176
     1
 40
30.0
176
     1
 62
     7
420
 16777215
176
     1
 90
        1
176
     1
 90
        0
176
     1
 62
     7
176
     1
 62
   257
176
     1
 90
        1
176
     1
 90
        1
176
     1
 40
1.0
176
     1
 90
        8
176
     1
 62
     7
176
     1
 40
1.0
176
     1
 90
        1
176
     1
 90
        6
176
     1
 90
        2
176
     1
 62
     7
176
     1
 90
        3
176
     1
 90
        0
176
     1
 90
        0
176
     1
290
     0
176
     1
 90
       13
176
     1
 40
0.0
176
     1
 90
        0
176
     1
290
     0
176
     1
290
     1
176
     1
290
     1
176
     1
290
     0
176
     1
290
     0
176
     1
290
     0
176
     1
290
     0
176
     1
290
     0
176
     1
290
     0
176
     1
 90
       50
176
     1
 40
0.0
176
     1
 40
1.0
176
     1
 90
        0
176
     1
 62
    18
420
        0
176
     1
 90
       50
176
     1
 90
        3
176
     1
 62
     5
420
      255
176
     1
290
     0
176
     1
 90
       50
176
     1
 90
       50
176
     1
 90
       50
176
     1
290
     0
176
     1
 90
       50
176
     1
 62
   256
176
     0
 40
1.0
176
     0
 90
        2
176
     1
  1
strokes_ogs.tif
176
     1
290
     0
176
     1
 40
1.0
176
     1
 40
1.0
176
     1
  0
DICTIONARYVAR
  5
1E9
102
{ACAD_REACTORS
330
1E8
102
}
330
1E8
100
DictionaryVariables
280
     0
  1
1:1
  0
DICTIONARYVAR
  5
1EE
102
{ACAD_REACTORS
330
1E8
102
}
330
1E8
100
DictionaryVariables
280
     0
  1
Standard
  0
DICTIONARYVAR
  5
1ED
102
{ACAD_REACTORS
330
1E8
102
}
330
1E8
100
DictionaryVariables
280
     0
  1
Standard
  0
DICTIONARY
  5
1EA
330
6A
100
AcDbDictionary
280
     1
281
     1
  3
ACAD_ROUNDTRIP_2008_TABLESTYLE_CELLSTYLEMAP
360
1EB
  0
CELLSTYLEMAP
  5
1EB
102
{ACAD_REACTORS
330
1EA
102
}
330
1EA
100
AcDbCellStyleMap
 90
        3
300
CELLSTYLE
  1
TABLEFORMAT_BEGIN
 90
        5
170
     1
 91
        0
 92
    32768
 62
   257
 93
        1
300
CONTENTFORMAT
  1
CONTENTFORMAT_BEGIN
 90
        0
 91
        0
 92
        4
 93
        0
300

 40
0.0
140
1.0
 94
        5
 62
     0
340
11
144
0.25
309
CONTENTFORMAT_END
171
     1
301
MARGIN
  1
CELLMARGIN_BEGIN
 40
0.06
 40
0.06
 40
0.06
 40
0.06
 40
0.06
 40
0.06
309
CELLMARGIN_END
 94
        6
 95
        1
302
GRIDFORMAT
  1
GRIDFORMAT_BEGIN
 90
        0
 91
        1
 62
     0
 92
       -2
340
14
 93
        0
 40
0.045
309
GRIDFORMAT_END
 95
        2
302
GRIDFORMAT
  1
GRIDFORMAT_BEGIN
 90
        0
 91
        1
 62
     0
 92
       -2
340
14
 93
        0
 40
0.045
309
GRIDFORMAT_END
 95
        4
302
GRIDFORMAT
  1
GRIDFORMAT_BEGIN
 90
        0
 91
        1
 62
     0
 92
       -2
340
14
 93
        0
 40
0.045
309
GRIDFORMAT_END
 95
        8
302
GRIDFORMAT
  1
GRIDFORMAT_BEGIN
 90
        0
 91
        1
 62
     0
 92
       -2
340
14
 93
        0
 40
0.045
309
GRIDFORMAT_END
 95
       16
302
GRIDFORMAT
  1
GRIDFORMAT_BEGIN
 90
        0
 91
        1
 62
     0
 92
       -2
340
14
 93
        0
 40
0.045
309
GRIDFORMAT_END
 95
       32
302
GRIDFORMAT
  1
GRIDFORMAT_BEGIN
 90
        0
 91
        1
 62
     0
 92
       -2
340
14
 93
        0
 40
0.045
309
GRIDFORMAT_END
309
TABLEFORMAT_END
  1
CELLSTYLE_BEGIN
 90
        1
 91
        1
300
_TITLE
309
CELLSTYLE_END
300
CELLSTYLE
  1
TABLEFORMAT_BEGIN
 90
        5
170
     1
 91
        0
 92
        0
 62
   257
 93
        1
300
CONTENTFORMAT
  1
CONTENTFORMAT_BEGIN
 90
        0
 91
        0
 92
        4
 93
        0
300

 40
0.0
140
1.0
 94
        5
 62
     0
340
11
144
0.18
309
CONTENTFORMAT_END
171
     1
301
MARGIN
  1
CELLMARGIN_BEGIN
 40
0.06
 40
0.06
 40
0.06
 40
0.06
 40
0.06
 40
0.06
309
CELLMARGIN_END
 94
        6
 95
        1
302
GRIDFORMAT
  1
GRIDFORMAT_BEGIN
 90
        0
 91
        1
 62
     0
 92
       -2
340
14
 93
        0
 40
0.045
309
GRIDFORMAT_END
 95
        2
302
GRIDFORMAT
  1
GRIDFORMAT_BEGIN
 90
        0
 91
        1
 62
     0
 92
       -2
340
14
 93
        0
 40
0.045
309
GRIDFORMAT_END
 95
        4
302
GRIDFORMAT
  1
GRIDFORMAT_BEGIN
 90
        0
 91
        1
 62
     0
 92
       -2
340
14
 93
        0
 40
0.045
309
GRIDFORMAT_END
 95
        8
302
GRIDFORMAT
  1
GRIDFORMAT_BEGIN
 90
        0
 91
        1
 62
     0
 92
       -2
340
14
 93
        0
 40
0.045
309
GRIDFORMAT_END
 95
       16
302
GRIDFORMAT
  1
GRIDFORMAT_BEGIN
 90
        0
 91
        1
 62
     0
 92
       -2
340
14
 93
        0
 40
0.045
309
GRIDFORMAT_END
 95
       32
302
GRIDFORMAT
  1
GRIDFORMAT_BEGIN
 90
        0
 91
        1
 62
     0
 92
       -2
340
14
 93
        0
 40
0.045
309
GRIDFORMAT_END
309
TABLEFORMAT_END
  1
CELLSTYLE_BEGIN
 90
        2
 91
        1
300
_HEADER
309
CELLSTYLE_END
300
CELLSTYLE
  1
TABLEFORMAT_BEGIN
 90
        5
170
     1
 91
        0
 92
        0
 62
   257
 93
        1
300
CONTENTFORMAT
  1
CONTENTFORMAT_BEGIN
 90
        0
 91
        0
 92
        4
 93
        0
300

 40
0.0
140
1.0
 94
        2
 62
     0
340
11
144
0.18
309
CONTENTFORMAT_END
171
     1
301
MARGIN
  1
CELLMARGIN_BEGIN
 40
0.06
 40
0.06
 40
0.06
 40
0.06
 40
0.06
 40
0.06
309
CELLMARGIN_END
 94
        6
 95
        1
302
GRIDFORMAT
  1
GRIDFORMAT_BEGIN
 90
        0
 91
        1
 62
     0
 92
       -2
340
14
 93
        0
 40
0.045
309
GRIDFORMAT_END
 95
        2
302
GRIDFORMAT
  1
GRIDFORMAT_BEGIN
 90
        0
 91
        1
 62
     0
 92
       -2
340
14
 93
        0
 40
0.045
309
GRIDFORMAT_END
 95
        4
302
GRIDFORMAT
  1
GRIDFORMAT_BEGIN
 90
        0
 91
        1
 62
     0
 92
       -2
340
14
 93
        0
 40
0.045
309
GRIDFORMAT_END
 95
        8
302
GRIDFORMAT
  1
GRIDFORMAT_BEGIN
 90
        0
 91
        1
 62
     0
 92
       -2
340
14
 93
        0
 40
0.045
309
GRIDFORMAT_END
 95
       16
302
GRIDFORMAT
  1
GRIDFORMAT_BEGIN
 90
        0
 91
        1
 62
     0
 92
       -2
340
14
 93
        0
 40
0.045
309
GRIDFORMAT_END
 95
       32
302
GRIDFORMAT
  1
GRIDFORMAT_BEGIN
 90
        0
 91
        1
 62
     0
 92
       -2
340
14
 93
        0
 40
0.045
309
GRIDFORMAT_END
309
TABLEFORMAT_END
  1
CELLSTYLE_BEGIN
 90
        3
 91
        2
300
_DATA
309
CELLSTYLE_END
  0
ENDSEC
  0
EOF