0
SECTION
  2
HEADER
  9
$ACADVER
  1
AC1027
  9
$ACADMAINTVER
 70
   105
  9
$DWGCODEPAGE
  3
ANSI_1252
  9
$REQUIREDVERSIONS
160
                 0
  9
$COMMENTS
  1
File was created by Cadenas
  9
$CUSTOMPROPERTYTAG
  1
NN
  9
$CUSTOMPROPERTY
  1
Set Screw Wide Slot Take Up Inch Bore
  9
$CUSTOMPROPERTYTAG
  1
NT
  9
$CUSTOMPROPERTY
  1
SC Take-Up Bearings -Wide Slot -(Normal Duty)
  9
$CUSTOMPROPERTYTAG
  1
NB
  9
$CUSTOMPROPERTY
  1
125151
  9
$CUSTOMPROPERTYTAG
  1
NBSYN
  9
$CUSTOMPROPERTY
  1
$PN.
  9
$CUSTOMPROPERTYTAG
  1
LINA
  9
$CUSTOMPROPERTY
  1
125151
  9
$CUSTOMPROPERTYTAG
  1
SERIES
  9
$CUSTOMPROPERTY
  1
209
  9
$CUSTOMPROPERTYTAG
  1
SS
  9
$CUSTOMPROPERTY
  1
1-5/8
  9
$CUSTOMPROPERTYTAG
  1
PN
  9
$CUSTOMPROPERTY
  1
125151
  9
$CUSTOMPROPERTYTAG
  1
DESCRIPTION
  9
$CUSTOMPROPERTY
  1
WSTU-SC-110L
  9
$CUSTOMPROPERTYTAG
  1
W
  9
$CUSTOMPROPERTY
  1
6.1
  9
$CUSTOMPROPERTYTAG
  1
FS
  9
$CUSTOMPROPERTY
  1
WS400
  9
$CUSTOMPROPERTYTAG
  1
LF
  9
$CUSTOMPROPERTY
  1
RE-LUBE
  9
$CUSTOMPROPERTYTAG
  1
A
  9
$CUSTOMPROPERTY
  1
1.94
  9
$CUSTOMPROPERTYTAG
  1
B
  9
$CUSTOMPROPERTY
  1
5.63
  9
$CUSTOMPROPERTYTAG
  1
C
  9
$CUSTOMPROPERTY
  1
0.688
  9
$CUSTOMPROPERTYTAG
  1
D
  9
$CUSTOMPROPERTY
  1
3.25
  9
$CUSTOMPROPERTYTAG
  1
E
  9
$CUSTOMPROPERTY
  1
3.44
  9
$CUSTOMPROPERTYTAG
  1
F
  9
$CUSTOMPROPERTY
  1
1
  9
$CUSTOMPROPERTYTAG
  1
G
  9
$CUSTOMPROPERTY
  1
0.63
  9
$CUSTOMPROPERTYTAG
  1
H
  9
$CUSTOMPROPERTY
  1
0.75
  9
$CUSTOMPROPERTYTAG
  1
J
  9
$CUSTOMPROPERTY
  1
3.25
  9
$CUSTOMPROPERTYTAG
  1
K
  9
$CUSTOMPROPERTY
  1
1.94
  9
$CUSTOMPROPERTYTAG
  1
L
  9
$CUSTOMPROPERTY
  1
2.22
  9
$CUSTOMPROPERTYTAG
  1
M
  9
$CUSTOMPROPERTY
  1
3.985 / 4.015
  9
$CUSTOMPROPERTYTAG
  1
N
  9
$CUSTOMPROPERTY
  1
4.75
  9
$CUSTOMPROPERTYTAG
  1
R
  9
$CUSTOMPROPERTY
  1
0.75
  9
$CUSTOMPROPERTYTAG
  1
S
  9
$CUSTOMPROPERTY
  1
1.19
  9
$CUSTOMPROPERTYTAG
  1
T
  9
$CUSTOMPROPERTY
  1
1.94
  9
$CUSTOMPROPERTYTAG
  1
COMPANY
  9
$CUSTOMPROPERTY
  1
baldor
  9
$INSBASE
 10
0.0
 20
0.0
 30
0.0
  9
$EXTMIN
 10
1.000000000000000E+20
 20
1.000000000000000E+20
 30
1.000000000000000E+20
  9
$EXTMAX
 10
-1.000000000000000E+20
 20
-1.000000000000000E+20
 30
-1.000000000000000E+20
  9
$LIMMIN
 10
0.0
 20
0.0
  9
$LIMMAX
 10
12.0
 20
9.0
  9
$ORTHOMODE
 70
     0
  9
$REGENMODE
 70
     1
  9
$FILLMODE
 70
     1
  9
$QTEXTMODE
 70
     0
  9
$MIRRTEXT
 70
     1
  9
$LTSCALE
 40
1.0
  9
$ATTMODE
 70
     1
  9
$TEXTSIZE
 40
0.2
  9
$TRACEWID
 40
0.05
  9
$TEXTSTYLE
  7
Standard
  9
$CLAYER
  8
0
  9
$CELTYPE
  6
ByLayer
  9
$CECOLOR
 62
   256
  9
$CELTSCALE
 40
1.0
  9
$DISPSILH
 70
     0
  9
$DIMSCALE
 40
1.0
  9
$DIMASZ
 40
0.18
  9
$DIMEXO
 40
0.0625
  9
$DIMDLI
 40
0.38
  9
$DIMRND
 40
0.0
  9
$DIMDLE
 40
0.0
  9
$DIMEXE
 40
0.18
  9
$DIMTP
 40
0.0
  9
$DIMTM
 40
0.0
  9
$DIMTXT
 40
0.18
  9
$DIMCEN
 40
0.09
  9
$DIMTSZ
 40
0.0
  9
$DIMTOL
 70
     0
  9
$DIMLIM
 70
     0
  9
$DIMTIH
 70
     1
  9
$DIMTOH
 70
     1
  9
$DIMSE1
 70
     0
  9
$DIMSE2
 70
     0
  9
$DIMTAD
 70
     0
  9
$DIMZIN
 70
     0
  9
$DIMBLK
  1

  9
$DIMASO
 70
     1
  9
$DIMSHO
 70
     1
  9
$DIMPOST
  1

  9
$DIMAPOST
  1

  9
$DIMALT
 70
     0
  9
$DIMALTD
 70
     2
  9
$DIMALTF
 40
25.4
  9
$DIMLFAC
 40
1.0
  9
$DIMTOFL
 70
     0
  9
$DIMTVP
 40
0.0
  9
$DIMTIX
 70
     0
  9
$DIMSOXD
 70
     0
  9
$DIMSAH
 70
     0
  9
$DIMBLK1
  1

  9
$DIMBLK2
  1

  9
$DIMSTYLE
  2
Standard
  9
$DIMCLRD
 70
     0
  9
$DIMCLRE
 70
     0
  9
$DIMCLRT
 70
     0
  9
$DIMTFAC
 40
1.0
  9
$DIMGAP
 40
0.09
  9
$DIMJUST
 70
     0
  9
$DIMSD1
 70
     0
  9
$DIMSD2
 70
     0
  9
$DIMTOLJ
 70
     1
  9
$DIMTZIN
 70
     0
  9
$DIMALTZ
 70
     0
  9
$DIMALTTZ
 70
     0
  9
$DIMUPT
 70
     0
  9
$DIMDEC
 70
     4
  9
$DIMTDEC
 70
     4
  9
$DIMALTU
 70
     2
  9
$DIMALTTD
 70
     2
  9
$DIMTXSTY
  7
Standard
  9
$DIMAUNIT
 70
     0
  9
$DIMADEC
 70
     0
  9
$DIMALTRND
 40
0.0
  9
$DIMAZIN
 70
     0
  9
$DIMDSEP
 70
    46
  9
$DIMATFIT
 70
     3
  9
$DIMFRAC
 70
     0
  9
$DIMLDRBLK
  1

  9
$DIMLUNIT
 70
     2
  9
$DIMLWD
 70
    -2
  9
$DIMLWE
 70
    -2
  9
$DIMTMOVE
 70
     0
  9
$DIMFXL
 40
1.0
  9
$DIMFXLON
 70
     0
  9
$DIMJOGANG
 40
0.7853981633974483
  9
$DIMTFILL
 70
     0
  9
$DIMTFILLCLR
 70
     0
  9
$DIMARCSYM
 70
     0
  9
$DIMLTYPE
  6

  9
$DIMLTEX1
  6

  9
$DIMLTEX2
  6

  9
$DIMTXTDIRECTION
 70
     0
  9
$LUNITS
 70
     2
  9
$LUPREC
 70
     4
  9
$SKETCHINC
 40
0.1
  9
$FILLETRAD
 40
0.5
  9
$AUNITS
 70
     0
  9
$AUPREC
 70
     0
  9
$MENU
  1
.
  9
$ELEVATION
 40
0.0
  9
$PELEVATION
 40
0.0
  9
$THICKNESS
 40
0.0
  9
$LIMCHECK
 70
     0
  9
$CHAMFERA
 40
0.0
  9
$CHAMFERB
 40
0.0
  9
$CHAMFERC
 40
0.0
  9
$CHAMFERD
 40
0.0
  9
$SKPOLY
 70
     0
  9
$TDCREATE
 40
2458169.00994037
  9
$TDUCREATE
 40
2458168.968273703
  9
$TDUPDATE
 40
2458169.009940556
  9
$TDUUPDATE
 40
2458168.968273889
  9
$TDINDWG
 40
0.0000000116
  9
$TDUSRTIMER
 40
0.0000000116
  9
$USRTIMER
 70
     1
  9
$ANGBASE
 50
0.0
  9
$ANGDIR
 70
     0
  9
$PDMODE
 70
     0
  9
$PDSIZE
 40
0.0
  9
$PLINEWID
 40
0.0
  9
$SPLFRAME
 70
     0
  9
$SPLINETYPE
 70
     6
  9
$SPLINESEGS
 70
     8
  9
$HANDSEED
  5
1EC
  9
$SURFTAB1
 70
     6
  9
$SURFTAB2
 70
     6
  9
$SURFTYPE
 70
     6
  9
$SURFU
 70
     6
  9
$SURFV
 70
     6
  9
$UCSBASE
  2

  9
$UCSNAME
  2

  9
$UCSORG
 10
0.0
 20
0.0
 30
0.0
  9
$UCSXDIR
 10
1.0
 20
0.0
 30
0.0
  9
$UCSYDIR
 10
0.0
 20
1.0
 30
0.0
  9
$UCSORTHOREF
  2

  9
$UCSORTHOVIEW
 70
     0
  9
$UCSORGTOP
 10
0.0
 20
0.0
 30
0.0
  9
$UCSORGBOTTOM
 10
0.0
 20
0.0
 30
0.0
  9
$UCSORGLEFT
 10
0.0
 20
0.0
 30
0.0
  9
$UCSORGRIGHT
 10
0.0
 20
0.0
 30
0.0
  9
$UCSORGFRONT
 10
0.0
 20
0.0
 30
0.0
  9
$UCSORGBACK
 10
0.0
 20
0.0
 30
0.0
  9
$PUCSBASE
  2

  9
$PUCSNAME
  2

  9
$PUCSORG
 10
0.0
 20
0.0
 30
0.0
  9
$PUCSXDIR
 10
1.0
 20
0.0
 30
0.0
  9
$PUCSYDIR
 10
0.0
 20
1.0
 30
0.0
  9
$PUCSORTHOREF
  2

  9
$PUCSORTHOVIEW
 70
     0
  9
$PUCSORGTOP
 10
0.0
 20
0.0
 30
0.0
  9
$PUCSORGBOTTOM
 10
0.0
 20
0.0
 30
0.0
  9
$PUCSORGLEFT
 10
0.0
 20
0.0
 30
0.0
  9
$PUCSORGRIGHT
 10
0.0
 20
0.0
 30
0.0
  9
$PUCSORGFRONT
 10
0.0
 20
0.0
 30
0.0
  9
$PUCSORGBACK
 10
0.0
 20
0.0
 30
0.0
  9
$USERI1
 70
     0
  9
$USERI2
 70
     0
  9
$USERI3
 70
     0
  9
$USERI4
 70
     0
  9
$USERI5
 70
     0
  9
$USERR1
 40
0.0
  9
$USERR2
 40
0.0
  9
$USERR3
 40
0.0
  9
$USERR4
 40
0.0
  9
$USERR5
 40
0.0
  9
$WORLDVIEW
 70
     1
  9
$SHADEDGE
 70
     3
  9
$SHADEDIF
 70
    70
  9
$TILEMODE
 70
     1
  9
$MAXACTVP
 70
    64
  9
$PINSBASE
 10
0.0
 20
0.0
 30
0.0
  9
$PLIMCHECK
 70
     0
  9
$PEXTMIN
 10
1.000000000000000E+20
 20
1.000000000000000E+20
 30
1.000000000000000E+20
  9
$PEXTMAX
 10
-1.000000000000000E+20
 20
-1.000000000000000E+20
 30
-1.000000000000000E+20
  9
$PLIMMIN
 10
0.0
 20
0.0
  9
$PLIMMAX
 10
12.0
 20
9.0
  9
$UNITMODE
 70
     0
  9
$VISRETAIN
 70
     1
  9
$PLINEGEN
 70
     0
  9
$PSLTSCALE
 70
     1
  9
$TREEDEPTH
 70
  3020
  9
$CMLSTYLE
  2
Standard
  9
$CMLJUST
 70
     0
  9
$CMLSCALE
 40
1.0
  9
$PROXYGRAPHICS
 70
     1
  9
$MEASUREMENT
 70
     0
  9
$CELWEIGHT
370
    -1
  9
$ENDCAPS
280
     0
  9
$JOINSTYLE
280
     0
  9
$LWDISPLAY
290
     0
  9
$INSUNITS
 70
     1
  9
$HYPERLINKBASE
  1

  9
$STYLESHEET
  1

  9
$XEDIT
290
     1
  9
$CEPSNTYPE
380
     0
  9
$PSTYLEMODE
290
     1
  9
$FINGERPRINTGUID
  2
{AC4A2407-95CB-424E-8FF8-C41A0F1F51E3}
  9
$VERSIONGUID
  2
{FAEB1C32-E019-11D5-929B-00C0DF256EC4}
  9
$EXTNAMES
290
     1
  9
$PSVPSCALE
 40
0.0
  9
$OLESTARTUP
290
     0
  9
$SORTENTS
280
   127
  9
$INDEXCTL
280
     0
  9
$HIDETEXT
280
     1
  9
$XCLIPFRAME
280
     2
  9
$HALOGAP
280
     0
  9
$OBSCOLOR
 70
   257
  9
$OBSLTYPE
280
     0
  9
$INTERSECTIONDISPLAY
280
     0
  9
$INTERSECTIONCOLOR
 70
   257
  9
$DIMASSOC
280
     2
  9
$PROJECTNAME
  1

  9
$CAMERADISPLAY
290
     0
  9
$LENSLENGTH
 40
50.0
  9
$CAMERAHEIGHT
 40
0.0
  9
$STEPSPERSEC
 40
2.0
  9
$STEPSIZE
 40
6.0
  9
$3DDWFPREC
 40
2.0
  9
$PSOLWIDTH
 40
0.25
  9
$PSOLHEIGHT
 40
4.0
  9
$LOFTANG1
 40
1.570796326794897
  9
$LOFTANG2
 40
1.570796326794897
  9
$LOFTMAG1
 40
0.0
  9
$LOFTMAG2
 40
0.0
  9
$LOFTPARAM
 70
     7
  9
$LOFTNORMALS
280
     1
  9
$LATITUDE
 40
37.795
  9
$LONGITUDE
 40
-122.394
  9
$NORTHDIRECTION
 40
0.0
  9
$TIMEZONE
 70
 -8000
  9
$LIGHTGLYPHDISPLAY
280
     1
  9
$TILEMODELIGHTSYNCH
280
     1
  9
$CMATERIAL
347
44
  9
$SOLIDHIST
280
     0
  9
$SHOWHIST
280
     1
  9
$DWFFRAME
280
     2
  9
$DGNFRAME
280
     2
  9
$REALWORLDSCALE
290
     1
  9
$INTERFERECOLOR
 62
   256
  9
$CSHADOW
280
     0
  9
$SHADOWPLANELOCATION
 40
0.0
  0
ENDSEC
  0
SECTION
  2
CLASSES
  0
CLASS
  1
ACDBDICTIONARYWDFLT
  2
AcDbDictionaryWithDefault
  3
ObjectDBX Classes
 90
        0
 91
        4
280
     0
281
     0
  0
CLASS
  1
VISUALSTYLE
  2
AcDbVisualStyle
  3
ObjectDBX Classes
 90
     4095
 91
        4
280
     0
281
     0
  0
CLASS
  1
MATERIAL
  2
AcDbMaterial
  3
ObjectDBX Classes
 90
     1153
 91
        4
280
     0
281
     0
  0
CLASS
  1
SCALE
  2
AcDbScale
  3
ObjectDBX Classes
 90
     1153
 91
        4
280
     0
281
     0
  0
CLASS
  1
TABLESTYLE
  2
AcDbTableStyle
  3
ObjectDBX Classes
 90
     4095
 91
        4
280
     0
281
     0
  0
CLASS
  1
MLEADERSTYLE
  2
AcDbMLeaderStyle
  3
ACDB_MLEADERSTYLE_CLASS
 90
     4095
 91
        4
280
     0
281
     0
  0
CLASS
  1
SUN
  2
AcDbSun
  3
SCENEOE
 90
     1153
 91
        4
280
     0
281
     0
  0
CLASS
  1
DICTIONARYVAR
  2
AcDbDictionaryVar
  3
ObjectDBX Classes
 90
        0
 91
        4
280
     0
281
     0
  0
CLASS
  1
CELLSTYLEMAP
  2
AcDbCellStyleMap
  3
ObjectDBX Classes
 90
     1152
 91
        4
280
     0
281
     0
  0
ENDSEC
  0
SECTION
  2
TABLES
  0
TABLE
  2
VPORT
  5
8
330
0
100
AcDbSymbolTable
 70
     1
  0
VPORT
  5
29
330
8
100
AcDbSymbolTableRecord
100
AcDbViewportTableRecord
  2
*Active
 70
     0
 10
0.0
 20
0.0
 11
1.0
 21
1.0
 12
5.284787297189514
 22
-5.780000000000001
 13
0.0
 23
0.0
 14
0.5
 24
0.5
 15
0.5
 25
0.5
 16
0.0
 26
0.0
 36
1.0
 17
0.0
 27
0.0
 37
0.0
 40
14.79
 41
1.079940668367949
 42
50.0
 43
0.0
 44
0.0
 50
0.0
 51
0.0
 71
     0
 72
   100
 73
     1
 74
     3
 75
     0
 76
     0
 77
     0
 78
     0
281
     0
 65
     1
110
0.0
120
0.0
130
0.0
111
1.0
121
0.0
131
0.0
112
0.0
122
1.0
132
0.0
 79
     0
146
0.0
348
2F
 60
     3
 61
     5
292
     1
282
     1
141
0.0
142
0.0
 63
   250
361
6D
  0
ENDTAB
  0
TABLE
  2
LTYPE
  5
5
330
0
100
AcDbSymbolTable
 70
     3
  0
LTYPE
  5
14
330
5
100
AcDbSymbolTableRecord
100
AcDbLinetypeTableRecord
  2
ByBlock
 70
     0
  3

 72
    65
 73
     0
 40
0.0
  0
LTYPE
  5
15
330
5
100
AcDbSymbolTableRecord
100
AcDbLinetypeTableRecord
  2
ByLayer
 70
     0
  3

 72
    65
 73
     0
 40
0.0
  0
LTYPE
  5
16
330
5
100
AcDbSymbolTableRecord
100
AcDbLinetypeTableRecord
  2
Continuous
 70
     0
  3
Solid line
 72
    65
 73
     0
 40
0.0
  0
LTYPE
  5
A2
330
5
100
AcDbSymbolTableRecord
100
AcDbLinetypeTableRecord
  2
Dashed
 70
     0
  3

 72
    65
 73
     2
 40
2.0
 49
1.0
 74
     0
 49
-1.0
 74
     0
  0
LTYPE
  5
DD
330
5
100
AcDbSymbolTableRecord
100
AcDbLinetypeTableRecord
  2
Center
 70
     0
  3

 72
    65
 73
     4
 40
1.5
 49
0.45
 74
     0
 49
-0.5
 74
     0
 49
0.05
 74
     0
 49
-0.5
 74
     0
  0
ENDTAB
  0
TABLE
  2
LAYER
  5
2
330
0
100
AcDbSymbolTable
 70
     8
  0
LAYER
  5
10
330
2
100
AcDbSymbolTableRecord
100
AcDbLayerTableRecord
  2
0
 70
     0
 62
     7
  6
Continuous
370
    -3
390
F
347
46
348
0
  0
LAYER
  5
6E
330
2
100
AcDbSymbolTableRecord
100
AcDbLayerTableRecord
  2
AM_6
 70
     0
 62
    -2
  6
Continuous
370
    35
390
F
347
46
348
0
  0
LAYER
  5
A3
330
2
100
AcDbSymbolTableRecord
100
AcDbLayerTableRecord
  2
AM_9
 70
     0
 62
     6
  6
Dashed
370
    25
390
F
347
46
348
0
  0
LAYER
  5
D8
330
2
100
AcDbSymbolTableRecord
100
AcDbLayerTableRecord
  2
AM_5
 70
     0
 62
     3
  6
Continuous
370
    25
390
F
347
46
348
0
  0
LAYER
  5
DE
330
2
100
AcDbSymbolTableRecord
100
AcDbLayerTableRecord
  2
AM_7
 70
     0
 62
     7
  6
Center
370
    25
390
F
347
46
348
0
  0
LAYER
  5
E2
330
2
100
AcDbSymbolTableRecord
100
AcDbLayerTableRecord
  2
AM_0
 70
     0
 62
     7
  6
Continuous
370
    50
390
F
347
46
348
0
  0
LAYER
  5
152
330
2
100
AcDbSymbolTableRecord
100
AcDbLayerTableRecord
  2
AM_4
 70
     0
 62
     3
  6
Continuous
370
    25
390
F
347
46
348
0
  0
LAYER
  5
1DF
330
2
100
AcDbSymbolTableRecord
100
AcDbLayerTableRecord
  2
ConnectionPoints
 70
     0
 62
     7
  6
Continuous
370
    50
390
F
347
46
348
0
  0
ENDTAB
  0
TABLE
  2
STYLE
  5
3
330
0
100
AcDbSymbolTable
 70
     1
  0
STYLE
  5
11
330
3
100
AcDbSymbolTableRecord
100
AcDbTextStyleTableRecord
  2
Standard
 70
     0
 40
0.0
 41
1.0
 50
0.0
 71
     0
 42
0.2
  3
txt
  4

  0
ENDTAB
  0
TABLE
  2
VIEW
  5
6
330
0
100
AcDbSymbolTable
 70
     0
  0
ENDTAB
  0
TABLE
  2
UCS
  5
7
330
0
100
AcDbSymbolTable
 70
     0
  0
ENDTAB
  0
TABLE
  2
APPID
  5
9
330
0
100
AcDbSymbolTable
 70
     1
  0
APPID
  5
12
330
9
100
AcDbSymbolTableRecord
100
AcDbRegAppTableRecord
  2
ACAD
 70
     0
  0
ENDTAB
  0
TABLE
  2
DIMSTYLE
  5
A
330
0
100
AcDbSymbolTable
 70
     1
100
AcDbDimStyleTable
  0
DIMSTYLE
105
27
330
A
100
AcDbSymbolTableRecord
100
AcDbDimStyleTableRecord
  2
Standard
 70
     0
178
     0
340
11
  0
ENDTAB
  0
TABLE
  2
BLOCK_RECORD
  5
1
330
0
100
AcDbSymbolTable
 70
     4
  0
BLOCK_RECORD
  5
1F
330
1
100
AcDbSymbolTableRecord
100
AcDbBlockTableRecord
  2
*Model_Space
340
22
 70
     0
280
     1
281
     0
  0
BLOCK_RECORD
  5
1B
330
1
100
AcDbSymbolTableRecord
100
AcDbBlockTableRecord
  2
*Paper_Space
340
1E
 70
     0
280
     1
281
     0
  0
BLOCK_RECORD
  5
23
330
1
100
AcDbSymbolTableRecord
100
AcDbBlockTableRecord
  2
*Paper_Space0
340
26
 70
     0
280
     1
281
     0
  0
BLOCK_RECORD
  5
8C
330
1
100
AcDbSymbolTableRecord
100
AcDbBlockTableRecord
  2
1_045874_0_in_125151_4
340
0
102
{BLKREFS
331
8D
102
}
 70
     0
280
     1
281
     0
  0
BLOCK_RECORD
  5
F1
330
1
100
AcDbSymbolTableRecord
100
AcDbBlockTableRecord
  2
2_405016_Inch_0_in_125151_4
340
0
102
{BLKREFS
331
F2
102
}
 70
     0
280
     1
281
     0
  0
BLOCK_RECORD
  5
17E
330
1
100
AcDbSymbolTableRecord
100
AcDbBlockTableRecord
  2
3_125151H_0_in_125151_4
340
0
102
{BLKREFS
331
17F
102
}
 70
     0
280
     1
281
     0
  0
ENDTAB
  0
ENDSEC
  0
SECTION
  2
BLOCKS
  0
BLOCK
  5
20
330
1F
100
AcDbEntity
  8
0
100
AcDbBlockBegin
  2
*Model_Space
 70
     0
 10
0.0
 20
0.0
 30
0.0
  3
*Model_Space
  1

  0
ENDBLK
  5
21
330
1F
100
AcDbEntity
  8
0
100
AcDbBlockEnd
  0
BLOCK
  5
1C
330
1B
100
AcDbEntity
 67
     1
  8
0
100
AcDbBlockBegin
  2
*Paper_Space
 70
     0
 10
0.0
 20
0.0
 30
0.0
  3
*Paper_Space
  1

  0
ENDBLK
  5
1D
330
1B
100
AcDbEntity
 67
     1
  8
0
100
AcDbBlockEnd
  0
BLOCK
  5
24
330
23
100
AcDbEntity
  8
0
100
AcDbBlockBegin
  2
*Paper_Space0
 70
     0
 10
0.0
 20
0.0
 30
0.0
  3
*Paper_Space0
  1

  0
ENDBLK
  5
25
330
23
100
AcDbEntity
  8
0
100
AcDbBlockEnd
  0
BLOCK
  5
8E
330
8C
100
AcDbEntity
  8
0
100
AcDbBlockBegin
  2
1_045874_0_in_125151_4
 70
     2
 10
0.0
 20
0.0
 30
0.0
  3
1_045874_0_in_125151_4
  1

  0
ATTDEF
  5
90
330
8C
100
AcDbEntity
  8
AM_6
100
AcDbText
 10
6.672772310767187
 20
0.8469999999999999
 30
0.0
 40
0.5
  1
Set Screw Insert Inch Bore
100
AcDbAttributeDefinition
  3

  2
NN
 70
     8
280
     0
  0
ATTDEF
  5
91
330
8C
100
AcDbEntity
  8
AM_6
100
AcDbText
 10
6.672772310767187
 20
0.3469999999999999
 30
0.0
 40
0.5
  1
SC Normal Duty Bearing Inserts
100
AcDbAttributeDefinition
  3

  2
NT
 70
     8
280
     0
  0
ATTDEF
  5
92
330
8C
100
AcDbEntity
  8
AM_6
100
AcDbText
 10
6.672772310767187
 20
-0.1530000000000001
 30
0.0
 40
0.5
  1
045874
100
AcDbAttributeDefinition
  3

  2
NB
 70
     8
280
     0
  0
ATTDEF
  5
93
330
8C
100
AcDbEntity
  8
AM_6
100
AcDbText
 10
6.672772310767187
 20
-0.6530000000000001
 30
0.0
 40
0.5
  1
$PN.
100
AcDbAttributeDefinition
  3

  2
NBSYN
 70
     8
280
     0
  0
ATTDEF
  5
94
330
8C
100
AcDbEntity
  8
AM_6
100
AcDbText
 10
6.672772310767187
 20
-1.153
 30
0.0
 40
0.5
  1
045874
100
AcDbAttributeDefinition
  3

  2
LINA
 70
     8
280
     0
  0
ATTDEF
  5
95
330
8C
100
AcDbEntity
  8
AM_6
100
AcDbText
 10
6.672772310767187
 20
-1.653
 30
0.0
 40
0.5
  1
209
100
AcDbAttributeDefinition
  3

  2
SERIES
 70
     8
280
     0
  0
ATTDEF
  5
96
330
8C
100
AcDbEntity
  8
AM_6
100
AcDbText
 10
6.672772310767187
 20
-2.153
 30
0.0
 40
0.5
  1
1-5/8
100
AcDbAttributeDefinition
  3

  2
SS
 70
     8
280
     0
  0
ATTDEF
  5
97
330
8C
100
AcDbEntity
  8
AM_6
100
AcDbText
 10
6.672772310767187
 20
-2.653
 30
0.0
 40
0.5
  1
045874
100
AcDbAttributeDefinition
  3

  2
PN
 70
     8
280
     0
  0
ATTDEF
  5
98
330
8C
100
AcDbEntity
  8
AM_6
100
AcDbText
 10
6.672772310767187
 20
-3.153
 30
0.0
 40
0.5
  1
INS-SC-110L
100
AcDbAttributeDefinition
  3

  2
DESCRIPTION
 70
     8
280
     0
  0
ATTDEF
  5
99
330
8C
100
AcDbEntity
  8
AM_6
100
AcDbText
 10
6.672772310767187
 20
-3.653
 30
0.0
 40
0.5
  1
1.94
100
AcDbAttributeDefinition
  3

  2
A
 70
     8
280
     0
  0
ATTDEF
  5
9A
330
8C
100
AcDbEntity
  8
AM_6
100
AcDbText
 10
6.672772310767187
 20
-4.153
 30
0.0
 40
0.5
  1
0.87
100
AcDbAttributeDefinition
  3

  2
C
 70
     8
280
     0
  0
ATTDEF
  5
9B
330
8C
100
AcDbEntity
  8
AM_6
100
AcDbText
 10
6.672772310767187
 20
-4.653
 30
0.0
 40
0.5
  1
3.3465
100
AcDbAttributeDefinition
  3

  2
D
 70
     8
280
     0
  0
ATTDEF
  5
9C
330
8C
100
AcDbEntity
  8
AM_6
100
AcDbText
 10
6.672772310767187
 20
-5.153
 30
0.0
 40
0.5
  1
0.25
100
AcDbAttributeDefinition
  3

  2
J
 70
     8
280
     0
  0
ATTDEF
  5
9D
330
8C
100
AcDbEntity
  8
AM_6
100
AcDbText
 10
6.672772310767187
 20
-5.653
 30
0.0
 40
0.5
  1
2.22
100
AcDbAttributeDefinition
  3

  2
L
 70
     8
280
     0
  0
ATTDEF
  5
9E
330
8C
100
AcDbEntity
  8
AM_6
100
AcDbText
 10
6.672772310767187
 20
-6.153
 30
0.0
 40
0.5
  1
5/16 - 24
100
AcDbAttributeDefinition
  3

  2
N
 70
     8
280
     0
  0
ATTDEF
  5
9F
330
8C
100
AcDbEntity
  8
AM_6
100
AcDbText
 10
6.672772310767187
 20
-6.653
 30
0.0
 40
0.5
  1
0.75
100
AcDbAttributeDefinition
  3

  2
W
 70
     8
280
     0
  0
ATTDEF
  5
A0
330
8C
100
AcDbEntity
  8
AM_6
100
AcDbText
 10
6.672772310767187
 20
-7.153
 30
0.0
 40
0.5
  1
1.19
100
AcDbAttributeDefinition
  3

  2
Y
 70
     8
280
     0
  0
ATTDEF
  5
A1
330
8C
100
AcDbEntity
  8
AM_6
100
AcDbText
 10
6.672772310767187
 20
-7.653
 30
0.0
 40
0.5
  1
baldor
100
AcDbAttributeDefinition
  3

  2
COMPANY
 70
     8
280
     0
  0
ELLIPSE
  5
A4
330
8C
100
AcDbEntity
  8
AM_9
 48
0.0091961334060388
100
AcDbEllipse
 10
0.3401377262682466
 20
-0.8125
 30
0.0
 11
-2.318256390785939E-17
 21
-0.1262
 31
0.0
210
0.0
220
0.0
230
1.0
 40
0.9063077870366485
 41
4.22230453730139
 42
5.202473423467988
  0
LINE
  5
A5
330
8C
100
AcDbEntity
  8
AM_9
 48
0.0091961334060388
100
AcDbLine
 10
0.3433490279020543
 20
-0.9386999999999999
 30
0.0
 11
0.4612657086354076
 21
-0.9386999999999999
 31
0.0
  0
LINE
  5
A6
330
8C
100
AcDbEntity
  8
AM_9
 48
0.0091961334060388
100
AcDbLine
 10
0.4612657086354076
 20
-0.6863000000000001
 30
0.0
 11
0.3433490279020543
 21
-0.6863000000000001
 31
0.0
  0
LWPOLYLINE
  5
A7
330
8C
100
AcDbEntity
  8
AM_9
 48
0.0091961334060388
100
AcDbPolyline
 90
        7
 70
     0
 43
0.0
 10
0.3599547077490127
 20
-0.6876468215947416
 10
0.3734230081077949
 20
-0.6908202074761169
 10
0.3908434967458775
 20
-0.6980686570389123
 10
0.4067780091552889
 20
-0.708454789831842
 10
0.4209353793508224
 20
-0.7218606391437723
 10
0.432860916885576
 20
-0.7377969540601801
 10
0.441050921211776
 20
-0.7530976103528921
  0
LWPOLYLINE
  5
A8
330
8C
100
AcDbEntity
  8
AM_9
 48
0.0091961334060388
100
AcDbPolyline
 90
        3
 70
     0
 43
0.0
 10
0.3433703226956045
 20
-0.6863000002373164
 10
0.3548789929225525
 20
-0.6869575166918501
 10
0.3599547077490127
 20
-0.6876468215947416
  0
LWPOLYLINE
  5
A9
330
8C
100
AcDbEntity
  8
AM_9
 48
0.0091961334060388
100
AcDbPolyline
 90
        8
 70
     0
 43
0.0
 10
0.3433843526018763
 20
-0.9386999997626836
 10
0.3317880714917476
 20
-0.9380424833081498
 10
0.3127486132198302
 20
-0.9341797925238828
 10
0.2944358651088587
 20
-0.9269313429610873
 10
0.2773182405180287
 20
-0.9165452101681576
 10
0.2617973625549539
 20
-0.9031393608562273
 10
0.2484911362939134
 20
-0.8872030459398192
 10
0.2392245313247174
 20
-0.8719023896471071
  0
ELLIPSE
  5
AA
330
8C
100
AcDbEntity
  8
AM_9
 48
0.0091961334060388
100
AcDbEllipse
 10
0.3401377262682464
 20
-0.8125000000000001
 30
0.0
 11
-2.318256390785939E-17
 21
-0.1262
 31
0.0
210
0.0
220
0.0
230
1.0
 40
0.9063077870366538
 41
1.080711883711591
 42
2.060880769878203
  0
LINE
  5
AB
330
8C
100
AcDbEntity
  8
AM_9
 48
0.0091961334060388
100
AcDbLine
 10
0.8048344263858168
 20
-0.7530976103528924
 30
0.0
 11
0.8048344263858168
 21
-0.8719023896471076
 31
0.0
  0
LINE
  5
AC
330
8C
100
AcDbEntity
  8
AM_9
 48
0.0091961334060388
100
AcDbLine
 10
0.8125
 20
-0.9387
 30
0.0
 11
1.09144765002706
 21
-0.9387
 31
0.0
  0
LINE
  5
AD
330
8C
100
AcDbEntity
  8
AM_9
 48
0.0091961334060388
100
AcDbLine
 10
1.09144765002706
 20
-0.6863
 30
0.0
 11
0.8124999999999999
 21
-0.6863
 31
0.0
  0
LINE
  5
AE
330
8C
100
AcDbEntity
  8
AM_9
 48
0.0091961334060388
100
AcDbLine
 10
1.09144765002706
 20
-0.9387
 30
0.0
 11
1.110000000000001
 21
-0.9572523499729404
 31
0.0
  0
LINE
  5
AF
330
8C
100
AcDbEntity
  8
AM_9
 48
0.0091961334060388
100
AcDbLine
 10
1.110000000000001
 20
-0.6677476500270596
 30
0.0
 11
1.09144765002706
 21
-0.6863
 31
0.0
  0
LINE
  5
B0
330
8C
100
AcDbEntity
  8
AM_9
 48
0.0091961334060388
100
AcDbLine
 10
1.09144765002706
 20
-0.6863
 30
0.0
 11
1.09144765002706
 21
-0.9387
 31
0.0
  0
LWPOLYLINE
  5
B1
330
8C
100
AcDbEntity
  8
AM_9
 48
0.0091961334060388
100
AcDbPolyline
 90
        8
 70
     0
 43
0.0
 10
0.8048344263858168
 20
-0.7530976103528924
 10
0.803498055683774
 20
-0.7711048160519844
 10
0.8025842023938708
 20
-0.7904860958531456
 10
0.8022362379658874
 20
-0.8093434332144949
 10
0.8024098433424711
 20
-0.8282984194134602
 10
0.8030522518893646
 20
-0.8458549547017511
 10
0.8040767670149978
 20
-0.8625144431760258
 10
0.8048344263858168
 20
-0.8719023896471076
  0
LWPOLYLINE
  5
B2
330
8C
100
AcDbEntity
  8
AM_9
 48
0.0091961334060388
100
AcDbPolyline
 90
        8
 70
     0
 43
0.0
 10
0.8048344263858168
 20
-0.8719023896471076
 10
0.8063290418088366
 20
-0.889550072448744
 10
0.8080057941693863
 20
-0.9054707126535062
 10
0.8095869242206024
 20
-0.9183356172041124
 10
0.8109809819910133
 20
-0.9285187189685705
 10
0.8119555490705287
 20
-0.935145846511097
 10
0.8124570280687
 20
-0.938423041808179
 10
0.8124999999999906
 20
-0.9386999999999398
  0
LWPOLYLINE
  5
B3
330
8C
100
AcDbEntity
  8
AM_9
 48
0.0091961334060388
100
AcDbPolyline
 90
        7
 70
     0
 43
0.0
 10
0.4410509212117759
 20
-0.7530976103528921
 10
0.449735581613516
 20
-0.7736093229072161
 10
0.4542226334394633
 20
-0.7926497195742855
 10
0.4557760343304928
 20
-0.8123466296085649
 10
0.4544945981825048
 20
-0.8305504470320526
 10
0.4506982697990456
 20
-0.8482424167106146
 10
0.4410509212117759
 20
-0.8719023896471081
  0
LWPOLYLINE
  5
B4
330
8C
100
AcDbEntity
  8
AM_9
 48
0.0091961334060388
100
AcDbPolyline
 90
        8
 70
     0
 43
0.0
 10
0.4410509212117759
 20
-0.8719023896471081
 10
0.4311854513687126
 20
-0.889784296442741
 10
0.4188221567043384
 20
-0.9054707126535063
 10
0.4042150623064564
 20
-0.9184920186157236
 10
0.3877424465114462
 20
-0.9285187189685705
 10
0.3698252581241668
 20
-0.9352063051229731
 10
0.3509325454272205
 20
-0.938423041808179
 10
0.3433843526018763
 20
-0.9386999997626836
  0
LWPOLYLINE
  5
B5
330
8C
100
AcDbEntity
  8
AM_9
 48
0.0091961334060388
100
AcDbPolyline
 90
        9
 70
     0
 43
0.0
 10
0.2392245313247173
 20
-0.8719023896471072
 10
0.235040679761634
 20
-0.8644609423590223
 10
0.2273453986236844
 20
-0.8456229137945278
 10
0.2230736464072211
 20
-0.8256426125042158
 10
0.2224445850951386
 20
-0.8070020029339849
 10
0.2249069477002492
 20
-0.7885255216574403
 10
0.2301581351752337
 20
-0.7713368618582392
 10
0.2379514194399206
 20
-0.7552328800780225
 10
0.2392245313247173
 20
-0.7530976103528928
  0
LWPOLYLINE
  5
B6
330
8C
100
AcDbEntity
  8
AM_9
 48
0.0091961334060388
100
AcDbPolyline
 90
        3
 70
     0
 43
0.0
 10
0.3272130564552798
 20
-0.6875537834119752
 10
0.3357858084555962
 20
-0.686576958191821
 10
0.3433703226956045
 20
-0.6863000002373164
  0
LWPOLYLINE
  5
B7
330
8C
100
AcDbEntity
  8
AM_9
 48
0.0091961334060388
100
AcDbPolyline
 90
        7
 70
     0
 43
0.0
 10
0.2392245313247174
 20
-0.7530976103528928
 10
0.250373629733425
 20
-0.7352157035572597
 10
0.26413385171222
 20
-0.7195292873464942
 10
0.2800944480647456
 20
-0.7065079813842768
 10
0.2977282993161682
 20
-0.6964812810314297
 10
0.3164755909835427
 20
-0.6897936948770271
 10
0.3272130564552798
 20
-0.6875537834119752
  0
LINE
  5
B8
330
8C
100
AcDbEntity
  8
AM_9
 48
0.0091961334060388
100
AcDbLine
 10
0.8125
 20
-1.1456
 30
0.0
 11
0.8125
 21
-0.9387
 31
0.0
  0
LINE
  5
B9
330
8C
100
AcDbEntity
  8
AM_9
 48
0.0091961334060388
100
AcDbLine
 10
0.8125
 20
-0.6863
 30
0.0
 11
0.8125
 21
0.7056
 31
0.0
  0
LINE
  5
BA
330
8C
100
AcDbEntity
  8
AM_9
 48
0.0091961334060388
100
AcDbLine
 10
-0.8125
 20
0.7056
 30
0.0
 11
-0.8125
 21
-1.1456
 31
0.0
  0
LWPOLYLINE
  5
BB
330
8C
100
AcDbEntity
  8
AM_9
 48
0.0091961334060388
100
AcDbPolyline
 90
        8
 70
     0
 43
0.0
 10
0.8124999999999906
 20
-0.6863000000000602
 10
0.8124048018151785
 20
-0.6869143638294596
 10
0.8118101883498724
 20
-0.690820207476117
 10
0.810774498012773
 20
-0.6979335274704516
 10
0.809354814502846
 20
-0.7084547898318422
 10
0.8077651686765341
 20
-0.7216443027266327
 10
0.8061081534587569
 20
-0.7377969540601803
 10
0.8048344263858167
 20
-0.7530976103528924
  0
LINE
  5
BC
330
8C
100
AcDbEntity
  8
AM_9
 48
0.0091961334060388
100
AcDbLine
 10
0.8125
 20
0.7056
 30
0.0
 11
0.8569
 21
0.7499999999999999
 31
0.0
  0
LINE
  5
BD
330
8C
100
AcDbEntity
  8
AM_9
 48
0.0091961334060388
100
AcDbLine
 10
-0.8569
 20
0.7499999999999999
 30
0.0
 11
-0.8125
 21
0.7056
 31
0.0
  0
LINE
  5
BE
330
8C
100
AcDbEntity
  8
AM_9
 48
0.0091961334060388
100
AcDbLine
 10
-0.8125
 20
-1.1456
 30
0.0
 11
-0.8569
 21
-1.19
 31
0.0
  0
LINE
  5
BF
330
8C
100
AcDbEntity
  8
AM_9
 48
0.0091961334060388
100
AcDbLine
 10
0.8569
 20
-1.19
 30
0.0
 11
0.8125
 21
-1.1456
 31
0.0
  0
LINE
  5
C0
330
8C
100
AcDbEntity
  8
AM_9
 48
0.0091961334060388
100
AcDbLine
 10
1.110000000000001
 20
0.435
 30
0.0
 11
1.110000000000001
 21
0.6880000000000001
 31
0.0
  0
LINE
  5
C1
330
8C
100
AcDbEntity
  8
AM_9
 48
0.0091961334060388
100
AcDbLine
 10
-1.110000000000001
 20
0.6880000000000001
 30
0.0
 11
-1.110000000000001
 21
0.435
 31
0.0
  0
LINE
  5
C2
330
8C
100
AcDbEntity
  8
AM_9
 48
0.0091961334060388
100
AcDbLine
 10
1.107842731932471
 20
-0.6878048674598349
 30
0.0
 11
1.109999999999998
 21
-0.6677476500270839
 31
0.0
  0
LWPOLYLINE
  5
C3
330
8C
100
AcDbEntity
  8
AM_9
 48
0.0091961334060388
100
AcDbPolyline
 90
       38
 70
     0
 43
0.0
 10
0.4635717942684993
 20
-0.6678929613506789
 10
0.4440543354167433
 20
-0.6707413646864634
 10
0.4250757549277343
 20
-0.6770773969564022
 10
0.4071157309280703
 20
-0.686754436181806
 10
0.390694039090232
 20
-0.6993825165145616
 10
0.3756129897155063
 20
-0.715367180273844
 10
0.3630113309074057
 20
-0.7336803230992205
 10
0.3527132445307859
 20
-0.7550990295496152
 10
0.3457601934200586
 20
-0.7779818513854844
 10
0.3422882144023294
 20
-0.8028231615140315
 10
0.3427284709464847
 20
-0.8279278241043059
 10
0.3472435402013074
 20
-0.8530686902430242
 10
0.3556919899267867
 20
-0.8770508560964673
 10
0.3678068516414357
 20
-0.8989854265596527
 10
0.3832514320866455
 20
-0.9183662353993347
 10
0.4009212636750629
 20
-0.9339494863539517
 10
0.4207464509670218
 20
-0.9459404041318289
 10
0.4407977756478664
 20
-0.9534243864208134
 10
0.461564711098581
 20
-0.9569826777936403
 10
0.4812653430491079
 20
-0.956528488940747
 10
0.5004428228420815
 20
-0.9524360482978201
 10
0.5183431921443789
 20
-0.9449252577764456
 10
0.5347976768553205
 20
-0.9342841078518541
 10
0.5499153824064018
 20
-0.9203026746507067
 10
0.5628276535532797
 20
-0.9037709684549408
 10
0.5738330790510316
 20
-0.8839729396070055
 10
0.5819577315905666
 20
-0.8623921389297825
 10
0.5872349651418023
 20
-0.8383683876326675
 10
0.5891219648146364
 20
-0.8136543491285141
 10
0.5874606049557781
 20
-0.7882285077333322
 10
0.5822161728049875
 20
-0.7634862467963309
 10
0.573408645731017
 20
-0.7401234173818941
 10
0.5612341116996526
 20
-0.7188786827703704
 10
0.5463114180092089
 20
-0.7009334471287424
 10
0.5287246381070159
 20
-0.6863054630017079
 10
0.5099973198826944
 20
-0.6761083455380104
 10
0.4897761975756947
 20
-0.6698128931047919
 10
0.4635717900186981
 20
-0.6678929565918917
  0
LINE
  5
C4
330
8C
100
AcDbEntity
  8
AM_9
 48
0.0091961334060388
100
AcDbLine
 10
1.110000000000001
 20
-0.6677476500270596
 30
0.0
 11
1.110000000000001
 21
-0.435
 31
0.0
  0
LINE
  5
C5
330
8C
100
AcDbEntity
  8
AM_9
 48
0.0091961334060388
100
AcDbLine
 10
-1.110000000000001
 20
-0.435
 30
0.0
 11
-1.110000000000001
 21
-0.6879999999999996
 31
0.0
  0
LINE
  5
C6
330
8C
100
AcDbEntity
  8
AM_9
 48
0.0091961334060388
100
AcDbLine
 10
1.105737969812481
 20
-0.7110407084667201
 30
0.0
 11
1.104785038498864
 21
-0.723501887253349
 31
0.0
  0
LINE
  5
C7
330
8C
100
AcDbEntity
  8
AM_9
 48
0.0091961334060388
100
AcDbLine
 10
1.589916666666666
 20
-0.3000000000000002
 30
0.0
 11
1.589916666666666
 21
-0.2
 31
0.0
  0
LINE
  5
C8
330
8C
100
AcDbEntity
  8
AM_9
 48
0.0091961334060388
100
AcDbLine
 10
-1.589916666666666
 20
-0.2
 30
0.0
 11
-1.589916666666666
 21
-0.3000000000000002
 31
0.0
  0
LINE
  5
C9
330
8C
100
AcDbEntity
  8
AM_9
 48
0.0091961334060388
100
AcDbLine
 10
-1.576932326544167
 20
-0.4350000000000004
 30
0.0
 11
1.576932326544167
 21
-0.4350000000000004
 31
0.0
  0
ARC
  5
CA
330
8C
100
AcDbEntity
  8
AM_9
 48
0.0091961334060388
100
AcDbCircle
 10
1.57693232654329
 20
-0.3849999999988716
 30
0.0
 40
0.0500000000011287
100
AcDbArc
 50
270.0000000010056
 51
346.2798930876245
  0
ARC
  5
CB
330
8C
100
AcDbEntity
  8
AM_9
 48
0.0091961334060388
100
AcDbCircle
 10
-1.576932326544176
 20
-0.3850000000000003
 30
0.0
 40
0.0499999999999999
100
AcDbArc
 50
193.7201069113599
 51
270.0000000000102
  0
LINE
  5
CC
330
8C
100
AcDbEntity
  8
AM_9
 48
0.0091961334060388
100
AcDbLine
 10
-1.576932326544167
 20
0.435
 30
0.0
 11
1.576932326544167
 21
0.435
 31
0.0
  0
ARC
  5
CD
330
8C
100
AcDbEntity
  8
AM_9
 48
0.0091961334060388
100
AcDbCircle
 10
1.576932326544167
 20
0.3849999999999998
 30
0.0
 40
0.0500000000000001
100
AcDbArc
 50
13.72007682425425
 51
90.0
  0
ARC
  5
CE
330
8C
100
AcDbEntity
  8
AM_9
 48
0.0091961334060388
100
AcDbCircle
 10
-1.576932326543742
 20
0.3849999999994583
 30
0.0
 40
0.0500000000005417
100
AcDbArc
 50
90.00000000048728
 51
166.2799231752586
  0
LINE
  5
CF
330
8C
100
AcDbEntity
  8
AM_9
 48
0.0091961334060388
100
AcDbLine
 10
-1.625
 20
-0.3968589539480947
 30
0.0
 11
1.625
 21
-0.3968589539480947
 31
0.0
  0
ARC
  5
D0
330
8C
100
AcDbEntity
  8
AM_9
 48
0.0091961334060388
100
AcDbCircle
 10
-0.0000000000008009
 20
0.0000000000001719
 30
0.0
 40
1.673250000000819
100
AcDbArc
 50
346.2799262190908
 51
349.6714882663086
  0
ARC
  5
D1
330
8C
100
AcDbEntity
  8
AM_9
 48
0.0091961334060388
100
AcDbCircle
 10
-0.0000000010696362
 20
-0.0000000002277275
 30
0.0
 40
1.673249998907348
100
AcDbArc
 50
190.3285117325828
 51
193.7200737820177
  0
LINE
  5
D2
330
8C
100
AcDbEntity
  8
AM_9
 48
0.0091961334060388
100
AcDbLine
 10
-1.646136556456241
 20
-0.2999999999999999
 30
0.0
 11
1.646136556455752
 21
-0.2999999999999999
 31
0.0
  0
LINE
  5
D3
330
8C
100
AcDbEntity
  8
AM_9
 48
0.0091961334060388
100
AcDbLine
 10
-1.625
 20
0.3968589284413285
 30
0.0
 11
1.625
 21
0.3968589284413285
 31
0.0
  0
ARC
  5
D4
330
8C
100
AcDbEntity
  8
AM_9
 48
0.0091961334060388
100
AcDbCircle
 10
0.000000000000016
 20
0.0000000000000002
 30
0.0
 40
1.673249999999984
100
AcDbArc
 50
353.1351448839998
 51
13.72007288184832
  0
ARC
  5
D5
330
8C
100
AcDbEntity
  8
AM_9
 48
0.0091961334060388
100
AcDbCircle
 10
-0.00000000000163
 20
0.0000000000000971
 30
0.0
 40
1.673249999998389
100
AcDbArc
 50
166.2799271181417
 51
186.8648551160101
  0
LINE
  5
D6
330
8C
100
AcDbEntity
  8
AM_9
 48
0.0091961334060388
100
AcDbLine
 10
-1.661254213689159
 20
-0.1999999999999997
 30
0.0
 11
1.661254213689163
 21
-0.1999999999999997
 31
0.0
  0
CIRCLE
  5
D7
330
8C
100
AcDbEntity
  8
AM_9
 48
0.0091961334060388
100
AcDbCircle
 10
-0.0000000000000001
 20
0.2500000000000001
 30
0.0
 40
0.0250757575757546
  0
LINE
  5
D9
330
8C
100
AcDbEntity
  8
AM_5
 48
0.0091961334060388
100
AcDbLine
 10
0.8125
 20
-0.65625
 30
0.0
 11
1.110000000000001
 21
-0.65625
 31
0.0
  0
LINE
  5
DA
330
8C
100
AcDbEntity
  8
AM_5
 48
0.0091961334060388
100
AcDbLine
 10
0.8125
 20
-0.96875
 30
0.0
 11
1.110000000000001
 21
-0.96875
 31
0.0
  0
ELLIPSE
  5
DB
330
8C
100
AcDbEntity
  8
AM_9
 48
0.0091961334060388
100
AcDbEllipse
 10
0.4612657086354072
 20
-0.8125
 30
0.0
 11
-2.318256390785933E-17
 21
-0.1261999999999996
 31
0.0
210
0.0
220
0.0
230
1.0
 40
0.906307787036649
 41
0.0
 42
6.283185307179586
  0
CIRCLE
  5
DC
330
8C
100
AcDbEntity
  8
AM_9
 48
0.0091961334060388
100
AcDbCircle
 10
-0.0000000000000001
 20
0.2499999999999999
 30
0.0
 40
0.1041666666666622
  0
LINE
  5
DF
330
8C
100
AcDbEntity
  8
AM_7
 48
0.0091961334060388
100
AcDbLine
 10
0.0
 20
-1.287
 30
0.0
 11
0.0
 21
0.8469999999999999
 31
0.0
  0
LINE
  5
E0
330
8C
100
AcDbEntity
  8
AM_7
 48
0.0091961334060388
100
AcDbLine
 10
1.138833311209123
 20
-0.8125
 30
0.0
 11
0.7574487652037545
 21
-0.8125
 31
0.0
  0
LINE
  5
E1
330
8C
100
AcDbEntity
  8
AM_7
 48
0.0091961334060388
100
AcDbLine
 10
-0.1093749999999952
 20
0.2500000000000001
 30
0.0
 11
0.109374999999995
 21
0.2500000000000001
 31
0.0
  0
LINE
  5
E3
330
8C
100
AcDbEntity
  8
AM_0
 48
0.0091961334060388
100
AcDbLine
 10
-1.0656
 20
-1.19
 30
0.0
 11
1.0656
 21
-1.19
 31
0.0
  0
LINE
  5
E4
330
8C
100
AcDbEntity
  8
AM_0
 48
0.0091961334060388
100
AcDbLine
 10
1.0656
 20
-1.19
 30
0.0
 11
1.11
 21
-1.1456
 31
0.0
  0
LINE
  5
E5
330
8C
100
AcDbEntity
  8
AM_0
 48
0.0091961334060388
100
AcDbLine
 10
-1.11
 20
-1.1456
 30
0.0
 11
-1.0656
 21
-1.19
 31
0.0
  0
LINE
  5
E6
330
8C
100
AcDbEntity
  8
AM_0
 48
0.0091961334060388
100
AcDbLine
 10
-1.0656
 20
0.7499999999999999
 30
0.0
 11
1.0656
 21
0.7499999999999999
 31
0.0
  0
LINE
  5
E7
330
8C
100
AcDbEntity
  8
AM_0
 48
0.0091961334060388
100
AcDbLine
 10
-1.0656
 20
0.7499999999999999
 30
0.0
 11
-1.11
 21
0.7056
 31
0.0
  0
LINE
  5
E8
330
8C
100
AcDbEntity
  8
AM_0
 48
0.0091961334060388
100
AcDbLine
 10
1.11
 20
0.7056
 30
0.0
 11
1.0656
 21
0.7499999999999999
 31
0.0
  0
LINE
  5
E9
330
8C
100
AcDbEntity
  8
AM_0
 48
0.0091961334060388
100
AcDbLine
 10
-1.11
 20
0.7056
 30
0.0
 11
1.11
 21
0.7056
 31
0.0
  0
LINE
  5
EA
330
8C
100
AcDbEntity
  8
AM_0
 48
0.0091961334060388
100
AcDbLine
 10
1.110000000000001
 20
0.6880000000000001
 30
0.0
 11
1.110000000000001
 21
0.7056
 31
0.0
  0
LINE
  5
EB
330
8C
100
AcDbEntity
  8
AM_0
 48
0.0091961334060388
100
AcDbLine
 10
-1.110000000000001
 20
0.7056
 30
0.0
 11
-1.110000000000001
 21
0.6880000000000001
 31
0.0
  0
LINE
  5
EC
330
8C
100
AcDbEntity
  8
AM_0
 48
0.0091961334060388
100
AcDbLine
 10
-1.11
 20
-1.1456
 30
0.0
 11
1.11
 21
-1.1456
 31
0.0
  0
LINE
  5
ED
330
8C
100
AcDbEntity
  8
AM_0
 48
0.0091961334060388
100
AcDbLine
 10
1.105642463106715
 20
-0.7122205915237184
 30
0.0
 11
1.107842731932471
 21
-0.6878048674598349
 31
0.0
  0
LINE
  5
EE
330
8C
100
AcDbEntity
  8
AM_0
 48
0.0091961334060388
100
AcDbLine
 10
1.110000000000001
 20
-1.1456
 30
0.0
 11
1.110000000000001
 21
-0.9572523499729404
 31
0.0
  0
LINE
  5
EF
330
8C
100
AcDbEntity
  8
AM_0
 48
0.0091961334060388
100
AcDbLine
 10
-1.110000000000001
 20
-0.6879999999999996
 30
0.0
 11
-1.110000000000001
 21
-1.1456
 31
0.0
  0
LWPOLYLINE
  5
F0
330
8C
100
AcDbEntity
  8
AM_0
 48
0.0091961334060388
100
AcDbPolyline
 90
       16
 70
     0
 43
0.0
 10
1.109999999999985
 20
-0.9572523499728015
 10
1.109975730091029
 20
-0.9570418228407084
 10
1.109637382792352
 20
-0.9540751257046621
 10
1.108909546904612
 20
-0.9474782346552424
 10
1.107901034852521
 20
-0.9377784547695468
 10
1.106669522259663
 20
-0.9248279904752296
 10
1.105336647398093
 20
-0.9089055561971158
 10
1.104029009802766
 20
-0.8902194976004539
 10
1.102880789475395
 20
-0.8689704955554124
 10
1.102038945211342
 20
-0.8456917941774577
 10
1.101624315632848
 20
-0.8211445193789041
 10
1.101708449866659
 20
-0.7956756604748613
 10
1.102291653241408
 20
-0.770931410624245
 10
1.103341702931601
 20
-0.7466753778924269
 10
1.104417830304608
 20
-0.7287916791876534
 10
1.105642463106715
 20
-0.7122205915237184
  0
ENDBLK
  5
8F
330
8C
100
AcDbEntity
  8
0
100
AcDbBlockEnd
  0
BLOCK
  5
F3
330
F1
100
AcDbEntity
  8
0
100
AcDbBlockBegin
  2
2_405016_Inch_0_in_125151_4
 70
     2
 10
0.0
 20
0.0
 30
0.0
  3
2_405016_Inch_0_in_125151_4
  1

  0
ATTDEF
  5
F5
330
F1
100
AcDbEntity
  8
AM_6
100
AcDbText
 10
3.287076745350093
 20
0.2187500000000032
 30
0.0
 40
0.5
  1
405016 -Inch
100
AcDbAttributeDefinition
  3

  2
NN
 70
     8
280
     0
  0
ATTDEF
  5
F6
330
F1
100
AcDbEntity
  8
AM_6
100
AcDbText
 10
3.287076745350093
 20
-0.2812499999999968
 30
0.0
 40
0.5
  1
Grease Fitting
100
AcDbAttributeDefinition
  3

  2
NT
 70
     8
280
     0
  0
ATTDEF
  5
F7
330
F1
100
AcDbEntity
  8
AM_6
100
AcDbText
 10
3.287076745350093
 20
-0.7812499999999969
 30
0.0
 40
0.5
  1
405016-Inch
100
AcDbAttributeDefinition
  3

  2
NB
 70
     8
280
     0
  0
ATTDEF
  5
F8
330
F1
100
AcDbEntity
  8
AM_6
100
AcDbText
 10
3.287076745350093
 20
-1.281249999999997
 30
0.0
 40
0.5
  1
$MN.-Inch
100
AcDbAttributeDefinition
  3

  2
NBSYN
 70
     8
280
     0
  0
ATTDEF
  5
F9
330
F1
100
AcDbEntity
  8
AM_6
100
AcDbText
 10
3.287076745350093
 20
-1.781249999999997
 30
0.0
 40
0.5
  1
405016
100
AcDbAttributeDefinition
  3

  2
LINA
 70
     8
280
     0
  0
ATTDEF
  5
FA
330
F1
100
AcDbEntity
  8
AM_6
100
AcDbText
 10
3.287076745350093
 20
-2.281249999999997
 30
0.0
 40
0.5
  1
405016
100
AcDbAttributeDefinition
  3

  2
MN
 70
     8
280
     0
  0
ATTDEF
  5
FB
330
F1
100
AcDbEntity
  8
AM_6
100
AcDbText
 10
3.287076745350093
 20
-2.781249999999997
 30
0.0
 40
0.5
  1
7/16 HEX
100
AcDbAttributeDefinition
  3

  2
H
 70
     8
280
     0
  0
ATTDEF
  5
FC
330
F1
100
AcDbEntity
  8
AM_6
100
AcDbText
 10
3.287076745350093
 20
-3.281249999999997
 30
0.0
 40
0.5
  1
0.383
100
AcDbAttributeDefinition
  3

  2
NDR
 70
     8
280
     0
  0
ATTDEF
  5
FD
330
F1
100
AcDbEntity
  8
AM_6
100
AcDbText
 10
3.287076745350093
 20
-3.781249999999997
 30
0.0
 40
0.5
  1
0.337
100
AcDbAttributeDefinition
  3

  2
KDR
 70
     8
280
     0
  0
ATTDEF
  5
FE
330
F1
100
AcDbEntity
  8
AM_6
100
AcDbText
 10
3.287076745350093
 20
-4.281249999999996
 30
0.0
 40
0.5
  1
0.1575
100
AcDbAttributeDefinition
  3

  2
BZE
 70
     8
280
     0
  0
ATTDEF
  5
FF
330
F1
100
AcDbEntity
  8
AM_6
100
AcDbText
 10
3.287076745350093
 20
-4.781249999999996
 30
0.0
 40
0.5
  1
0.4375
100
AcDbAttributeDefinition
  3

  2
HEX
 70
     8
280
     0
  0
ATTDEF
  5
100
330
F1
100
AcDbEntity
  8
AM_6
100
AcDbText
 10
3.287076745350093
 20
-5.281249999999996
 30
0.0
 40
0.5
  1
0.281250
100
AcDbAttributeDefinition
  3

  2
HEX2
 70
     8
280
     0
  0
ATTDEF
  5
101
330
F1
100
AcDbEntity
  8
AM_6
100
AcDbText
 10
3.287076745350093
 20
-5.781249999999996
 30
0.0
 40
0.5
  1
baldor
100
AcDbAttributeDefinition
  3

  2
COMPANY
 70
     8
280
     0
  0
LINE
  5
102
330
F1
100
AcDbEntity
  8
AM_9
 48
0.0023132341670157
100
AcDbLine
 10
-2.410066072480448
 20
-0.151074129835757
 30
0.0
 11
-2.421387645704325
 21
-0.1791093260592887
 31
0.0
  0
LINE
  5
103
330
F1
100
AcDbEntity
  8
AM_9
 48
0.0023132341670157
100
AcDbLine
 10
-2.258891226441951
 20
-0.2099962668917053
 30
0.0
 11
-2.270578472661496
 21
-0.2389369657326276
 31
0.0
  0
LWPOLYLINE
  5
104
330
F1
100
AcDbEntity
  8
AM_9
 48
0.0023132341670157
100
AcDbPolyline
 90
        3
 70
     0
 43
0.0
 10
-2.042737421176545
 20
0.1093749999999999
 10
-2.024877771192621
 20
0.0546874999999999
 10
-2.003310806641621
 20
-0.0000000000000001
  0
LWPOLYLINE
  5
105
330
F1
100
AcDbEntity
  8
AM_9
 48
0.0023132341670157
100
AcDbPolyline
 90
        3
 70
     0
 43
0.0
 10
-2.003310806641621
 20
-0.0000000000000001
 10
-2.024788477559244
 20
-0.0544416102741497
 10
-2.042737421176545
 20
-0.109375
  0
LWPOLYLINE
  5
106
330
F1
100
AcDbEntity
  8
AM_9
 48
0.0023132341670157
100
AcDbPolyline
 90
        3
 70
     0
 43
0.0
 10
-2.200960378019861
 20
-0.2987675689889718
 10
-2.216847662582957
 20
-0.2912216284034024
 10
-2.232057664280971
 20
-0.2813919000363599
  0
LWPOLYLINE
  5
107
330
F1
100
AcDbEntity
  8
AM_9
 48
0.0023132341670157
100
AcDbPolyline
 90
        3
 70
     0
 43
0.0
 10
-1.93241380964041
 20
-0.0000000000000001
 10
-1.942368017069684
 20
0.0544416102741495
 10
-1.956134880798101
 20
0.1093749999999999
  0
LWPOLYLINE
  5
108
330
F1
100
AcDbEntity
  8
AM_9
 48
0.0023132341670157
100
AcDbPolyline
 90
        3
 70
     0
 43
0.0
 10
-1.956134880798101
 20
-0.1093750000000001
 10
-1.942420687935717
 20
-0.0546875000000001
 10
-1.93241380964041
 20
-0.0000000000000001
  0
LINE
  5
109
330
F1
100
AcDbEntity
  8
AM_9
 48
0.0023132341670157
100
AcDbLine
 10
-2.189934025181381
 20
-0.2672118976010217
 30
0.0
 11
-2.188904728708882
 21
-0.2689146070947223
 31
0.0
  0
LWPOLYLINE
  5
10A
330
F1
100
AcDbEntity
  8
AM_9
 48
0.0023132341670157
100
AcDbPolyline
 90
        3
 70
     0
 43
0.0
 10
-2.042737421176545
 20
-0.109375
 10
-2.056451614038929
 20
-0.1640625
 10
-2.066458492334236
 20
-0.2187500000000001
  0
LINE
  5
10B
330
F1
100
AcDbEntity
  8
AM_9
 48
0.0023132341670157
100
AcDbLine
 10
-2.003310806641621
 20
-0.0000000000000001
 30
0.0
 11
-1.93241380964041
 21
-0.0000000000000001
 31
0.0
  0
LWPOLYLINE
  5
10C
330
F1
100
AcDbEntity
  8
AM_9
 48
0.0023132341670157
100
AcDbPolyline
 90
        3
 70
     0
 43
0.0
 10
-2.066458492334236
 20
0.2187499999999999
 10
-2.056504284904962
 20
0.1643083897258503
 10
-2.042737421176545
 20
0.1093749999999999
  0
LINE
  5
10D
330
F1
100
AcDbEntity
  8
AM_9
 48
0.0023132341670157
100
AcDbLine
 10
-2.188904728708882
 20
-0.2689146070947222
 30
0.0
 11
-2.189961118118894
 21
-0.2683791326563879
 31
0.0
  0
LINE
  5
10E
330
F1
100
AcDbEntity
  8
AM_9
 48
0.0023132341670157
100
AcDbLine
 10
-2.188904728708882
 20
-0.2689146070947222
 30
0.0
 11
-2.19
 21
-0.2716267871917188
 31
0.0
  0
ELLIPSE
  5
10F
330
F1
100
AcDbEntity
  8
AM_9
 48
0.0023132341670157
100
AcDbEllipse
 10
-2.443242020868951
 20
-0.4687500000000001
 30
0.0
 11
-0.09595382955731768
 21
0.03874944547499719
 31
0.0
210
0.0
220
0.0
230
1.0
 40
0.2113091308703515
 41
3.040609649696542
 42
6.384168311072843
  0
ELLIPSE
  5
110
330
F1
100
AcDbEntity
  8
AM_9
 48
0.0023132341670157
100
AcDbEllipse
 10
-2.415248358671468
 20
-0.3994303217889758
 30
0.0
 11
-0.1290248947933268
 21
0.05210467522533587
 31
0.0
210
0.0
220
0.0
230
1.0
 40
0.2113091308703476
 41
3.036299423673044
 42
5.801105639492179
  0
ELLIPSE
  5
111
330
F1
100
AcDbEntity
  8
AM_9
 48
0.0023132341670157
100
AcDbEllipse
 10
-2.404573377194119
 20
-0.3729962569746715
 30
0.0
 11
-0.1235034625625988
 21
0.04987493162724317
 31
0.0
210
0.0
220
0.0
230
1.0
 40
0.2113091308703589
 41
3.399547237026642
 42
6.024936503892897
  0
LWPOLYLINE
  5
112
330
F1
100
AcDbEntity
  8
AM_9
 48
0.0023132341670157
100
AcDbPolyline
 90
        5
 70
     0
 43
0.0
 10
-2.421387645704325
 20
-0.1791093260592887
 10
-2.443250034202951
 20
-0.1842540823997054
 10
-2.464146121132944
 20
-0.1862220679364951
 10
-2.484063740687853
 20
-0.1844124966919381
 10
-2.502577527309116
 20
-0.1791093260592887
  0
LWPOLYLINE
  5
113
330
F1
100
AcDbEntity
  8
AM_9
 48
0.0023132341670157
100
AcDbPolyline
 90
        5
 70
     0
 43
0.0
 10
-2.270578472661496
 20
-0.2389369657326276
 10
-2.309419761348924
 20
-0.2295338871417796
 10
-2.347554808060843
 20
-0.216687117104632
 10
-2.385173602422027
 20
-0.1996402057054678
 10
-2.421387645704325
 20
-0.1791093260592887
  0
LWPOLYLINE
  5
114
330
F1
100
AcDbEntity
  8
AM_9
 48
0.0023132341670157
100
AcDbPolyline
 90
        3
 70
     0
 43
0.0
 10
-2.244079194462778
 20
-0.2711532636537956
 10
-2.257814372227351
 20
-0.2561815527589921
 10
-2.270578472661496
 20
-0.2389369657326276
  0
ELLIPSE
  5
115
330
F1
100
AcDbEntity
  8
AM_9
 48
0.0023132341670157
100
AcDbEllipse
 10
-2.353572473930135
 20
-0.2467045921760225
 30
0.0
 11
-0.1303939210191767
 21
0.05265753494273577
 31
0.0
210
0.0
220
0.0
230
1.0
 40
0.2113091308703486
 41
3.806340372002881
 42
6.919181903097265
  0
LINE
  5
116
330
F1
100
AcDbEntity
  8
AM_9
 48
0.0023132341670157
100
AcDbLine
 10
-1.98782197732634
 20
0.2000413016192557
 30
0.0
 11
-1.995561495333025
 21
0.2187499999999999
 31
0.0
  0
LWPOLYLINE
  5
117
330
F1
100
AcDbEntity
  8
AM_9
 48
0.0023132341670157
100
AcDbPolyline
 90
        3
 70
     0
 43
0.0
 10
-1.967994291748659
 20
0.1470192060267737
 10
-1.973994530782024
 20
0.1640624999999999
 10
-1.98782197732634
 20
0.2000413016192557
  0
LINE
  5
118
330
F1
100
AcDbEntity
  8
AM_9
 48
0.0023132341670157
100
AcDbLine
 10
-1.956134880798101
 20
0.1093749999999999
 30
0.0
 11
-1.967994291748659
 21
0.1470192060267737
 31
0.0
  0
LINE
  5
119
330
F1
100
AcDbEntity
  8
AM_9
 48
0.0023132341670157
100
AcDbLine
 10
-1.967756462152739
 20
-0.146320594309032
 30
0.0
 11
-1.956134880798101
 21
-0.1093750000000001
 31
0.0
  0
LWPOLYLINE
  5
11A
330
F1
100
AcDbEntity
  8
AM_9
 48
0.0023132341670157
100
AcDbPolyline
 90
        3
 70
     0
 43
0.0
 10
-1.987821855244375
 20
-0.2000409996967265
 10
-1.974083824415402
 20
-0.1643083897258505
 10
-1.967756462152739
 20
-0.146320594309032
  0
LINE
  5
11B
330
F1
100
AcDbEntity
  8
AM_9
 48
0.0023132341670157
100
AcDbLine
 10
-1.995561495333025
 20
-0.2187500000000001
 30
0.0
 11
-1.987821855244375
 21
-0.2000409996967265
 31
0.0
  0
LINE
  5
11C
330
F1
100
AcDbEntity
  8
AM_9
 48
0.0023132341670157
100
AcDbLine
 10
-2.421200873332337
 20
-0.1204089378707286
 30
0.0
 11
-2.42228631832205
 21
-0.1230967854582221
 31
0.0
  0
LINE
  5
11D
330
F1
100
AcDbEntity
  8
AM_9
 48
0.0023132341670157
100
AcDbLine
 10
-2.216080644906463
 20
-0.2
 30
0.0
 11
-2.213412165561759
 21
-0.193392142543456
 31
0.0
  0
ELLIPSE
  5
11E
330
F1
100
AcDbEntity
  8
AM_9
 48
0.0023132341670157
100
AcDbEllipse
 10
-2.335272566391602
 20
-0.2013892028241895
 30
0.0
 11
-0.1019970226638898
 21
0.04118989399965104
 31
0.0
210
0.0
220
0.0
230
1.0
 40
0.2113091308703505
 41
3.14159265358984
 42
6.283185307179589
  0
LWPOLYLINE
  5
11F
330
F1
100
AcDbEntity
  8
AM_9
 48
0.0023132341670157
100
AcDbPolyline
 90
        4
 70
     0
 43
0.0
 10
-2.421205602987357
 20
-0.1204206514110938
 10
-2.421344768971887
 20
-0.1208367673933812
 10
-2.42076718501476
 20
-0.1245107513506023
 10
-2.418858993155306
 20
-0.1273638845459953
  0
LWPOLYLINE
  5
120
330
F1
100
AcDbEntity
  8
AM_9
 48
0.0023132341670157
100
AcDbPolyline
 90
        5
 70
     0
 43
0.0
 10
-2.213411221360271
 20
-0.1933898041312626
 10
-2.213504557491423
 20
-0.1936098952159724
 10
-2.216720094444061
 20
-0.1971856748420371
 10
-2.222738457686843
 20
-0.1994144431868155
 10
-2.229602428267286
 20
-0.1999999999699529
  0
LWPOLYLINE
  5
121
330
F1
100
AcDbEntity
  8
AM_9
 48
0.0023132341670157
100
AcDbPolyline
 90
        3
 70
     0
 43
0.0
 10
-2.322899559479724
 20
-0.1745741884610188
 10
-2.295510484106293
 20
-0.1876759562813858
 10
-2.258891226441951
 20
-0.2099962668917053
  0
LWPOLYLINE
  5
122
330
F1
100
AcDbEntity
  8
AM_9
 48
0.0023132341670157
100
AcDbPolyline
 90
        3
 70
     0
 43
0.0
 10
-2.410066072480448
 20
-0.151074129835757
 10
-2.380861464980924
 20
-0.1564222384464442
 10
-2.35219096603863
 20
-0.1639312493177431
  0
LWPOLYLINE
  5
123
330
F1
100
AcDbEntity
  8
AM_9
 48
0.0023132341670157
100
AcDbPolyline
 90
        3
 70
     0
 43
0.0
 10
-2.258891226441951
 20
-0.2099962668917053
 10
-2.241917544108428
 20
-0.2163479371246913
 10
-2.225779286924245
 20
-0.2258378743019629
  0
LWPOLYLINE
  5
124
330
F1
100
AcDbEntity
  8
AM_9
 48
0.0023132341670157
100
AcDbPolyline
 90
        4
 70
     0
 43
0.0
 10
-2.446976952824943
 20
-0.141958509815605
 10
-2.443101833378894
 20
-0.1420496512545706
 10
-2.428612918264143
 20
-0.1441228263802214
 10
-2.410066072480448
 20
-0.151074129835757
  0
ELLIPSE
  5
125
330
F1
100
AcDbEntity
  8
AM_9
 48
0.0023132341670157
100
AcDbEllipse
 10
-2.335272566391605
 20
-0.2013892028241878
 30
0.0
 11
-0.1303939210191758
 21
0.05265753494273453
 31
0.0
210
0.0
220
0.0
230
1.0
 40
0.2113091308703473
 41
3.814164134970081
 42
4.681939745819367
  0
ELLIPSE
  5
126
330
F1
100
AcDbEntity
  8
AM_9
 48
0.0023132341670157
100
AcDbEllipse
 10
-2.335272566391604
 20
-0.2013892028241888
 30
0.0
 11
-0.1303939210191753
 21
0.05265753494273452
 31
0.0
210
0.0
220
0.0
230
1.0
 40
0.2113091308703514
 41
-1.283550689693572
 42
-0.6725714813802801
  0
LINE
  5
127
330
F1
100
AcDbEntity
  8
AM_9
 48
0.0023132341670157
100
AcDbLine
 10
-2.232057664280971
 20
-0.2813919000363599
 30
0.0
 11
-2.244079194462778
 21
-0.2711532636537956
 31
0.0
  0
ELLIPSE
  5
128
330
F1
100
AcDbEntity
  8
AM_9
 48
0.0023132341670157
100
AcDbEllipse
 10
-2.353572473930139
 20
-0.2467045921760201
 30
0.0
 11
-0.1303939210191758
 21
0.05265753494273453
 31
0.0
210
0.0
220
0.0
230
1.0
 40
0.2113091308703498
 41
2.800469246484378
 42
3.607080702195132
  0
ELLIPSE
  5
129
330
F1
100
AcDbEntity
  8
AM_9
 48
0.0023132341670157
100
AcDbEllipse
 10
-2.353572473938967
 20
-0.2467045921666758
 30
0.0
 11
-0.1303939210314273
 21
0.05265753495094642
 31
0.0
210
0.0
220
0.0
230
1.0
 40
0.211309130885208
 41
-3.777589249502071
 42
-3.764628581855113
  0
LWPOLYLINE
  5
12A
330
F1
100
AcDbEntity
  8
AM_9
 48
0.0023132341670157
100
AcDbPolyline
 90
       17
 70
     0
 43
0.0
 10
-2.220087330712347
 20
-0.1790373738501778
 10
-2.22805479578854
 20
-0.1733931390117467
 10
-2.238810869222722
 20
-0.1670729780242511
 10
-2.251453920745165
 20
-0.1606047421316795
 10
-2.266344343891006
 20
-0.1538031670974777
 10
-2.282246220697887
 20
-0.1472336073736393
 10
-2.299607190519605
 20
-0.1407130262602576
 10
-2.31696266764985
 20
-0.1347930597680667
 10
-2.334820379234139
 20
-0.1293028157827817
 10
-2.351650140734213
 20
-0.1247141396218192
 10
-2.367966884634918
 20
-0.1208880884981781
 10
-2.382365935494752
 20
-0.1181545989145989
 10
-2.395298288360499
 20
-0.1164278875396128
 10
-2.405658016520199
 20
-0.1158549073091554
 10
-2.413768191336896
 20
-0.1164156227038168
 10
-2.418944832527738
 20
-0.1180609686233502
 10
-2.421205602987357
 20
-0.1204206514110938
  0
LWPOLYLINE
  5
12B
330
F1
100
AcDbEntity
  8
AM_9
 48
0.0023132341670157
100
AcDbPolyline
 90
        4
 70
     0
 43
0.0
 10
-2.220087330712347
 20
-0.1790373738501783
 10
-2.215132670240279
 20
-0.1842628795203941
 10
-2.213024785773536
 20
-0.1891729979031393
 10
-2.213411221360271
 20
-0.1933898041312626
  0
LINE
  5
12C
330
F1
100
AcDbEntity
  8
AM_9
 48
0.0023132341670157
100
AcDbLine
 10
-2.137458949715468
 20
0.1999999999999999
 30
0.0
 11
-2.200148251565524
 21
0.1999999999999999
 31
0.0
  0
LINE
  5
12D
330
F1
100
AcDbEntity
  8
AM_9
 48
0.0023132341670157
100
AcDbLine
 10
-2.200150895652901
 20
-0.2
 30
0.0
 11
-2.137458949715468
 21
-0.2
 31
0.0
  0
LINE
  5
12E
330
F1
100
AcDbEntity
  8
AM_9
 48
0.0023132341670157
100
AcDbLine
 10
-1.983198174666365
 20
0.1999999999999999
 30
0.0
 11
-2.050856409337024
 21
0.1999999999999999
 31
0.0
  0
LINE
  5
12F
330
F1
100
AcDbEntity
  8
AM_9
 48
0.0023132341670157
100
AcDbLine
 10
-2.050856409337024
 20
-0.2
 30
0.0
 11
-1.983198174666365
 21
-0.2
 31
0.0
  0
ELLIPSE
  5
130
330
F1
100
AcDbEntity
  8
AM_9
 48
0.0023132341670157
100
AcDbEllipse
 10
-1.983198174666365
 20
0.0000000000000002
 30
0.0
 11
-6.094784257986152E-16
 21
0.2000000000000003
 31
0.0
210
0.0
220
0.0
230
1.0
 40
0.4999999999999985
 41
1.800354409496581
 42
7.619873057464911
  0
LINE
  5
131
330
F1
100
AcDbEntity
  8
AM_9
 48
0.0023132341670157
100
AcDbLine
 10
-2.19
 20
0.2187499999999999
 30
0.0
 11
-1.995561495333025
 21
0.2187499999999999
 31
0.0
  0
LWPOLYLINE
  5
132
330
F1
100
AcDbEntity
  8
AM_9
 48
0.0023132341670157
100
AcDbPolyline
 90
        3
 70
     0
 43
0.0
 10
-2.123763195395969
 20
0.206858638549771
 10
-2.13181107414753
 20
0.1643083897258503
 10
-2.145577937875947
 20
0.1093749999999999
  0
LINE
  5
133
330
F1
100
AcDbEntity
  8
AM_9
 48
0.0023132341670157
100
AcDbLine
 10
-2.121856866718256
 20
0.2187499999999999
 30
0.0
 11
-2.123763195395969
 21
0.206858638549771
 31
0.0
  0
LINE
  5
134
330
F1
100
AcDbEntity
  8
AM_9
 48
0.0023132341670157
100
AcDbLine
 10
-2.170399342584735
 20
0.0360898769786673
 30
0.0
 11
-2.185004552410871
 21
-0.0000000000000001
 31
0.0
  0
LWPOLYLINE
  5
135
330
F1
100
AcDbEntity
  8
AM_9
 48
0.0023132341670157
100
AcDbPolyline
 90
        3
 70
     0
 43
0.0
 10
-2.151779423118355
 20
0.0889149775993688
 10
-2.16343758785987
 20
0.0546874999999999
 10
-2.170399342584735
 20
0.0360898769786673
  0
LINE
  5
136
330
F1
100
AcDbEntity
  8
AM_9
 48
0.0023132341670157
100
AcDbLine
 10
-2.145577937875947
 20
0.1093749999999999
 30
0.0
 11
-2.151779423118355
 21
0.0889149775993688
 31
0.0
  0
LINE
  5
137
330
F1
100
AcDbEntity
  8
AM_9
 48
0.0023132341670157
100
AcDbLine
 10
-2.19
 20
-0.0000000000000001
 30
0.0
 11
-2.185004552410871
 21
-0.0000000000000001
 31
0.0
  0
LINE
  5
138
330
F1
100
AcDbEntity
  8
AM_9
 48
0.0023132341670157
100
AcDbLine
 10
-2.19
 20
-0.2187500000000001
 30
0.0
 11
-1.995561495333025
 21
-0.2187500000000001
 31
0.0
  0
LINE
  5
139
330
F1
100
AcDbEntity
  8
AM_9
 48
0.0023132341670157
100
AcDbLine
 10
-2.123944370626429
 20
-0.2057712534568585
 30
0.0
 11
-2.121856866718256
 21
-0.2187500000000001
 31
0.0
  0
LWPOLYLINE
  5
13A
330
F1
100
AcDbEntity
  8
AM_9
 48
0.0023132341670157
100
AcDbPolyline
 90
        3
 70
     0
 43
0.0
 10
-2.145577937875947
 20
-0.109375
 10
-2.131863745013563
 20
-0.1640625
 10
-2.123944370626429
 20
-0.2057712534568585
  0
LWPOLYLINE
  5
13B
330
F1
100
AcDbEntity
  8
AM_9
 48
0.0023132341670157
100
AcDbPolyline
 90
        3
 70
     0
 43
0.0
 10
-2.170365888969774
 20
-0.0361767021228141
 10
-2.163526881493248
 20
-0.0544416102741496
 10
-2.145577937875947
 20
-0.109375
  0
LINE
  5
13C
330
F1
100
AcDbEntity
  8
AM_9
 48
0.0023132341670157
100
AcDbLine
 10
-2.185004552410871
 20
-0.0000000000000001
 30
0.0
 11
-2.170365888969774
 21
-0.0361767021228141
 31
0.0
  0
LINE
  5
13D
330
F1
100
AcDbEntity
  8
AM_9
 48
0.0023132341670157
100
AcDbLine
 10
-1.812653557043962
 20
0.1853871066562612
 30
0.0
 11
-1.98147044672803
 21
0.1914800577488989
 31
0.0
  0
LINE
  5
13E
330
F1
100
AcDbEntity
  8
AM_9
 48
0.0023132341670157
100
AcDbLine
 10
-1.98147044672803
 20
-0.191480057748899
 30
0.0
 11
-1.812653557043962
 21
-0.1853871066562613
 31
0.0
  0
LINE
  5
13F
330
F1
100
AcDbEntity
  8
AM_9
 48
0.0023132341670157
100
AcDbLine
 10
-1.747086819761812
 20
0.1319978794387896
 30
0.0
 11
-1.76080094682088
 21
0.1513925839218323
 31
0.0
  0
LINE
  5
140
330
F1
100
AcDbEntity
  8
AM_9
 48
0.0023132341670157
100
AcDbLine
 10
-1.76080094682088
 20
-0.1513925839218325
 30
0.0
 11
-1.747086819761812
 21
-0.1319978794387897
 31
0.0
  0
ELLIPSE
  5
141
330
F1
100
AcDbEntity
  8
AM_9
 48
0.0023132341670157
100
AcDbEllipse
 10
-2.137458949715469
 20
-0.0000000000000003
 30
0.0
 11
-9.094783148539858E-16
 21
0.2187499999999997
 31
0.0
210
0.0
220
0.0
230
1.0
 40
0.4999999999999988
 41
0.0
 42
6.283185307179586
  0
ELLIPSE
  5
142
330
F1
100
AcDbEntity
  8
AM_9
 48
0.0023132341670157
100
AcDbEllipse
 10
-2.137458949715468
 20
0.0000000000000002
 30
0.0
 11
4.563356778415369E-16
 21
0.2000000000000003
 31
0.0
210
0.0
220
0.0
230
1.0
 40
0.4999999999999997
 41
0.0
 42
6.283185307179586
  0
ELLIPSE
  5
143
330
F1
100
AcDbEntity
  8
AM_9
 48
0.0023132341670157
100
AcDbEllipse
 10
-2.050856409337029
 20
0.0000000000000015
 30
0.0
 11
-5.329553731642933E-15
 21
0.2187500000000017
 31
0.0
210
0.0
220
0.0
230
1.0
 40
0.5000000000000134
 41
0.0
 42
6.283185307179586
  0
ELLIPSE
  5
144
330
F1
100
AcDbEntity
  8
AM_9
 48
0.0023132341670157
100
AcDbEllipse
 10
-2.050856409337024
 20
0.0000000000000003
 30
0.0
 11
-4.318427418585896E-16
 21
0.2000000000000002
 31
0.0
210
0.0
220
0.0
230
1.0
 40
0.500000000000001
 41
0.0
 42
6.283185307179586
  0
ELLIPSE
  5
145
330
F1
100
AcDbEntity
  8
AM_9
 48
0.0023132341670157
100
AcDbEllipse
 10
-1.983198174666365
 20
-0.0000000000000001
 30
0.0
 11
2.668708985306491E-16
 21
0.1915112338502294
 31
0.0
210
0.0
220
0.0
230
1.0
 40
0.5000000000000004
 41
0.0
 42
6.283185307179586
  0
ELLIPSE
  5
146
330
F1
100
AcDbEntity
  8
AM_9
 48
0.0023132341670157
100
AcDbEllipse
 10
-1.814326308177121
 20
0.0000000000000001
 30
0.0
 11
2.583789889714423E-16
 21
0.1854172907249865
 31
0.0
210
0.0
220
0.0
230
1.0
 40
0.4999999999999974
 41
0.0
 42
6.283185307179586
  0
ELLIPSE
  5
147
330
F1
100
AcDbEntity
  8
AM_9
 48
0.0023132341670157
100
AcDbEllipse
 10
-1.793755117588518
 20
0.0000000000000005
 30
0.0
 11
4.765543040822094E-16
 21
0.1616637258772249
 31
0.0
210
0.0
220
0.0
230
1.0
 40
0.4999999999999946
 41
0.0
 42
6.283185307179586
  0
LWPOLYLINE
  5
148
330
F1
100
AcDbEntity
  8
AM_0
 48
0.0023132341670157
100
AcDbPolyline
 90
        3
 70
     0
 43
0.0
 10
-2.213757756742438
 20
-0.2360765106845277
 10
-2.20459277016588
 20
-0.2462091938631851
 10
-2.189934025181381
 20
-0.2672118976010217
  0
LWPOLYLINE
  5
149
330
F1
100
AcDbEntity
  8
AM_0
 48
0.0023132341670157
100
AcDbPolyline
 90
        3
 70
     0
 43
0.0
 10
-2.189961118118894
 20
-0.2683791326563879
 10
-2.201900616558493
 20
-0.2634308483997528
 10
-2.216114516672734
 20
-0.2602304684431305
  0
LWPOLYLINE
  5
14A
330
F1
100
AcDbEntity
  8
AM_0
 48
0.0023132341670157
100
AcDbPolyline
 90
        3
 70
     0
 43
0.0
 10
-2.234414424211267
 20
-0.3055458577949631
 10
-2.21803246959229
 20
-0.3030753670497808
 10
-2.200960378019861
 20
-0.2987675689889718
  0
LINE
  5
14B
330
F1
100
AcDbEntity
  8
AM_0
 48
0.0023132341670157
100
AcDbLine
 10
-2.19
 20
-0.2716267871917188
 30
0.0
 11
-2.200960378019861
 21
-0.2987675689889718
 31
0.0
  0
LINE
  5
14C
330
F1
100
AcDbEntity
  8
AM_0
 48
0.0023132341670157
100
AcDbLine
 10
-2.348602478997605
 20
-0.5093460834378319
 30
0.0
 11
-2.287990728730341
 21
-0.4540180898723595
 31
0.0
  0
LINE
  5
14D
330
F1
100
AcDbEntity
  8
AM_0
 48
0.0023132341670157
100
AcDbLine
 10
-2.544725896030216
 20
-0.350339628963635
 30
0.0
 11
-2.539532473739486
 21
-0.4322420068738781
 31
0.0
  0
ELLIPSE
  5
14E
330
F1
100
AcDbEntity
  8
AM_0
 48
0.0023132341670157
100
AcDbEllipse
 10
-2.443242020868951
 20
-0.4687500000000001
 30
0.0
 11
-0.09595382955731811
 21
0.03874944547499725
 31
0.0
210
0.0
220
0.0
230
1.0
 40
0.2113091308703481
 41
0.1009830038932584
 42
3.040609649696539
  0
LINE
  5
14F
330
F1
100
AcDbEntity
  8
AM_0
 48
0.0023132341670157
100
AcDbLine
 10
-2.491255954085239
 20
-0.151074129835757
 30
0.0
 11
-2.502577527309116
 21
-0.1791093260592887
 31
0.0
  0
LWPOLYLINE
  5
150
330
F1
100
AcDbEntity
  8
AM_0
 48
0.0023132341670157
100
AcDbPolyline
 90
        9
 70
     0
 43
0.0
 10
-2.520599486177701
 20
-0.3178924884873776
 10
-2.522633818794521
 20
-0.3185550278697722
 10
-2.528392862943279
 20
-0.321131705533227
 10
-2.533570347955476
 20
-0.3246477844271217
 10
-2.538040146717193
 20
-0.3291618787289914
 10
-2.541542982868731
 20
-0.3345877190385402
 10
-2.543947718092577
 20
-0.3411582637933178
 10
-2.544782548478114
 20
-0.3476660424270661
 10
-2.544682589663648
 20
-0.3509347943915618
  0
LWPOLYLINE
  5
151
330
F1
100
AcDbEntity
  8
AM_0
 48
0.0023132341670157
100
AcDbPolyline
 90
        9
 70
     0
 43
0.0
 10
-2.288404315030367
 20
-0.4543891001819143
 10
-2.285804739967624
 20
-0.4518171879359394
 10
-2.28202355901531
 20
-0.4466113179226907
 10
-2.279224853527788
 20
-0.4400844014116475
 10
-2.27804683812766
 20
-0.4335220079048014
 10
-2.278237995673464
 20
-0.4272803322826612
 10
-2.279525680255
 20
-0.4214500620878983
 10
-2.281737192056641
 20
-0.4159635741427869
 10
-2.282802913656761
 20
-0.4139454919806508
  0
ELLIPSE
  5
153
330
F1
100
AcDbEntity
  8
AM_4
 48
0.0023132341670157
100
AcDbEllipse
 10
-2.415248358671468
 20
-0.3994303217889758
 30
0.0
 11
-0.1290248947933268
 21
0.05210467522533586
 31
0.0
210
0.0
220
0.0
230
1.0
 40
0.2113091308703507
 41
0.1056284905479679
 42
3.036299423673045
  0
LWPOLYLINE
  5
154
330
F1
100
AcDbEntity
  8
AM_0
 48
0.0023132341670157
100
AcDbPolyline
 90
        3
 70
     0
 43
0.0
 10
-2.282150259624652
 20
-0.2987675689889718
 10
-2.268616994124262
 20
-0.3030606061861223
 10
-2.255057709499277
 20
-0.305456396233367
  0
ELLIPSE
  5
155
330
F1
100
AcDbEntity
  8
AM_0
 48
0.0023132341670157
100
AcDbEllipse
 10
-2.353572473930139
 20
-0.2467045921760178
 30
0.0
 11
-0.1303939210191789
 21
0.0526575349427363
 31
0.0
210
0.0
220
0.0
230
1.0
 40
0.2113091308703567
 41
1.711945269609648
 42
2.505596057672093
  0
LWPOLYLINE
  5
156
330
F1
100
AcDbEntity
  8
AM_0
 48
0.0023132341670157
100
AcDbPolyline
 90
        4
 70
     0
 43
0.0
 10
-2.502577527309116
 20
-0.1791093260592887
 10
-2.48770040926604
 20
-0.1988355121406939
 10
-2.471271137023366
 20
-0.2156330920108724
 10
-2.465774118412023
 20
-0.2201680623457972
  0
LWPOLYLINE
  5
157
330
F1
100
AcDbEntity
  8
AM_0
 48
0.0023132341670157
100
AcDbPolyline
 90
        3
 70
     0
 43
0.0
 10
-2.465774118412023
 20
-0.2201680623457972
 10
-2.452833596813395
 20
-0.2290462109660021
 10
-2.432958235871079
 20
-0.2389369657326275
  0
LWPOLYLINE
  5
158
330
F1
100
AcDbEntity
  8
AM_0
 48
0.0023132341670157
100
AcDbPolyline
 90
        3
 70
     0
 43
0.0
 10
-2.235870916626002
 20
-0.2602304684431209
 10
-2.245119552039896
 20
-0.2616913382589203
 10
-2.270094610313673
 20
-0.2689146070947222
  0
LINE
  5
159
330
F1
100
AcDbEntity
  8
AM_0
 48
0.0023132341670157
100
AcDbLine
 10
-2.42228631832205
 20
-0.1230967854582221
 30
0.0
 11
-2.437269589055492
 21
-0.1601993088245383
 31
0.0
  0
LINE
  5
15A
330
F1
100
AcDbEntity
  8
AM_0
 48
0.0023132341670157
100
AcDbLine
 10
-2.233275543727717
 20
-0.2425790968238375
 30
0.0
 11
-2.216080644906463
 21
-0.2
 31
0.0
  0
ELLIPSE
  5
15B
330
F1
100
AcDbEntity
  8
AM_0
 48
0.0023132341670157
100
AcDbEllipse
 10
-2.335272566391605
 20
-0.2013892028241881
 30
0.0
 11
-0.101997022663888
 21
0.04118989399964974
 31
0.0
210
0.0
220
0.0
230
1.0
 40
0.2113091308703493
 41
6.283185307179584
 42
9.424777960769383
  0
LWPOLYLINE
  5
15C
330
F1
100
AcDbEntity
  8
AM_0
 48
0.0023132341670157
100
AcDbPolyline
 90
        4
 70
     0
 43
0.0
 10
-2.491255954085239
 20
-0.151074129835757
 10
-2.474640112097711
 20
-0.145877822676052
 10
-2.458585499442577
 20
-0.1427138007556462
 10
-2.446976952824943
 20
-0.141958509815605
  0
LWPOLYLINE
  5
15D
330
F1
100
AcDbEntity
  8
AM_0
 48
0.0023132341670157
100
AcDbPolyline
 90
        6
 70
     0
 43
0.0
 10
-2.421270989651533
 20
-0.2099962668917053
 10
-2.431580126008862
 20
-0.1943573015029059
 10
-2.442923952843072
 20
-0.1805491420332303
 10
-2.455637927419879
 20
-0.1688997677199809
 10
-2.469533853609571
 20
-0.1598729403210871
 10
-2.491255954085239
 20
-0.151074129835757
  0
LINE
  5
15E
330
F1
100
AcDbEntity
  8
AM_0
 48
0.0023132341670157
100
AcDbLine
 10
-2.445647099282113
 20
-0.1419585097669023
 30
0.0
 11
-2.447085575930267
 21
-0.1419585097669023
 31
0.0
  0
ELLIPSE
  5
15F
330
F1
100
AcDbEntity
  8
AM_0
 48
0.0023132341670157
100
AcDbEllipse
 10
-2.335272566391599
 20
-0.2013892028241765
 30
0.0
 11
-0.1303939210191802
 21
0.05265753494272344
 31
0.0
210
0.0
220
0.0
230
1.0
 40
0.2113091308703028
 41
5.61061382579929
 42
7.795870906981529
  0
ELLIPSE
  5
160
330
F1
100
AcDbEntity
  8
AM_0
 48
0.0023132341670157
100
AcDbEllipse
 10
-2.353572473930138
 20
-0.2467045921760198
 30
0.0
 11
-0.1303939210191753
 21
0.05265753494273358
 31
0.0
210
0.0
220
0.0
230
1.0
 40
0.2113091308703554
 41
0.6359965959176872
 42
1.512685599801937
  0
LWPOLYLINE
  5
161
330
F1
100
AcDbEntity
  8
AM_0
 48
0.0023132341670157
100
AcDbPolyline
 90
        3
 70
     0
 43
0.0
 10
-2.254170824164537
 20
-0.3055458577949631
 10
-2.244720625278228
 20
-0.3064767622622302
 10
-2.234414424211267
 20
-0.3055458577949631
  0
LWPOLYLINE
  5
162
330
F1
100
AcDbEntity
  8
AM_0
 48
0.0023132341670157
100
AcDbPolyline
 90
       17
 70
     0
 43
0.0
 10
-2.282356701339485
 20
-0.414751699584206
 10
-2.284795424426693
 20
-0.4094139063960071
 10
-2.287158481947053
 20
-0.4025580878325117
 10
-2.289031549889351
 20
-0.3943318288340346
 10
-2.290029099835668
 20
-0.3850073123369676
 10
-2.289854453603719
 20
-0.3749906652087237
 10
-2.288345583619868
 20
-0.3646999349129909
 10
-2.285117970952594
 20
-0.353565638356868
 10
-2.280469082950155
 20
-0.3432587198352178
 10
-2.274690127797916
 20
-0.3340616195016269
 10
-2.268095621362608
 20
-0.3261232469692975
 10
-2.261034564152089
 20
-0.3195312036564726
 10
-2.253908647195345
 20
-0.3143233139646583
 10
-2.247153577303373
 20
-0.3104617765040604
 10
-2.241161640422244
 20
-0.3078056983285216
 10
-2.236192664704025
 20
-0.3061265755737246
 10
-2.232592972000797
 20
-0.3052176845916406
  0
LWPOLYLINE
  5
163
330
F1
100
AcDbEntity
  8
AM_0
 48
0.0023132341670157
100
AcDbPolyline
 90
       18
 70
     0
 43
0.0
 10
-2.481106712345305
 20
-0.205024634647199
 10
-2.480963067436851
 20
-0.2052419151689165
 10
-2.478770616829155
 20
-0.2088925746780614
 10
-2.476319999191848
 20
-0.2138711466677435
 10
-2.473883565254948
 20
-0.2202760551167101
 10
-2.471814582155029
 20
-0.228094166640231
 10
-2.470505921767197
 20
-0.2371156641990508
 10
-2.470290777580162
 20
-0.2469624542089723
 10
-2.471373376350967
 20
-0.2572099696886995
 10
-2.47416186605644
 20
-0.268513207385423
 10
-2.478442675801565
 20
-0.279092579816794
 10
-2.483937047097433
 20
-0.2886195142600453
 10
-2.4903367642103
 20
-0.2969203196842668
 10
-2.497305544902379
 20
-0.3038948368348346
 10
-2.504456663029997
 20
-0.309489611519138
 10
-2.511358669173816
 20
-0.3137178588772755
 10
-2.517596769411487
 20
-0.3166906370530874
 10
-2.521583725175288
 20
-0.3181965764981333
  0
ELLIPSE
  5
164
330
F1
100
AcDbEntity
  8
AM_4
 48
0.0023132341670157
100
AcDbEllipse
 10
-2.404573377194123
 20
-0.3729962569746643
 30
0.0
 11
-0.1235034625625957
 21
0.0498749316272358
 31
0.0
210
0.0
220
0.0
230
1.0
 40
0.2113091308703523
 41
6.04233914208715
 42
9.664785382164087
  0
ELLIPSE
  5
165
330
F1
100
AcDbEntity
  8
AM_0
 48
0.0023132341670157
100
AcDbEllipse
 10
-2.335272566391605
 20
-0.2013892028241876
 30
0.0
 11
-0.1303939210191825
 21
0.0526575349427209
 31
0.0
210
0.0
220
0.0
230
1.0
 40
0.2113091308703621
 41
1.711945269609615
 42
2.518556725320332
  0
LINE
  5
166
330
F1
100
AcDbEntity
  8
AM_0
 48
0.0023132341670157
100
AcDbLine
 10
-2.216114516672734
 20
-0.2602304684431305
 30
0.0
 11
-2.235870916626002
 21
-0.2602304684431209
 31
0.0
  0
ELLIPSE
  5
167
330
F1
100
AcDbEntity
  8
AM_0
 48
0.0023132341670157
100
AcDbEllipse
 10
-2.335272566391603
 20
-0.2013892028241887
 30
0.0
 11
-0.1303939210191727
 21
0.05265753494273347
 31
0.0
210
0.0
220
0.0
230
1.0
 40
0.2113091308703482
 41
2.800469246484372
 42
3.607080702195134
  0
LINE
  5
168
330
F1
100
AcDbEntity
  8
AM_0
 48
0.0023132341670157
100
AcDbLine
 10
-2.225779286924245
 20
-0.2258378743019629
 30
0.0
 11
-2.213757756742438
 21
-0.2360765106845277
 31
0.0
  0
LWPOLYLINE
  5
169
330
F1
100
AcDbEntity
  8
AM_0
 48
0.0023132341670157
100
AcDbPolyline
 90
        3
 70
     0
 43
0.0
 10
-2.270094610313673
 20
-0.2689146070947222
 10
-2.298156910282517
 20
-0.251275593729576
 10
-2.327945015120504
 20
-0.2360765106845275
  0
LINE
  5
16A
330
F1
100
AcDbEntity
  8
AM_0
 48
0.0023132341670157
100
AcDbLine
 10
-2.327945015120504
 20
-0.2360765106845275
 30
0.0
 11
-2.353953824146488
 21
-0.2258378743019627
 31
0.0
  0
LWPOLYLINE
  5
16B
330
F1
100
AcDbEntity
  8
AM_0
 48
0.0023132341670157
100
AcDbPolyline
 90
        3
 70
     0
 43
0.0
 10
-2.353953824146488
 20
-0.2258378743019627
 10
-2.376943858838728
 20
-0.2189176876709014
 10
-2.421270989651533
 20
-0.2099962668917053
  0
LINE
  5
16C
330
F1
100
AcDbEntity
  8
AM_0
 48
0.0023132341670157
100
AcDbLine
 10
-2.421270989651533
 20
-0.2099962668917053
 30
0.0
 11
-2.432958235871078
 21
-0.2389369657326276
 31
0.0
  0
LWPOLYLINE
  5
16D
330
F1
100
AcDbEntity
  8
AM_0
 48
0.0023132341670157
100
AcDbPolyline
 90
        3
 70
     0
 43
0.0
 10
-2.432958235871078
 20
-0.2389369657326276
 10
-2.403278414637276
 20
-0.2560939713202353
 10
-2.37225373168502
 20
-0.2711532636537956
  0
LINE
  5
16E
330
F1
100
AcDbEntity
  8
AM_0
 48
0.0023132341670157
100
AcDbLine
 10
-2.37225373168502
 20
-0.2711532636537956
 30
0.0
 11
-2.346244922659037
 21
-0.2813919000363599
 31
0.0
  0
LWPOLYLINE
  5
16F
330
F1
100
AcDbEntity
  8
AM_0
 48
0.0023132341670157
100
AcDbPolyline
 90
        3
 70
     0
 43
0.0
 10
-2.346244922659037
 20
-0.2813919000363599
 10
-2.314594371805013
 20
-0.2911775952746243
 10
-2.282150259624652
 20
-0.2987675689889718
  0
LINE
  5
170
330
F1
100
AcDbEntity
  8
AM_0
 48
0.0023132341670157
100
AcDbLine
 10
-2.270094610313673
 20
-0.2689146070947222
 30
0.0
 11
-2.282150259624652
 21
-0.2987675689889718
 31
0.0
  0
ARC
  5
171
330
F1
100
AcDbEntity
  8
AM_0
 48
0.0023132341670157
100
AcDbCircle
 10
-2.264656430896308
 20
0.0000000000000003
 30
0.0
 40
0.1999999999999996
100
AcDbArc
 50
89.99999999999974
 51
219.6396985082596
  0
LWPOLYLINE
  5
172
330
F1
100
AcDbEntity
  8
AM_0
 48
0.0023132341670157
100
AcDbPolyline
 90
       10
 70
     0
 43
0.0
 10
-2.418858993155306
 20
-0.1273638845459953
 10
-2.417195481205636
 20
-0.1291842652280562
 10
-2.410917933937973
 20
-0.1344729790611519
 10
-2.401760334875252
 20
-0.1405186270901959
 10
-2.39046414571324
 20
-0.1468270783017121
 10
-2.376722994572491
 20
-0.1535654953592165
 10
-2.361661504833009
 20
-0.1601799433259583
 10
-2.344868082013349
 20
-0.1668493358980661
 10
-2.327468745859353
 20
-0.1731116383367606
 10
-2.30922553108025
 20
-0.1790373738502115
  0
ELLIPSE
  5
173
330
F1
100
AcDbEntity
  8
AM_4
 48
0.0023132341670157
100
AcDbEllipse
 10
-2.264656430896307
 20
-0.0000000000000001
 30
0.0
 11
1.224646799147355E-17
 21
0.2000000000000002
 31
0.0
210
0.0
220
0.0
230
1.0
 40
0.4999999999999999
 41
0.0000000000000001
 42
2.679646633022825
  0
LINE
  5
174
330
F1
100
AcDbEntity
  8
AM_0
 48
0.0023132341670157
100
AcDbLine
 10
-2.200148251565524
 20
0.1999999999999999
 30
0.0
 11
-2.264656430896307
 21
0.1999999999999999
 31
0.0
  0
LINE
  5
175
330
F1
100
AcDbEntity
  8
AM_0
 48
0.0023132341670157
100
AcDbLine
 10
-2.229750212494194
 20
-0.2
 30
0.0
 11
-2.200150895652901
 21
-0.2
 31
0.0
  0
LWPOLYLINE
  5
176
330
F1
100
AcDbEntity
  8
AM_0
 48
0.0023132341670157
100
AcDbPolyline
 90
        8
 70
     0
 43
0.0
 10
-2.229602428267286
 20
-0.1999999999699529
 10
-2.23108954550659
 20
-0.1999786710855128
 10
-2.241963145983339
 20
-0.1988321115509053
 10
-2.254361467697321
 20
-0.1961649429984259
 10
-2.268784898063313
 20
-0.1920694300574958
 10
-2.284297877924131
 20
-0.1870948030566195
 10
-2.301391281711102
 20
-0.181500594761393
 10
-2.309225531080267
 20
-0.1790373738501784
  0
LINE
  5
177
330
F1
100
AcDbEntity
  8
AM_0
 48
0.0023132341670157
100
AcDbLine
 10
-2.192753863719467
 20
0.2187499999999999
 30
0.0
 11
-2.19
 21
0.2187499999999999
 31
0.0
  0
LWPOLYLINE
  5
178
330
F1
100
AcDbEntity
  8
AM_0
 48
0.0023132341670157
100
AcDbPolyline
 90
        3
 70
     0
 43
0.0
 10
-2.232180478254391
 20
0.1093749999999999
 10
-2.214320828270468
 20
0.1640624999999999
 10
-2.192753863719467
 20
0.2187499999999999
  0
LWPOLYLINE
  5
179
330
F1
100
AcDbEntity
  8
AM_0
 48
0.0023132341670157
100
AcDbPolyline
 90
        3
 70
     0
 43
0.0
 10
-2.255901549412082
 20
-0.0000000000000001
 10
-2.245947341982808
 20
0.0544416102741495
 10
-2.232180478254391
 20
0.1093749999999999
  0
LINE
  5
17A
330
F1
100
AcDbEntity
  8
AM_0
 48
0.0023132341670157
100
AcDbLine
 10
-2.255901549412082
 20
-0.0000000000000001
 30
0.0
 11
-2.19
 21
-0.0000000000000001
 31
0.0
  0
LWPOLYLINE
  5
17B
330
F1
100
AcDbEntity
  8
AM_0
 48
0.0023132341670157
100
AcDbPolyline
 90
        3
 70
     0
 43
0.0
 10
-2.232180478254391
 20
-0.109375
 10
-2.245894671116775
 20
-0.0546875
 10
-2.255901549412082
 20
-0.0000000000000001
  0
LWPOLYLINE
  5
17C
330
F1
100
AcDbEntity
  8
AM_0
 48
0.0023132341670157
100
AcDbPolyline
 90
        3
 70
     0
 43
0.0
 10
-2.192753863719467
 20
-0.2187500000000001
 10
-2.21423153463709
 20
-0.1643083897258504
 10
-2.232180478254391
 20
-0.109375
  0
LINE
  5
17D
330
F1
100
AcDbEntity
  8
AM_0
 48
0.0023132341670157
100
AcDbLine
 10
-2.192753863719467
 20
-0.2187500000000001
 30
0.0
 11
-2.19
 21
-0.2187500000000001
 31
0.0
  0
ENDBLK
  5
F4
330
F1
100
AcDbEntity
  8
0
100
AcDbBlockEnd
  0
BLOCK
  5
180
330
17E
100
AcDbEntity
  8
0
100
AcDbBlockBegin
  2
3_125151H_0_in_125151_4
 70
     2
 10
0.0
 20
0.0
 30
0.0
  3
3_125151H_0_in_125151_4
  1

  0
ATTDEF
  5
182
330
17E
100
AcDbEntity
  8
AM_6
100
AcDbText
 10
8.471499999999999
 20
0.9699999999999999
 30
0.0
 40
0.5
  1
WSTU-SC -Inch - housing
100
AcDbAttributeDefinition
  3

  2
NN
 70
     8
280
     0
  0
ATTDEF
  5
183
330
17E
100
AcDbEntity
  8
AM_6
100
AcDbText
 10
8.471499999999999
 20
0.4699999999999999
 30
0.0
 40
0.5
  1
SC Take-Up Bearings -Wide Slot -(Normal Duty)
100
AcDbAttributeDefinition
  3

  2
NT
 70
     8
280
     0
  0
ATTDEF
  5
184
330
17E
100
AcDbEntity
  8
AM_6
100
AcDbText
 10
8.471499999999999
 20
-0.0300000000000001
 30
0.0
 40
0.5
  1
125151H
100
AcDbAttributeDefinition
  3

  2
NB
 70
     8
280
     0
  0
ATTDEF
  5
185
330
17E
100
AcDbEntity
  8
AM_6
100
AcDbText
 10
8.471499999999999
 20
-0.5300000000000001
 30
0.0
 40
0.5
  1
$PN.H
100
AcDbAttributeDefinition
  3

  2
NBSYN
 70
     8
280
     0
  0
ATTDEF
  5
186
330
17E
100
AcDbEntity
  8
AM_6
100
AcDbText
 10
8.471499999999999
 20
-1.03
 30
0.0
 40
0.5
  1
125151
100
AcDbAttributeDefinition
  3

  2
LINA
 70
     8
280
     0
  0
ATTDEF
  5
187
330
17E
100
AcDbEntity
  8
AM_6
100
AcDbText
 10
8.471499999999999
 20
-1.53
 30
0.0
 40
0.5
  1
209
100
AcDbAttributeDefinition
  3

  2
SERIES
 70
     8
280
     0
  0
ATTDEF
  5
188
330
17E
100
AcDbEntity
  8
AM_6
100
AcDbText
 10
8.471499999999999
 20
-2.03
 30
0.0
 40
0.5
  1
1-5/8
100
AcDbAttributeDefinition
  3

  2
SS
 70
     8
280
     0
  0
ATTDEF
  5
189
330
17E
100
AcDbEntity
  8
AM_6
100
AcDbText
 10
8.471499999999999
 20
-2.53
 30
0.0
 40
0.5
  1
125151
100
AcDbAttributeDefinition
  3

  2
PN
 70
     8
280
     0
  0
ATTDEF
  5
18A
330
17E
100
AcDbEntity
  8
AM_6
100
AcDbText
 10
8.471499999999999
 20
-3.03
 30
0.0
 40
0.5
  1
WSTU-SC-110L
100
AcDbAttributeDefinition
  3

  2
DESCRIPTION
 70
     8
280
     0
  0
ATTDEF
  5
18B
330
17E
100
AcDbEntity
  8
AM_6
100
AcDbText
 10
8.471499999999999
 20
-3.53
 30
0.0
 40
0.5
  1
6.1
100
AcDbAttributeDefinition
  3

  2
W
 70
     8
280
     0
  0
ATTDEF
  5
18C
330
17E
100
AcDbEntity
  8
AM_6
100
AcDbText
 10
8.471499999999999
 20
-4.03
 30
0.0
 40
0.5
  1
WS400
100
AcDbAttributeDefinition
  3

  2
FS
 70
     8
280
     0
  0
ATTDEF
  5
18D
330
17E
100
AcDbEntity
  8
AM_6
100
AcDbText
 10
8.471499999999999
 20
-4.53
 30
0.0
 40
0.5
  1
RE-LUBE
100
AcDbAttributeDefinition
  3

  2
LF
 70
     8
280
     0
  0
ATTDEF
  5
18E
330
17E
100
AcDbEntity
  8
AM_6
100
AcDbText
 10
8.471499999999999
 20
-5.03
 30
0.0
 40
0.5
  1
1.94
100
AcDbAttributeDefinition
  3

  2
A
 70
     8
280
     0
  0
ATTDEF
  5
18F
330
17E
100
AcDbEntity
  8
AM_6
100
AcDbText
 10
8.471499999999999
 20
-5.53
 30
0.0
 40
0.5
  1
5.63
100
AcDbAttributeDefinition
  3

  2
B
 70
     8
280
     0
  0
ATTDEF
  5
190
330
17E
100
AcDbEntity
  8
AM_6
100
AcDbText
 10
8.471499999999999
 20
-6.03
 30
0.0
 40
0.5
  1
0.688
100
AcDbAttributeDefinition
  3

  2
C
 70
     8
280
     0
  0
ATTDEF
  5
191
330
17E
100
AcDbEntity
  8
AM_6
100
AcDbText
 10
8.471499999999999
 20
-6.53
 30
0.0
 40
0.5
  1
3.25
100
AcDbAttributeDefinition
  3

  2
D
 70
     8
280
     0
  0
ATTDEF
  5
192
330
17E
100
AcDbEntity
  8
AM_6
100
AcDbText
 10
8.471499999999999
 20
-7.03
 30
0.0
 40
0.5
  1
3.44
100
AcDbAttributeDefinition
  3

  2
E
 70
     8
280
     0
  0
ATTDEF
  5
193
330
17E
100
AcDbEntity
  8
AM_6
100
AcDbText
 10
8.471499999999999
 20
-7.53
 30
0.0
 40
0.5
  1
1
100
AcDbAttributeDefinition
  3

  2
F
 70
     8
280
     0
  0
ATTDEF
  5
194
330
17E
100
AcDbEntity
  8
AM_6
100
AcDbText
 10
8.471499999999999
 20
-8.030000000000001
 30
0.0
 40
0.5
  1
0.63
100
AcDbAttributeDefinition
  3

  2
G
 70
     8
280
     0
  0
ATTDEF
  5
195
330
17E
100
AcDbEntity
  8
AM_6
100
AcDbText
 10
8.471499999999999
 20
-8.530000000000001
 30
0.0
 40
0.5
  1
0.75
100
AcDbAttributeDefinition
  3

  2
H
 70
     8
280
     0
  0
ATTDEF
  5
196
330
17E
100
AcDbEntity
  8
AM_6
100
AcDbText
 10
8.471499999999999
 20
-9.030000000000001
 30
0.0
 40
0.5
  1
3.25
100
AcDbAttributeDefinition
  3

  2
J
 70
     8
280
     0
  0
ATTDEF
  5
197
330
17E
100
AcDbEntity
  8
AM_6
100
AcDbText
 10
8.471499999999999
 20
-9.530000000000001
 30
0.0
 40
0.5
  1
1.94
100
AcDbAttributeDefinition
  3

  2
K
 70
     8
280
     0
  0
ATTDEF
  5
198
330
17E
100
AcDbEntity
  8
AM_6
100
AcDbText
 10
8.471499999999999
 20
-10.03
 30
0.0
 40
0.5
  1
2.22
100
AcDbAttributeDefinition
  3

  2
L
 70
     8
280
     0
  0
ATTDEF
  5
199
330
17E
100
AcDbEntity
  8
AM_6
100
AcDbText
 10
8.471499999999999
 20
-10.53
 30
0.0
 40
0.5
  1
3.985 / 4.015
100
AcDbAttributeDefinition
  3

  2
M
 70
     8
280
     0
  0
ATTDEF
  5
19A
330
17E
100
AcDbEntity
  8
AM_6
100
AcDbText
 10
8.471499999999999
 20
-11.03
 30
0.0
 40
0.5
  1
4.75
100
AcDbAttributeDefinition
  3

  2
N
 70
     8
280
     0
  0
ATTDEF
  5
19B
330
17E
100
AcDbEntity
  8
AM_6
100
AcDbText
 10
8.471499999999999
 20
-11.53
 30
0.0
 40
0.5
  1
0.75
100
AcDbAttributeDefinition
  3

  2
R
 70
     8
280
     0
  0
ATTDEF
  5
19C
330
17E
100
AcDbEntity
  8
AM_6
100
AcDbText
 10
8.471499999999999
 20
-12.03
 30
0.0
 40
0.5
  1
1.19
100
AcDbAttributeDefinition
  3

  2
S
 70
     8
280
     0
  0
ATTDEF
  5
19D
330
17E
100
AcDbEntity
  8
AM_6
100
AcDbText
 10
8.471499999999999
 20
-12.53
 30
0.0
 40
0.5
  1
1.94
100
AcDbAttributeDefinition
  3

  2
T
 70
     8
280
     0
  0
ATTDEF
  5
19E
330
17E
100
AcDbEntity
  8
AM_6
100
AcDbText
 10
8.471499999999999
 20
-13.03
 30
0.0
 40
0.5
  1
4450
100
AcDbAttributeDefinition
  3

  2
CAPS
 70
     8
280
     0
  0
ATTDEF
  5
19F
330
17E
100
AcDbEntity
  8
AM_6
100
AcDbText
 10
8.471499999999999
 20
-13.53
 30
0.0
 40
0.5
  1
7891
100
AcDbAttributeDefinition
  3

  2
CAPD
 70
     8
280
     0
  0
ATTDEF
  5
1A0
330
17E
100
AcDbEntity
  8
AM_6
100
AcDbText
 10
8.471499999999999
 20
-14.03
 30
0.0
 40
0.5
  1
baldor
100
AcDbAttributeDefinition
  3

  2
COMPANY
 70
     8
280
     0
  0
LWPOLYLINE
  5
1A1
330
17E
100
AcDbEntity
  8
AM_9
 48
0.0148346190805723
100
AcDbPolyline
 90
       11
 70
     0
 43
0.0
 10
-1.967141643746577
 20
-0.0000000000000001
 10
-1.966231925404924
 20
-0.0247924152057592
 10
-1.963412585309352
 20
-0.0495848304115184
 10
-1.958891539398319
 20
-0.0722945167364869
 10
-1.952491772130033
 20
-0.0935785146472021
 10
-1.9446795096716
 20
-0.1116825398738216
 10
-1.935173790557484
 20
-0.1270951394762365
 10
-1.924700662343841
 20
-0.1385338022852193
 10
-1.912913133362067
 20
-0.1463097585476125
 10
-1.900787544377695
 20
-0.1497639529318288
 10
-1.896602760459189
 20
-0.1499999993228949
  0
LINE
  5
1A2
330
17E
100
AcDbEntity
  8
AM_9
 48
0.0148346190805723
100
AcDbLine
 10
-1.983198174666365
 20
-0.15
 30
0.0
 11
-1.896567053119932
 21
-0.15
 31
0.0
  0
LINE
  5
1A3
330
17E
100
AcDbEntity
  8
AM_9
 48
0.0148346190805723
100
AcDbLine
 10
-1.896590525345407
 20
0.1499999999999999
 30
0.0
 11
-1.983198174666365
 21
0.1499999999999999
 31
0.0
  0
LWPOLYLINE
  5
1A4
330
17E
100
AcDbEntity
  8
AM_9
 48
0.0148346190805723
100
AcDbPolyline
 90
       20
 70
     0
 43
0.0
 10
-1.896602760459189
 20
-0.1499999993228949
 10
-1.887937623366488
 20
-0.149010713941032
 10
-1.875469257035228
 20
-0.1441249056023047
 10
-1.863026121903882
 20
-0.134970219234076
 10
-1.851681294249268
 20
-0.1223026577812418
 10
-1.841174639344505
 20
-0.1057657516007579
 10
-1.832428174903004
 20
-0.0867002989578983
 10
-1.825276633069012
 20
-0.0645864818867163
 10
-1.820375038033566
 20
-0.0412783013964108
 10
-1.817626422379013
 20
-0.016102300110937
 10
-1.81728516681637
 20
0.0087694506965999
 10
-1.819336555635063
 20
0.0341057276708742
 10
-1.823585082575367
 20
0.0577557345765749
 10
-1.830114970842437
 20
0.0804257297236246
 10
-1.838343519624187
 20
0.1002515627682367
 10
-1.848436353994344
 20
0.1177661607409681
 10
-1.859506948124132
 20
0.1315245507283897
 10
-1.871800643242816
 20
0.1418901350889907
 10
-1.884227129841092
 20
0.147985700414086
 10
-1.896599045471253
 20
0.1499999998448516
  0
LWPOLYLINE
  5
1A5
330
17E
100
AcDbEntity
  8
AM_9
 48
0.0148346190805723
100
AcDbPolyline
 90
       12
 70
     0
 43
0.0
 10
-1.896599045471253
 20
0.1499999998448516
 10
-1.8971259901422
 20
0.1499962464390963
 10
-1.909376188482667
 20
0.1477602015701334
 10
-1.921369154166171
 20
0.1412228418719715
 10
-1.932129399483775
 20
0.130934250180295
 10
-1.942015450518529
 20
0.116600745382947
 10
-1.950274145202702
 20
0.0993832302591703
 10
-1.957185974068529
 20
0.0788113367592859
 10
-1.962234679819694
 20
0.0565866405173275
 10
-1.965609939552502
 20
0.0320838073911223
 10
-1.966753535522843
 20
0.0162299750380386
 10
-1.967141643746577
 20
-0.0000000000000001
  0
ELLIPSE
  5
1A6
330
17E
100
AcDbEntity
  8
AM_9
 48
0.0148346190805723
100
AcDbEllipse
 10
-1.983198174666365
 20
-0.0000000000000001
 30
0.0
 11
2.143131898507868E-17
 21
0.35
 31
0.0
210
0.0
220
0.0
230
1.0
 40
0.5000000000000001
 41
0.0
 42
6.283185307179586
  0
LINE
  5
1A7
330
17E
100
AcDbEntity
  8
AM_9
 48
0.0148346190805723
100
AcDbLine
 10
-1.899481079469983
 20
-0.4499777970284736
 30
0.0
 11
-1.896545383826035
 21
-0.4499999932663757
 31
0.0
  0
LWPOLYLINE
  5
1A8
330
17E
100
AcDbEntity
  8
AM_9
 48
0.0148346190805723
100
AcDbPolyline
 90
       28
 70
     0
 43
0.0
 10
-2.17159563428792
 20
0.0
 10
-2.171472359992149
 20
-0.0140422144991398
 10
-2.170582814740875
 20
-0.0402093772559431
 10
-2.168834678003511
 20
-0.0662564954121872
 10
-2.16622803886988
 20
-0.0921081170990449
 10
-2.162762116043292
 20
-0.117692959878704
 10
-2.158434928686113
 20
-0.1429410987485248
 10
-2.153242793213978
 20
-0.1677840672127055
 10
-2.147179725218586
 20
-0.1921547110684395
 10
-2.140236809462524
 20
-0.2159866550849359
 10
-2.13240167150546
 20
-0.2392131875111459
 10
-2.123658309018959
 20
-0.2617653070592488
 10
-2.113987740585237
 20
-0.2835686479538303
 10
-2.10337020126836
 20
-0.3045390960311951
 10
-2.09178985686501
 20
-0.324577329950497
 10
-2.079247837150091
 20
-0.3435565547425796
 10
-2.065783587613457
 20
-0.3613124670642825
 10
-2.051462007045001
 20
-0.3776862328774117
 10
-2.036382523696723
 20
-0.3925275919817781
 10
-2.020667621594111
 20
-0.4057179820738672
 10
-2.004444521649303
 20
-0.4171852554055938
 10
-1.987830244473563
 20
-0.4269027853399098
 10
-1.970926265943785
 20
-0.4348769505014442
 10
-1.953821121810743
 20
-0.4411323978771023
 10
-1.936595684472783
 20
-0.4457014527136272
 10
-1.919327127439163
 20
-0.4486187763438687
 10
-1.90209023697247
 20
-0.4499194803400224
 10
-1.899481079469983
 20
-0.4499777970284736
  0
LWPOLYLINE
  5
1A9
330
17E
100
AcDbEntity
  8
AM_9
 48
0.0148346190805723
100
AcDbPolyline
 90
       29
 70
     0
 43
0.0
 10
-1.897589090965403
 20
0.4499973681048728
 10
-1.90084503036026
 20
0.4499518430018423
 10
-1.917890430887278
 20
0.4487882092845056
 10
-1.934712111506499
 20
0.4460994374045008
 10
-1.951252362010705
 20
0.4419216399486122
 10
-1.967471300183401
 20
0.4362833484103188
 10
-1.983339120435724
 20
0.4292028116076482
 10
-1.998834088111083
 20
0.4206857885409007
 10
-2.013938648835432
 20
0.4107251289460705
 10
-2.028633753881592
 20
0.3993035038034329
 10
-2.042892041956594
 20
0.3864005823786224
 10
-2.056671448121939
 20
0.3720050462710442
 10
-2.069911869840598
 20
0.3561295477883809
 10
-2.082537723773298
 20
0.3388234925007302
 10
-2.094467216800744
 20
0.3201769139961866
 10
-2.105625162368535
 20
0.3003119995335974
 10
-2.115953449165921
 20
0.2793660822964631
 10
-2.125406119039387
 20
0.2574964817450141
 10
-2.13397007534933
 20
0.2348204329754405
 10
-2.141643774637549
 20
0.2114389250333425
 10
-2.148431177276425
 20
0.1874410328398793
 10
-2.154338179942955
 20
0.1629076998745279
 10
-2.159370633378867
 20
0.1379150361644471
 10
-2.163533462791182
 20
0.112536712769612
 10
-2.166830435255498
 20
0.0868454938129547
 10
-2.169264250422235
 20
0.0609140929332818
 10
-2.170836753353868
 20
0.0348155481751244
 10
-2.171549153875431
 20
0.0086232724966936
 10
-2.17159563428792
 20
0.0
  0
LINE
  5
1AA
330
17E
100
AcDbEntity
  8
AM_9
 48
0.0148346190805723
100
AcDbLine
 10
2.81
 20
-0.5
 30
0.0
 11
3.44
 21
-0.5
 31
0.0
  0
LINE
  5
1AB
330
17E
100
AcDbEntity
  8
AM_9
 48
0.0148346190805723
100
AcDbLine
 10
3.44
 20
0.5
 30
0.0
 11
2.81
 21
0.5
 31
0.0
  0
LINE
  5
1AC
330
17E
100
AcDbEntity
  8
AM_9
 48
0.0148346190805723
100
AcDbLine
 10
2.7412
 20
-0.5848
 30
0.0
 11
2.7412
 21
0.5848000000000001
 31
0.0
  0
LINE
  5
1AD
330
17E
100
AcDbEntity
  8
AM_9
 48
0.0148346190805723
100
AcDbLine
 10
2.81
 20
-0.5848
 30
0.0
 11
2.81
 21
0.5848000000000001
 31
0.0
  0
LINE
  5
1AE
330
17E
100
AcDbEntity
  8
AM_9
 48
0.0148346190805723
100
AcDbLine
 10
2.1288
 20
-0.5848
 30
0.0
 11
2.1288
 21
0.5848000000000001
 31
0.0
  0
LINE
  5
1AF
330
17E
100
AcDbEntity
  8
AM_9
 48
0.0148346190805723
100
AcDbLine
 10
2.06
 20
-0.5848
 30
0.0
 11
2.06
 21
0.5848000000000001
 31
0.0
  0
LWPOLYLINE
  5
1B0
330
17E
100
AcDbEntity
  8
AM_9
 48
0.0148346190805723
100
AcDbPolyline
 90
       39
 70
     0
 43
0.0
 10
-1.896595634287921
 20
0.4499999999999998
 10
-1.877860451467053
 20
0.4484793731714373
 10
-1.85872441458453
 20
0.4439403998513609
 10
-1.838761724755926
 20
0.4361410378713389
 10
-1.8187068537671
 20
0.4252438294446442
 10
-1.799312494390265
 20
0.4117651138716567
 10
-1.780177269045394
 20
0.3955422852775068
 10
-1.760956368980957
 20
0.3761087789832567
 10
-1.742389365437953
 20
0.3540343057085767
 10
-1.724932972910475
 20
0.3298568846188837
 10
-1.708478052948946
 20
0.3034288937381895
 10
-1.692788282286055
 20
0.2740753217852964
 10
-1.678527873387915
 20
0.2427266006140309
 10
-1.666100145344953
 20
0.2102354871743147
 10
-1.655366343863275
 20
0.1762501665238064
 10
-1.646233207925037
 20
0.1399270620462109
 10
-1.639166122750322
 20
0.1025327018210537
 10
-1.634438671915762
 20
0.0659828187194989
 10
-1.631761038017006
 20
0.0289643292793259
 10
-1.631194413962612
 20
-0.0093798029698781
 10
-1.632848837857417
 20
-0.0476530240264297
 10
-1.63649469126599
 20
-0.0839046036610037
 10
-1.642101171936962
 20
-0.1195796906871706
 10
-1.649846657589427
 20
-0.1554195491916152
 10
-1.659487891332054
 20
-0.1901438751572609
 10
-1.670656112463701
 20
-0.2228370353556863
 10
-1.683391517619324
 20
-0.2540192518945621
 10
-1.697968344313907
 20
-0.2842836496646227
 10
-1.713876333420525
 20
-0.3125381139534259
 10
-1.730780171489619
 20
-0.3383595298823011
 10
-1.748634332033647
 20
-0.3618495163159566
 10
-1.767804635652801
 20
-0.3834099720545509
 10
-1.787581407443662
 20
-0.4021757602303792
 10
-1.807212097956875
 20
-0.4176069178536658
 10
-1.8270379393137
 20
-0.4301437566980275
 10
-1.847472015615499
 20
-0.4399198416101608
 10
-1.867730101355584
 20
-0.4464427811566035
 10
-1.882260961524235
 20
-0.4491059942813934
 10
-1.896595634287921
 20
-0.4499999999999999
  0
LWPOLYLINE
  5
1B1
330
17E
100
AcDbEntity
  8
AM_9
 48
0.0148346190805723
100
AcDbPolyline
 90
       30
 70
     0
 43
0.0
 10
-1.896595634287921
 20
-0.4499999999999999
 10
-1.919530181732633
 20
-0.4475591751076476
 10
-1.941362369514894
 20
-0.4402953420970587
 10
-1.963020738185318
 20
-0.4274012405587146
 10
-1.983100724782029
 20
-0.4093320538132136
 10
-2.001346932685174
 20
-0.3864318029157874
 10
-2.017894697597672
 20
-0.3584721799070832
 10
-2.032536774322656
 20
-0.3260372370363517
 10
-2.045173735173824
 20
-0.2897106133937584
 10
-2.055990920577636
 20
-0.2490880183364682
 10
-2.064856617424203
 20
-0.2051382907516805
 10
-2.071752867032902
 20
-0.1586764042494095
 10
-2.076704741442382
 20
-0.1103720806296454
 10
-2.079816575937648
 20
-0.060467317412947
 10
-2.081090112859699
 20
-0.0099324453479405
 10
-2.080558634694265
 20
0.0397637361690352
 10
-2.078266765000805
 20
0.0891128642419384
 10
-2.074212890534602
 20
0.1371861842466277
 10
-2.068364979340423
 20
0.1833928839932091
 10
-2.060674162503252
 20
0.2274780316162557
 10
-2.051150780093853
 20
0.2686614049928235
 10
-2.039488416845882
 20
0.3072001336507594
 10
-2.0258034120499
 20
0.3420293280544438
 10
-2.01017614148224
 20
0.3725192914115719
 10
-1.992348258250722
 20
0.3985815346979081
 10
-1.972525384335404
 20
0.4196686588244735
 10
-1.950954338185182
 20
0.4353608115687838
 10
-1.9336367580179
 20
0.4434542568814376
 10
-1.915455327142096
 20
0.448353704933076
 10
-1.896595634287921
 20
0.4499999999999998
  0
LINE
  5
1B2
330
17E
100
AcDbEntity
  8
AM_9
 48
0.0148346190805723
100
AcDbLine
 10
0.5416666666666666
 20
-0.3096000000000001
 30
0.0
 11
0.5416666666666666
 21
0.5848
 31
0.0
  0
LINE
  5
1B3
330
17E
100
AcDbEntity
  8
AM_9
 48
0.0148346190805723
100
AcDbLine
 10
-0.5416666666666666
 20
-0.3096000000000001
 30
0.0
 11
-0.5416666666666666
 21
0.5848
 31
0.0
  0
LINE
  5
1B4
330
17E
100
AcDbEntity
  8
AM_9
 48
0.0148346190805723
100
AcDbLine
 10
1.67325
 20
-0.5848000000000001
 30
0.0
 11
1.67325
 21
0.5847999999999994
 31
0.0
  0
LINE
  5
1B5
330
17E
100
AcDbEntity
  8
AM_9
 48
0.0148346190805723
100
AcDbLine
 10
-1.67325
 20
0.5847999999999994
 30
0.0
 11
-1.67325
 21
-0.5848
 31
0.0
  0
LINE
  5
1B6
330
17E
100
AcDbEntity
  8
AM_9
 48
0.0148346190805723
100
AcDbLine
 10
0.5416666666666666
 20
-0.3096000000000001
 30
0.0
 11
-0.5416666666666666
 21
-0.3096000000000001
 31
0.0
  0
LINE
  5
1B7
330
17E
100
AcDbEntity
  8
AM_9
 48
0.0148346190805723
100
AcDbLine
 10
1.625
 20
0.5848000000000001
 30
0.0
 11
-1.625
 21
0.5848000000000001
 31
0.0
  0
LINE
  5
1B8
330
17E
100
AcDbEntity
  8
AM_9
 48
0.0148346190805723
100
AcDbLine
 10
1.625
 20
-0.5847999999999999
 30
0.0
 11
-1.625
 21
-0.5847999999999999
 31
0.0
  0
ELLIPSE
  5
1B9
330
17E
100
AcDbEntity
  8
AM_9
 48
0.0148346190805723
100
AcDbEllipse
 10
-1.983198174666365
 20
0.0000000000000003
 30
0.0
 11
6.385792617942804E-16
 21
-0.1500000000000004
 31
0.0
210
0.0
220
0.0
230
1.0
 40
0.4999999999999952
 41
0.0
 42
6.283185307179586
  0
ELLIPSE
  5
1BA
330
17E
100
AcDbEntity
  8
AM_9
 48
0.0148346190805723
100
AcDbEllipse
 10
-1.896595634287921
 20
-0.0000000000000001
 30
0.0
 11
-8.266365894244627E-17
 21
-0.4499999999999996
 31
0.0
210
0.0
220
0.0
230
1.0
 40
0.5000000000000001
 41
0.0
 42
6.283185307179586
  0
LINE
  5
1BB
330
17E
100
AcDbEntity
  8
AM_7
 48
0.0148346190805723
100
AcDbLine
 10
3.4715
 20
0.0
 30
0.0
 11
2.7785
 21
0.0
 31
0.0
  0
LINE
  5
1BC
330
17E
100
AcDbEntity
  8
AM_0
 48
0.0148346190805723
100
AcDbLine
 10
2.81
 20
-0.5847999999999998
 30
0.0
 11
2.81
 21
-0.9699999999999999
 31
0.0
  0
LINE
  5
1BD
330
17E
100
AcDbEntity
  8
AM_0
 48
0.0148346190805723
100
AcDbLine
 10
2.81
 20
-0.9699999999999999
 30
0.0
 11
3.44
 21
-0.9699999999999999
 31
0.0
  0
LINE
  5
1BE
330
17E
100
AcDbEntity
  8
AM_0
 48
0.0148346190805723
100
AcDbLine
 10
3.44
 20
0.9699999999999999
 30
0.0
 11
2.81
 21
0.9699999999999999
 31
0.0
  0
LINE
  5
1BF
330
17E
100
AcDbEntity
  8
AM_0
 48
0.0148346190805723
100
AcDbLine
 10
2.81
 20
0.9699999999999999
 30
0.0
 11
2.81
 21
0.5847999999999999
 31
0.0
  0
LINE
  5
1C0
330
17E
100
AcDbEntity
  8
AM_0
 48
0.0148346190805723
100
AcDbLine
 10
3.44
 20
0.9699999999999999
 30
0.0
 11
3.44
 21
-0.9699999999999999
 31
0.0
  0
LINE
  5
1C1
330
17E
100
AcDbEntity
  8
AM_0
 48
0.0148346190805723
100
AcDbLine
 10
-2.19
 20
-0.5459999999999998
 30
0.0
 11
-2.1512
 21
-0.5847999999999998
 31
0.0
  0
LINE
  5
1C2
330
17E
100
AcDbEntity
  8
AM_0
 48
0.0148346190805723
100
AcDbLine
 10
-2.1512
 20
-0.5847999999999998
 30
0.0
 11
-1.625
 21
-0.5847999999999998
 31
0.0
  0
LINE
  5
1C3
330
17E
100
AcDbEntity
  8
AM_0
 48
0.0148346190805723
100
AcDbLine
 10
-2.1512
 20
0.5848000000000002
 30
0.0
 11
-2.19
 21
0.5460000000000002
 31
0.0
  0
LINE
  5
1C4
330
17E
100
AcDbEntity
  8
AM_0
 48
0.0148346190805723
100
AcDbLine
 10
-2.1512
 20
0.5848000000000002
 30
0.0
 11
-1.625
 21
0.5848000000000001
 31
0.0
  0
LINE
  5
1C5
330
17E
100
AcDbEntity
  8
AM_0
 48
0.0148346190805723
100
AcDbLine
 10
-2.19
 20
0.5460000000000002
 30
0.0
 11
-2.19
 21
-0.5459999999999998
 31
0.0
  0
LINE
  5
1C6
330
17E
100
AcDbEntity
  8
AM_0
 48
0.0148346190805723
100
AcDbLine
 10
-2.19
 20
0.5460000000000002
 30
0.0
 11
-1.625
 21
0.5460000000000002
 31
0.0
  0
LINE
  5
1C7
330
17E
100
AcDbEntity
  8
AM_0
 48
0.0148346190805723
100
AcDbLine
 10
-2.19
 20
-0.5459999999999998
 30
0.0
 11
-1.625
 21
-0.5459999999999998
 31
0.0
  0
LINE
  5
1C8
330
17E
100
AcDbEntity
  8
AM_0
 48
0.0148346190805723
100
AcDbLine
 10
3.44
 20
-0.5847999999999998
 30
0.0
 11
1.625
 21
-0.5847999999999998
 31
0.0
  0
LINE
  5
1C9
330
17E
100
AcDbEntity
  8
AM_0
 48
0.0148346190805723
100
AcDbLine
 10
3.44
 20
-0.5848000000000001
 30
0.0
 11
3.3712
 21
-0.5160000000000002
 31
0.0
  0
LINE
  5
1CA
330
17E
100
AcDbEntity
  8
AM_4
 48
0.0148346190805723
100
AcDbLine
 10
3.3712
 20
-0.5160000000000002
 30
0.0
 11
1.625
 21
-0.5159999999999998
 31
0.0
  0
LINE
  5
1CB
330
17E
100
AcDbEntity
  8
AM_4
 48
0.0148346190805723
100
AcDbLine
 10
3.3712
 20
-0.5160000000000002
 30
0.0
 11
3.3712
 21
0.5160000000000001
 31
0.0
  0
LINE
  5
1CC
330
17E
100
AcDbEntity
  8
AM_0
 48
0.0148346190805723
100
AcDbLine
 10
3.44
 20
0.5848000000000002
 30
0.0
 11
1.625
 21
0.5848000000000001
 31
0.0
  0
LINE
  5
1CD
330
17E
100
AcDbEntity
  8
AM_4
 48
0.0148346190805723
100
AcDbLine
 10
3.3712
 20
0.5160000000000001
 30
0.0
 11
1.625
 21
0.5160000000000001
 31
0.0
  0
LINE
  5
1CE
330
17E
100
AcDbEntity
  8
AM_0
 48
0.0148346190805723
100
AcDbLine
 10
3.3712
 20
0.5160000000000002
 30
0.0
 11
3.44
 21
0.5848000000000005
 31
0.0
  0
LINE
  5
1CF
330
17E
100
AcDbEntity
  8
AM_0
 48
0.0148346190805723
100
AcDbLine
 10
1.625
 20
0.6880000000000001
 30
0.0
 11
-1.625
 21
0.6880000000000001
 31
0.0
  0
LINE
  5
1D0
330
17E
100
AcDbEntity
  8
AM_4
 48
0.0148346190805723
100
AcDbLine
 10
1.5562
 20
0.6192000000000002
 30
0.0
 11
-1.5562
 21
0.6192000000000002
 31
0.0
  0
LINE
  5
1D1
330
17E
100
AcDbEntity
  8
AM_0
 48
0.0148346190805723
100
AcDbLine
 10
1.625
 20
0.3440000000000001
 30
0.0
 11
-1.625
 21
0.3440000000000001
 31
0.0
  0
LINE
  5
1D2
330
17E
100
AcDbEntity
  8
AM_4
 48
0.0148346190805723
100
AcDbLine
 10
-1.5562
 20
0.3440000000000001
 30
0.0
 11
-1.5562
 21
0.6192000000000002
 31
0.0
  0
LINE
  5
1D3
330
17E
100
AcDbEntity
  8
AM_0
 48
0.0148346190805723
100
AcDbLine
 10
-1.625
 20
0.6879999999999996
 30
0.0
 11
-1.5562
 21
0.6191999999999996
 31
0.0
  0
LINE
  5
1D4
330
17E
100
AcDbEntity
  8
AM_0
 48
0.0148346190805723
100
AcDbLine
 10
-1.625
 20
0.6880000000000001
 30
0.0
 11
-1.625
 21
-0.6879999999999996
 31
0.0
  0
LINE
  5
1D5
330
17E
100
AcDbEntity
  8
AM_4
 48
0.0148346190805723
100
AcDbLine
 10
-1.5562
 20
-0.6191999999999998
 30
0.0
 11
-1.5562
 21
-0.3439999999999998
 31
0.0
  0
LINE
  5
1D6
330
17E
100
AcDbEntity
  8
AM_4
 48
0.0148346190805723
100
AcDbLine
 10
1.5562
 20
-0.6192000000000009
 30
0.0
 11
-1.5562
 21
-0.6191999999999998
 31
0.0
  0
LINE
  5
1D7
330
17E
100
AcDbEntity
  8
AM_0
 48
0.0148346190805723
100
AcDbLine
 10
-1.5562
 20
-0.6191999999999998
 30
0.0
 11
-1.625
 21
-0.6879999999999997
 31
0.0
  0
LINE
  5
1D8
330
17E
100
AcDbEntity
  8
AM_0
 48
0.0148346190805723
100
AcDbLine
 10
1.625
 20
-0.6879999999999996
 30
0.0
 11
-1.625
 21
-0.6879999999999996
 31
0.0
  0
LINE
  5
1D9
330
17E
100
AcDbEntity
  8
AM_0
 48
0.0148346190805723
100
AcDbLine
 10
1.625
 20
0.6880000000000001
 30
0.0
 11
1.625
 21
-0.6879999999999996
 31
0.0
  0
LINE
  5
1DA
330
17E
100
AcDbEntity
  8
AM_0
 48
0.0148346190805723
100
AcDbLine
 10
1.5562
 20
0.6192000000000002
 30
0.0
 11
1.625
 21
0.6880000000000002
 31
0.0
  0
LINE
  5
1DB
330
17E
100
AcDbEntity
  8
AM_4
 48
0.0148346190805723
100
AcDbLine
 10
1.5562
 20
0.3440000000000001
 30
0.0
 11
1.5562
 21
0.6192000000000002
 31
0.0
  0
LINE
  5
1DC
330
17E
100
AcDbEntity
  8
AM_0
 48
0.0148346190805723
100
AcDbLine
 10
-1.625
 20
-0.3439999999999998
 30
0.0
 11
1.625
 21
-0.3439999999999998
 31
0.0
  0
LINE
  5
1DD
330
17E
100
AcDbEntity
  8
AM_4
 48
0.0148346190805723
100
AcDbLine
 10
1.5562
 20
-0.6192000000000009
 30
0.0
 11
1.5562
 21
-0.3439999999999998
 31
0.0
  0
LINE
  5
1DE
330
17E
100
AcDbEntity
  8
AM_0
 48
0.0148346190805723
100
AcDbLine
 10
1.624999999999999
 20
-0.6880000000000003
 30
0.0
 11
1.5562
 21
-0.6192000000000009
 31
0.0
  0
ENDBLK
  5
181
330
17E
100
AcDbEntity
  8
0
100
AcDbBlockEnd
  0
ENDSEC
  0
SECTION
  2
ENTITIES
  0
ATTDEF
  5
6F
330
1F
100
AcDbEntity
  8
AM_6
100
AcDbText
 10
8.471499999999999
 20
0.9699999999999999
 30
0.0
 40
0.5
  1
Set Screw Wide Slot Take Up Inch Bore
100
AcDbAttributeDefinition
  3

  2
NN
 70
     8
280
     0
  0
ATTDEF
  5
70
330
1F
100
AcDbEntity
  8
AM_6
100
AcDbText
 10
8.471499999999999
 20
0.4699999999999999
 30
0.0
 40
0.5
  1
SC Take-Up Bearings -Wide Slot -(Normal Duty)
100
AcDbAttributeDefinition
  3

  2
NT
 70
     8
280
     0
  0
ATTDEF
  5
71
330
1F
100
AcDbEntity
  8
AM_6
100
AcDbText
 10
8.471499999999999
 20
-0.0300000000000001
 30
0.0
 40
0.5
  1
125151
100
AcDbAttributeDefinition
  3

  2
NB
 70
     8
280
     0
  0
ATTDEF
  5
72
330
1F
100
AcDbEntity
  8
AM_6
100
AcDbText
 10
8.471499999999999
 20
-0.5300000000000001
 30
0.0
 40
0.5
  1
$PN.
100
AcDbAttributeDefinition
  3

  2
NBSYN
 70
     8
280
     0
  0
ATTDEF
  5
73
330
1F
100
AcDbEntity
  8
AM_6
100
AcDbText
 10
8.471499999999999
 20
-1.03
 30
0.0
 40
0.5
  1
125151
100
AcDbAttributeDefinition
  3

  2
LINA
 70
     8
280
     0
  0
ATTDEF
  5
74
330
1F
100
AcDbEntity
  8
AM_6
100
AcDbText
 10
8.471499999999999
 20
-1.53
 30
0.0
 40
0.5
  1
209
100
AcDbAttributeDefinition
  3

  2
SERIES
 70
     8
280
     0
  0
ATTDEF
  5
75
330
1F
100
AcDbEntity
  8
AM_6
100
AcDbText
 10
8.471499999999999
 20
-2.03
 30
0.0
 40
0.5
  1
1-5/8
100
AcDbAttributeDefinition
  3

  2
SS
 70
     8
280
     0
  0
ATTDEF
  5
76
330
1F
100
AcDbEntity
  8
AM_6
100
AcDbText
 10
8.471499999999999
 20
-2.53
 30
0.0
 40
0.5
  1
125151
100
AcDbAttributeDefinition
  3

  2
PN
 70
     8
280
     0
  0
ATTDEF
  5
77
330
1F
100
AcDbEntity
  8
AM_6
100
AcDbText
 10
8.471499999999999
 20
-3.03
 30
0.0
 40
0.5
  1
WSTU-SC-110L
100
AcDbAttributeDefinition
  3

  2
DESCRIPTION
 70
     8
280
     0
  0
ATTDEF
  5
78
330
1F
100
AcDbEntity
  8
AM_6
100
AcDbText
 10
8.471499999999999
 20
-3.53
 30
0.0
 40
0.5
  1
6.1
100
AcDbAttributeDefinition
  3

  2
W
 70
     8
280
     0
  0
ATTDEF
  5
79
330
1F
100
AcDbEntity
  8
AM_6
100
AcDbText
 10
8.471499999999999
 20
-4.03
 30
0.0
 40
0.5
  1
WS400
100
AcDbAttributeDefinition
  3

  2
FS
 70
     8
280
     0
  0
ATTDEF
  5
7A
330
1F
100
AcDbEntity
  8
AM_6
100
AcDbText
 10
8.471499999999999
 20
-4.53
 30
0.0
 40
0.5
  1
RE-LUBE
100
AcDbAttributeDefinition
  3

  2
LF
 70
     8
280
     0
  0
ATTDEF
  5
7B
330
1F
100
AcDbEntity
  8
AM_6
100
AcDbText
 10
8.471499999999999
 20
-5.03
 30
0.0
 40
0.5
  1
1.94
100
AcDbAttributeDefinition
  3

  2
A
 70
     8
280
     0
  0
ATTDEF
  5
7C
330
1F
100
AcDbEntity
  8
AM_6
100
AcDbText
 10
8.471499999999999
 20
-5.53
 30
0.0
 40
0.5
  1
5.63
100
AcDbAttributeDefinition
  3

  2
B
 70
     8
280
     0
  0
ATTDEF
  5
7D
330
1F
100
AcDbEntity
  8
AM_6
100
AcDbText
 10
8.471499999999999
 20
-6.03
 30
0.0
 40
0.5
  1
0.688
100
AcDbAttributeDefinition
  3

  2
C
 70
     8
280
     0
  0
ATTDEF
  5
7E
330
1F
100
AcDbEntity
  8
AM_6
100
AcDbText
 10
8.471499999999999
 20
-6.53
 30
0.0
 40
0.5
  1
3.25
100
AcDbAttributeDefinition
  3

  2
D
 70
     8
280
     0
  0
ATTDEF
  5
7F
330
1F
100
AcDbEntity
  8
AM_6
100
AcDbText
 10
8.471499999999999
 20
-7.03
 30
0.0
 40
0.5
  1
3.44
100
AcDbAttributeDefinition
  3

  2
E
 70
     8
280
     0
  0
ATTDEF
  5
80
330
1F
100
AcDbEntity
  8
AM_6
100
AcDbText
 10
8.471499999999999
 20
-7.53
 30
0.0
 40
0.5
  1
1
100
AcDbAttributeDefinition
  3

  2
F
 70
     8
280
     0
  0
ATTDEF
  5
81
330
1F
100
AcDbEntity
  8
AM_6
100
AcDbText
 10
8.471499999999999
 20
-8.030000000000001
 30
0.0
 40
0.5
  1
0.63
100
AcDbAttributeDefinition
  3

  2
G
 70
     8
280
     0
  0
ATTDEF
  5
82
330
1F
100
AcDbEntity
  8
AM_6
100
AcDbText
 10
8.471499999999999
 20
-8.530000000000001
 30
0.0
 40
0.5
  1
0.75
100
AcDbAttributeDefinition
  3

  2
H
 70
     8
280
     0
  0
ATTDEF
  5
83
330
1F
100
AcDbEntity
  8
AM_6
100
AcDbText
 10
8.471499999999999
 20
-9.030000000000001
 30
0.0
 40
0.5
  1
3.25
100
AcDbAttributeDefinition
  3

  2
J
 70
     8
280
     0
  0
ATTDEF
  5
84
330
1F
100
AcDbEntity
  8
AM_6
100
AcDbText
 10
8.471499999999999
 20
-9.530000000000001
 30
0.0
 40
0.5
  1
1.94
100
AcDbAttributeDefinition
  3

  2
K
 70
     8
280
     0
  0
ATTDEF
  5
85
330
1F
100
AcDbEntity
  8
AM_6
100
AcDbText
 10
8.471499999999999
 20
-10.03
 30
0.0
 40
0.5
  1
2.22
100
AcDbAttributeDefinition
  3

  2
L
 70
     8
280
     0
  0
ATTDEF
  5
86
330
1F
100
AcDbEntity
  8
AM_6
100
AcDbText
 10
8.471499999999999
 20
-10.53
 30
0.0
 40
0.5
  1
3.985 / 4.015
100
AcDbAttributeDefinition
  3

  2
M
 70
     8
280
     0
  0
ATTDEF
  5
87
330
1F
100
AcDbEntity
  8
AM_6
100
AcDbText
 10
8.471499999999999
 20
-11.03
 30
0.0
 40
0.5
  1
4.75
100
AcDbAttributeDefinition
  3

  2
N
 70
     8
280
     0
  0
ATTDEF
  5
88
330
1F
100
AcDbEntity
  8
AM_6
100
AcDbText
 10
8.471499999999999
 20
-11.53
 30
0.0
 40
0.5
  1
0.75
100
AcDbAttributeDefinition
  3

  2
R
 70
     8
280
     0
  0
ATTDEF
  5
89
330
1F
100
AcDbEntity
  8
AM_6
100
AcDbText
 10
8.471499999999999
 20
-12.03
 30
0.0
 40
0.5
  1
1.19
100
AcDbAttributeDefinition
  3

  2
S
 70
     8
280
     0
  0
ATTDEF
  5
8A
330
1F
100
AcDbEntity
  8
AM_6
100
AcDbText
 10
8.471499999999999
 20
-12.53
 30
0.0
 40
0.5
  1
1.94
100
AcDbAttributeDefinition
  3

  2
T
 70
     8
280
     0
  0
ATTDEF
  5
8B
330
1F
100
AcDbEntity
  8
AM_6
100
AcDbText
 10
8.471499999999999
 20
-13.03
 30
0.0
 40
0.5
  1
baldor
100
AcDbAttributeDefinition
  3

  2
COMPANY
 70
     8
280
     0
  0
INSERT
  5
8D
330
1F
100
AcDbEntity
  8
0
100
AcDbBlockReference
  2
1_045874_0_in_125151_4
 10
0.0
 20
0.0
 30
0.0
  0
INSERT
  5
F2
330
1F
100
AcDbEntity
  8
0
100
AcDbBlockReference
  2
2_405016_Inch_0_in_125151_4
 10
0.0
 20
0.0
 30
0.0
  0
INSERT
  5
17F
330
1F
100
AcDbEntity
  8
0
100
AcDbBlockReference
  2
3_125151H_0_in_125151_4
 10
0.0
 20
0.0
 30
0.0
  0
POINT
  5
1E0
330
1F
100
AcDbEntity
  8
ConnectionPoints
100
AcDbPoint
 10
-1.983198174666365
 20
-0.0000000000000001
 30
-1.145
  0
POINT
  5
1E1
330
1F
100
AcDbEntity
  8
ConnectionPoints
100
AcDbPoint
 10
-1.983198174666365
 20
-0.0000000000000001
 30
-1.145
  0
POINT
  5
1E2
330
1F
100
AcDbEntity
  8
ConnectionPoints
100
AcDbPoint
 10
0.0
 20
-1.19
 30
0.0000000000000001
  0
ENDSEC
  0
SECTION
  2
OBJECTS
  0
DICTIONARY
  5
C
330
0
100
AcDbDictionary
281
     1
  3
ACAD_DETAILVIEWSTYLE
350
1EA
  3
ACAD_GROUP
350
D
  3
ACAD_LAYOUT
350
1A
  3
ACAD_MATERIAL
350
43
  3
ACAD_MLEADERSTYLE
350
6B
  3
ACAD_MLINESTYLE
350
17
  3
ACAD_PLOTSETTINGS
350
19
  3
ACAD_PLOTSTYLENAME
350
E
  3
ACAD_SCALELIST
350
47
  3
ACAD_SECTIONVIEWSTYLE
350
1EB
  3
ACAD_TABLESTYLE
350
69
  3
ACAD_VISUALSTYLE
350
2A
  3
ACDB_RECOMPOSE_DATA
350
1E7
  3
AcDbVariableDictionary
350
1E3
  0
SUN
  5
6D
330
29
100
AcDbSun
 90
        1
290
     0
 63
     7
421
 16777215
 40
1.0
291
     1
 91
  2455826
 92
 54000000
292
     0
 70
     2
 71
   256
280
     1
  0
DICTIONARY
  5
1EA
102
{ACAD_REACTORS
330
C
102
}
330
C
100
AcDbDictionary
281
     1
  0
DICTIONARY
  5
D
102
{ACAD_REACTORS
330
C
102
}
330
C
100
AcDbDictionary
281
     1
  0
DICTIONARY
  5
1A
102
{ACAD_REACTORS
330
C
102
}
330
C
100
AcDbDictionary
281
     1
  3
Layout1
350
1E
  3
Layout2
350
26
  3
Model
350
22
  0
DICTIONARY
  5
43
102
{ACAD_REACTORS
330
C
102
}
330
C
100
AcDbDictionary
281
     1
  3
ByBlock
350
45
  3
ByLayer
350
44
  3
Global
350
46
  0
DICTIONARY
  5
6B
102
{ACAD_REACTORS
330
C
102
}
330
C
100
AcDbDictionary
281
     1
  3
Standard
350
6C
  0
DICTIONARY
  5
17
102
{ACAD_REACTORS
330
C
102
}
330
C
100
AcDbDictionary
281
     1
  3
Standard
350
18
  0
DICTIONARY
  5
19
102
{ACAD_REACTORS
330
C
102
}
330
C
100
AcDbDictionary
281
     1
  0
ACDBDICTIONARYWDFLT
  5
E
102
{ACAD_REACTORS
330
C
102
}
330
C
100
AcDbDictionary
281
     1
  3
Normal
350
F
100
AcDbDictionaryWithDefault
340
F
  0
DICTIONARY
  5
47
102
{ACAD_REACTORS
330
C
102
}
330
C
100
AcDbDictionary
281
     1
  3
A0
350
48
  3
A1
350
49
  3
A2
350
4A
  3
A3
350
4B
  3
A4
350
4C
  3
A5
350
4D
  3
A6
350
4E
  3
A7
350
4F
  3
A8
350
50
  3
A9
350
51
  3
B0
350
52
  3
B1
350
53
  3
B2
350
54
  3
B3
350
55
  3
B4
350
56
  3
B5
350
57
  3
B6
350
58
  3
B7
350
59
  3
B8
350
5A
  3
B9
350
5B
  3
C0
350
5C
  3
C1
350
5D
  3
C2
350
5E
  3
C3
350
5F
  3
C4
350
60
  3
C5
350
61
  3
C6
350
62
  3
C7
350
63
  3
C8
350
64
  3
C9
350
65
  3
D0
350
66
  3
D1
350
67
  3
D2
350
68
  0
DICTIONARY
  5
1EB
102
{ACAD_REACTORS
330
C
102
}
330
C
100
AcDbDictionary
281
     1
  0
DICTIONARY
  5
69
102
{ACAD_REACTORS
330
C
102
}
330
C
100
AcDbDictionary
281
     1
  3
Standard
350
6A
  0
DICTIONARY
  5
2A
102
{ACAD_REACTORS
330
C
102
}
330
C
100
AcDbDictionary
281
     1
  3
2dWireframe
350
2F
  3
Basic
350
32
  3
Brighten
350
36
  3
ColorChange
350
3A
  3
Conceptual
350
34
  3
Dim
350
35
  3
EdgeColorOff
350
3D
  3
Facepattern
350
39
  3
Flat
350
2B
  3
FlatWithEdges
350
2C
  3
Gouraud
350
2D
  3
GouraudWithEdges
350
2E
  3
Hidden
350
31
  3
JitterOff
350
3B
  3
Linepattern
350
38
  3
OverhangOff
350
3C
  3
Realistic
350
33
  3
Shaded
350
42
  3
Shaded with edges
350
41
  3
Shades of Gray
350
3E
  3
Sketchy
350
3F
  3
Thicken
350
37
  3
Wireframe
350
30
  3
X-Ray
350
40
  0
XRECORD
  5
1E7
102
{ACAD_REACTORS
330
C
102
}
330
C
100
AcDbXrecord
280
     1
 90
        1
330
6A
  0
DICTIONARY
  5
1E3
102
{ACAD_REACTORS
330
C
102
}
330
C
100
AcDbDictionary
281
     1
  3
CANNOSCALE
350
1E4
  3
CMLEADERSTYLE
350
1E9
  3
CTABLESTYLE
350
1E8
  0
LAYOUT
  5
1E
102
{ACAD_REACTORS
330
1A
102
}
330
1A
100
AcDbPlotSettings
  1

  2
none_device
  4

  6

 40
0.0
 41
0.0
 42
0.0
 43
0.0
 44
0.0
 45
0.0
 46
0.0
 47
0.0
 48
0.0
 49
0.0
140
0.0
141
0.0
142
1.0
143
1.0
 70
   688
 72
     0
 73
     0
 74
     5
  7

 75
    16
 76
     0
 77
     2
 78
   300
147
1.0
148
0.0
149
0.0
100
AcDbLayout
  1
Layout1
 70
     1
 71
     1
 10
0.0
 20
0.0
 11
12.0
 21
9.0
 12
0.0
 22
0.0
 32
0.0
 14
1.000000000000000E+20
 24
1.000000000000000E+20
 34
1.000000000000000E+20
 15
-1.000000000000000E+20
 25
-1.000000000000000E+20
 35
-1.000000000000000E+20
146
0.0
 13
0.0
 23
0.0
 33
0.0
 16
1.0
 26
0.0
 36
0.0
 17
0.0
 27
1.0
 37
0.0
 76
     0
330
1B
  0
LAYOUT
  5
26
102
{ACAD_REACTORS
330
1A
102
}
330
1A
100
AcDbPlotSettings
  1

  2
none_device
  4

  6

 40
0.0
 41
0.0
 42
0.0
 43
0.0
 44
0.0
 45
0.0
 46
0.0
 47
0.0
 48
0.0
 49
0.0
140
0.0
141
0.0
142
1.0
143
1.0
 70
   688
 72
     0
 73
     0
 74
     5
  7

 75
    16
 76
     0
 77
     2
 78
   300
147
1.0
148
0.0
149
0.0
100
AcDbLayout
  1
Layout2
 70
     1
 71
     2
 10
0.0
 20
0.0
 11
0.0
 21
0.0
 12
0.0
 22
0.0
 32
0.0
 14
0.0
 24
0.0
 34
0.0
 15
0.0
 25
0.0
 35
0.0
146
0.0
 13
0.0
 23
0.0
 33
0.0
 16
1.0
 26
0.0
 36
0.0
 17
0.0
 27
1.0
 37
0.0
 76
     0
330
23
  0
LAYOUT
  5
22
102
{ACAD_REACTORS
330
1A
102
}
330
1A
100
AcDbPlotSettings
  1

  2
none_device
  4
Letter_(8.50_x_11.00_Inches)
  6

 40
6.35
 41
6.35
 42
6.35000508
 43
6.35000508
 44
215.9
 45
279.4
 46
0.0
 47
0.0
 48
0.0
 49
0.0
140
0.0
141
0.0
142
1.0
143
1.0
 70
  1712
 72
     0
 73
     0
 74
     0
  7

 75
     0
 76
     0
 77
     2
 78
   300
147
1.0
148
0.0
149
0.0
100
AcDbLayout
  1
Model
 70
     1
 71
     0
 10
0.0
 20
0.0
 11
12.0
 21
9.0
 12
0.0
 22
0.0
 32
0.0
 14
1.000000000000000E+20
 24
1.000000000000000E+20
 34
1.000000000000000E+20
 15
-1.000000000000000E+20
 25
-1.000000000000000E+20
 35
-1.000000000000000E+20
146
0.0
 13
0.0
 23
0.0
 33
0.0
 16
1.0
 26
0.0
 36
0.0
 17
0.0
 27
1.0
 37
0.0
 76
     0
330
1F
331
29
  0
MATERIAL
  5
45
102
{ACAD_REACTORS
330
43
102
}
330
43
100
AcDbMaterial
  1
ByBlock
 72
     1
 94
      127
  0
MATERIAL
  5
44
102
{ACAD_REACTORS
330
43
102
}
330
43
100
AcDbMaterial
  1
ByLayer
 72
     1
 94
      127
  0
MATERIAL
  5
46
102
{ACAD_REACTORS
330
43
102
}
330
43
100
AcDbMaterial
  1
Global
 72
     1
 94
      127
  0
MLEADERSTYLE
  5
6C
102
{ACAD_REACTORS
330
6B
102
}
330
6B
100
AcDbMLeaderStyle
179
     2
170
     2
171
     1
172
     0
 90
        2
 40
0.0
 41
0.0
173
     1
 91
-1056964608
340
14
 92
       -2
290
     1
 42
0.09
291
     1
 43
0.36
  3
Standard
341
0
 44
0.18
300

342
11
174
     1
178
     6
175
     1
176
     0
 93
-1056964608
 45
0.18
292
     0
297
     0
 46
0.18
343
0
 94
-1056964608
 47
1.0
 49
1.0
140
1.0
293
     1
141
0.0
294
     1
177
     0
142
1.0
295
     0
296
     0
143
0.125
271
     0
272
     9
273
     9
298
     0
  0
MLINESTYLE
  5
18
102
{ACAD_REACTORS
330
17
102
}
330
17
100
AcDbMlineStyle
  2
Standard
 70
     0
  3

 62
   256
 51
90.0
 52
90.0
 71
     2
 49
0.5
 62
   256
  6
BYLAYER
 49
-0.5
 62
   256
  6
BYLAYER
  0
ACDBPLACEHOLDER
  5
F
102
{ACAD_REACTORS
330
E
102
}
330
E
  0
SCALE
  5
48
102
{ACAD_REACTORS
330
47
102
}
330
47
100
AcDbScale
 70
     0
300
1:1
140
1.0
141
1.0
290
     1
  0
SCALE
  5
49
102
{ACAD_REACTORS
330
47
102
}
330
47
100
AcDbScale
 70
     0
300
1:2
140
1.0
141
2.0
290
     0
  0
SCALE
  5
4A
102
{ACAD_REACTORS
330
47
102
}
330
47
100
AcDbScale
 70
     0
300
1:4
140
1.0
141
4.0
290
     0
  0
SCALE
  5
4B
102
{ACAD_REACTORS
330
47
102
}
330
47
100
AcDbScale
 70
     0
300
1:5
140
1.0
141
5.0
290
     0
  0
SCALE
  5
4C
102
{ACAD_REACTORS
330
47
102
}
330
47
100
AcDbScale
 70
     0
300
1:8
140
1.0
141
8.0
290
     0
  0
SCALE
  5
4D
102
{ACAD_REACTORS
330
47
102
}
330
47
100
AcDbScale
 70
     0
300
1:10
140
1.0
141
10.0
290
     0
  0
SCALE
  5
4E
102
{ACAD_REACTORS
330
47
102
}
330
47
100
AcDbScale
 70
     0
300
1:16
140
1.0
141
16.0
290
     0
  0
SCALE
  5
4F
102
{ACAD_REACTORS
330
47
102
}
330
47
100
AcDbScale
 70
     0
300
1:20
140
1.0
141
20.0
290
     0
  0
SCALE
  5
50
102
{ACAD_REACTORS
330
47
102
}
330
47
100
AcDbScale
 70
     0
300
1:30
140
1.0
141
30.0
290
     0
  0
SCALE
  5
51
102
{ACAD_REACTORS
330
47
102
}
330
47
100
AcDbScale
 70
     0
300
1:40
140
1.0
141
40.0
290
     0
  0
SCALE
  5
52
102
{ACAD_REACTORS
330
47
102
}
330
47
100
AcDbScale
 70
     0
300
1:50
140
1.0
141
50.0
290
     0
  0
SCALE
  5
53
102
{ACAD_REACTORS
330
47
102
}
330
47
100
AcDbScale
 70
     0
300
1:100
140
1.0
141
100.0
290
     0
  0
SCALE
  5
54
102
{ACAD_REACTORS
330
47
102
}
330
47
100
AcDbScale
 70
     0
300
2:1
140
2.0
141
1.0
290
     0
  0
SCALE
  5
55
102
{ACAD_REACTORS
330
47
102
}
330
47
100
AcDbScale
 70
     0
300
4:1
140
4.0
141
1.0
290
     0
  0
SCALE
  5
56
102
{ACAD_REACTORS
330
47
102
}
330
47
100
AcDbScale
 70
     0
300
8:1
140
8.0
141
1.0
290
     0
  0
SCALE
  5
57
102
{ACAD_REACTORS
330
47
102
}
330
47
100
AcDbScale
 70
     0
300
10:1
140
10.0
141
1.0
290
     0
  0
SCALE
  5
58
102
{ACAD_REACTORS
330
47
102
}
330
47
100
AcDbScale
 70
     0
300
100:1
140
100.0
141
1.0
290
     0
  0
SCALE
  5
59
102
{ACAD_REACTORS
330
47
102
}
330
47
100
AcDbScale
 70
     0
300
1/128" = 1'-0"
140
0.0078125
141
12.0
290
     0
  0
SCALE
  5
5A
102
{ACAD_REACTORS
330
47
102
}
330
47
100
AcDbScale
 70
     0
300
1/64" = 1'-0"
140
0.015625
141
12.0
290
     0
  0
SCALE
  5
5B
102
{ACAD_REACTORS
330
47
102
}
330
47
100
AcDbScale
 70
     0
300
1/32" = 1'-0"
140
0.03125
141
12.0
290
     0
  0
SCALE
  5
5C
102
{ACAD_REACTORS
330
47
102
}
330
47
100
AcDbScale
 70
     0
300
1/16" = 1'-0"
140
0.0625
141
12.0
290
     0
  0
SCALE
  5
5D
102
{ACAD_REACTORS
330
47
102
}
330
47
100
AcDbScale
 70
     0
300
3/32" = 1'-0"
140
0.09375
141
12.0
290
     0
  0
SCALE
  5
5E
102
{ACAD_REACTORS
330
47
102
}
330
47
100
AcDbScale
 70
     0
300
1/8" = 1'-0"
140
0.125
141
12.0
290
     0
  0
SCALE
  5
5F
102
{ACAD_REACTORS
330
47
102
}
330
47
100
AcDbScale
 70
     0
300
3/16" = 1'-0"
140
0.1875
141
12.0
290
     0
  0
SCALE
  5
60
102
{ACAD_REACTORS
330
47
102
}
330
47
100
AcDbScale
 70
     0
300
1/4" = 1'-0"
140
0.25
141
12.0
290
     0
  0
SCALE
  5
61
102
{ACAD_REACTORS
330
47
102
}
330
47
100
AcDbScale
 70
     0
300
3/8" = 1'-0"
140
0.375
141
12.0
290
     0
  0
SCALE
  5
62
102
{ACAD_REACTORS
330
47
102
}
330
47
100
AcDbScale
 70
     0
300
1/2" = 1'-0"
140
0.5
141
12.0
290
     0
  0
SCALE
  5
63
102
{ACAD_REACTORS
330
47
102
}
330
47
100
AcDbScale
 70
     0
300
3/4" = 1'-0"
140
0.75
141
12.0
290
     0
  0
SCALE
  5
64
102
{ACAD_REACTORS
330
47
102
}
330
47
100
AcDbScale
 70
     0
300
1" = 1'-0"
140
1.0
141
12.0
290
     0
  0
SCALE
  5
65
102
{ACAD_REACTORS
330
47
102
}
330
47
100
AcDbScale
 70
     0
300
1-1/2" = 1'-0"
140
1.5
141
12.0
290
     0
  0
SCALE
  5
66
102
{ACAD_REACTORS
330
47
102
}
330
47
100
AcDbScale
 70
     0
300
3" = 1'-0"
140
3.0
141
12.0
290
     0
  0
SCALE
  5
67
102
{ACAD_REACTORS
330
47
102
}
330
47
100
AcDbScale
 70
     0
300
6" = 1'-0"
140
6.0
141
12.0
290
     0
  0
SCALE
  5
68
102
{ACAD_REACTORS
330
47
102
}
330
47
100
AcDbScale
 70
     0
300
1'-0" = 1'-0"
140
12.0
141
12.0
290
     0
  0
TABLESTYLE
  5
6A
102
{ACAD_REACTORS
330
69
102
}
102
{ACAD_XDICTIONARY
360
1E5
102
}
330
69
100
AcDbTableStyle
  3
Standard
 70
     0
 71
     0
 40
0.06
 41
0.06
280
     0
281
     0
  7
Standard
140
0.18
170
     2
 62
     0
 63
   257
283
     0
 90
        4
 91
        0
  1

274
    -2
284
     1
 64
     0
275
    -2
285
     1
 65
     0
276
    -2
286
     1
 66
     0
277
    -2
287
     1
 67
     0
278
    -2
288
     1
 68
     0
279
    -2
289
     1
 69
     0
  7
Standard
140
0.25
170
     5
 62
     0
 63
   257
283
     0
 90
        4
 91
        0
  1

274
    -2
284
     1
 64
     0
275
    -2
285
     1
 65
     0
276
    -2
286
     1
 66
     0
277
    -2
287
     1
 67
     0
278
    -2
288
     1
 68
     0
279
    -2
289
     1
 69
     0
  7
Standard
140
0.18
170
     5
 62
     0
 63
   257
283
     0
 90
        4
 91
        0
  1

274
    -2
284
     1
 64
     0
275
    -2
285
     1
 65
     0
276
    -2
286
     1
 66
     0
277
    -2
287
     1
 67
     0
278
    -2
288
     1
 68
     0
279
    -2
289
     1
 69
     0
  0
VISUALSTYLE
  5
2F
102
{ACAD_REACTORS
330
2A
102
}
330
2A
100
AcDbVisualStyle
  2
2dWireframe
 70
     4
177
     3
291
     0
 70
    58
 90
        0
176
     1
 90
        2
176
     1
 90
        0
176
     1
 90
        0
176
     1
 40
0.6
176
     1
 40
30.0
176
     1
 62
     7
420
 16777215
176
     1
 90
        1
176
     1
 90
        4
176
     1
 62
     7
176
     1
 62
   257
176
     1
 90
        1
176
     1
 90
        1
176
     1
 40
1.0
176
     1
 90
        0
176
     1
 62
   257
176
     1
 40
1.0
176
     1
 90
        1
176
     1
 90
        6
176
     1
 90
        2
176
     1
 62
     7
176
     1
 90
        5
176
     1
 90
        0
176
     1
 90
        0
176
     1
290
     0
176
     1
 90
        1
176
     1
 40
0.0
176
     1
 90
        0
176
     1
290
     1
176
     1
290
     1
176
     1
290
     0
176
     1
290
     0
176
     1
290
     0
176
     1
290
     0
176
     1
290
     0
176
     1
290
     0
176
     1
290
     0
176
     1
 90
       50
176
     1
 40
0.0
176
     1
 40
1.0
176
     1
 90
        0
176
     1
 62
    18
420
        0
176
     1
 90
       50
176
     1
 90
        3
176
     1
 62
     5
420
      255
176
     1
290
     0
176
     1
 90
       50
176
     1
 90
       50
176
     1
 90
       50
176
     1
290
     0
176
     1
 90
       50
176
     1
 62
   256
176
     0
 40
1.0
176
     0
 90
        2
176
     1
  1
strokes_ogs.tif
176
     1
290
     0
176
     1
 40
1.0
176
     1
 40
1.0
176
     1
  0
VISUALSTYLE
  5
32
102
{ACAD_REACTORS
330
2A
102
}
330
2A
100
AcDbVisualStyle
  2
Basic
 70
     7
177
     3
291
     1
 70
    58
 90
        1
176
     1
 90
        0
176
     1
 90
        1
176
     1
 90
        0
176
     1
 40
0.6
176
     1
 40
30.0
176
     1
 62
     7
420
 16777215
176
     1
 90
        0
176
     1
 90
        4
176
     1
 62
     7
176
     1
 62
   257
176
     1
 90
        1
176
     1
 90
        1
176
     1
 40
1.0
176
     1
 90
        8
176
     1
 62
     7
176
     1
 40
1.0
176
     1
 90
        1
176
     1
 90
        6
176
     1
 90
        2
176
     1
 62
     7
176
     1
 90
        5
176
     1
 90
        0
176
     1
 90
        0
176
     1
290
     0
176
     1
 90
        1
176
     1
 40
0.0
176
     1
 90
        0
176
     1
290
     0
176
     1
290
     1
176
     1
290
     1
176
     1
290
     0
176
     1
290
     0
176
     1
290
     0
176
     1
290
     0
176
     1
290
     0
176
     1
290
     0
176
     1
 90
       50
176
     1
 40
0.0
176
     1
 40
1.0
176
     1
 90
        0
176
     1
 62
    18
420
        0
176
     1
 90
       50
176
     1
 90
        3
176
     1
 62
     5
420
      255
176
     1
290
     0
176
     1
 90
       50
176
     1
 90
       50
176
     1
 90
       50
176
     1
290
     0
176
     1
 90
       50
176
     1
 62
   256
176
     0
 40
1.0
176
     0
 90
        2
176
     1
  1
strokes_ogs.tif
176
     1
290
     0
176
     1
 40
1.0
176
     1
 40
1.0
176
     1
  0
VISUALSTYLE
  5
36
102
{ACAD_REACTORS
330
2A
102
}
330
2A
100
AcDbVisualStyle
  2
Brighten
 70
    12
177
     3
291
     1
 70
    58
 90
        2
176
     1
 90
        2
176
     1
 90
        0
176
     1
 90
        0
176
     1
 40
0.6
176
     1
 40
30.0
176
     1
 62
     7
420
 16777215
176
     1
 90
        1
176
     1
 90
        4
176
     1
 62
     7
176
     1
 62
   257
176
     1
 90
        1
176
     1
 90
        1
176
     1
 40
1.0
176
     1
 90
        8
176
     1
 62
     7
176
     1
 40
1.0
176
     1
 90
        1
176
     1
 90
        6
176
     1
 90
        2
176
     1
 62
     7
176
     1
 90
        5
176
     1
 90
        0
176
     1
 90
        0
176
     1
290
     0
176
     1
 90
        1
176
     1
 40
50.0
176
     1
 90
        0
176
     1
290
     0
176
     1
290
     1
176
     1
290
     1
176
     1
290
     0
176
     1
290
     0
176
     1
290
     0
176
     1
290
     0
176
     1
290
     0
176
     1
290
     0
176
     1
 90
       50
176
     1
 40
0.0
176
     1
 40
1.0
176
     1
 90
        0
176
     1
 62
    18
420
        0
176
     1
 90
       50
176
     1
 90
        3
176
     1
 62
     5
420
      255
176
     1
290
     0
176
     1
 90
       50
176
     1
 90
       50
176
     1
 90
       50
176
     1
290
     0
176
     1
 90
       50
176
     1
 62
   256
176
     0
 40
1.0
176
     0
 90
        2
176
     1
  1
strokes_ogs.tif
176
     1
290
     0
176
     1
 40
1.0
176
     1
 40
1.0
176
     1
  0
VISUALSTYLE
  5
3A
102
{ACAD_REACTORS
330
2A
102
}
330
2A
100
AcDbVisualStyle
  2
ColorChange
 70
    16
177
     3
291
     1
 70
    58
 90
        2
176
     1
 90
        2
176
     1
 90
        3
176
     1
 90
        0
176
     1
 40
0.6
176
     1
 40
30.0
176
     1
 62
     8
420
  8421504
176
     1
 90
        1
176
     1
 90
        4
176
     1
 62
     7
176
     1
 62
   257
176
     1
 90
        1
176
     1
 90
        1
176
     1
 40
1.0
176
     1
 90
        8
176
     1
 62
     8
420
  8421504
176
     1
 40
1.0
176
     1
 90
        1
176
     1
 90
        6
176
     1
 90
        2
176
     1
 62
     7
176
     1
 90
        5
176
     1
 90
        0
176
     1
 90
        0
176
     1
290
     0
176
     1
 90
        1
176
     1
 40
0.0
176
     1
 90
        0
176
     1
290
     0
176
     1
290
     1
176
     1
290
     1
176
     1
290
     0
176
     1
290
     0
176
     1
290
     0
176
     1
290
     0
176
     1
290
     0
176
     1
290
     0
176
     1
 90
       50
176
     1
 40
0.0
176
     1
 40
1.0
176
     1
 90
        0
176
     1
 62
    18
420
        0
176
     1
 90
       50
176
     1
 90
        3
176
     1
 62
     5
420
      255
176
     1
290
     0
176
     1
 90
       50
176
     1
 90
       50
176
     1
 90
       50
176
     1
290
     0
176
     1
 90
       50
176
     1
 62
   256
176
     0
 40
1.0
176
     0
 90
        2
176
     1
  1
strokes_ogs.tif
176
     1
290
     0
176
     1
 40
1.0
176
     1
 40
1.0
176
     1
  0
VISUALSTYLE
  5
34
102
{ACAD_REACTORS
330
2A
102
}
330
2A
100
AcDbVisualStyle
  2
Conceptual
 70
     9
177
     3
291
     0
 70
    58
 90
        3
176
     1
 90
        2
176
     1
 90
        0
176
     1
 90
        0
176
     1
 40
0.6
176
     1
 40
30.0
176
     1
 62
     7
420
 16777215
176
     1
 90
        2
176
     1
 90
        2
176
     1
 62
     7
176
     1
 62
   257
176
     1
 90
        1
176
     1
 90
        1
176
     1
 40
179.0
176
     1
 90
        8
176
     1
 62
     7
176
     1
 40
1.0
176
     1
 90
        1
176
     1
 90
        6
176
     1
 90
        2
176
     1
 62
     7
176
     1
 90
        3
176
     1
 90
        0
176
     1
 90
        0
176
     1
290
     0
176
     1
 90
        1
176
     1
 40
0.0
176
     1
 90
        0
176
     1
290
     0
176
     1
290
     1
176
     1
290
     1
176
     1
290
     0
176
     1
290
     0
176
     1
290
     0
176
     1
290
     0
176
     1
290
     0
176
     1
290
     0
176
     1
 90
       50
176
     1
 40
0.0
176
     1
 40
1.0
176
     1
 90
        0
176
     1
 62
    18
420
        0
176
     1
 90
       50
176
     1
 90
        3
176
     1
 62
     5
420
      255
176
     1
290
     0
176
     1
 90
       50
176
     1
 90
       50
176
     1
 90
       50
176
     1
290
     0
176
     1
 90
       50
176
     1
 62
   256
176
     0
 40
1.0
176
     0
 90
        2
176
     1
  1
strokes_ogs.tif
176
     1
290
     0
176
     1
 40
1.0
176
     1
 40
1.0
176
     1
  0
VISUALSTYLE
  5
35
102
{ACAD_REACTORS
330
2A
102
}
330
2A
100
AcDbVisualStyle
  2
Dim
 70
    11
177
     3
291
     1
 70
    58
 90
        2
176
     1
 90
        2
176
     1
 90
        0
176
     1
 90
        0
176
     1
 40
0.6
176
     1
 40
30.0
176
     1
 62
     7
420
 16777215
176
     1
 90
        1
176
     1
 90
        4
176
     1
 62
     7
176
     1
 62
   257
176
     1
 90
        1
176
     1
 90
        1
176
     1
 40
1.0
176
     1
 90
        8
176
     1
 62
     7
176
     1
 40
1.0
176
     1
 90
        1
176
     1
 90
        6
176
     1
 90
        2
176
     1
 62
     7
176
     1
 90
        5
176
     1
 90
        0
176
     1
 90
        0
176
     1
290
     0
176
     1
 90
        1
176
     1
 40
-50.0
176
     1
 90
        0
176
     1
290
     0
176
     1
290
     1
176
     1
290
     1
176
     1
290
     0
176
     1
290
     0
176
     1
290
     0
176
     1
290
     0
176
     1
290
     0
176
     1
290
     0
176
     1
 90
       50
176
     1
 40
0.0
176
     1
 40
1.0
176
     1
 90
        0
176
     1
 62
    18
420
        0
176
     1
 90
       50
176
     1
 90
        3
176
     1
 62
     5
420
      255
176
     1
290
     0
176
     1
 90
       50
176
     1
 90
       50
176
     1
 90
       50
176
     1
290
     0
176
     1
 90
       50
176
     1
 62
   256
176
     0
 40
1.0
176
     0
 90
        2
176
     1
  1
strokes_ogs.tif
176
     1
290
     0
176
     1
 40
1.0
176
     1
 40
1.0
176
     1
  0
VISUALSTYLE
  5
3D
102
{ACAD_REACTORS
330
2A
102
}
330
2A
100
AcDbVisualStyle
  2
EdgeColorOff
 70
    22
177
     3
291
     1
 70
    58
 90
        2
176
     0
 90
        2
176
     0
 90
        0
176
     0
 90
        0
176
     0
 40
0.6
176
     0
 40
30.0
176
     0
 62
     7
420
 16777215
176
     0
 90
        1
176
     0
 90
        4
176
     0
 62
     7
176
     0
 62
   257
176
     0
 90
        1
176
     0
 90
        1
176
     0
 40
1.0
176
     0
 90
        8
176
     2
 62
     7
176
     0
 40
1.0
176
     0
 90
        1
176
     0
 90
        6
176
     0
 90
        2
176
     0
 62
     7
176
     0
 90
        5
176
     0
 90
        0
176
     0
 90
        0
176
     0
290
     0
176
     0
 90
        1
176
     0
 40
0.0
176
     0
 90
        0
176
     0
290
     0
176
     0
290
     1
176
     0
290
     1
176
     0
290
     0
176
     0
290
     0
176
     0
290
     0
176
     0
290
     0
176
     0
290
     0
176
     0
290
     0
176
     0
 90
       50
176
     0
 40
0.0
176
     0
 40
1.0
176
     0
 90
        0
176
     0
 62
    18
420
        0
176
     0
 90
       50
176
     0
 90
        3
176
     0
 62
     5
420
      255
176
     0
290
     0
176
     0
 90
       50
176
     0
 90
       50
176
     0
 90
       50
176
     0
290
     0
176
     0
 90
       50
176
     0
 62
   256
176
     0
 40
1.0
176
     0
 90
        2
176
     0
  1
strokes_ogs.tif
176
     0
290
     0
176
     0
 40
1.0
176
     0
 40
1.0
176
     0
  0
VISUALSTYLE
  5
39
102
{ACAD_REACTORS
330
2A
102
}
330
2A
100
AcDbVisualStyle
  2
Facepattern
 70
    15
177
     3
291
     1
 70
    58
 90
        2
176
     1
 90
        2
176
     1
 90
        0
176
     1
 90
        0
176
     1
 40
0.6
176
     1
 40
30.0
176
     1
 62
     7
420
 16777215
176
     1
 90
        1
176
     1
 90
        4
176
     1
 62
     7
176
     1
 62
   257
176
     1
 90
        1
176
     1
 90
        1
176
     1
 40
1.0
176
     1
 90
        8
176
     1
 62
     7
176
     1
 40
1.0
176
     1
 90
        1
176
     1
 90
        6
176
     1
 90
        2
176
     1
 62
     7
176
     1
 90
        5
176
     1
 90
        0
176
     1
 90
        0
176
     1
290
     0
176
     1
 90
        1
176
     1
 40
0.0
176
     1
 90
        0
176
     1
290
     0
176
     1
290
     1
176
     1
290
     1
176
     1
290
     0
176
     1
290
     0
176
     1
290
     0
176
     1
290
     0
176
     1
290
     0
176
     1
290
     0
176
     1
 90
       50
176
     1
 40
0.0
176
     1
 40
1.0
176
     1
 90
        0
176
     1
 62
    18
420
        0
176
     1
 90
       50
176
     1
 90
        3
176
     1
 62
     5
420
      255
176
     1
290
     0
176
     1
 90
       50
176
     1
 90
       50
176
     1
 90
       50
176
     1
290
     0
176
     1
 90
       50
176
     1
 62
   256
176
     0
 40
1.0
176
     0
 90
        2
176
     1
  1
strokes_ogs.tif
176
     1
290
     0
176
     1
 40
1.0
176
     1
 40
1.0
176
     1
  0
VISUALSTYLE
  5
2B
102
{ACAD_REACTORS
330
2A
102
}
330
2A
100
AcDbVisualStyle
  2
Flat
 70
     0
177
     3
291
     1
 70
    58
 90
        2
176
     1
 90
        1
176
     1
 90
        1
176
     1
 90
        2
176
     1
 40
0.6
176
     1
 40
30.0
176
     1
 62
     7
420
 16777215
176
     1
 90
        0
176
     1
 90
        0
176
     1
 62
     7
176
     1
 62
   257
176
     1
 90
        1
176
     1
 90
        1
176
     1
 40
1.0
176
     1
 90
        8
176
     1
 62
     7
176
     1
 40
1.0
176
     1
 90
        1
176
     1
 90
        6
176
     1
 90
        2
176
     1
 62
     7
176
     1
 90
        5
176
     1
 90
        0
176
     1
 90
        0
176
     1
290
     0
176
     1
 90
       13
176
     1
 40
0.0
176
     1
 90
        0
176
     1
290
     0
176
     1
290
     1
176
     1
290
     1
176
     1
290
     0
176
     1
290
     0
176
     1
290
     0
176
     1
290
     0
176
     1
290
     0
176
     1
290
     0
176
     1
 90
       50
176
     1
 40
0.0
176
     1
 40
1.0
176
     1
 90
        0
176
     1
 62
    18
420
        0
176
     1
 90
       50
176
     1
 90
        3
176
     1
 62
     5
420
      255
176
     1
290
     0
176
     1
 90
       50
176
     1
 90
       50
176
     1
 90
       50
176
     1
290
     0
176
     1
 90
       50
176
     1
 62
   256
176
     0
 40
1.0
176
     0
 90
        2
176
     1
  1
strokes_ogs.tif
176
     1
290
     0
176
     1
 40
1.0
176
     1
 40
1.0
176
     1
  0
VISUALSTYLE
  5
2C
102
{ACAD_REACTORS
330
2A
102
}
330
2A
100
AcDbVisualStyle
  2
FlatWithEdges
 70
     1
177
     3
291
     1
 70
    58
 90
        2
176
     1
 90
        1
176
     1
 90
        1
176
     1
 90
        2
176
     1
 40
0.6
176
     1
 40
30.0
176
     1
 62
     7
420
 16777215
176
     1
 90
        1
176
     1
 90
        0
176
     1
 62
     7
176
     1
 62
   257
176
     1
 90
        1
176
     1
 90
        1
176
     1
 40
1.0
176
     1
 90
        0
176
     1
 62
   257
176
     1
 40
1.0
176
     1
 90
        1
176
     1
 90
        6
176
     1
 90
        2
176
     1
 62
     7
176
     1
 90
        5
176
     1
 90
        0
176
     1
 90
        0
176
     1
290
     0
176
     1
 90
       13
176
     1
 40
0.0
176
     1
 90
        0
176
     1
290
     0
176
     1
290
     1
176
     1
290
     1
176
     1
290
     0
176
     1
290
     0
176
     1
290
     0
176
     1
290
     0
176
     1
290
     0
176
     1
290
     0
176
     1
 90
       50
176
     1
 40
0.0
176
     1
 40
1.0
176
     1
 90
        0
176
     1
 62
    18
420
        0
176
     1
 90
       50
176
     1
 90
        3
176
     1
 62
     5
420
      255
176
     1
290
     0
176
     1
 90
       50
176
     1
 90
       50
176
     1
 90
       50
176
     1
290
     0
176
     1
 90
       50
176
     1
 62
   256
176
     0
 40
1.0
176
     0
 90
        2
176
     1
  1
strokes_ogs.tif
176
     1
290
     0
176
     1
 40
1.0
176
     1
 40
1.0
176
     1
  0
VISUALSTYLE
  5
2D
102
{ACAD_REACTORS
330
2A
102
}
330
2A
100
AcDbVisualStyle
  2
Gouraud
 70
     2
177
     3
291
     1
 70
    58
 90
        2
176
     1
 90
        2
176
     1
 90
        1
176
     1
 90
        2
176
     1
 40
0.6
176
     1
 40
30.0
176
     1
 62
     7
420
 16777215
176
     1
 90
        0
176
     1
 90
        0
176
     1
 62
     7
176
     1
 62
   257
176
     1
 90
        1
176
     1
 90
        1
176
     1
 40
1.0
176
     1
 90
        0
176
     1
 62
     7
176
     1
 40
1.0
176
     1
 90
        1
176
     1
 90
        6
176
     1
 90
        2
176
     1
 62
     7
176
     1
 90
        5
176
     1
 90
        0
176
     1
 90
        0
176
     1
290
     0
176
     1
 90
       13
176
     1
 40
0.0
176
     1
 90
        0
176
     1
290
     0
176
     1
290
     1
176
     1
290
     1
176
     1
290
     0
176
     1
290
     0
176
     1
290
     0
176
     1
290
     0
176
     1
290
     0
176
     1
290
     0
176
     1
 90
       50
176
     1
 40
0.0
176
     1
 40
1.0
176
     1
 90
        0
176
     1
 62
    18
420
        0
176
     1
 90
       50
176
     1
 90
        3
176
     1
 62
     5
420
      255
176
     1
290
     0
176
     1
 90
       50
176
     1
 90
       50
176
     1
 90
       50
176
     1
290
     0
176
     1
 90
       50
176
     1
 62
   256
176
     0
 40
1.0
176
     0
 90
        2
176
     1
  1
strokes_ogs.tif
176
     1
290
     0
176
     1
 40
1.0
176
     1
 40
1.0
176
     1
  0
VISUALSTYLE
  5
2E
102
{ACAD_REACTORS
330
2A
102
}
330
2A
100
AcDbVisualStyle
  2
GouraudWithEdges
 70
     3
177
     3
291
     1
 70
    58
 90
        2
176
     1
 90
        2
176
     1
 90
        1
176
     1
 90
        2
176
     1
 40
0.6
176
     1
 40
30.0
176
     1
 62
     7
420
 16777215
176
     1
 90
        1
176
     1
 90
        0
176
     1
 62
     7
176
     1
 62
   257
176
     1
 90
        1
176
     1
 90
        1
176
     1
 40
1.0
176
     1
 90
        0
176
     1
 62
   257
176
     1
 40
1.0
176
     1
 90
        1
176
     1
 90
        6
176
     1
 90
        2
176
     1
 62
     7
176
     1
 90
        5
176
     1
 90
        0
176
     1
 90
        0
176
     1
290
     0
176
     1
 90
       13
176
     1
 40
0.0
176
     1
 90
        0
176
     1
290
     0
176
     1
290
     1
176
     1
290
     1
176
     1
290
     0
176
     1
290
     0
176
     1
290
     0
176
     1
290
     0
176
     1
290
     0
176
     1
290
     0
176
     1
 90
       50
176
     1
 40
0.0
176
     1
 40
1.0
176
     1
 90
        0
176
     1
 62
    18
420
        0
176
     1
 90
       50
176
     1
 90
        3
176
     1
 62
     5
420
      255
176
     1
290
     0
176
     1
 90
       50
176
     1
 90
       50
176
     1
 90
       50
176
     1
290
     0
176
     1
 90
       50
176
     1
 62
   256
176
     0
 40
1.0
176
     0
 90
        2
176
     1
  1
strokes_ogs.tif
176
     1
290
     0
176
     1
 40
1.0
176
     1
 40
1.0
176
     1
  0
VISUALSTYLE
  5
31
102
{ACAD_REACTORS
330
2A
102
}
330
2A
100
AcDbVisualStyle
  2
Hidden
 70
     6
177
     3
291
     0
 70
    58
 90
        1
176
     1
 90
        2
176
     1
 90
        2
176
     1
 90
        0
176
     1
 40
0.6
176
     1
 40
30.0
176
     1
 62
     7
420
 16777215
176
     1
 90
        2
176
     1
 90
        2
176
     1
 62
     7
176
     1
 62
   257
176
     1
 90
        2
176
     1
 90
        1
176
     1
 40
40.0
176
     1
 90
        0
176
     1
 62
   257
176
     1
 40
1.0
176
     1
 90
        1
176
     1
 90
        6
176
     1
 90
        2
176
     1
 62
     7
176
     1
 90
        3
176
     1
 90
        0
176
     1
 90
        0
176
     1
290
     0
176
     1
 90
        1
176
     1
 40
0.0
176
     1
 90
        0
176
     1
290
     0
176
     1
290
     1
176
     1
290
     1
176
     1
290
     0
176
     1
290
     0
176
     1
290
     0
176
     1
290
     0
176
     1
290
     0
176
     1
290
     0
176
     1
 90
       50
176
     1
 40
0.0
176
     1
 40
1.0
176
     1
 90
        0
176
     1
 62
    18
420
        0
176
     1
 90
       50
176
     1
 90
        3
176
     1
 62
     5
420
      255
176
     1
290
     0
176
     1
 90
       50
176
     1
 90
       50
176
     1
 90
       50
176
     1
290
     0
176
     1
 90
       50
176
     1
 62
   256
176
     0
 40
1.0
176
     0
 90
        2
176
     1
  1
strokes_ogs.tif
176
     1
290
     0
176
     1
 40
1.0
176
     1
 40
1.0
176
     1
  0
VISUALSTYLE
  5
3B
102
{ACAD_REACTORS
330
2A
102
}
330
2A
100
AcDbVisualStyle
  2
JitterOff
 70
    20
177
     3
291
     1
 70
    58
 90
        2
176
     0
 90
        2
176
     0
 90
        0
176
     0
 90
        0
176
     0
 40
0.6
176
     0
 40
30.0
176
     0
 62
     7
420
 16777215
176
     0
 90
        1
176
     0
 90
        4
176
     0
 62
     7
176
     0
 62
   257
176
     0
 90
        1
176
     0
 90
        1
176
     0
 40
1.0
176
     0
 90
       10
176
     2
 62
     7
176
     0
 40
1.0
176
     0
 90
        1
176
     0
 90
        6
176
     0
 90
        2
176
     0
 62
     7
176
     0
 90
        5
176
     0
 90
        0
176
     0
 90
        0
176
     0
290
     0
176
     0
 90
        1
176
     0
 40
0.0
176
     0
 90
        0
176
     0
290
     0
176
     0
290
     1
176
     0
290
     1
176
     0
290
     0
176
     0
290
     0
176
     0
290
     0
176
     0
290
     0
176
     0
290
     0
176
     0
290
     0
176
     0
 90
       50
176
     0
 40
0.0
176
     0
 40
1.0
176
     0
 90
        0
176
     0
 62
    18
420
        0
176
     0
 90
       50
176
     0
 90
        3
176
     0
 62
     5
420
      255
176
     0
290
     0
176
     0
 90
       50
176
     0
 90
       50
176
     0
 90
       50
176
     0
290
     0
176
     0
 90
       50
176
     0
 62
   256
176
     0
 40
1.0
176
     0
 90
        2
176
     0
  1
strokes_ogs.tif
176
     0
290
     0
176
     0
 40
1.0
176
     0
 40
1.0
176
     0
  0
VISUALSTYLE
  5
38
102
{ACAD_REACTORS
330
2A
102
}
330
2A
100
AcDbVisualStyle
  2
Linepattern
 70
    14
177
     3
291
     1
 70
    58
 90
        2
176
     1
 90
        2
176
     1
 90
        0
176
     1
 90
        0
176
     1
 40
0.6
176
     1
 40
30.0
176
     1
 62
     7
420
 16777215
176
     1
 90
        1
176
     1
 90
        4
176
     1
 62
     7
176
     1
 62
   257
176
     1
 90
        7
176
     1
 90
        7
176
     1
 40
1.0
176
     1
 90
        8
176
     1
 62
     7
176
     1
 40
1.0
176
     1
 90
        1
176
     1
 90
        6
176
     1
 90
        2
176
     1
 62
     7
176
     1
 90
        5
176
     1
 90
        0
176
     1
 90
        0
176
     1
290
     0
176
     1
 90
        1
176
     1
 40
0.0
176
     1
 90
        0
176
     1
290
     0
176
     1
290
     1
176
     1
290
     1
176
     1
290
     0
176
     1
290
     0
176
     1
290
     0
176
     1
290
     0
176
     1
290
     0
176
     1
290
     0
176
     1
 90
       50
176
     1
 40
0.0
176
     1
 40
1.0
176
     1
 90
        0
176
     1
 62
    18
420
        0
176
     1
 90
       50
176
     1
 90
        3
176
     1
 62
     5
420
      255
176
     1
290
     0
176
     1
 90
       50
176
     1
 90
       50
176
     1
 90
       50
176
     1
290
     0
176
     1
 90
       50
176
     1
 62
   256
176
     0
 40
1.0
176
     0
 90
        2
176
     1
  1
strokes_ogs.tif
176
     1
290
     0
176
     1
 40
1.0
176
     1
 40
1.0
176
     1
  0
VISUALSTYLE
  5
3C
102
{ACAD_REACTORS
330
2A
102
}
330
2A
100
AcDbVisualStyle
  2
OverhangOff
 70
    21
177
     3
291
     1
 70
    58
 90
        2
176
     0
 90
        2
176
     0
 90
        0
176
     0
 90
        0
176
     0
 40
0.6
176
     0
 40
30.0
176
     0
 62
     7
420
 16777215
176
     0
 90
        1
176
     0
 90
        4
176
     0
 62
     7
176
     0
 62
   257
176
     0
 90
        1
176
     0
 90
        1
176
     0
 40
1.0
176
     0
 90
        9
176
     2
 62
     7
176
     0
 40
1.0
176
     0
 90
        1
176
     0
 90
        6
176
     0
 90
        2
176
     0
 62
     7
176
     0
 90
        5
176
     0
 90
        0
176
     0
 90
        0
176
     0
290
     0
176
     0
 90
        1
176
     0
 40
0.0
176
     0
 90
        0
176
     0
290
     0
176
     0
290
     1
176
     0
290
     1
176
     0
290
     0
176
     0
290
     0
176
     0
290
     0
176
     0
290
     0
176
     0
290
     0
176
     0
290
     0
176
     0
 90
       50
176
     0
 40
0.0
176
     0
 40
1.0
176
     0
 90
        0
176
     0
 62
    18
420
        0
176
     0
 90
       50
176
     0
 90
        3
176
     0
 62
     5
420
      255
176
     0
290
     0
176
     0
 90
       50
176
     0
 90
       50
176
     0
 90
       50
176
     0
290
     0
176
     0
 90
       50
176
     0
 62
   256
176
     0
 40
1.0
176
     0
 90
        2
176
     0
  1
strokes_ogs.tif
176
     0
290
     0
176
     0
 40
1.0
176
     0
 40
1.0
176
     0
  0
VISUALSTYLE
  5
33
102
{ACAD_REACTORS
330
2A
102
}
330
2A
100
AcDbVisualStyle
  2
Realistic
 70
     8
177
     3
291
     0
 70
    58
 90
        2
176
     1
 90
        3
176
     1
 90
        0
176
     1
 90
        2
176
     1
 40
0.6
176
     1
 40
30.0
176
     1
 62
     7
420
 16777215
176
     1
 90
        0
176
     1
 90
        0
176
     1
 62
     7
176
     1
 62
   257
176
     1
 90
        1
176
     1
 90
        1
176
     1
 40
1.0
176
     1
 90
        8
176
     1
 62
   257
176
     1
 40
1.0
176
     1
 90
        1
176
     1
 90
        6
176
     1
 90
        2
176
     1
 62
     7
176
     1
 90
        3
176
     1
 90
        0
176
     1
 90
        0
176
     1
290
     0
176
     1
 90
       13
176
     1
 40
0.0
176
     1
 90
        0
176
     1
290
     0
176
     1
290
     1
176
     1
290
     1
176
     1
290
     0
176
     1
290
     0
176
     1
290
     0
176
     1
290
     0
176
     1
290
     0
176
     1
290
     0
176
     1
 90
       50
176
     1
 40
0.0
176
     1
 40
1.0
176
     1
 90
        0
176
     1
 62
    18
420
        0
176
     1
 90
       50
176
     1
 90
        3
176
     1
 62
     5
420
      255
176
     1
290
     0
176
     1
 90
       50
176
     1
 90
       50
176
     1
 90
       50
176
     1
290
     0
176
     1
 90
       50
176
     1
 62
   256
176
     0
 40
1.0
176
     0
 90
        2
176
     1
  1
strokes_ogs.tif
176
     1
290
     0
176
     1
 40
1.0
176
     1
 40
1.0
176
     1
  0
VISUALSTYLE
  5
42
102
{ACAD_REACTORS
330
2A
102
}
330
2A
100
AcDbVisualStyle
  2
Shaded
 70
    27
177
     3
291
     0
 70
    58
 90
        2
176
     1
 90
        2
176
     1
 90
        1
176
     1
 90
        2
176
     1
 40
0.6
176
     1
 40
30.0
176
     1
 62
     7
420
 16777215
176
     1
 90
        0
176
     1
 90
        4
176
     1
 62
     7
176
     1
 62
   257
176
     1
 90
        1
176
     1
 90
        1
176
     1
 40
1.0
176
     1
 90
        8
176
     1
 62
   257
176
     1
 40
1.0
176
     1
 90
        1
176
     1
 90
        6
176
     1
 90
        2
176
     1
 62
     8
420
  7895160
176
     1
 90
        3
176
     1
 90
        0
176
     1
 90
        0
176
     1
290
     0
176
     1
 90
        5
176
     1
 40
0.0
176
     1
 90
        0
176
     1
290
     0
176
     1
290
     1
176
     1
290
     1
176
     1
290
     0
176
     1
290
     0
176
     1
290
     0
176
     1
290
     0
176
     1
290
     0
176
     1
290
     0
176
     1
 90
       50
176
     1
 40
0.0
176
     1
 40
1.0
176
     1
 90
        0
176
     1
 62
    18
420
        0
176
     1
 90
       50
176
     1
 90
        3
176
     1
 62
     5
420
      255
176
     1
290
     0
176
     1
 90
       50
176
     1
 90
       50
176
     1
 90
       50
176
     1
290
     0
176
     1
 90
       50
176
     1
 62
   256
176
     0
 40
1.0
176
     0
 90
        2
176
     1
  1
strokes_ogs.tif
176
     1
290
     0
176
     1
 40
1.0
176
     1
 40
1.0
176
     1
  0
VISUALSTYLE
  5
41
102
{ACAD_REACTORS
330
2A
102
}
330
2A
100
AcDbVisualStyle
  2
Shaded with edges
 70
    26
177
     3
291
     0
 70
    58
 90
        2
176
     1
 90
        2
176
     1
 90
        1
176
     1
 90
        2
176
     1
 40
0.6
176
     1
 40
30.0
176
     1
 62
     7
420
 16777215
176
     1
 90
        1
176
     1
 90
       10
176
     1
 62
     7
176
     1
 62
   257
176
     1
 90
        2
176
     1
 90
        1
176
     1
 40
1.0
176
     1
 90
        8
176
     1
 62
   257
176
     1
 40
1.0
176
     1
 90
        1
176
     1
 90
        6
176
     1
 90
        2
176
     1
 62
     7
176
     1
 90
        3
176
     1
 90
        0
176
     1
 90
        0
176
     1
290
     0
176
     1
 90
        5
176
     1
 40
0.0
176
     1
 90
        0
176
     1
290
     0
176
     1
290
     1
176
     1
290
     1
176
     1
290
     0
176
     1
290
     0
176
     1
290
     0
176
     1
290
     0
176
     1
290
     0
176
     1
290
     0
176
     1
 90
       50
176
     1
 40
0.0
176
     1
 40
1.0
176
     1
 90
        0
176
     1
 62
    18
420
        0
176
     1
 90
       50
176
     1
 90
        3
176
     1
 62
     5
420
      255
176
     1
290
     0
176
     1
 90
       50
176
     1
 90
       50
176
     1
 90
       50
176
     1
290
     0
176
     1
 90
       50
176
     1
 62
   256
176
     0
 40
1.0
176
     0
 90
        2
176
     1
  1
strokes_ogs.tif
176
     1
290
     0
176
     1
 40
1.0
176
     1
 40
1.0
176
     1
  0
VISUALSTYLE
  5
3E
102
{ACAD_REACTORS
330
2A
102
}
330
2A
100
AcDbVisualStyle
  2
Shades of Gray
 70
    23
177
     3
291
     0
 70
    58
 90
        2
176
     1
 90
        2
176
     1
 90
        3
176
     1
 90
        0
176
     1
 40
0.6
176
     1
 40
30.0
176
     1
 62
     7
420
 16777215
176
     1
 90
        2
176
     1
 90
        2
176
     1
 62
     7
176
     1
 62
     7
176
     1
 90
        1
176
     1
 90
        1
176
     1
 40
40.0
176
     1
 90
        8
176
     1
 62
     7
176
     1
 40
1.0
176
     1
 90
        1
176
     1
 90
        6
176
     1
 90
        2
176
     1
 62
     7
176
     1
 90
        3
176
     1
 90
        0
176
     1
 90
        0
176
     1
290
     0
176
     1
 90
        1
176
     1
 40
0.0
176
     1
 90
        0
176
     1
290
     0
176
     1
290
     1
176
     1
290
     1
176
     1
290
     0
176
     1
290
     0
176
     1
290
     0
176
     1
290
     0
176
     1
290
     0
176
     1
290
     0
176
     1
 90
       50
176
     1
 40
0.0
176
     1
 40
1.0
176
     1
 90
        0
176
     1
 62
    18
420
        0
176
     1
 90
       50
176
     1
 90
        3
176
     1
 62
     5
420
      255
176
     1
290
     0
176
     1
 90
       50
176
     1
 90
       50
176
     1
 90
       50
176
     1
290
     0
176
     1
 90
       50
176
     1
 62
   256
176
     0
 40
1.0
176
     0
 90
        2
176
     1
  1
strokes_ogs.tif
176
     1
290
     0
176
     1
 40
1.0
176
     1
 40
1.0
176
     1
  0
VISUALSTYLE
  5
3F
102
{ACAD_REACTORS
330
2A
102
}
330
2A
100
AcDbVisualStyle
  2
Sketchy
 70
    24
177
     3
291
     0
 70
    58
 90
        1
176
     1
 90
        2
176
     1
 90
        2
176
     1
 90
        0
176
     1
 40
0.6
176
     1
 40
30.0
176
     1
 62
     7
420
 16777215
176
     1
 90
        2
176
     1
 90
        2
176
     1
 62
     7
176
     1
 62
     7
176
     1
 90
        1
176
     1
 90
        1
176
     1
 40
40.0
176
     1
 90
       11
176
     1
 62
     7
176
     1
 40
1.0
176
     1
 90
        1
176
     1
 90
        6
176
     1
 90
        2
176
     1
 62
     7
176
     1
 90
        6
176
     1
 90
        0
176
     1
 90
        0
176
     1
290
     0
176
     1
 90
        1
176
     1
 40
0.0
176
     1
 90
        0
176
     1
290
     0
176
     1
290
     1
176
     1
290
     1
176
     1
290
     0
176
     1
290
     0
176
     1
290
     0
176
     1
290
     0
176
     1
290
     0
176
     1
290
     0
176
     1
 90
       50
176
     1
 40
0.0
176
     1
 40
1.0
176
     1
 90
        0
176
     1
 62
    18
420
        0
176
     1
 90
       50
176
     1
 90
        3
176
     1
 62
     5
420
      255
176
     1
290
     0
176
     1
 90
       50
176
     1
 90
       50
176
     1
 90
       50
176
     1
290
     0
176
     1
 90
       50
176
     1
 62
   256
176
     0
 40
1.0
176
     0
 90
        2
176
     1
  1
strokes_ogs.tif
176
     1
290
     0
176
     1
 40
1.0
176
     1
 40
1.0
176
     1
  0
VISUALSTYLE
  5
37
102
{ACAD_REACTORS
330
2A
102
}
330
2A
100
AcDbVisualStyle
  2
Thicken
 70
    13
177
     3
291
     1
 70
    58
 90
        2
176
     1
 90
        2
176
     1
 90
        0
176
     1
 90
        0
176
     1
 40
0.6
176
     1
 40
30.0
176
     1
 62
     7
420
 16777215
176
     1
 90
        1
176
     1
 90
        4
176
     1
 62
     7
176
     1
 62
   257
176
     1
 90
        1
176
     1
 90
        1
176
     1
 40
1.0
176
     1
 90
       12
176
     1
 62
     7
176
     1
 40
1.0
176
     1
 90
        1
176
     1
 90
        6
176
     1
 90
        2
176
     1
 62
     7
176
     1
 90
        5
176
     1
 90
        0
176
     1
 90
        0
176
     1
290
     0
176
     1
 90
        1
176
     1
 40
0.0
176
     1
 90
        0
176
     1
290
     0
176
     1
290
     1
176
     1
290
     1
176
     1
290
     0
176
     1
290
     0
176
     1
290
     0
176
     1
290
     0
176
     1
290
     0
176
     1
290
     0
176
     1
 90
       50
176
     1
 40
0.0
176
     1
 40
1.0
176
     1
 90
        0
176
     1
 62
    18
420
        0
176
     1
 90
       50
176
     1
 90
        3
176
     1
 62
     5
420
      255
176
     1
290
     0
176
     1
 90
       50
176
     1
 90
       50
176
     1
 90
       50
176
     1
290
     0
176
     1
 90
       50
176
     1
 62
   256
176
     0
 40
1.0
176
     0
 90
        2
176
     1
  1
strokes_ogs.tif
176
     1
290
     0
176
     1
 40
1.0
176
     1
 40
1.0
176
     1
  0
VISUALSTYLE
  5
30
102
{ACAD_REACTORS
330
2A
102
}
330
2A
100
AcDbVisualStyle
  2
Wireframe
 70
     5
177
     3
291
     0
 70
    58
 90
        0
176
     1
 90
        2
176
     1
 90
        0
176
     1
 90
        0
176
     1
 40
0.6
176
     1
 40
30.0
176
     1
 62
     7
420
 16777215
176
     1
 90
        1
176
     1
 90
        4
176
     1
 62
     7
176
     1
 62
   257
176
     1
 90
        1
176
     1
 90
        1
176
     1
 40
1.0
176
     1
 90
        0
176
     1
 62
   257
176
     1
 40
1.0
176
     1
 90
        1
176
     1
 90
        6
176
     1
 90
        2
176
     1
 62
     7
176
     1
 90
        3
176
     1
 90
        0
176
     1
 90
        0
176
     1
290
     0
176
     1
 90
        1
176
     1
 40
0.0
176
     1
 90
        0
176
     1
290
     0
176
     1
290
     1
176
     1
290
     1
176
     1
290
     0
176
     1
290
     0
176
     1
290
     0
176
     1
290
     0
176
     1
290
     0
176
     1
290
     0
176
     1
 90
       50
176
     1
 40
0.0
176
     1
 40
1.0
176
     1
 90
        0
176
     1
 62
    18
420
        0
176
     1
 90
       50
176
     1
 90
        3
176
     1
 62
     5
420
      255
176
     1
290
     0
176
     1
 90
       50
176
     1
 90
       50
176
     1
 90
       50
176
     1
290
     0
176
     1
 90
       50
176
     1
 62
   256
176
     0
 40
1.0
176
     0
 90
        2
176
     1
  1
strokes_ogs.tif
176
     1
290
     0
176
     1
 40
1.0
176
     1
 40
1.0
176
     1
  0
VISUALSTYLE
  5
40
102
{ACAD_REACTORS
330
2A
102
}
330
2A
100
AcDbVisualStyle
  2
X-Ray
 70
    25
177
     3
291
     0
 70
    58
 90
        2
176
     1
 90
        2
176
     1
 90
        1
176
     1
 90
        1
176
     1
 40
0.5
176
     1
 40
30.0
176
     1
 62
     7
420
 16777215
176
     1
 90
        1
176
     1
 90
        0
176
     1
 62
     7
176
     1
 62
   257
176
     1
 90
        1
176
     1
 90
        1
176
     1
 40
1.0
176
     1
 90
        8
176
     1
 62
     7
176
     1
 40
1.0
176
     1
 90
        1
176
     1
 90
        6
176
     1
 90
        2
176
     1
 62
     7
176
     1
 90
        3
176
     1
 90
        0
176
     1
 90
        0
176
     1
290
     0
176
     1
 90
       13
176
     1
 40
0.0
176
     1
 90
        0
176
     1
290
     0
176
     1
290
     1
176
     1
290
     1
176
     1
290
     0
176
     1
290
     0
176
     1
290
     0
176
     1
290
     0
176
     1
290
     0
176
     1
290
     0
176
     1
 90
       50
176
     1
 40
0.0
176
     1
 40
1.0
176
     1
 90
        0
176
     1
 62
    18
420
        0
176
     1
 90
       50
176
     1
 90
        3
176
     1
 62
     5
420
      255
176
     1
290
     0
176
     1
 90
       50
176
     1
 90
       50
176
     1
 90
       50
176
     1
290
     0
176
     1
 90
       50
176
     1
 62
   256
176
     0
 40
1.0
176
     0
 90
        2
176
     1
  1
strokes_ogs.tif
176
     1
290
     0
176
     1
 40
1.0
176
     1
 40
1.0
176
     1
  0
DICTIONARYVAR
  5
1E4
102
{ACAD_REACTORS
330
1E3
102
}
330
1E3
100
DictionaryVariables
280
     0
  1
1:1
  0
DICTIONARYVAR
  5
1E9
102
{ACAD_REACTORS
330
1E3
102
}
330
1E3
100
DictionaryVariables
280
     0
  1
Standard
  0
DICTIONARYVAR
  5
1E8
102
{ACAD_REACTORS
330
1E3
102
}
330
1E3
100
DictionaryVariables
280
     0
  1
Standard
  0
DICTIONARY
  5
1E5
330
6A
100
AcDbDictionary
280
     1
281
     1
  3
ACAD_ROUNDTRIP_2008_TABLESTYLE_CELLSTYLEMAP
360
1E6
  0
CELLSTYLEMAP
  5
1E6
102
{ACAD_REACTORS
330
1E5
102
}
330
1E5
100
AcDbCellStyleMap
 90
        3
300
CELLSTYLE
  1
TABLEFORMAT_BEGIN
 90
        5
170
     1
 91
        0
 92
    32768
 62
   257
 93
        1
300
CONTENTFORMAT
  1
CONTENTFORMAT_BEGIN
 90
        0
 91
        0
 92
        4
 93
        0
300

 40
0.0
140
1.0
 94
        5
 62
     0
340
11
144
0.25
309
CONTENTFORMAT_END
171
     1
301
MARGIN
  1
CELLMARGIN_BEGIN
 40
0.06
 40
0.06
 40
0.06
 40
0.06
 40
0.06
 40
0.06
309
CELLMARGIN_END
 94
        6
 95
        1
302
GRIDFORMAT
  1
GRIDFORMAT_BEGIN
 90
        0
 91
        1
 62
     0
 92
       -2
340
14
 93
        0
 40
0.045
309
GRIDFORMAT_END
 95
        2
302
GRIDFORMAT
  1
GRIDFORMAT_BEGIN
 90
        0
 91
        1
 62
     0
 92
       -2
340
14
 93
        0
 40
0.045
309
GRIDFORMAT_END
 95
        4
302
GRIDFORMAT
  1
GRIDFORMAT_BEGIN
 90
        0
 91
        1
 62
     0
 92
       -2
340
14
 93
        0
 40
0.045
309
GRIDFORMAT_END
 95
        8
302
GRIDFORMAT
  1
GRIDFORMAT_BEGIN
 90
        0
 91
        1
 62
     0
 92
       -2
340
14
 93
        0
 40
0.045
309
GRIDFORMAT_END
 95
       16
302
GRIDFORMAT
  1
GRIDFORMAT_BEGIN
 90
        0
 91
        1
 62
     0
 92
       -2
340
14
 93
        0
 40
0.045
309
GRIDFORMAT_END
 95
       32
302
GRIDFORMAT
  1
GRIDFORMAT_BEGIN
 90
        0
 91
        1
 62
     0
 92
       -2
340
14
 93
        0
 40
0.045
309
GRIDFORMAT_END
309
TABLEFORMAT_END
  1
CELLSTYLE_BEGIN
 90
        1
 91
        1
300
_TITLE
309
CELLSTYLE_END
300
CELLSTYLE
  1
TABLEFORMAT_BEGIN
 90
        5
170
     1
 91
        0
 92
        0
 62
   257
 93
        1
300
CONTENTFORMAT
  1
CONTENTFORMAT_BEGIN
 90
        0
 91
        0
 92
        4
 93
        0
300

 40
0.0
140
1.0
 94
        5
 62
     0
340
11
144
0.18
309
CONTENTFORMAT_END
171
     1
301
MARGIN
  1
CELLMARGIN_BEGIN
 40
0.06
 40
0.06
 40
0.06
 40
0.06
 40
0.06
 40
0.06
309
CELLMARGIN_END
 94
        6
 95
        1
302
GRIDFORMAT
  1
GRIDFORMAT_BEGIN
 90
        0
 91
        1
 62
     0
 92
       -2
340
14
 93
        0
 40
0.045
309
GRIDFORMAT_END
 95
        2
302
GRIDFORMAT
  1
GRIDFORMAT_BEGIN
 90
        0
 91
        1
 62
     0
 92
       -2
340
14
 93
        0
 40
0.045
309
GRIDFORMAT_END
 95
        4
302
GRIDFORMAT
  1
GRIDFORMAT_BEGIN
 90
        0
 91
        1
 62
     0
 92
       -2
340
14
 93
        0
 40
0.045
309
GRIDFORMAT_END
 95
        8
302
GRIDFORMAT
  1
GRIDFORMAT_BEGIN
 90
        0
 91
        1
 62
     0
 92
       -2
340
14
 93
        0
 40
0.045
309
GRIDFORMAT_END
 95
       16
302
GRIDFORMAT
  1
GRIDFORMAT_BEGIN
 90
        0
 91
        1
 62
     0
 92
       -2
340
14
 93
        0
 40
0.045
309
GRIDFORMAT_END
 95
       32
302
GRIDFORMAT
  1
GRIDFORMAT_BEGIN
 90
        0
 91
        1
 62
     0
 92
       -2
340
14
 93
        0
 40
0.045
309
GRIDFORMAT_END
309
TABLEFORMAT_END
  1
CELLSTYLE_BEGIN
 90
        2
 91
        1
300
_HEADER
309
CELLSTYLE_END
300
CELLSTYLE
  1
TABLEFORMAT_BEGIN
 90
        5
170
     1
 91
        0
 92
        0
 62
   257
 93
        1
300
CONTENTFORMAT
  1
CONTENTFORMAT_BEGIN
 90
        0
 91
        0
 92
        4
 93
        0
300

 40
0.0
140
1.0
 94
        2
 62
     0
340
11
144
0.18
309
CONTENTFORMAT_END
171
     1
301
MARGIN
  1
CELLMARGIN_BEGIN
 40
0.06
 40
0.06
 40
0.06
 40
0.06
 40
0.06
 40
0.06
309
CELLMARGIN_END
 94
        6
 95
        1
302
GRIDFORMAT
  1
GRIDFORMAT_BEGIN
 90
        0
 91
        1
 62
     0
 92
       -2
340
14
 93
        0
 40
0.045
309
GRIDFORMAT_END
 95
        2
302
GRIDFORMAT
  1
GRIDFORMAT_BEGIN
 90
        0
 91
        1
 62
     0
 92
       -2
340
14
 93
        0
 40
0.045
309
GRIDFORMAT_END
 95
        4
302
GRIDFORMAT
  1
GRIDFORMAT_BEGIN
 90
        0
 91
        1
 62
     0
 92
       -2
340
14
 93
        0
 40
0.045
309
GRIDFORMAT_END
 95
        8
302
GRIDFORMAT
  1
GRIDFORMAT_BEGIN
 90
        0
 91
        1
 62
     0
 92
       -2
340
14
 93
        0
 40
0.045
309
GRIDFORMAT_END
 95
       16
302
GRIDFORMAT
  1
GRIDFORMAT_BEGIN
 90
        0
 91
        1
 62
     0
 92
       -2
340
14
 93
        0
 40
0.045
309
GRIDFORMAT_END
 95
       32
302
GRIDFORMAT
  1
GRIDFORMAT_BEGIN
 90
        0
 91
        1
 62
     0
 92
       -2
340
14
 93
        0
 40
0.045
309
GRIDFORMAT_END
309
TABLEFORMAT_END
  1
CELLSTYLE_BEGIN
 90
        3
 91
        2
300
_DATA
309
CELLSTYLE_END
  0
ENDSEC
  0
EOF