0
SECTION
  2
HEADER
  9
$ACADVER
  1
AC1027
  9
$ACADMAINTVER
 70
   105
  9
$DWGCODEPAGE
  3
ANSI_1252
  9
$REQUIREDVERSIONS
160
                 0
  9
$COMMENTS
  1
File was created by Cadenas
  9
$CUSTOMPROPERTYTAG
  1
NN
  9
$CUSTOMPROPERTY
  1
Set Screw Wide Slot Take Up Inch Bore
  9
$CUSTOMPROPERTYTAG
  1
NT
  9
$CUSTOMPROPERTY
  1
SC Take-Up Bearings -Wide Slot -(Normal Duty)
  9
$CUSTOMPROPERTYTAG
  1
NB
  9
$CUSTOMPROPERTY
  1
125151
  9
$CUSTOMPROPERTYTAG
  1
NBSYN
  9
$CUSTOMPROPERTY
  1
$PN.
  9
$CUSTOMPROPERTYTAG
  1
LINA
  9
$CUSTOMPROPERTY
  1
125151
  9
$CUSTOMPROPERTYTAG
  1
SERIES
  9
$CUSTOMPROPERTY
  1
209
  9
$CUSTOMPROPERTYTAG
  1
SS
  9
$CUSTOMPROPERTY
  1
1-5/8
  9
$CUSTOMPROPERTYTAG
  1
PN
  9
$CUSTOMPROPERTY
  1
125151
  9
$CUSTOMPROPERTYTAG
  1
DESCRIPTION
  9
$CUSTOMPROPERTY
  1
WSTU-SC-110L
  9
$CUSTOMPROPERTYTAG
  1
W
  9
$CUSTOMPROPERTY
  1
6.1
  9
$CUSTOMPROPERTYTAG
  1
FS
  9
$CUSTOMPROPERTY
  1
WS400
  9
$CUSTOMPROPERTYTAG
  1
LF
  9
$CUSTOMPROPERTY
  1
RE-LUBE
  9
$CUSTOMPROPERTYTAG
  1
A
  9
$CUSTOMPROPERTY
  1
1.94
  9
$CUSTOMPROPERTYTAG
  1
B
  9
$CUSTOMPROPERTY
  1
5.63
  9
$CUSTOMPROPERTYTAG
  1
C
  9
$CUSTOMPROPERTY
  1
0.688
  9
$CUSTOMPROPERTYTAG
  1
D
  9
$CUSTOMPROPERTY
  1
3.25
  9
$CUSTOMPROPERTYTAG
  1
E
  9
$CUSTOMPROPERTY
  1
3.44
  9
$CUSTOMPROPERTYTAG
  1
F
  9
$CUSTOMPROPERTY
  1
1
  9
$CUSTOMPROPERTYTAG
  1
G
  9
$CUSTOMPROPERTY
  1
0.63
  9
$CUSTOMPROPERTYTAG
  1
H
  9
$CUSTOMPROPERTY
  1
0.75
  9
$CUSTOMPROPERTYTAG
  1
J
  9
$CUSTOMPROPERTY
  1
3.25
  9
$CUSTOMPROPERTYTAG
  1
K
  9
$CUSTOMPROPERTY
  1
1.94
  9
$CUSTOMPROPERTYTAG
  1
L
  9
$CUSTOMPROPERTY
  1
2.22
  9
$CUSTOMPROPERTYTAG
  1
M
  9
$CUSTOMPROPERTY
  1
3.985 / 4.015
  9
$CUSTOMPROPERTYTAG
  1
N
  9
$CUSTOMPROPERTY
  1
4.75
  9
$CUSTOMPROPERTYTAG
  1
R
  9
$CUSTOMPROPERTY
  1
0.75
  9
$CUSTOMPROPERTYTAG
  1
S
  9
$CUSTOMPROPERTY
  1
1.19
  9
$CUSTOMPROPERTYTAG
  1
T
  9
$CUSTOMPROPERTY
  1
1.94
  9
$CUSTOMPROPERTYTAG
  1
COMPANY
  9
$CUSTOMPROPERTY
  1
baldor
  9
$INSBASE
 10
0.0
 20
0.0
 30
0.0
  9
$EXTMIN
 10
1.000000000000000E+20
 20
1.000000000000000E+20
 30
1.000000000000000E+20
  9
$EXTMAX
 10
-1.000000000000000E+20
 20
-1.000000000000000E+20
 30
-1.000000000000000E+20
  9
$LIMMIN
 10
0.0
 20
0.0
  9
$LIMMAX
 10
12.0
 20
9.0
  9
$ORTHOMODE
 70
     0
  9
$REGENMODE
 70
     1
  9
$FILLMODE
 70
     1
  9
$QTEXTMODE
 70
     0
  9
$MIRRTEXT
 70
     1
  9
$LTSCALE
 40
1.0
  9
$ATTMODE
 70
     1
  9
$TEXTSIZE
 40
0.2
  9
$TRACEWID
 40
0.05
  9
$TEXTSTYLE
  7
Standard
  9
$CLAYER
  8
0
  9
$CELTYPE
  6
ByLayer
  9
$CECOLOR
 62
   256
  9
$CELTSCALE
 40
1.0
  9
$DISPSILH
 70
     0
  9
$DIMSCALE
 40
1.0
  9
$DIMASZ
 40
0.18
  9
$DIMEXO
 40
0.0625
  9
$DIMDLI
 40
0.38
  9
$DIMRND
 40
0.0
  9
$DIMDLE
 40
0.0
  9
$DIMEXE
 40
0.18
  9
$DIMTP
 40
0.0
  9
$DIMTM
 40
0.0
  9
$DIMTXT
 40
0.18
  9
$DIMCEN
 40
0.09
  9
$DIMTSZ
 40
0.0
  9
$DIMTOL
 70
     0
  9
$DIMLIM
 70
     0
  9
$DIMTIH
 70
     1
  9
$DIMTOH
 70
     1
  9
$DIMSE1
 70
     0
  9
$DIMSE2
 70
     0
  9
$DIMTAD
 70
     0
  9
$DIMZIN
 70
     0
  9
$DIMBLK
  1

  9
$DIMASO
 70
     1
  9
$DIMSHO
 70
     1
  9
$DIMPOST
  1

  9
$DIMAPOST
  1

  9
$DIMALT
 70
     0
  9
$DIMALTD
 70
     2
  9
$DIMALTF
 40
25.4
  9
$DIMLFAC
 40
1.0
  9
$DIMTOFL
 70
     0
  9
$DIMTVP
 40
0.0
  9
$DIMTIX
 70
     0
  9
$DIMSOXD
 70
     0
  9
$DIMSAH
 70
     0
  9
$DIMBLK1
  1

  9
$DIMBLK2
  1

  9
$DIMSTYLE
  2
Standard
  9
$DIMCLRD
 70
     0
  9
$DIMCLRE
 70
     0
  9
$DIMCLRT
 70
     0
  9
$DIMTFAC
 40
1.0
  9
$DIMGAP
 40
0.09
  9
$DIMJUST
 70
     0
  9
$DIMSD1
 70
     0
  9
$DIMSD2
 70
     0
  9
$DIMTOLJ
 70
     1
  9
$DIMTZIN
 70
     0
  9
$DIMALTZ
 70
     0
  9
$DIMALTTZ
 70
     0
  9
$DIMUPT
 70
     0
  9
$DIMDEC
 70
     4
  9
$DIMTDEC
 70
     4
  9
$DIMALTU
 70
     2
  9
$DIMALTTD
 70
     2
  9
$DIMTXSTY
  7
Standard
  9
$DIMAUNIT
 70
     0
  9
$DIMADEC
 70
     0
  9
$DIMALTRND
 40
0.0
  9
$DIMAZIN
 70
     0
  9
$DIMDSEP
 70
    46
  9
$DIMATFIT
 70
     3
  9
$DIMFRAC
 70
     0
  9
$DIMLDRBLK
  1

  9
$DIMLUNIT
 70
     2
  9
$DIMLWD
 70
    -2
  9
$DIMLWE
 70
    -2
  9
$DIMTMOVE
 70
     0
  9
$DIMFXL
 40
1.0
  9
$DIMFXLON
 70
     0
  9
$DIMJOGANG
 40
0.7853981633974483
  9
$DIMTFILL
 70
     0
  9
$DIMTFILLCLR
 70
     0
  9
$DIMARCSYM
 70
     0
  9
$DIMLTYPE
  6

  9
$DIMLTEX1
  6

  9
$DIMLTEX2
  6

  9
$DIMTXTDIRECTION
 70
     0
  9
$LUNITS
 70
     2
  9
$LUPREC
 70
     4
  9
$SKETCHINC
 40
0.1
  9
$FILLETRAD
 40
0.5
  9
$AUNITS
 70
     0
  9
$AUPREC
 70
     0
  9
$MENU
  1
.
  9
$ELEVATION
 40
0.0
  9
$PELEVATION
 40
0.0
  9
$THICKNESS
 40
0.0
  9
$LIMCHECK
 70
     0
  9
$CHAMFERA
 40
0.0
  9
$CHAMFERB
 40
0.0
  9
$CHAMFERC
 40
0.0
  9
$CHAMFERD
 40
0.0
  9
$SKPOLY
 70
     0
  9
$TDCREATE
 40
2458169.009935127
  9
$TDUCREATE
 40
2458168.968268461
  9
$TDUPDATE
 40
2458169.009935498
  9
$TDUUPDATE
 40
2458168.968268831
  9
$TDINDWG
 40
0.0000000116
  9
$TDUSRTIMER
 40
0.0000000116
  9
$USRTIMER
 70
     1
  9
$ANGBASE
 50
0.0
  9
$ANGDIR
 70
     0
  9
$PDMODE
 70
     0
  9
$PDSIZE
 40
0.0
  9
$PLINEWID
 40
0.0
  9
$SPLFRAME
 70
     0
  9
$SPLINETYPE
 70
     6
  9
$SPLINESEGS
 70
     8
  9
$HANDSEED
  5
1ED
  9
$SURFTAB1
 70
     6
  9
$SURFTAB2
 70
     6
  9
$SURFTYPE
 70
     6
  9
$SURFU
 70
     6
  9
$SURFV
 70
     6
  9
$UCSBASE
  2

  9
$UCSNAME
  2

  9
$UCSORG
 10
0.0
 20
0.0
 30
0.0
  9
$UCSXDIR
 10
1.0
 20
0.0
 30
0.0
  9
$UCSYDIR
 10
0.0
 20
1.0
 30
0.0
  9
$UCSORTHOREF
  2

  9
$UCSORTHOVIEW
 70
     0
  9
$UCSORGTOP
 10
0.0
 20
0.0
 30
0.0
  9
$UCSORGBOTTOM
 10
0.0
 20
0.0
 30
0.0
  9
$UCSORGLEFT
 10
0.0
 20
0.0
 30
0.0
  9
$UCSORGRIGHT
 10
0.0
 20
0.0
 30
0.0
  9
$UCSORGFRONT
 10
0.0
 20
0.0
 30
0.0
  9
$UCSORGBACK
 10
0.0
 20
0.0
 30
0.0
  9
$PUCSBASE
  2

  9
$PUCSNAME
  2

  9
$PUCSORG
 10
0.0
 20
0.0
 30
0.0
  9
$PUCSXDIR
 10
1.0
 20
0.0
 30
0.0
  9
$PUCSYDIR
 10
0.0
 20
1.0
 30
0.0
  9
$PUCSORTHOREF
  2

  9
$PUCSORTHOVIEW
 70
     0
  9
$PUCSORGTOP
 10
0.0
 20
0.0
 30
0.0
  9
$PUCSORGBOTTOM
 10
0.0
 20
0.0
 30
0.0
  9
$PUCSORGLEFT
 10
0.0
 20
0.0
 30
0.0
  9
$PUCSORGRIGHT
 10
0.0
 20
0.0
 30
0.0
  9
$PUCSORGFRONT
 10
0.0
 20
0.0
 30
0.0
  9
$PUCSORGBACK
 10
0.0
 20
0.0
 30
0.0
  9
$USERI1
 70
     0
  9
$USERI2
 70
     0
  9
$USERI3
 70
     0
  9
$USERI4
 70
     0
  9
$USERI5
 70
     0
  9
$USERR1
 40
0.0
  9
$USERR2
 40
0.0
  9
$USERR3
 40
0.0
  9
$USERR4
 40
0.0
  9
$USERR5
 40
0.0
  9
$WORLDVIEW
 70
     1
  9
$SHADEDGE
 70
     3
  9
$SHADEDIF
 70
    70
  9
$TILEMODE
 70
     1
  9
$MAXACTVP
 70
    64
  9
$PINSBASE
 10
0.0
 20
0.0
 30
0.0
  9
$PLIMCHECK
 70
     0
  9
$PEXTMIN
 10
1.000000000000000E+20
 20
1.000000000000000E+20
 30
1.000000000000000E+20
  9
$PEXTMAX
 10
-1.000000000000000E+20
 20
-1.000000000000000E+20
 30
-1.000000000000000E+20
  9
$PLIMMIN
 10
0.0
 20
0.0
  9
$PLIMMAX
 10
12.0
 20
9.0
  9
$UNITMODE
 70
     0
  9
$VISRETAIN
 70
     1
  9
$PLINEGEN
 70
     0
  9
$PSLTSCALE
 70
     1
  9
$TREEDEPTH
 70
  3020
  9
$CMLSTYLE
  2
Standard
  9
$CMLJUST
 70
     0
  9
$CMLSCALE
 40
1.0
  9
$PROXYGRAPHICS
 70
     1
  9
$MEASUREMENT
 70
     0
  9
$CELWEIGHT
370
    -1
  9
$ENDCAPS
280
     0
  9
$JOINSTYLE
280
     0
  9
$LWDISPLAY
290
     0
  9
$INSUNITS
 70
     1
  9
$HYPERLINKBASE
  1

  9
$STYLESHEET
  1

  9
$XEDIT
290
     1
  9
$CEPSNTYPE
380
     0
  9
$PSTYLEMODE
290
     1
  9
$FINGERPRINTGUID
  2
{1961DF61-F5B8-4CDF-AABC-A19E06B5EB98}
  9
$VERSIONGUID
  2
{FAEB1C32-E019-11D5-929B-00C0DF256EC4}
  9
$EXTNAMES
290
     1
  9
$PSVPSCALE
 40
0.0
  9
$OLESTARTUP
290
     0
  9
$SORTENTS
280
   127
  9
$INDEXCTL
280
     0
  9
$HIDETEXT
280
     1
  9
$XCLIPFRAME
280
     2
  9
$HALOGAP
280
     0
  9
$OBSCOLOR
 70
   257
  9
$OBSLTYPE
280
     0
  9
$INTERSECTIONDISPLAY
280
     0
  9
$INTERSECTIONCOLOR
 70
   257
  9
$DIMASSOC
280
     2
  9
$PROJECTNAME
  1

  9
$CAMERADISPLAY
290
     0
  9
$LENSLENGTH
 40
50.0
  9
$CAMERAHEIGHT
 40
0.0
  9
$STEPSPERSEC
 40
2.0
  9
$STEPSIZE
 40
6.0
  9
$3DDWFPREC
 40
2.0
  9
$PSOLWIDTH
 40
0.25
  9
$PSOLHEIGHT
 40
4.0
  9
$LOFTANG1
 40
1.570796326794897
  9
$LOFTANG2
 40
1.570796326794897
  9
$LOFTMAG1
 40
0.0
  9
$LOFTMAG2
 40
0.0
  9
$LOFTPARAM
 70
     7
  9
$LOFTNORMALS
280
     1
  9
$LATITUDE
 40
37.795
  9
$LONGITUDE
 40
-122.394
  9
$NORTHDIRECTION
 40
0.0
  9
$TIMEZONE
 70
 -8000
  9
$LIGHTGLYPHDISPLAY
280
     1
  9
$TILEMODELIGHTSYNCH
280
     1
  9
$CMATERIAL
347
44
  9
$SOLIDHIST
280
     0
  9
$SHOWHIST
280
     1
  9
$DWFFRAME
280
     2
  9
$DGNFRAME
280
     2
  9
$REALWORLDSCALE
290
     1
  9
$INTERFERECOLOR
 62
   256
  9
$CSHADOW
280
     0
  9
$SHADOWPLANELOCATION
 40
0.0
  0
ENDSEC
  0
SECTION
  2
CLASSES
  0
CLASS
  1
ACDBDICTIONARYWDFLT
  2
AcDbDictionaryWithDefault
  3
ObjectDBX Classes
 90
        0
 91
        4
280
     0
281
     0
  0
CLASS
  1
VISUALSTYLE
  2
AcDbVisualStyle
  3
ObjectDBX Classes
 90
     4095
 91
        4
280
     0
281
     0
  0
CLASS
  1
MATERIAL
  2
AcDbMaterial
  3
ObjectDBX Classes
 90
     1153
 91
        4
280
     0
281
     0
  0
CLASS
  1
SCALE
  2
AcDbScale
  3
ObjectDBX Classes
 90
     1153
 91
        4
280
     0
281
     0
  0
CLASS
  1
TABLESTYLE
  2
AcDbTableStyle
  3
ObjectDBX Classes
 90
     4095
 91
        4
280
     0
281
     0
  0
CLASS
  1
MLEADERSTYLE
  2
AcDbMLeaderStyle
  3
ACDB_MLEADERSTYLE_CLASS
 90
     4095
 91
        4
280
     0
281
     0
  0
CLASS
  1
SUN
  2
AcDbSun
  3
SCENEOE
 90
     1153
 91
        4
280
     0
281
     0
  0
CLASS
  1
DICTIONARYVAR
  2
AcDbDictionaryVar
  3
ObjectDBX Classes
 90
        0
 91
        4
280
     0
281
     0
  0
CLASS
  1
CELLSTYLEMAP
  2
AcDbCellStyleMap
  3
ObjectDBX Classes
 90
     1152
 91
        4
280
     0
281
     0
  0
ENDSEC
  0
SECTION
  2
TABLES
  0
TABLE
  2
VPORT
  5
8
330
0
100
AcDbSymbolTable
 70
     1
  0
VPORT
  5
29
330
8
100
AcDbSymbolTableRecord
100
AcDbViewportTableRecord
  2
*Active
 70
     0
 10
0.0
 20
0.0
 11
1.0
 21
1.0
 12
4.662928571428572
 22
-4.375
 13
0.0
 23
0.0
 14
0.5
 24
0.5
 15
0.5
 25
0.5
 16
0.0
 26
0.0
 36
1.0
 17
0.0
 27
0.0
 37
0.0
 40
14.79
 41
0.8206798029556649
 42
50.0
 43
0.0
 44
0.0
 50
0.0
 51
0.0
 71
     0
 72
   100
 73
     1
 74
     3
 75
     0
 76
     0
 77
     0
 78
     0
281
     0
 65
     1
110
0.0
120
0.0
130
0.0
111
1.0
121
0.0
131
0.0
112
0.0
122
1.0
132
0.0
 79
     0
146
0.0
348
2F
 60
     3
 61
     5
292
     1
282
     1
141
0.0
142
0.0
 63
   250
361
6D
  0
ENDTAB
  0
TABLE
  2
LTYPE
  5
5
330
0
100
AcDbSymbolTable
 70
     3
  0
LTYPE
  5
14
330
5
100
AcDbSymbolTableRecord
100
AcDbLinetypeTableRecord
  2
ByBlock
 70
     0
  3

 72
    65
 73
     0
 40
0.0
  0
LTYPE
  5
15
330
5
100
AcDbSymbolTableRecord
100
AcDbLinetypeTableRecord
  2
ByLayer
 70
     0
  3

 72
    65
 73
     0
 40
0.0
  0
LTYPE
  5
16
330
5
100
AcDbSymbolTableRecord
100
AcDbLinetypeTableRecord
  2
Continuous
 70
     0
  3
Solid line
 72
    65
 73
     0
 40
0.0
  0
LTYPE
  5
A2
330
5
100
AcDbSymbolTableRecord
100
AcDbLinetypeTableRecord
  2
Dashed
 70
     0
  3

 72
    65
 73
     2
 40
2.0
 49
1.0
 74
     0
 49
-1.0
 74
     0
  0
LTYPE
  5
DC
330
5
100
AcDbSymbolTableRecord
100
AcDbLinetypeTableRecord
  2
Center
 70
     0
  3

 72
    65
 73
     4
 40
1.5
 49
0.45
 74
     0
 49
-0.5
 74
     0
 49
0.05
 74
     0
 49
-0.5
 74
     0
  0
ENDTAB
  0
TABLE
  2
LAYER
  5
2
330
0
100
AcDbSymbolTable
 70
     8
  0
LAYER
  5
10
330
2
100
AcDbSymbolTableRecord
100
AcDbLayerTableRecord
  2
0
 70
     0
 62
     7
  6
Continuous
370
    -3
390
F
347
46
348
0
  0
LAYER
  5
6E
330
2
100
AcDbSymbolTableRecord
100
AcDbLayerTableRecord
  2
AM_6
 70
     0
 62
    -2
  6
Continuous
370
    35
390
F
347
46
348
0
  0
LAYER
  5
A3
330
2
100
AcDbSymbolTableRecord
100
AcDbLayerTableRecord
  2
AM_9
 70
     0
 62
     6
  6
Dashed
370
    25
390
F
347
46
348
0
  0
LAYER
  5
D9
330
2
100
AcDbSymbolTableRecord
100
AcDbLayerTableRecord
  2
AM_5
 70
     0
 62
     3
  6
Continuous
370
    25
390
F
347
46
348
0
  0
LAYER
  5
DD
330
2
100
AcDbSymbolTableRecord
100
AcDbLayerTableRecord
  2
AM_7
 70
     0
 62
     7
  6
Center
370
    25
390
F
347
46
348
0
  0
LAYER
  5
E1
330
2
100
AcDbSymbolTableRecord
100
AcDbLayerTableRecord
  2
AM_0
 70
     0
 62
     7
  6
Continuous
370
    50
390
F
347
46
348
0
  0
LAYER
  5
1C6
330
2
100
AcDbSymbolTableRecord
100
AcDbLayerTableRecord
  2
AM_4
 70
     0
 62
     3
  6
Continuous
370
    25
390
F
347
46
348
0
  0
LAYER
  5
1E0
330
2
100
AcDbSymbolTableRecord
100
AcDbLayerTableRecord
  2
ConnectionPoints
 70
     0
 62
     7
  6
Continuous
370
    50
390
F
347
46
348
0
  0
ENDTAB
  0
TABLE
  2
STYLE
  5
3
330
0
100
AcDbSymbolTable
 70
     1
  0
STYLE
  5
11
330
3
100
AcDbSymbolTableRecord
100
AcDbTextStyleTableRecord
  2
Standard
 70
     0
 40
0.0
 41
1.0
 50
0.0
 71
     0
 42
0.2
  3
txt
  4

  0
ENDTAB
  0
TABLE
  2
VIEW
  5
6
330
0
100
AcDbSymbolTable
 70
     0
  0
ENDTAB
  0
TABLE
  2
UCS
  5
7
330
0
100
AcDbSymbolTable
 70
     0
  0
ENDTAB
  0
TABLE
  2
APPID
  5
9
330
0
100
AcDbSymbolTable
 70
     1
  0
APPID
  5
12
330
9
100
AcDbSymbolTableRecord
100
AcDbRegAppTableRecord
  2
ACAD
 70
     0
  0
ENDTAB
  0
TABLE
  2
DIMSTYLE
  5
A
330
0
100
AcDbSymbolTable
 70
     1
100
AcDbDimStyleTable
  0
DIMSTYLE
105
27
330
A
100
AcDbSymbolTableRecord
100
AcDbDimStyleTableRecord
  2
Standard
 70
     0
178
     0
340
11
  0
ENDTAB
  0
TABLE
  2
BLOCK_RECORD
  5
1
330
0
100
AcDbSymbolTable
 70
     4
  0
BLOCK_RECORD
  5
1F
330
1
100
AcDbSymbolTableRecord
100
AcDbBlockTableRecord
  2
*Model_Space
340
22
 70
     0
280
     1
281
     0
  0
BLOCK_RECORD
  5
1B
330
1
100
AcDbSymbolTableRecord
100
AcDbBlockTableRecord
  2
*Paper_Space
340
1E
 70
     0
280
     1
281
     0
  0
BLOCK_RECORD
  5
23
330
1
100
AcDbSymbolTableRecord
100
AcDbBlockTableRecord
  2
*Paper_Space0
340
26
 70
     0
280
     1
281
     0
  0
BLOCK_RECORD
  5
8C
330
1
100
AcDbSymbolTableRecord
100
AcDbBlockTableRecord
  2
1_045874_0_in_125151_2
340
0
102
{BLKREFS
331
8D
102
}
 70
     0
280
     1
281
     0
  0
BLOCK_RECORD
  5
F4
330
1
100
AcDbSymbolTableRecord
100
AcDbBlockTableRecord
  2
2_405016_Inch_0_in_125151_2
340
0
102
{BLKREFS
331
F5
102
}
 70
     0
280
     1
281
     0
  0
BLOCK_RECORD
  5
168
330
1
100
AcDbSymbolTableRecord
100
AcDbBlockTableRecord
  2
3_125151H_0_in_125151_2
340
0
102
{BLKREFS
331
169
102
}
 70
     0
280
     1
281
     0
  0
ENDTAB
  0
ENDSEC
  0
SECTION
  2
BLOCKS
  0
BLOCK
  5
20
330
1F
100
AcDbEntity
  8
0
100
AcDbBlockBegin
  2
*Model_Space
 70
     0
 10
0.0
 20
0.0
 30
0.0
  3
*Model_Space
  1

  0
ENDBLK
  5
21
330
1F
100
AcDbEntity
  8
0
100
AcDbBlockEnd
  0
BLOCK
  5
1C
330
1B
100
AcDbEntity
 67
     1
  8
0
100
AcDbBlockBegin
  2
*Paper_Space
 70
     0
 10
0.0
 20
0.0
 30
0.0
  3
*Paper_Space
  1

  0
ENDBLK
  5
1D
330
1B
100
AcDbEntity
 67
     1
  8
0
100
AcDbBlockEnd
  0
BLOCK
  5
24
330
23
100
AcDbEntity
  8
0
100
AcDbBlockBegin
  2
*Paper_Space0
 70
     0
 10
0.0
 20
0.0
 30
0.0
  3
*Paper_Space0
  1

  0
ENDBLK
  5
25
330
23
100
AcDbEntity
  8
0
100
AcDbBlockEnd
  0
BLOCK
  5
8E
330
8C
100
AcDbEntity
  8
0
100
AcDbBlockBegin
  2
1_045874_0_in_125151_2
 70
     2
 10
0.0
 20
0.0
 30
0.0
  3
1_045874_0_in_125151_2
  1

  0
ATTDEF
  5
90
330
8C
100
AcDbEntity
  8
AM_6
100
AcDbText
 10
5.847
 20
1.786725
 30
0.0
 40
0.5
  1
Set Screw Insert Inch Bore
100
AcDbAttributeDefinition
  3

  2
NN
 70
     8
280
     0
  0
ATTDEF
  5
91
330
8C
100
AcDbEntity
  8
AM_6
100
AcDbText
 10
5.847
 20
1.286725
 30
0.0
 40
0.5
  1
SC Normal Duty Bearing Inserts
100
AcDbAttributeDefinition
  3

  2
NT
 70
     8
280
     0
  0
ATTDEF
  5
92
330
8C
100
AcDbEntity
  8
AM_6
100
AcDbText
 10
5.847
 20
0.7867249999999997
 30
0.0
 40
0.5
  1
045874
100
AcDbAttributeDefinition
  3

  2
NB
 70
     8
280
     0
  0
ATTDEF
  5
93
330
8C
100
AcDbEntity
  8
AM_6
100
AcDbText
 10
5.847
 20
0.2867249999999997
 30
0.0
 40
0.5
  1
$PN.
100
AcDbAttributeDefinition
  3

  2
NBSYN
 70
     8
280
     0
  0
ATTDEF
  5
94
330
8C
100
AcDbEntity
  8
AM_6
100
AcDbText
 10
5.847
 20
-0.2132750000000003
 30
0.0
 40
0.5
  1
045874
100
AcDbAttributeDefinition
  3

  2
LINA
 70
     8
280
     0
  0
ATTDEF
  5
95
330
8C
100
AcDbEntity
  8
AM_6
100
AcDbText
 10
5.847
 20
-0.7132750000000003
 30
0.0
 40
0.5
  1
209
100
AcDbAttributeDefinition
  3

  2
SERIES
 70
     8
280
     0
  0
ATTDEF
  5
96
330
8C
100
AcDbEntity
  8
AM_6
100
AcDbText
 10
5.847
 20
-1.213275
 30
0.0
 40
0.5
  1
1-5/8
100
AcDbAttributeDefinition
  3

  2
SS
 70
     8
280
     0
  0
ATTDEF
  5
97
330
8C
100
AcDbEntity
  8
AM_6
100
AcDbText
 10
5.847
 20
-1.713275
 30
0.0
 40
0.5
  1
045874
100
AcDbAttributeDefinition
  3

  2
PN
 70
     8
280
     0
  0
ATTDEF
  5
98
330
8C
100
AcDbEntity
  8
AM_6
100
AcDbText
 10
5.847
 20
-2.213275
 30
0.0
 40
0.5
  1
INS-SC-110L
100
AcDbAttributeDefinition
  3

  2
DESCRIPTION
 70
     8
280
     0
  0
ATTDEF
  5
99
330
8C
100
AcDbEntity
  8
AM_6
100
AcDbText
 10
5.847
 20
-2.713275
 30
0.0
 40
0.5
  1
1.94
100
AcDbAttributeDefinition
  3

  2
A
 70
     8
280
     0
  0
ATTDEF
  5
9A
330
8C
100
AcDbEntity
  8
AM_6
100
AcDbText
 10
5.847
 20
-3.213275
 30
0.0
 40
0.5
  1
0.87
100
AcDbAttributeDefinition
  3

  2
C
 70
     8
280
     0
  0
ATTDEF
  5
9B
330
8C
100
AcDbEntity
  8
AM_6
100
AcDbText
 10
5.847
 20
-3.713275
 30
0.0
 40
0.5
  1
3.3465
100
AcDbAttributeDefinition
  3

  2
D
 70
     8
280
     0
  0
ATTDEF
  5
9C
330
8C
100
AcDbEntity
  8
AM_6
100
AcDbText
 10
5.847
 20
-4.213275
 30
0.0
 40
0.5
  1
0.25
100
AcDbAttributeDefinition
  3

  2
J
 70
     8
280
     0
  0
ATTDEF
  5
9D
330
8C
100
AcDbEntity
  8
AM_6
100
AcDbText
 10
5.847
 20
-4.713275
 30
0.0
 40
0.5
  1
2.22
100
AcDbAttributeDefinition
  3

  2
L
 70
     8
280
     0
  0
ATTDEF
  5
9E
330
8C
100
AcDbEntity
  8
AM_6
100
AcDbText
 10
5.847
 20
-5.213275
 30
0.0
 40
0.5
  1
5/16 - 24
100
AcDbAttributeDefinition
  3

  2
N
 70
     8
280
     0
  0
ATTDEF
  5
9F
330
8C
100
AcDbEntity
  8
AM_6
100
AcDbText
 10
5.847
 20
-5.713275
 30
0.0
 40
0.5
  1
0.75
100
AcDbAttributeDefinition
  3

  2
W
 70
     8
280
     0
  0
ATTDEF
  5
A0
330
8C
100
AcDbEntity
  8
AM_6
100
AcDbText
 10
5.847
 20
-6.213275
 30
0.0
 40
0.5
  1
1.19
100
AcDbAttributeDefinition
  3

  2
Y
 70
     8
280
     0
  0
ATTDEF
  5
A1
330
8C
100
AcDbEntity
  8
AM_6
100
AcDbText
 10
5.847
 20
-6.713275
 30
0.0
 40
0.5
  1
baldor
100
AcDbAttributeDefinition
  3

  2
COMPANY
 70
     8
280
     0
  0
LINE
  5
A4
330
8C
100
AcDbEntity
  8
AM_9
 48
0.0094512379392393
100
AcDbLine
 10
0.145833333333338
 20
1.675409090909091
 30
0.0
 11
0.145833333333338
 21
1.666835111521938
 31
0.0
  0
LINE
  5
A5
330
8C
100
AcDbEntity
  8
AM_9
 48
0.0094512379392393
100
AcDbLine
 10
0.354166666666662
 20
1.63538552975129
 30
0.0
 11
0.354166666666662
 21
1.675409090909091
 31
0.0
  0
LINE
  5
A6
330
8C
100
AcDbEntity
  8
AM_9
 48
0.0094512379392393
100
AcDbLine
 10
0.2750757575757546
 20
1.7545
 30
0.0
 11
0.2249242424242454
 21
1.7545
 31
0.0
  0
LINE
  5
A7
330
8C
100
AcDbEntity
  8
AM_9
 48
0.0094512379392393
100
AcDbLine
 10
0.354166666666662
 20
1.675409090909091
 30
0.0
 11
0.145833333333338
 21
1.675409090909091
 31
0.0
  0
ARC
  5
A8
330
8C
100
AcDbEntity
  8
AM_9
 48
0.0094512379392393
100
AcDbCircle
 10
0.2249242424242471
 20
1.67540909090909
 30
0.0
 40
0.0790909090909093
100
AcDbArc
 50
90.0000000000012
 51
179.9999999999997
  0
ARC
  5
A9
330
8C
100
AcDbEntity
  8
AM_9
 48
0.0094512379392393
100
AcDbCircle
 10
0.275075757575753
 20
1.67540909090909
 30
0.0
 40
0.0790909090909091
100
AcDbArc
 50
0.0000000000003217
 51
89.99999999999883
  0
ELLIPSE
  5
AA
330
8C
100
AcDbEntity
  8
AM_9
 48
0.0094512379392393
100
AcDbEllipse
 10
-0.8125000000000001
 20
-0.7294277079086409
 30
0.0
 11
-0.1262000000000006
 21
1.545504260523968E-17
 31
0.0
210
0.0
220
0.0
230
1.0
 40
0.4226182617406937
 41
4.222304537301387
 42
5.202473423467993
  0
ELLIPSE
  5
AB
330
8C
100
AcDbEntity
  8
AM_9
 48
0.0094512379392393
100
AcDbEllipse
 10
-0.8125
 20
-0.7294277079086406
 30
0.0
 11
-0.1262000000000001
 21
1.545504260523961E-17
 31
0.0
210
0.0
220
0.0
230
1.0
 40
0.4226182617407044
 41
1.080711883711598
 42
2.060880769878195
  0
LINE
  5
AC
330
8C
100
AcDbEntity
  8
AM_9
 48
0.0094512379392393
100
AcDbLine
 10
-0.9387
 20
-0.7363143664861849
 30
0.0
 11
-0.9387
 21
-0.9891875043623771
 31
0.0
  0
LINE
  5
AD
330
8C
100
AcDbEntity
  8
AM_9
 48
0.0094512379392393
100
AcDbLine
 10
-0.6863
 20
-0.9891875043623771
 30
0.0
 11
-0.6863
 21
-0.7363143664861849
 31
0.0
  0
LWPOLYLINE
  5
AE
330
8C
100
AcDbEntity
  8
AM_9
 48
0.0094512379392393
100
AcDbPolyline
 90
        8
 70
     0
 43
0.0
 10
-0.6863000002373164
 20
-0.7363783480602399
 10
-0.6869575166918501
 20
-0.7308973991127056
 10
-0.6908202074761169
 20
-0.7216034278020897
 10
-0.6980686570389123
 20
-0.7123153585214644
 10
-0.708454789831842
 20
-0.7033405300902683
 10
-0.7218606391437723
 20
-0.6949589069699462
 10
-0.7377969540601801
 20
-0.6875955763622817
 10
-0.7530976103528921
 20
-0.6823711122975852
  0
LWPOLYLINE
  5
AF
330
8C
100
AcDbEntity
  8
AM_9
 48
0.0094512379392393
100
AcDbPolyline
 90
        8
 70
     0
 43
0.0
 10
-0.9386999997626836
 20
-0.7363718058075022
 10
-0.9380424833081498
 20
-0.7416648726097453
 10
-0.9341797925238828
 20
-0.7498963627922681
 10
-0.9269313429610873
 20
-0.7572709754583924
 10
-0.9165452101681576
 20
-0.763708611628797
 10
-0.9031393608562273
 20
-0.7691661829054584
 10
-0.8872030459398192
 20
-0.7735686169845308
 10
-0.8719023896471071
 20
-0.7764843035196972
  0
ELLIPSE
  5
B0
330
8C
100
AcDbEntity
  8
AM_9
 48
0.0094512379392393
100
AcDbEllipse
 10
-0.8125
 20
-0.9891875043623768
 30
0.0
 11
-0.1261999999999999
 21
-2.087211905270718E-16
 31
0.0
210
0.0
220
0.0
230
1.0
 40
0.422618261740698
 41
3.517744124536307
 42
5.913229053760278
  0
LINE
  5
B1
330
8C
100
AcDbEntity
  8
AM_9
 48
0.0094512379392393
100
AcDbLine
 10
-0.9241393737973383
 20
-0.9643172537133358
 30
0.0
 11
-0.9385887552156864
 21
-0.9759019060170162
 31
0.0
  0
LINE
  5
B2
330
8C
100
AcDbEntity
  8
AM_9
 48
0.0094512379392393
100
AcDbLine
 10
-0.6862234387358079
 20
-0.9760524777065215
 30
0.0
 11
-0.7008606262026617
 21
-0.9643172537133358
 31
0.0
  0
LWPOLYLINE
  5
B3
330
8C
100
AcDbEntity
  8
AM_9
 48
0.0094512379392393
100
AcDbPolyline
 90
        8
 70
     0
 43
0.0
 10
-0.7530976103528924
 20
0.1113453910326476
 10
-0.7711048160519844
 20
0.1206177452615122
 10
-0.7904860958531456
 20
0.1265497849377636
 10
-0.8093434332144949
 20
0.1287479885732194
 10
-0.8282984194134602
 20
0.1276506690429429
 10
-0.8458549547017511
 20
0.1235503865892286
 10
-0.8625144431760258
 20
0.1166910568411693
 10
-0.8719023896471076
 20
0.1113453910326476
  0
LWPOLYLINE
  5
B4
330
8C
100
AcDbEntity
  8
AM_9
 48
0.0094512379392393
100
AcDbPolyline
 90
        8
 70
     0
 43
0.0
 10
-0.8719023896471076
 20
-0.1113453910326476
 10
-0.8538951839480154
 20
-0.1206177452615122
 10
-0.8345139041468547
 20
-0.1265497849377636
 10
-0.8156565667855051
 20
-0.1287479885732194
 10
-0.7967015805865398
 20
-0.1276506690429429
 10
-0.7791450452982489
 20
-0.1235503865892286
 10
-0.7624855568239743
 20
-0.1166910568411694
 10
-0.7530976103528924
 20
-0.1113453910326476
  0
LWPOLYLINE
  5
B5
330
8C
100
AcDbEntity
  8
AM_9
 48
0.0094512379392393
100
AcDbPolyline
 90
        7
 70
     0
 43
0.0
 10
-0.7530976103528921
 20
-0.6823711122975852
 10
-0.7736093229072161
 20
-0.6766787691591576
 10
-0.7926497195742855
 20
-0.6736771007210948
 10
-0.8123466296085649
 20
-0.6726250489908695
 10
-0.8305504470320526
 20
-0.6734931348012143
 10
-0.8482424167106146
 20
-0.6760379572184885
 10
-0.8719023896471081
 20
-0.6823711122975852
  0
LWPOLYLINE
  5
B6
330
8C
100
AcDbEntity
  8
AM_9
 48
0.0094512379392393
100
AcDbPolyline
 90
        8
 70
     0
 43
0.0
 10
-0.8719023896471081
 20
-0.6823711122975854
 10
-0.889784296442741
 20
-0.6886471145230901
 10
-0.9054707126535063
 20
-0.6962357726040271
 10
-0.9184920186157236
 20
-0.7048140439028698
 10
-0.9285187189685705
 20
-0.71401123602736
 10
-0.9352063051229731
 20
-0.7234497810576888
 10
-0.938423041808179
 20
-0.7328046114483531
 10
-0.9386999997626836
 20
-0.7363718058075022
  0
LWPOLYLINE
  5
B7
330
8C
100
AcDbEntity
  8
AM_9
 48
0.0094512379392393
100
AcDbPolyline
 90
        9
 70
     0
 43
0.0
 10
-0.8719023896471072
 20
-0.7764843035196972
 10
-0.8644609423590223
 20
-0.7777609715440786
 10
-0.8456229137945278
 20
-0.7800465351069759
 10
-0.8256426125042158
 20
-0.7812774144173029
 10
-0.8070020029339849
 20
-0.7814583948531734
 10
-0.7885255216574403
 20
-0.7807516345651525
 10
-0.7713368618582392
 20
-0.7792204078614327
 10
-0.7552328800780225
 20
-0.7768753902567174
 10
-0.7530976103528928
 20
-0.7764843035196972
  0
LWPOLYLINE
  5
B8
330
8C
100
AcDbEntity
  8
AM_9
 48
0.0094512379392393
100
AcDbPolyline
 90
        8
 70
     0
 43
0.0
 10
-0.7530976103528928
 20
-0.7764843035196972
 10
-0.7352157035572597
 20
-0.7729610516365801
 10
-0.7195292873464942
 20
-0.7683681138488679
 10
-0.7065079813842768
 20
-0.7626924368586818
 10
-0.6964812810314297
 20
-0.7559855222068093
 10
-0.6897936948770271
 20
-0.7483271394053819
 10
-0.686576958191821
 20
-0.7398676508942809
 10
-0.6863000002373164
 20
-0.7363783480602399
  0
LINE
  5
B9
330
8C
100
AcDbEntity
  8
AM_9
 48
0.0094512379392393
100
AcDbLine
 10
-1.1456
 20
-0.8125
 30
0.0
 11
0.7056
 21
-0.8125
 31
0.0
  0
LINE
  5
BA
330
8C
100
AcDbEntity
  8
AM_9
 48
0.0094512379392393
100
AcDbLine
 10
0.7056
 20
0.8125
 30
0.0
 11
-1.1456
 21
0.8125
 31
0.0
  0
LINE
  5
BB
330
8C
100
AcDbEntity
  8
AM_9
 48
0.0094512379392393
100
AcDbLine
 10
0.7056
 20
-0.8125
 30
0.0
 11
0.7499999999999999
 21
-0.8569
 31
0.0
  0
LINE
  5
BC
330
8C
100
AcDbEntity
  8
AM_9
 48
0.0094512379392393
100
AcDbLine
 10
0.7499999999999999
 20
0.8569
 30
0.0
 11
0.7056
 21
0.8125
 31
0.0
  0
LINE
  5
BD
330
8C
100
AcDbEntity
  8
AM_9
 48
0.0094512379392393
100
AcDbLine
 10
-1.1456
 20
0.8125
 30
0.0
 11
-1.19
 21
0.8569
 31
0.0
  0
LINE
  5
BE
330
8C
100
AcDbEntity
  8
AM_9
 48
0.0094512379392393
100
AcDbLine
 10
-1.19
 20
-0.8569
 30
0.0
 11
-1.1456
 21
-0.8125
 31
0.0
  0
LINE
  5
BF
330
8C
100
AcDbEntity
  8
AM_9
 48
0.0094512379392393
100
AcDbLine
 10
0.7499999999999999
 20
0.6151422599691879
 30
0.0
 11
0.7499999999999999
 21
-0.6151422599691879
 31
0.0
  0
CIRCLE
  5
C0
330
8C
100
AcDbEntity
  8
AM_9
 48
0.0094512379392393
100
AcDbCircle
 10
-0.8125
 20
0.0
 30
0.0
 40
0.1262
  0
LINE
  5
C1
330
8C
100
AcDbEntity
  8
AM_9
 48
0.0094512379392393
100
AcDbLine
 10
0.7056
 20
0.6656039663343358
 30
0.0
 11
0.7056
 21
-0.6656039663343358
 31
0.0
  0
LINE
  5
C2
330
8C
100
AcDbEntity
  8
AM_9
 48
0.0094512379392393
100
AcDbLine
 10
0.435
 20
-1.110000000000001
 30
0.0
 11
0.5848
 21
-1.110000000000001
 31
0.0
  0
LINE
  5
C3
330
8C
100
AcDbEntity
  8
AM_9
 48
0.0094512379392393
100
AcDbLine
 10
0.5848000000000003
 20
1.110000000000001
 30
0.0
 11
0.435
 21
1.110000000000001
 31
0.0
  0
LWPOLYLINE
  5
C4
330
8C
100
AcDbEntity
  8
AM_9
 48
0.0094512379392393
100
AcDbPolyline
 90
       39
 70
     0
 43
0.0
 10
-0.7122205915587747
 20
0.0982585557077616
 10
-0.6978749620444834
 20
0.0831748329377374
 10
-0.6859474989648886
 20
0.0661140285329157
 10
-0.6759155020513076
 20
0.0450427125561729
 10
-0.6697429635897444
 20
0.0225284482343929
 10
-0.6677649853343917
 20
0.000542711518309
 10
-0.6695568816396433
 20
-0.0214591090386299
 10
-0.6749016446998997
 20
-0.0422381854734859
 10
-0.6835460532305755
 20
-0.0618673402972332
 10
-0.695516718424383
 20
-0.08020773610013
 10
-0.7102345321266819
 20
-0.0964252163679354
 10
-0.7282929233086349
 20
-0.1108332968627618
 10
-0.748409393779197
 20
-0.1222182843786586
 10
-0.7713404520063296
 20
-0.1306905048032786
 10
-0.7953472007226361
 20
-0.1353830172595077
 10
-0.8206887826571188
 20
-0.1361142125053187
 10
-0.8458032189300446
 20
-0.1326784540715911
 10
-0.8702060498077462
 20
-0.1249984297535091
 10
-0.8929381309417551
 20
-0.1133049427586943
 10
-0.9129349345350933
 20
-0.0980952185514955
 10
-0.9299479098034078
 20
-0.0796216580111123
 10
-0.9427538177626804
 20
-0.0593667329768036
 10
-0.9517595408259387
 20
-0.0371530792826173
 10
-0.9563374864346521
 20
-0.0151382355868015
 10
-0.9570418228407084
 20
0.0073402049622564
 10
-0.9539939076036907
 20
0.028664218014788
 10
-0.9474782346552424
 20
0.0491896003623785
 10
-0.9376209526609697
 20
0.0684635328144208
 10
-0.9248279904752296
 20
0.0859218744067615
 10
-0.908678083660569
 20
0.101818254855416
 10
-0.8902194976004539
 20
0.1149780218734291
 10
-0.8686734138688097
 20
0.1256210625477423
 10
-0.8456917941774577
 20
0.132703290228519
 10
-0.820796801920004
 20
0.1361088500720095
 10
-0.7956756604748613
 20
0.1354196865023906
 10
-0.7705761484882401
 20
0.1304718188901131
 10
-0.7466753778924269
 20
0.1213964026320267
 10
-0.7286171514261051
 20
0.1110558645659305
 10
-0.7122205915342658
 20
0.0982585557455188
  0
LINE
  5
C5
330
8C
100
AcDbEntity
  8
AM_9
 48
0.0094512379392393
100
AcDbLine
 10
-0.5847999999999998
 20
-1.110000000000001
 30
0.0
 11
-0.435
 21
-1.110000000000001
 31
0.0
  0
LINE
  5
C6
330
8C
100
AcDbEntity
  8
AM_9
 48
0.0094512379392393
100
AcDbLine
 10
-0.435
 20
1.110000000000001
 30
0.0
 11
-0.5847999999999998
 21
1.110000000000001
 31
0.0
  0
LINE
  5
C7
330
8C
100
AcDbEntity
  8
AM_9
 48
0.0094512379392393
100
AcDbLine
 10
-0.3000000000000002
 20
-1.589916666666666
 30
0.0
 11
-0.2
 21
-1.589916666666666
 31
0.0
  0
LINE
  5
C8
330
8C
100
AcDbEntity
  8
AM_9
 48
0.0094512379392393
100
AcDbLine
 10
-0.2
 20
1.589916666666666
 30
0.0
 11
-0.3000000000000002
 21
1.589916666666666
 31
0.0
  0
LINE
  5
C9
330
8C
100
AcDbEntity
  8
AM_9
 48
0.0094512379392393
100
AcDbLine
 10
-0.4350000000000004
 20
1.576932326544167
 30
0.0
 11
-0.4350000000000004
 21
-1.576932326543883
 31
0.0
  0
ARC
  5
CA
330
8C
100
AcDbEntity
  8
AM_9
 48
0.0094512379392393
100
AcDbCircle
 10
-0.3849999999988716
 20
-1.57693232654329
 30
0.0
 40
0.0500000000011287
100
AcDbArc
 50
180.0000000010056
 51
256.2798930876245
  0
ARC
  5
CB
330
8C
100
AcDbEntity
  8
AM_9
 48
0.0094512379392393
100
AcDbCircle
 10
-0.3850000000000003
 20
1.576932326544176
 30
0.0
 40
0.0499999999999999
100
AcDbArc
 50
103.7201069113599
 51
180.0000000000102
  0
LINE
  5
CC
330
8C
100
AcDbEntity
  8
AM_9
 48
0.0094512379392393
100
AcDbLine
 10
0.435
 20
1.576932326544167
 30
0.0
 11
0.435
 21
-1.576932326543883
 31
0.0
  0
ARC
  5
CD
330
8C
100
AcDbEntity
  8
AM_9
 48
0.0094512379392393
100
AcDbCircle
 10
0.3849999999999998
 20
-1.576932326544167
 30
0.0
 40
0.0500000000000001
100
AcDbArc
 50
283.7200768242542
 51
0.0
  0
ARC
  5
CE
330
8C
100
AcDbEntity
  8
AM_9
 48
0.0094512379392393
100
AcDbCircle
 10
0.3849999999995203
 20
1.57693232654379
 30
0.0
 40
0.0500000000004797
100
AcDbArc
 50
0.0000000004315377
 51
76.27992317531431
  0
LINE
  5
CF
330
8C
100
AcDbEntity
  8
AM_9
 48
0.0094512379392393
100
AcDbLine
 10
-0.3968589539480947
 20
1.625
 30
0.0
 11
-0.3968589539480947
 21
-1.625
 31
0.0
  0
LINE
  5
D0
330
8C
100
AcDbEntity
  8
AM_9
 48
0.0094512379392393
100
AcDbLine
 10
-0.2999999999999999
 20
1.646136556455752
 30
0.0
 11
-0.2999999999999999
 21
-1.646136556455996
 31
0.0
  0
ARC
  5
D1
330
8C
100
AcDbEntity
  8
AM_9
 48
0.0094512379392393
100
AcDbCircle
 10
-0.0000000001137213
 20
-0.0000000005341325
 30
0.0
 40
1.673249999454374
100
AcDbArc
 50
256.279926218537
 51
259.6714882668628
  0
ARC
  5
D2
330
8C
100
AcDbEntity
  8
AM_9
 48
0.0094512379392393
100
AcDbCircle
 10
-0.0000000001137651
 20
0.0000000005343388
 30
0.0
 40
1.673249999454163
100
AcDbArc
 50
100.3285117331371
 51
103.7200737814633
  0
LINE
  5
D3
330
8C
100
AcDbEntity
  8
AM_9
 48
0.0094512379392393
100
AcDbLine
 10
-0.1999999999999997
 20
1.661254213689163
 30
0.0
 11
-0.1999999999999997
 21
-1.661254213689161
 31
0.0
  0
LINE
  5
D4
330
8C
100
AcDbEntity
  8
AM_9
 48
0.0094512379392393
100
AcDbLine
 10
0.3968589284413285
 20
1.625
 30
0.0
 11
0.3968589284413285
 21
-1.625
 31
0.0
  0
ARC
  5
D5
330
8C
100
AcDbEntity
  8
AM_9
 48
0.0094512379392393
100
AcDbCircle
 10
-0.0000000000000088
 20
0.0000000000001386
 30
0.0
 40
1.673250000000134
100
AcDbArc
 50
263.1351448840007
 51
283.7200728818474
  0
ARC
  5
D6
330
8C
100
AcDbEntity
  8
AM_9
 48
0.0094512379392393
100
AcDbCircle
 10
-0.0000000000021788
 20
-0.0000000000098188
 30
0.0
 40
1.673250000010053
100
AcDbArc
 50
76.27992711815907
 51
77.79081805384263
  0
ARC
  5
D7
330
8C
100
AcDbEntity
  8
AM_9
 48
0.0094512379392393
100
AcDbCircle
 10
-0.0000000000000073
 20
-0.0000000000001612
 30
0.0
 40
1.673250000000157
100
AcDbArc
 50
84.98903317252126
 51
96.86485511599925
  0
LINE
  5
D8
330
8C
100
AcDbEntity
  8
AM_9
 48
0.0094512379392393
100
AcDbLine
 10
0.3541666666666611
 20
1.635338354812915
 30
0.0
 11
0.14583333333343
 21
1.666882779738524
 31
0.0
  0
ARC
  5
DA
330
8C
100
AcDbEntity
  8
AM_5
 48
0.0094512379392393
100
AcDbCircle
 10
-0.8775
 20
0.0
 30
0.0
 40
0.15625
100
AcDbArc
 50
75.00000000000001
 51
14.99999999999996
  0
ARC
  5
DB
330
8C
100
AcDbEntity
  8
AM_5
 48
0.0094512379392393
100
AcDbCircle
 10
-0.8125
 20
0.0
 30
0.0
 40
0.15625
100
AcDbArc
 50
75.00000000000001
 51
14.99999999999996
  0
LINE
  5
DE
330
8C
100
AcDbEntity
  8
AM_7
 48
0.0094512379392393
100
AcDbLine
 10
-0.8125
 20
-0.13251
 30
0.0
 11
-0.8125
 21
0.13251
 31
0.0
  0
LINE
  5
DF
330
8C
100
AcDbEntity
  8
AM_7
 48
0.0094512379392393
100
AcDbLine
 10
-1.287
 20
0.0
 30
0.0
 11
0.8469999999999999
 21
0.0
 31
0.0
  0
LINE
  5
E0
330
8C
100
AcDbEntity
  8
AM_7
 48
0.0094512379392393
100
AcDbLine
 10
0.25
 20
1.786725
 30
0.0
 11
0.25
 21
1.077775
 31
0.0
  0
ELLIPSE
  5
E2
330
8C
100
AcDbEntity
  8
AM_0
 48
0.0094512379392393
100
AcDbEllipse
 10
-0.8125
 20
-0.9891875043623772
 30
0.0
 11
-0.1261999999999999
 21
1.545504260523958E-17
 31
0.0
210
0.0
220
0.0
230
1.0
 40
0.422618261740698
 41
5.913229053760274
 42
9.800929431715906
  0
LWPOLYLINE
  5
E3
330
8C
100
AcDbEntity
  8
AM_0
 48
0.0094512379392393
100
AcDbPolyline
 90
       15
 70
     0
 43
0.0
 10
-0.9387705076717041
 20
-0.9760476264547017
 10
-0.9342841078518541
 20
-0.9726723214064199
 10
-0.9203026746507067
 20
-0.9642051672477137
 10
-0.9037709684549408
 20
-0.9567262055550225
 10
-0.8839729396070055
 20
-0.9501668026266096
 10
-0.8623921389297825
 20
-0.9452117215957299
 10
-0.8383683876326675
 20
-0.9419441890502901
 10
-0.8136543491285141
 20
-0.9407631532819214
 10
-0.7882285077333322
 20
-0.9418037311322138
 10
-0.7634862467963309
 20
-0.9450525531018446
 10
-0.7401234173818941
 20
-0.9504232242364535
 10
-0.7188786827703704
 20
-0.9576618776294186
 10
-0.7009334471287424
 20
-0.9662509676011336
 10
-0.6863054630017079
 20
-0.9759868119286279
 10
-0.6862168719442958
 20
-0.9760577425748047
  0
LWPOLYLINE
  5
E4
330
8C
100
AcDbEntity
  8
AM_0
 48
0.0094512379392393
100
AcDbPolyline
 90
        4
 70
     0
 43
0.0
 10
-0.6862168719442958
 20
-0.9760577425748047
 10
-0.6761083455380104
 20
-0.985898480532971
 10
-0.6698128931047919
 20
-0.996102041102364
 10
-0.6678929566295905
 20
-1.008563927654076
  0
LINE
  5
E5
330
8C
100
AcDbEntity
  8
AM_0
 48
0.0094512379392393
100
AcDbLine
 10
-1.19
 20
1.0656
 30
0.0
 11
-1.19
 21
-1.0656
 31
0.0
  0
LINE
  5
E6
330
8C
100
AcDbEntity
  8
AM_0
 48
0.0094512379392393
100
AcDbLine
 10
-1.19
 20
-1.0656
 30
0.0
 11
-1.1456
 21
-1.11
 31
0.0
  0
LINE
  5
E7
330
8C
100
AcDbEntity
  8
AM_0
 48
0.0094512379392393
100
AcDbLine
 10
-1.1456
 20
1.11
 30
0.0
 11
-1.19
 21
1.0656
 31
0.0
  0
LINE
  5
E8
330
8C
100
AcDbEntity
  8
AM_0
 48
0.0094512379392393
100
AcDbLine
 10
0.7499999999999999
 20
-0.6151422599691879
 30
0.0
 11
0.7499999999999999
 21
-1.0656
 31
0.0
  0
LINE
  5
E9
330
8C
100
AcDbEntity
  8
AM_0
 48
0.0094512379392393
100
AcDbLine
 10
0.7499999999999999
 20
1.0656
 30
0.0
 11
0.7499999999999999
 21
0.6151422599691879
 31
0.0
  0
LINE
  5
EA
330
8C
100
AcDbEntity
  8
AM_0
 48
0.0094512379392393
100
AcDbLine
 10
0.7499999999999999
 20
1.0656
 30
0.0
 11
0.7056
 21
1.11
 31
0.0
  0
LINE
  5
EB
330
8C
100
AcDbEntity
  8
AM_0
 48
0.0094512379392393
100
AcDbLine
 10
0.7056
 20
-1.11
 30
0.0
 11
0.7499999999999999
 21
-1.0656
 31
0.0
  0
LINE
  5
EC
330
8C
100
AcDbEntity
  8
AM_0
 48
0.0094512379392393
100
AcDbLine
 10
0.7056
 20
-0.6656039663343358
 30
0.0
 11
0.7056
 21
-1.11
 31
0.0
  0
LINE
  5
ED
330
8C
100
AcDbEntity
  8
AM_0
 48
0.0094512379392393
100
AcDbLine
 10
0.7056
 20
1.11
 30
0.0
 11
0.7056
 21
0.6656039663343358
 31
0.0
  0
LINE
  5
EE
330
8C
100
AcDbEntity
  8
AM_0
 48
0.0094512379392393
100
AcDbLine
 10
0.5848
 20
-1.110000000000001
 30
0.0
 11
0.7056
 21
-1.110000000000001
 31
0.0
  0
LINE
  5
EF
330
8C
100
AcDbEntity
  8
AM_0
 48
0.0094512379392393
100
AcDbLine
 10
0.7056
 20
1.110000000000001
 30
0.0
 11
0.5848000000000003
 21
1.110000000000001
 31
0.0
  0
LINE
  5
F0
330
8C
100
AcDbEntity
  8
AM_0
 48
0.0094512379392393
100
AcDbLine
 10
-1.1456
 20
1.11
 30
0.0
 11
-1.1456
 21
-1.11
 31
0.0
  0
LWPOLYLINE
  5
F1
330
8C
100
AcDbEntity
  8
AM_0
 48
0.0094512379392393
100
AcDbPolyline
 90
       23
 70
     0
 43
0.0
 10
-0.6678929566295905
 20
-1.008563927654076
 10
-0.6707413646864634
 20
-1.017305175613567
 10
-0.6770773969564022
 20
-1.025383149155777
 10
-0.686754436181806
 20
-1.032643923495482
 10
-0.6993825165145616
 20
-1.038969762706962
 10
-0.715367180273844
 20
-1.04451631400719
 10
-0.7336803230992205
 20
-1.048962713175657
 10
-0.7550990295496152
 20
-1.052471194026624
 10
-0.7779818513854844
 20
-1.05477480470768
 10
-0.8028231615140315
 20
-1.055908605870942
 10
-0.8279278241043059
 20
-1.055763797069537
 10
-0.8530686902430242
 20
-1.054289180084715
 10
-0.8770508560964673
 20
-1.051467169388528
 10
-0.8989854265596527
 20
-1.047291042851122
 10
-0.9183662353993347
 20
-1.041738133987394
 10
-0.9339494863539517
 20
-1.035064077522568
 10
-0.9459404041318289
 20
-1.0271671840546
 10
-0.9534243864208134
 20
-1.018719720431344
 10
-0.9569826777936403
 20
-1.009484035271725
 10
-0.956528488940747
 20
-1.000238480121391
 10
-0.9524360482978201
 20
-0.9907860420221163
 10
-0.9449252577764456
 20
-0.9815376448463453
 10
-0.9387705076717041
 20
-0.9760476264547017
  0
LINE
  5
F2
330
8C
100
AcDbEntity
  8
AM_0
 48
0.0094512379392393
100
AcDbLine
 10
-1.1456
 20
-1.110000000000001
 30
0.0
 11
-0.5847999999999998
 21
-1.110000000000001
 31
0.0
  0
LINE
  5
F3
330
8C
100
AcDbEntity
  8
AM_0
 48
0.0094512379392393
100
AcDbLine
 10
-0.5847999999999998
 20
1.110000000000001
 30
0.0
 11
-1.1456
 21
1.110000000000001
 31
0.0
  0
ENDBLK
  5
8F
330
8C
100
AcDbEntity
  8
0
100
AcDbBlockEnd
  0
BLOCK
  5
F6
330
F4
100
AcDbEntity
  8
0
100
AcDbBlockBegin
  2
2_405016_Inch_0_in_125151_2
 70
     2
 10
0.0
 20
0.0
 30
0.0
  3
2_405016_Inch_0_in_125151_2
  1

  0
ATTDEF
  5
F8
330
F4
100
AcDbEntity
  8
AM_6
100
AcDbText
 10
5.21875
 20
-0.8869256983551579
 30
0.0
 40
0.5
  1
405016 -Inch
100
AcDbAttributeDefinition
  3

  2
NN
 70
     8
280
     0
  0
ATTDEF
  5
F9
330
F4
100
AcDbEntity
  8
AM_6
100
AcDbText
 10
5.21875
 20
-1.386925698355158
 30
0.0
 40
0.5
  1
Grease Fitting
100
AcDbAttributeDefinition
  3

  2
NT
 70
     8
280
     0
  0
ATTDEF
  5
FA
330
F4
100
AcDbEntity
  8
AM_6
100
AcDbText
 10
5.21875
 20
-1.886925698355158
 30
0.0
 40
0.5
  1
405016-Inch
100
AcDbAttributeDefinition
  3

  2
NB
 70
     8
280
     0
  0
ATTDEF
  5
FB
330
F4
100
AcDbEntity
  8
AM_6
100
AcDbText
 10
5.21875
 20
-2.386925698355158
 30
0.0
 40
0.5
  1
$MN.-Inch
100
AcDbAttributeDefinition
  3

  2
NBSYN
 70
     8
280
     0
  0
ATTDEF
  5
FC
330
F4
100
AcDbEntity
  8
AM_6
100
AcDbText
 10
5.21875
 20
-2.886925698355158
 30
0.0
 40
0.5
  1
405016
100
AcDbAttributeDefinition
  3

  2
LINA
 70
     8
280
     0
  0
ATTDEF
  5
FD
330
F4
100
AcDbEntity
  8
AM_6
100
AcDbText
 10
5.21875
 20
-3.386925698355158
 30
0.0
 40
0.5
  1
405016
100
AcDbAttributeDefinition
  3

  2
MN
 70
     8
280
     0
  0
ATTDEF
  5
FE
330
F4
100
AcDbEntity
  8
AM_6
100
AcDbText
 10
5.21875
 20
-3.886925698355158
 30
0.0
 40
0.5
  1
7/16 HEX
100
AcDbAttributeDefinition
  3

  2
H
 70
     8
280
     0
  0
ATTDEF
  5
FF
330
F4
100
AcDbEntity
  8
AM_6
100
AcDbText
 10
5.21875
 20
-4.386925698355158
 30
0.0
 40
0.5
  1
0.383
100
AcDbAttributeDefinition
  3

  2
NDR
 70
     8
280
     0
  0
ATTDEF
  5
100
330
F4
100
AcDbEntity
  8
AM_6
100
AcDbText
 10
5.21875
 20
-4.886925698355158
 30
0.0
 40
0.5
  1
0.337
100
AcDbAttributeDefinition
  3

  2
KDR
 70
     8
280
     0
  0
ATTDEF
  5
101
330
F4
100
AcDbEntity
  8
AM_6
100
AcDbText
 10
5.21875
 20
-5.386925698355158
 30
0.0
 40
0.5
  1
0.1575
100
AcDbAttributeDefinition
  3

  2
BZE
 70
     8
280
     0
  0
ATTDEF
  5
102
330
F4
100
AcDbEntity
  8
AM_6
100
AcDbText
 10
5.21875
 20
-5.886925698355158
 30
0.0
 40
0.5
  1
0.4375
100
AcDbAttributeDefinition
  3

  2
HEX
 70
     8
280
     0
  0
ATTDEF
  5
103
330
F4
100
AcDbEntity
  8
AM_6
100
AcDbText
 10
5.21875
 20
-6.386925698355158
 30
0.0
 40
0.5
  1
0.281250
100
AcDbAttributeDefinition
  3

  2
HEX2
 70
     8
280
     0
  0
ATTDEF
  5
104
330
F4
100
AcDbEntity
  8
AM_6
100
AcDbText
 10
5.21875
 20
-6.886925698355158
 30
0.0
 40
0.5
  1
baldor
100
AcDbAttributeDefinition
  3

  2
COMPANY
 70
     8
280
     0
  0
LWPOLYLINE
  5
105
330
F4
100
AcDbEntity
  8
AM_9
 48
0.0020248196877279
100
AcDbPolyline
 90
        5
 70
     0
 43
0.0
 10
-0.1791093260592888
 20
-1.491738809059826
 10
-0.1842540823997055
 20
-1.458670119967152
 10
-0.1862220679364952
 20
-1.424312409178914
 10
-0.1844124966919382
 20
-1.388126446285356
 10
-0.1791093260592888
 20
-1.351113809059826
  0
LINE
  5
106
330
F4
100
AcDbEntity
  8
AM_9
 48
0.0020248196877279
100
AcDbLine
 10
-0.1510741298357571
 20
-1.34457729571137
 30
0.0
 11
-0.1791093260592888
 21
-1.351113809059826
 31
0.0
  0
LWPOLYLINE
  5
107
330
F4
100
AcDbEntity
  8
AM_9
 48
0.0020248196877279
100
AcDbPolyline
 90
        5
 70
     0
 43
0.0
 10
-0.1791093260592888
 20
-1.351113809059826
 10
-0.198835512140694
 20
-1.319688517736611
 10
-0.2156330920108726
 20
-1.286997724328327
 10
-0.2290462109660022
 20
-1.252506153690794
 10
-0.2389369657326277
 20
-1.217169092407283
  0
LINE
  5
108
330
F4
100
AcDbEntity
  8
AM_9
 48
0.0020248196877279
100
AcDbLine
 10
-0.2099962668917054
 20
-1.210421457656344
 30
0.0
 11
-0.2389369657326277
 21
-1.217169092407283
 31
0.0
  0
LINE
  5
109
330
F4
100
AcDbEntity
  8
AM_9
 48
0.0020248196877279
100
AcDbLine
 10
-0.2389369657326277
 20
-1.217169092407283
 30
0.0
 11
-0.2711532636537957
 21
-1.221618123437406
 31
0.0
  0
LWPOLYLINE
  5
10A
330
F4
100
AcDbEntity
  8
AM_9
 48
0.0020248196877279
100
AcDbPolyline
 90
        3
 70
     0
 43
0.0
 10
-0.2813919000363601
 20
-1.222753048956784
 10
-0.2911775952746244
 20
-1.22355559349426
 10
-0.2987675689889719
 20
-1.223850066725467
  0
LWPOLYLINE
  5
10B
330
F4
100
AcDbEntity
  8
AM_9
 48
0.0020248196877279
100
AcDbPolyline
 90
        5
 70
     0
 43
0.0
 10
-0.2389369657326277
 20
-1.498419092407283
 10
-0.2295338871417797
 20
-1.49799806213629
 10
-0.2166871171046321
 20
-1.496802555641742
 10
-0.1996402057054679
 20
-1.494676787031713
 10
-0.1791093260592888
 20
-1.491738809059826
  0
LINE
  5
10C
330
F4
100
AcDbEntity
  8
AM_9
 48
0.0020248196877279
100
AcDbLine
 10
-0.1510741298357571
 20
-1.48520229571137
 30
0.0
 11
-0.1791093260592888
 21
-1.491738809059826
 31
0.0
  0
LINE
  5
10D
330
F4
100
AcDbEntity
  8
AM_9
 48
0.0020248196877279
100
AcDbLine
 10
-0.452415808934145
 20
-1.511254016496842
 30
0.0
 11
-0.3774664534000947
 21
-1.529780662014441
 31
0.0
  0
LINE
  5
10E
330
F4
100
AcDbEntity
  8
AM_9
 48
0.0020248196877279
100
AcDbLine
 10
-0.4395859245204073
 20
-1.263349390582632
 30
0.0
 11
-0.4986131040655763
 21
-1.313113178260487
 31
0.0
  0
LWPOLYLINE
  5
10F
330
F4
100
AcDbEntity
  8
AM_9
 48
0.0020248196877279
100
AcDbPolyline
 90
        3
 70
     0
 43
0.0
 10
-0.2689146070947223
 20
-1.216889734350518
 10
-0.2512755937295761
 20
-1.214238843014547
 10
-0.2360765106845276
 20
-1.212187592413266
  0
LWPOLYLINE
  5
110
330
F4
100
AcDbEntity
  8
AM_9
 48
0.0020248196877279
100
AcDbPolyline
 90
       10
 70
     0
 43
0.0
 10
-0.38211622082765
 20
-1.264643826354337
 10
-0.3875609952298054
 20
-1.260907924962458
 10
-0.3951666612492371
 20
-1.256994027781275
 10
-0.4027573570291979
 20
-1.254518782456104
 10
-0.410360954898795
 20
-1.253415479310216
 10
-0.417913344100414
 20
-1.253683871165847
 10
-0.4258016577990076
 20
-1.255506438789413
 10
-0.4329693296158557
 20
-1.258727110013843
 10
-0.4393150079068848
 20
-1.263122767838731
 10
-0.4400534835570478
 20
-1.263748941552555
  0
LWPOLYLINE
  5
111
330
F4
100
AcDbEntity
  8
AM_9
 48
0.0020248196877279
100
AcDbPolyline
 90
        3
 70
     0
 43
0.0
 10
-0.3781565131352382
 20
-1.267878155860462
 10
-0.3798898967233119
 20
-1.266407273886879
 10
-0.3811245889446447
 20
-1.265412005550707
  0
LWPOLYLINE
  5
112
330
F4
100
AcDbEntity
  8
AM_9
 48
0.0020248196877279
100
AcDbPolyline
 90
       10
 70
     0
 43
0.0
 10
-0.3780162772383073
 20
-1.529641154625467
 10
-0.372753851517462
 20
-1.530682594719339
 10
-0.3651649521010953
 20
-1.531030263386598
 10
-0.3570133245919367
 20
-1.529833521956231
 10
-0.349539018295509
 20
-1.527150373901503
 10
-0.3428648646791274
 20
-1.523210768235817
 10
-0.3369836453551114
 20
-1.518171589580559
 10
-0.3318170942301891
 20
-1.512055278684458
 10
-0.3272868275923868
 20
-1.504743232237036
 10
-0.3241998290109146
 20
-1.498128435690081
  0
LWPOLYLINE
  5
113
330
F4
100
AcDbEntity
  8
AM_9
 48
0.0020248196877279
100
AcDbPolyline
 90
        3
 70
     0
 43
0.0
 10
-0.109375
 20
-1.07
 10
-0.0546875000000001
 20
-1.041459559607482
 10
-0.0000000000000001
 20
-1.010778700151693
  0
LWPOLYLINE
  5
114
330
F4
100
AcDbEntity
  8
AM_9
 48
0.0020248196877279
100
AcDbPolyline
 90
        3
 70
     0
 43
0.0
 10
-0.0000000000000001
 20
-1.010778700151693
 10
0.0544416102741494
 20
-1.041326042662265
 10
0.1093749999999998
 20
-1.07
  0
LWPOLYLINE
  5
115
330
F4
100
AcDbEntity
  8
AM_9
 48
0.0020248196877279
100
AcDbPolyline
 90
        6
 70
     0
 43
0.0
 10
-0.1510741298357571
 20
-1.48520229571137
 10
-0.1564222384464443
 20
-1.485146258798399
 10
-0.1639940363880806
 20
-1.485585121917566
 10
-0.1744063212866123
 20
-1.486646289109957
 10
-0.1876759562813859
 20
-1.488363121169831
 10
-0.2099962668917054
 20
-1.491671457656344
  0
LINE
  5
116
330
F4
100
AcDbEntity
  8
AM_9
 48
0.0020248196877279
100
AcDbLine
 10
-0.142229904196793
 20
-1.401118276434183
 30
0.0
 11
-0.1419585098156051
 21
-1.412769408754154
 31
0.0
  0
LWPOLYLINE
  5
117
330
F4
100
AcDbEntity
  8
AM_9
 48
0.0020248196877279
100
AcDbPolyline
 90
        3
 70
     0
 43
0.0
 10
-0.1510741298357571
 20
-1.34457729571137
 10
-0.1458778226760521
 20
-1.368510622598914
 10
-0.1429322336149159
 20
-1.390747218456923
  0
LWPOLYLINE
  5
118
330
F4
100
AcDbEntity
  8
AM_9
 48
0.0020248196877279
100
AcDbPolyline
 90
        3
 70
     0
 43
0.0
 10
-0.2099962668917054
 20
-1.210421457656344
 10
-0.1943573015029059
 20
-1.232992854288234
 10
-0.1832108004108667
 20
-1.251560308949305
  0
LWPOLYLINE
  5
119
330
F4
100
AcDbEntity
  8
AM_9
 48
0.0020248196877279
100
AcDbPolyline
 90
        3
 70
     0
 43
0.0
 10
-0.2258378743019628
 20
-1.211052666893888
 10
-0.2189176876709016
 20
-1.210510369847584
 10
-0.2099962668917054
 20
-1.210421457656344
  0
LWPOLYLINE
  5
11A
330
F4
100
AcDbEntity
  8
AM_9
 48
0.0020248196877279
100
AcDbPolyline
 90
        4
 70
     0
 43
0.0
 10
-0.141972893138698
 20
-1.415460595581751
 10
-0.1420496512545707
 20
-1.419566312422038
 10
-0.1441228263802215
 20
-1.446595324422913
 10
-0.1510741298357571
 20
-1.48520229571137
  0
LINE
  5
11B
330
F4
100
AcDbEntity
  8
AM_9
 48
0.0020248196877279
100
AcDbLine
 10
-0.1419585098156051
 20
-1.412769408754154
 30
0.0
 11
-0.141972893138698
 21
-1.415460595581751
 31
0.0
  0
LWPOLYLINE
  5
11C
330
F4
100
AcDbEntity
  8
AM_9
 48
0.0020248196877279
100
AcDbPolyline
 90
        3
 70
     0
 43
0.0
 10
-0.1668056139502047
 20
-1.28646719476881
 10
-0.1598729403210872
 20
-1.306768689712644
 10
-0.1510741298357571
 20
-1.34457729571137
  0
LINE
  5
11D
330
F4
100
AcDbEntity
  8
AM_9
 48
0.0020248196877279
100
AcDbLine
 10
-0.1765789831125444
 20
-1.264205855542361
 30
0.0
 11
-0.1716132286663169
 21
-1.274837867340411
 31
0.0
  0
ELLIPSE
  5
11E
330
F4
100
AcDbEntity
  8
AM_9
 48
0.0020248196877279
100
AcDbEllipse
 10
-0.2013892028241868
 20
-1.34827024483734
 30
0.0
 11
-0.0319308501143824
 21
0.1369518580960933
 31
0.0
210
0.0
220
0.0
230
1.0
 40
0.3659981507706605
 41
2.150416404658179
 42
6.139946939636914
  0
LINE
  5
11F
330
F4
100
AcDbEntity
  8
AM_9
 48
0.0020248196877279
100
AcDbLine
 10
-0.3001604473578121
 20
-1.357227923681266
 30
0.0
 11
-0.2987675689889719
 21
-1.364475066725467
 31
0.0
  0
LWPOLYLINE
  5
120
330
F4
100
AcDbEntity
  8
AM_9
 48
0.0020248196877279
100
AcDbPolyline
 90
        3
 70
     0
 43
0.0
 10
-0.3055458577949632
 20
-1.312852494962034
 10
-0.3030753670497809
 20
-1.338922855181632
 10
-0.3001604473578121
 20
-1.357227923681266
  0
LWPOLYLINE
  5
121
330
F4
100
AcDbEntity
  8
AM_9
 48
0.0020248196877279
100
AcDbPolyline
 90
        3
 70
     0
 43
0.0
 10
-0.2602304684431209
 20
-1.268067949924796
 10
-0.2616913382589204
 20
-1.2534112730526
 10
-0.2689146070947223
 20
-1.216889734350518
  0
LINE
  5
122
330
F4
100
AcDbEntity
  8
AM_9
 48
0.0020248196877279
100
AcDbLine
 10
-0.2689146070947223
 20
-1.216889734350518
 30
0.0
 11
-0.2987675689889719
 21
-1.223850066725467
 31
0.0
  0
LWPOLYLINE
  5
123
330
F4
100
AcDbEntity
  8
AM_9
 48
0.0020248196877279
100
AcDbPolyline
 90
        3
 70
     0
 43
0.0
 10
-0.3001593436617022
 20
-1.231740185070576
 10
-0.3030606061861224
 20
-1.251294122408012
 10
-0.3055458577949632
 20
-1.278633406468319
  0
LINE
  5
124
330
F4
100
AcDbEntity
  8
AM_9
 48
0.0020248196877279
100
AcDbLine
 10
-0.2987675689889719
 20
-1.223850066725467
 30
0.0
 11
-0.3001593436617022
 21
-1.231740185070576
 31
0.0
  0
LINE
  5
125
330
F4
100
AcDbEntity
  8
AM_9
 48
0.0020248196877279
100
AcDbLine
 10
-0.2711532636537957
 20
-1.221618123437406
 30
0.0
 11
-0.2813919000363601
 21
-1.222753048956784
 31
0.0
  0
ELLIPSE
  5
126
330
F4
100
AcDbEntity
  8
AM_9
 48
0.0020248196877279
100
AcDbEllipse
 10
-0.246704592176021
 20
-1.358835701380858
 30
0.0
 11
-0.0319308501143826
 21
0.1369518580960944
 31
0.0
210
0.0
220
0.0
230
1.0
 40
0.3659981507706652
 41
2.150416404658201
 42
6.139946939636891
  0
ELLIPSE
  5
127
330
F4
100
AcDbEntity
  8
AM_9
 48
0.0020248196877279
100
AcDbEllipse
 10
-0.2467045921760232
 20
-1.358835701380859
 30
0.0
 11
-0.03193085011438234
 21
0.1369518580960927
 31
0.0
210
0.0
220
0.0
230
1.0
 40
0.365998150770654
 41
1.286762328166227
 42
1.951156734850508
  0
LWPOLYLINE
  5
128
330
F4
100
AcDbEntity
  8
AM_9
 48
0.0020248196877279
100
AcDbPolyline
 90
        3
 70
     0
 43
0.0
 10
-0.3055458577949632
 20
-1.278633406468319
 10
-0.3064767622622303
 20
-1.295869806845232
 10
-0.3055458577949632
 20
-1.312852494962034
  0
ELLIPSE
  5
129
330
F4
100
AcDbEntity
  8
AM_9
 48
0.0020248196877279
100
AcDbEllipse
 10
-0.2467045921760352
 20
-1.358835701380857
 30
0.0
 11
-0.03193085011437042
 21
0.136951858096092
 31
0.0
210
0.0
220
0.0
230
1.0
 40
0.3659981507706077
 41
0.0560213022649689
 42
0.8626327579758075
  0
LWPOLYLINE
  5
12A
330
F4
100
AcDbEntity
  8
AM_9
 48
0.0020248196877279
100
AcDbPolyline
 90
       16
 70
     0
 43
0.0
 10
-0.3250064652554997
 20
-1.500026590232094
 10
-0.3248273463427271
 20
-1.499653045010894
 10
-0.3237983762109238
 20
-1.497847351476491
 10
-0.321648715861878
 20
-1.494800377779995
 10
-0.3181177073987956
 20
-1.490803068066906
 10
-0.3129645543830568
 20
-1.486233282128766
 10
-0.3060648525661606
 20
-1.481605806761065
 10
-0.2975780274687835
 20
-1.477562787257695
 10
-0.2880570509515121
 20
-1.474712909616897
 10
-0.2783116855537793
 20
-1.473386768677843
 10
-0.2691815985248103
 20
-1.473535832108566
 10
-0.2613133123396632
 20
-1.474797841822213
 10
-0.2550764070109234
 20
-1.476656260074777
 10
-0.2505534885728535
 20
-1.478602430040027
 10
-0.2476188812822576
 20
-1.48024120824867
 10
-0.2460776166592198
 20
-1.481293593964223
  0
LWPOLYLINE
  5
12B
330
F4
100
AcDbEntity
  8
AM_9
 48
0.0020248196877279
100
AcDbPolyline
 90
        3
 70
     0
 43
0.0
 10
-0.245883812696356
 20
-1.481428120400195
 10
-0.2464821477577644
 20
-1.480842069069897
 10
-0.2472008852835892
 20
-1.480084072986703
  0
LWPOLYLINE
  5
12C
330
F4
100
AcDbEntity
  8
AM_9
 48
0.0020248196877279
100
AcDbPolyline
 90
        3
 70
     0
 43
0.0
 10
-0.2457249882508971
 20
-1.481571960916105
 10
-0.2457487215372867
 20
-1.481551164352068
 10
-0.245883812696356
 20
-1.481428120400195
  0
LWPOLYLINE
  5
12D
330
F4
100
AcDbEntity
  8
AM_9
 48
0.0020248196877279
100
AcDbPolyline
 90
        3
 70
     0
 43
0.0
 10
-0.3007207691229854
 20
-1.250130744510706
 10
-0.3002490231535611
 20
-1.248688402293266
 10
-0.3001080482840256
 20
-1.248322263717043
  0
LWPOLYLINE
  5
12E
330
F4
100
AcDbEntity
  8
AM_9
 48
0.0020248196877279
100
AcDbPolyline
 90
       16
 70
     0
 43
0.0
 10
-0.3001445480056423
 20
-1.24840367861751
 10
-0.3007939498704449
 20
-1.249640272932179
 10
-0.3024594841903904
 20
-1.252217303354924
 10
-0.3054003247707761
 20
-1.255869602382078
 10
-0.3098725870499775
 20
-1.260261192031612
 10
-0.3160648512222299
 20
-1.264937169236936
 10
-0.3239539839669494
 20
-1.269297406466185
 10
-0.3331458821961833
 20
-1.272690144697586
 10
-0.3429023882282689
 20
-1.274647889890845
 10
-0.3523794126098977
 20
-1.275066589494985
 10
-0.3608177193884556
 20
-1.274197157104253
 10
-0.3677399080958161
 20
-1.272514682130459
 10
-0.3729489955720624
 20
-1.270548907220603
 10
-0.3765032638912996
 20
-1.26874663126726
 10
-0.3785841660154494
 20
-1.26742921543594
 10
-0.3793790497476169
 20
-1.266831714147475
  0
LINE
  5
12F
330
F4
100
AcDbEntity
  8
AM_9
 48
0.0020248196877279
100
AcDbLine
 10
-0.177120771554662
 20
-1.229661692407327
 30
0.0
 11
-0.2263662233581052
 21
-1.241143458059951
 31
0.0
  0
LINE
  5
130
330
F4
100
AcDbEntity
  8
AM_9
 48
0.0020248196877279
100
AcDbLine
 10
-0.1764121822902708
 20
-1.45539703161473
 30
0.0
 11
-0.1343592486638227
 21
-1.445592229115782
 31
0.0
  0
LWPOLYLINE
  5
131
330
F4
100
AcDbEntity
  8
AM_9
 48
0.0020248196877279
100
AcDbPolyline
 90
       20
 70
     0
 43
0.0
 10
-0.1343659249938088
 20
-1.44559378540361
 10
-0.1293028157827817
 20
-1.442990967168627
 10
-0.1247141396218193
 20
-1.437417196040507
 10
-0.1208880884981782
 20
-1.428797239076489
 10
-0.1181545989145989
 20
-1.417880991490922
 10
-0.1164278875396129
 20
-1.404336212655024
 10
-0.1158549073091555
 20
-1.389330271317741
 10
-0.1164156227038168
 20
-1.372408286749774
 10
-0.1180609686233502
 20
-1.355004703027538
 10
-0.1208367673933812
 20
-1.336607393511457
 10
-0.1245107513506023
 20
-1.318747455120003
 10
-0.1291842652280563
 20
-1.300922481606624
 10
-0.134472979061152
 20
-1.2845960564441
 10
-0.140518627090196
 20
-1.269328872764631
 10
-0.1468270783017121
 20
-1.256370478489194
 10
-0.1535654953592165
 20
-1.245381372029879
 10
-0.1601799433259584
 20
-1.237268942862664
 10
-0.1668493358980662
 20
-1.231820477436415
 10
-0.1731116383367607
 20
-1.229480939756072
 10
-0.1771125901748264
 20
-1.229659785344162
  0
LINE
  5
132
330
F4
100
AcDbEntity
  8
AM_9
 48
0.0020248196877279
100
AcDbLine
 10
-0.1771125901748264
 20
-1.229659785344162
 30
0.0
 11
-0.1790373738502116
 21
-1.230304054033761
 31
0.0
  0
LWPOLYLINE
  5
133
330
F4
100
AcDbEntity
  8
AM_9
 48
0.0020248196877279
100
AcDbPolyline
 90
        3
 70
     0
 43
0.0
 10
-0.2689146070947223
 20
-1.357514734350518
 10
-0.2634308483997529
 20
-1.329890958955647
 10
-0.2602304684431306
 20
-1.302287038418517
  0
LWPOLYLINE
  5
134
330
F4
100
AcDbEntity
  8
AM_9
 48
0.0020248196877279
100
AcDbPolyline
 90
        5
 70
     0
 43
0.0
 10
-0.179037373850178
 20
-1.384695945966246
 10
-0.1733931390117468
 20
-1.400209976006311
 10
-0.1670729780242512
 20
-1.414357975630669
 10
-0.1606047421316796
 20
-1.425955943415793
 10
-0.1545873500803028
 20
-1.434396568564077
  0
ARC
  5
135
330
F4
100
AcDbEntity
  8
AM_9
 48
0.0020248196877279
100
AcDbCircle
 10
0.0
 20
-1.3075
 30
0.0
 40
0.1999999999999997
100
AcDbArc
 50
219.3483912780206
 51
0.0000000000001908
  0
LWPOLYLINE
  5
136
330
F4
100
AcDbEntity
  8
AM_9
 48
0.0020248196877279
100
AcDbPolyline
 90
        6
 70
     0
 43
0.0
 10
-0.1545873500803028
 20
-1.434396568564077
 10
-0.1538031670974778
 20
-1.435334802540261
 10
-0.1472336073736394
 20
-1.441712011960484
 10
-0.1407130262602577
 20
-1.44526170963818
 10
-0.1347930597680668
 20
-1.445684256104104
 10
-0.1343659249938088
 20
-1.44559378540361
  0
LINE
  5
137
330
F4
100
AcDbEntity
  8
AM_9
 48
0.0020248196877279
100
AcDbLine
 10
-0.2360765106845276
 20
-1.212187592413266
 30
0.0
 11
-0.2258378743019628
 21
-1.211052666893888
 31
0.0
  0
ELLIPSE
  5
138
330
F4
100
AcDbEntity
  8
AM_9
 48
0.0020248196877279
100
AcDbEllipse
 10
-0.2013892028241874
 20
-1.348270244837343
 30
0.0
 11
-0.03193085011438404
 21
0.1369518580960967
 31
0.0
210
0.0
220
0.0
230
1.0
 40
0.3659981507705694
 41
0.0560213022650107
 42
0.8626327579757271
  0
LINE
  5
139
330
F4
100
AcDbEntity
  8
AM_9
 48
0.0020248196877279
100
AcDbLine
 10
-0.2602304684431306
 20
-1.302287038418517
 30
0.0
 11
-0.2602304684431209
 21
-1.268067949924796
 31
0.0
  0
ELLIPSE
  5
13A
330
F4
100
AcDbEntity
  8
AM_9
 48
0.0020248196877279
100
AcDbEllipse
 10
-0.2013892028241891
 20
-1.34827024483734
 30
0.0
 11
-0.03193085011438206
 21
0.1369518580960931
 31
0.0
210
0.0
220
0.0
230
1.0
 40
0.3659981507706664
 41
1.144545279139739
 42
1.951156734850506
  0
LWPOLYLINE
  5
13B
330
F4
100
AcDbEntity
  8
AM_9
 48
0.0020248196877279
100
AcDbPolyline
 90
        3
 70
     0
 43
0.0
 10
-0.2099962668917054
 20
-1.491671457656344
 10
-0.2163479371246914
 20
-1.462339189975666
 10
-0.225837874301963
 20
-1.43305747759944
  0
LINE
  5
13C
330
F4
100
AcDbEntity
  8
AM_9
 48
0.0020248196877279
100
AcDbLine
 10
-0.225837874301963
 20
-1.43305747759944
 30
0.0
 11
-0.2360765106845278
 21
-1.409965725501071
 31
0.0
  0
LWPOLYLINE
  5
13D
330
F4
100
AcDbEntity
  8
AM_9
 48
0.0020248196877279
100
AcDbPolyline
 90
        3
 70
     0
 43
0.0
 10
-0.2360765106845278
 20
-1.409965725501071
 10
-0.2462091938631852
 20
-1.391421611213502
 10
-0.2689146070947223
 20
-1.357514734350518
  0
LINE
  5
13E
330
F4
100
AcDbEntity
  8
AM_9
 48
0.0020248196877279
100
AcDbLine
 10
-0.2689146070947223
 20
-1.357514734350518
 30
0.0
 11
-0.2987675689889719
 21
-1.364475066725467
 31
0.0
  0
LWPOLYLINE
  5
13F
330
F4
100
AcDbEntity
  8
AM_9
 48
0.0020248196877279
100
AcDbPolyline
 90
        3
 70
     0
 43
0.0
 10
-0.2987675689889719
 20
-1.364475066725467
 10
-0.2912216284034025
 20
-1.392576183495197
 10
-0.28139190003636
 20
-1.420531182044589
  0
LINE
  5
140
330
F4
100
AcDbEntity
  8
AM_9
 48
0.0020248196877279
100
AcDbLine
 10
-0.28139190003636
 20
-1.420531182044589
 30
0.0
 11
-0.2711532636537957
 21
-1.443622934142958
 31
0.0
  0
LWPOLYLINE
  5
141
330
F4
100
AcDbEntity
  8
AM_9
 48
0.0020248196877279
100
AcDbPolyline
 90
        3
 70
     0
 43
0.0
 10
-0.2711532636537957
 20
-1.443622934142958
 10
-0.2561815527589922
 20
-1.471327936735335
 10
-0.2389369657326277
 20
-1.498419092407283
  0
LINE
  5
142
330
F4
100
AcDbEntity
  8
AM_9
 48
0.0020248196877279
100
AcDbLine
 10
-0.2099962668917054
 20
-1.491671457656344
 30
0.0
 11
-0.2389369657326277
 21
-1.498419092407283
 31
0.0
  0
LWPOLYLINE
  5
143
330
F4
100
AcDbEntity
  8
AM_9
 48
0.0020248196877279
100
AcDbPolyline
 90
        3
 70
     0
 43
0.0
 10
-0.0000000000000001
 20
-0.9698462998483071
 10
-0.0544416102741497
 20
-0.9937405676118846
 10
-0.1093750000000001
 20
-1.02
  0
LWPOLYLINE
  5
144
330
F4
100
AcDbEntity
  8
AM_9
 48
0.0020248196877279
100
AcDbPolyline
 90
        3
 70
     0
 43
0.0
 10
0.1093749999999999
 20
-1.02
 10
0.0546874999999999
 20
-0.9938529403925171
 10
-0.0000000000000001
 20
-0.9698462998483071
  0
LWPOLYLINE
  5
145
330
F4
100
AcDbEntity
  8
AM_9
 48
0.0020248196877279
100
AcDbPolyline
 90
        3
 70
     0
 43
0.0
 10
-0.2187500000000001
 20
-1.120153700151693
 10
-0.1643083897258505
 20
-1.096259432388115
 10
-0.109375
 20
-1.07
  0
LWPOLYLINE
  5
146
330
F4
100
AcDbEntity
  8
AM_9
 48
0.0020248196877279
100
AcDbPolyline
 90
        3
 70
     0
 43
0.0
 10
0.1093749999999998
 20
-1.07
 10
0.1640624999999998
 20
-1.096147059607482
 10
0.2187499999999999
 20
-1.120153700151693
  0
LINE
  5
147
330
F4
100
AcDbEntity
  8
AM_9
 48
0.0020248196877279
100
AcDbLine
 10
-0.0000000000000001
 20
-1.010778700151693
 30
0.0
 11
-0.0000000000000001
 21
-0.9698462998483071
 31
0.0
  0
LWPOLYLINE
  5
148
330
F4
100
AcDbEntity
  8
AM_9
 48
0.0020248196877279
100
AcDbPolyline
 90
        3
 70
     0
 43
0.0
 10
0.2187499999999999
 20
-1.079221299848307
 10
0.1643083897258503
 20
-1.048673957337735
 10
0.1093749999999999
 20
-1.02
  0
LWPOLYLINE
  5
149
330
F4
100
AcDbEntity
  8
AM_9
 48
0.0020248196877279
100
AcDbPolyline
 90
        3
 70
     0
 43
0.0
 10
-0.1093750000000001
 20
-1.02
 10
-0.1640625000000001
 20
-1.048540440392517
 10
-0.2187500000000001
 20
-1.079221299848307
  0
ELLIPSE
  5
14A
330
F4
100
AcDbEntity
  8
AM_9
 48
0.0020248196877279
100
AcDbEllipse
 10
-0.0000000000000002
 20
-1.3075
 30
0.0
 11
-0.2000000000000002
 21
-1.531427479570781E-16
 31
0.0
210
0.0
220
0.0
230
1.0
 40
0.8660254037844385
 41
0.461946020566967
 42
5.821239286612617
  0
LWPOLYLINE
  5
14B
330
F4
100
AcDbEntity
  8
AM_9
 48
0.0020248196877279
100
AcDbPolyline
 90
        7
 70
     0
 43
0.0
 10
-0.1790373738501785
 20
-1.384695945966246
 10
-0.1842628795203942
 20
-1.368701216295605
 10
-0.1891729979031394
 20
-1.352644458256412
 10
-0.1936098952159724
 20
-1.335877825105295
 10
-0.1971856748420372
 20
-1.318429808725254
 10
-0.1994144431868155
 20
-1.300957633207593
 10
-0.1999999999699529
 20
-1.28725755900097
  0
LINE
  5
14C
330
F4
100
AcDbEntity
  8
AM_9
 48
0.0020248196877279
100
AcDbLine
 10
0.1999999999999998
 20
-1.3075
 30
0.0
 11
0.1999999999999998
 21
-1.2340625
 31
0.0
  0
LWPOLYLINE
  5
14D
330
F4
100
AcDbEntity
  8
AM_9
 48
0.0020248196877279
100
AcDbPolyline
 90
        8
 70
     0
 43
0.0
 10
-0.1999999999699529
 20
-1.28725755900097
 10
-0.1999786710855128
 20
-1.284747492794571
 10
-0.1988321115509054
 20
-1.269477046299115
 10
-0.196164942998426
 20
-1.256547828583382
 10
-0.1920694300574959
 20
-1.245495849846331
 10
-0.1870948030566196
 20
-1.237226804053057
 10
-0.1815005947613931
 20
-1.231703487144151
 10
-0.1790373738501785
 20
-1.230304054033754
  0
LINE
  5
14E
330
F4
100
AcDbEntity
  8
AM_9
 48
0.0020248196877279
100
AcDbLine
 10
-0.2187500000000001
 20
-1.338903700151693
 30
0.0
 11
-0.2187500000000001
 21
-1.079221299848307
 31
0.0
  0
LWPOLYLINE
  5
14F
330
F4
100
AcDbEntity
  8
AM_9
 48
0.0020248196877279
100
AcDbPolyline
 90
        3
 70
     0
 43
0.0
 10
-0.109375
 20
-1.398125
 10
-0.1640625000000001
 20
-1.369584559607483
 10
-0.2187500000000001
 20
-1.338903700151693
  0
LWPOLYLINE
  5
150
330
F4
100
AcDbEntity
  8
AM_9
 48
0.0020248196877279
100
AcDbPolyline
 90
        3
 70
     0
 43
0.0
 10
-0.0000000000000001
 20
-1.448278700151693
 10
-0.0544416102741497
 20
-1.424384432388115
 10
-0.109375
 20
-1.398125
  0
LWPOLYLINE
  5
151
330
F4
100
AcDbEntity
  8
AM_9
 48
0.0020248196877279
100
AcDbPolyline
 90
        3
 70
     0
 43
0.0
 10
-0.2187500000000001
 20
-1.297971299848307
 10
-0.1643083897258505
 20
-1.321865567611885
 10
-0.1093750000000001
 20
-1.348125
  0
LWPOLYLINE
  5
152
330
F4
100
AcDbEntity
  8
AM_9
 48
0.0020248196877279
100
AcDbPolyline
 90
        3
 70
     0
 43
0.0
 10
-0.1093750000000001
 20
-1.348125
 10
-0.0546875000000001
 20
-1.376665440392517
 10
-0.0000000000000001
 20
-1.407346299848307
  0
LINE
  5
153
330
F4
100
AcDbEntity
  8
AM_9
 48
0.0020248196877279
100
AcDbLine
 10
-0.0000000000000001
 20
-1.448278700151693
 30
0.0
 11
-0.0000000000000001
 21
-1.407346299848307
 31
0.0
  0
LWPOLYLINE
  5
154
330
F4
100
AcDbEntity
  8
AM_9
 48
0.0020248196877279
100
AcDbPolyline
 90
        3
 70
     0
 43
0.0
 10
0.1093749999999998
 20
-1.398125
 10
0.0546874999999999
 20
-1.424272059607482
 10
-0.0000000000000001
 20
-1.448278700151693
  0
LWPOLYLINE
  5
155
330
F4
100
AcDbEntity
  8
AM_9
 48
0.0020248196877279
100
AcDbPolyline
 90
        3
 70
     0
 43
0.0
 10
0.2187499999999999
 20
-1.338903700151693
 10
0.1643083897258503
 20
-1.369451042662265
 10
0.1093749999999998
 20
-1.398125
  0
LINE
  5
156
330
F4
100
AcDbEntity
  8
AM_9
 48
0.0020248196877279
100
AcDbLine
 10
0.2187499999999999
 20
-1.338903700151693
 30
0.0
 11
0.2187499999999999
 21
-1.079221299848307
 31
0.0
  0
LWPOLYLINE
  5
157
330
F4
100
AcDbEntity
  8
AM_9
 48
0.0020248196877279
100
AcDbPolyline
 90
        3
 70
     0
 43
0.0
 10
0.1093749999999999
 20
-1.348125
 10
0.1640624999999998
 20
-1.321977940392517
 10
0.2187499999999999
 20
-1.297971299848307
  0
LWPOLYLINE
  5
158
330
F4
100
AcDbEntity
  8
AM_9
 48
0.0020248196877279
100
AcDbPolyline
 90
        3
 70
     0
 43
0.0
 10
-0.0000000000000001
 20
-1.407346299848307
 10
0.0544416102741495
 20
-1.376798957337735
 10
0.1093749999999999
 20
-1.348125
  0
LINE
  5
159
330
F4
100
AcDbEntity
  8
AM_9
 48
0.0020248196877279
100
AcDbLine
 10
0.1999999999999998
 20
-1.1840625
 30
0.0
 11
0.1999999999999998
 21
-1.145
 31
0.0
  0
LINE
  5
15A
330
F4
100
AcDbEntity
  8
AM_9
 48
0.0020248196877279
100
AcDbLine
 10
-0.1851454569549802
 20
-1.038809912570727
 30
0.0
 11
-0.1912304659644924
 21
-1.136022462287446
 31
0.0
  0
LINE
  5
15B
330
F4
100
AcDbEntity
  8
AM_9
 48
0.0020248196877279
100
AcDbLine
 10
0.1912304659644922
 20
-1.136022462287446
 30
0.0
 11
0.1851454569549799
 21
-1.038809912570727
 31
0.0
  0
ELLIPSE
  5
15C
330
F4
100
AcDbEntity
  8
AM_9
 48
0.0020248196877279
100
AcDbEllipse
 10
-0.0000000000000001
 20
-1.035625
 30
0.0
 11
0.1616637258772237
 21
0.0
 31
0.0
210
0.0
220
0.0
230
1.0
 40
0.8660254037844384
 41
0.0
 42
6.283185307179586
  0
ELLIPSE
  5
15D
330
F4
100
AcDbEntity
  8
AM_9
 48
0.0020248196877279
100
AcDbEllipse
 10
-0.4687499999999995
 20
-1.410606438444095
 30
0.0
 11
-0.02349716402074552
 21
0.1007796617096752
 31
0.0
210
0.0
220
0.0
230
1.0
 40
0.3659981507706653
 41
0.0
 42
6.283185307179586
  0
ELLIPSE
  5
15E
330
F4
100
AcDbEntity
  8
AM_9
 48
0.0020248196877279
100
AcDbEllipse
 10
-0.3994303217889758
 20
-1.394444290038773
 30
0.0
 11
-0.0315956031114665
 21
0.135513979060426
 31
0.0
210
0.0
220
0.0
230
1.0
 40
0.3659981507706658
 41
0.0
 42
6.283185307179586
  0
ELLIPSE
  5
15F
330
F4
100
AcDbEntity
  8
AM_9
 48
0.0020248196877279
100
AcDbEllipse
 10
-0.3729962569746647
 20
-1.388281086609234
 30
0.0
 11
-0.03024351534849251
 21
0.1297148559307588
 31
0.0
210
0.0
220
0.0
230
1.0
 40
0.3659981507706669
 41
0.0
 42
6.283185307179586
  0
ELLIPSE
  5
160
330
F4
100
AcDbEntity
  8
AM_9
 48
0.0020248196877279
100
AcDbEllipse
 10
-0.2013892028241883
 20
-1.348270244837341
 30
0.0
 11
-0.0249770205339172
 21
0.1071267867773895
 31
0.0
210
0.0
220
0.0
230
1.0
 40
0.3659981507706663
 41
0.0
 42
6.283185307179586
  0
ELLIPSE
  5
161
330
F4
100
AcDbEntity
  8
AM_9
 48
0.0020248196877279
100
AcDbEllipse
 10
-0.0000000000000003
 20
-1.2340625
 30
0.0
 11
-0.1999999999999998
 21
1.179124881593109E-15
 31
0.0
210
0.0
220
0.0
230
1.0
 40
0.8660254037844368
 41
0.0
 42
6.283185307179586
  0
ELLIPSE
  5
162
330
F4
100
AcDbEntity
  8
AM_9
 48
0.0020248196877279
100
AcDbEllipse
 10
-0.0000000000000001
 20
-1.234062500000003
 30
0.0
 11
-0.2187499999999971
 21
2.678914873134800E-17
 31
0.0
210
0.0
220
0.0
230
1.0
 40
0.8660254037844372
 41
0.0
 42
6.283185307179586
  0
ELLIPSE
  5
163
330
F4
100
AcDbEntity
  8
AM_9
 48
0.0020248196877279
100
AcDbEllipse
 10
-0.0000000000000001
 20
-1.184062500000002
 30
0.0
 11
-0.2187499999999986
 21
2.678914873134817E-17
 31
0.0
210
0.0
220
0.0
230
1.0
 40
0.866025403784435
 41
0.0
 42
6.283185307179586
  0
ELLIPSE
  5
164
330
F4
100
AcDbEntity
  8
AM_9
 48
0.0020248196877279
100
AcDbEllipse
 10
0.0000000000000002
 20
-1.1840625
 30
0.0
 11
-0.2000000000000002
 21
1.179124881593111E-15
 31
0.0
210
0.0
220
0.0
230
1.0
 40
0.8660254037844385
 41
0.0
 42
6.283185307179586
  0
ELLIPSE
  5
165
330
F4
100
AcDbEntity
  8
AM_9
 48
0.0020248196877279
100
AcDbEllipse
 10
-0.0000000000000003
 20
-1.145
 30
0.0
 11
-0.2
 21
-1.531427479570779E-16
 31
0.0
210
0.0
220
0.0
230
1.0
 40
0.8660254037844392
 41
0.0
 42
6.283185307179586
  0
ELLIPSE
  5
166
330
F4
100
AcDbEntity
  8
AM_9
 48
0.0020248196877279
100
AcDbEllipse
 10
-0.0000000000000002
 20
-1.145
 30
0.0
 11
-0.1915112338502295
 21
7.038379420972161E-16
 31
0.0
210
0.0
220
0.0
230
1.0
 40
0.8660254037844375
 41
0.0
 42
6.283185307179586
  0
ELLIPSE
  5
167
330
F4
100
AcDbEntity
  8
AM_9
 48
0.0020248196877279
100
AcDbEllipse
 10
-0.0000000000000001
 20
-1.047501782423881
 30
0.0
 11
-0.1854172907249859
 21
2.270706915929281E-17
 31
0.0
210
0.0
220
0.0
230
1.0
 40
0.8660254037844394
 41
0.0
 42
6.283185307179586
  0
ENDBLK
  5
F7
330
F4
100
AcDbEntity
  8
0
100
AcDbBlockEnd
  0
BLOCK
  5
16A
330
168
100
AcDbEntity
  8
0
100
AcDbBlockBegin
  2
3_125151H_0_in_125151_2
 70
     2
 10
0.0
 20
0.0
 30
0.0
  3
3_125151H_0_in_125151_2
  1

  0
ATTDEF
  5
16C
330
168
100
AcDbEntity
  8
AM_6
100
AcDbText
 10
5.970000000000001
 20
2.375
 30
0.0
 40
0.5
  1
WSTU-SC -Inch - housing
100
AcDbAttributeDefinition
  3

  2
NN
 70
     8
280
     0
  0
ATTDEF
  5
16D
330
168
100
AcDbEntity
  8
AM_6
100
AcDbText
 10
5.970000000000001
 20
1.875
 30
0.0
 40
0.5
  1
SC Take-Up Bearings -Wide Slot -(Normal Duty)
100
AcDbAttributeDefinition
  3

  2
NT
 70
     8
280
     0
  0
ATTDEF
  5
16E
330
168
100
AcDbEntity
  8
AM_6
100
AcDbText
 10
5.970000000000001
 20
1.375
 30
0.0
 40
0.5
  1
125151H
100
AcDbAttributeDefinition
  3

  2
NB
 70
     8
280
     0
  0
ATTDEF
  5
16F
330
168
100
AcDbEntity
  8
AM_6
100
AcDbText
 10
5.970000000000001
 20
0.875
 30
0.0
 40
0.5
  1
$PN.H
100
AcDbAttributeDefinition
  3

  2
NBSYN
 70
     8
280
     0
  0
ATTDEF
  5
170
330
168
100
AcDbEntity
  8
AM_6
100
AcDbText
 10
5.970000000000001
 20
0.375
 30
0.0
 40
0.5
  1
125151
100
AcDbAttributeDefinition
  3

  2
LINA
 70
     8
280
     0
  0
ATTDEF
  5
171
330
168
100
AcDbEntity
  8
AM_6
100
AcDbText
 10
5.970000000000001
 20
-0.125
 30
0.0
 40
0.5
  1
209
100
AcDbAttributeDefinition
  3

  2
SERIES
 70
     8
280
     0
  0
ATTDEF
  5
172
330
168
100
AcDbEntity
  8
AM_6
100
AcDbText
 10
5.970000000000001
 20
-0.625
 30
0.0
 40
0.5
  1
1-5/8
100
AcDbAttributeDefinition
  3

  2
SS
 70
     8
280
     0
  0
ATTDEF
  5
173
330
168
100
AcDbEntity
  8
AM_6
100
AcDbText
 10
5.970000000000001
 20
-1.125
 30
0.0
 40
0.5
  1
125151
100
AcDbAttributeDefinition
  3

  2
PN
 70
     8
280
     0
  0
ATTDEF
  5
174
330
168
100
AcDbEntity
  8
AM_6
100
AcDbText
 10
5.970000000000001
 20
-1.625
 30
0.0
 40
0.5
  1
WSTU-SC-110L
100
AcDbAttributeDefinition
  3

  2
DESCRIPTION
 70
     8
280
     0
  0
ATTDEF
  5
175
330
168
100
AcDbEntity
  8
AM_6
100
AcDbText
 10
5.970000000000001
 20
-2.125
 30
0.0
 40
0.5
  1
6.1
100
AcDbAttributeDefinition
  3

  2
W
 70
     8
280
     0
  0
ATTDEF
  5
176
330
168
100
AcDbEntity
  8
AM_6
100
AcDbText
 10
5.970000000000001
 20
-2.625
 30
0.0
 40
0.5
  1
WS400
100
AcDbAttributeDefinition
  3

  2
FS
 70
     8
280
     0
  0
ATTDEF
  5
177
330
168
100
AcDbEntity
  8
AM_6
100
AcDbText
 10
5.970000000000001
 20
-3.125
 30
0.0
 40
0.5
  1
RE-LUBE
100
AcDbAttributeDefinition
  3

  2
LF
 70
     8
280
     0
  0
ATTDEF
  5
178
330
168
100
AcDbEntity
  8
AM_6
100
AcDbText
 10
5.970000000000001
 20
-3.625
 30
0.0
 40
0.5
  1
1.94
100
AcDbAttributeDefinition
  3

  2
A
 70
     8
280
     0
  0
ATTDEF
  5
179
330
168
100
AcDbEntity
  8
AM_6
100
AcDbText
 10
5.970000000000001
 20
-4.125
 30
0.0
 40
0.5
  1
5.63
100
AcDbAttributeDefinition
  3

  2
B
 70
     8
280
     0
  0
ATTDEF
  5
17A
330
168
100
AcDbEntity
  8
AM_6
100
AcDbText
 10
5.970000000000001
 20
-4.625
 30
0.0
 40
0.5
  1
0.688
100
AcDbAttributeDefinition
  3

  2
C
 70
     8
280
     0
  0
ATTDEF
  5
17B
330
168
100
AcDbEntity
  8
AM_6
100
AcDbText
 10
5.970000000000001
 20
-5.125
 30
0.0
 40
0.5
  1
3.25
100
AcDbAttributeDefinition
  3

  2
D
 70
     8
280
     0
  0
ATTDEF
  5
17C
330
168
100
AcDbEntity
  8
AM_6
100
AcDbText
 10
5.970000000000001
 20
-5.625
 30
0.0
 40
0.5
  1
3.44
100
AcDbAttributeDefinition
  3

  2
E
 70
     8
280
     0
  0
ATTDEF
  5
17D
330
168
100
AcDbEntity
  8
AM_6
100
AcDbText
 10
5.970000000000001
 20
-6.125
 30
0.0
 40
0.5
  1
1
100
AcDbAttributeDefinition
  3

  2
F
 70
     8
280
     0
  0
ATTDEF
  5
17E
330
168
100
AcDbEntity
  8
AM_6
100
AcDbText
 10
5.970000000000001
 20
-6.625
 30
0.0
 40
0.5
  1
0.63
100
AcDbAttributeDefinition
  3

  2
G
 70
     8
280
     0
  0
ATTDEF
  5
17F
330
168
100
AcDbEntity
  8
AM_6
100
AcDbText
 10
5.970000000000001
 20
-7.125
 30
0.0
 40
0.5
  1
0.75
100
AcDbAttributeDefinition
  3

  2
H
 70
     8
280
     0
  0
ATTDEF
  5
180
330
168
100
AcDbEntity
  8
AM_6
100
AcDbText
 10
5.970000000000001
 20
-7.625
 30
0.0
 40
0.5
  1
3.25
100
AcDbAttributeDefinition
  3

  2
J
 70
     8
280
     0
  0
ATTDEF
  5
181
330
168
100
AcDbEntity
  8
AM_6
100
AcDbText
 10
5.970000000000001
 20
-8.125
 30
0.0
 40
0.5
  1
1.94
100
AcDbAttributeDefinition
  3

  2
K
 70
     8
280
     0
  0
ATTDEF
  5
182
330
168
100
AcDbEntity
  8
AM_6
100
AcDbText
 10
5.970000000000001
 20
-8.625
 30
0.0
 40
0.5
  1
2.22
100
AcDbAttributeDefinition
  3

  2
L
 70
     8
280
     0
  0
ATTDEF
  5
183
330
168
100
AcDbEntity
  8
AM_6
100
AcDbText
 10
5.970000000000001
 20
-9.125
 30
0.0
 40
0.5
  1
3.985 / 4.015
100
AcDbAttributeDefinition
  3

  2
M
 70
     8
280
     0
  0
ATTDEF
  5
184
330
168
100
AcDbEntity
  8
AM_6
100
AcDbText
 10
5.970000000000001
 20
-9.625
 30
0.0
 40
0.5
  1
4.75
100
AcDbAttributeDefinition
  3

  2
N
 70
     8
280
     0
  0
ATTDEF
  5
185
330
168
100
AcDbEntity
  8
AM_6
100
AcDbText
 10
5.970000000000001
 20
-10.125
 30
0.0
 40
0.5
  1
0.75
100
AcDbAttributeDefinition
  3

  2
R
 70
     8
280
     0
  0
ATTDEF
  5
186
330
168
100
AcDbEntity
  8
AM_6
100
AcDbText
 10
5.970000000000001
 20
-10.625
 30
0.0
 40
0.5
  1
1.19
100
AcDbAttributeDefinition
  3

  2
S
 70
     8
280
     0
  0
ATTDEF
  5
187
330
168
100
AcDbEntity
  8
AM_6
100
AcDbText
 10
5.970000000000001
 20
-11.125
 30
0.0
 40
0.5
  1
1.94
100
AcDbAttributeDefinition
  3

  2
T
 70
     8
280
     0
  0
ATTDEF
  5
188
330
168
100
AcDbEntity
  8
AM_6
100
AcDbText
 10
5.970000000000001
 20
-11.625
 30
0.0
 40
0.5
  1
4450
100
AcDbAttributeDefinition
  3

  2
CAPS
 70
     8
280
     0
  0
ATTDEF
  5
189
330
168
100
AcDbEntity
  8
AM_6
100
AcDbText
 10
5.970000000000001
 20
-12.125
 30
0.0
 40
0.5
  1
7891
100
AcDbAttributeDefinition
  3

  2
CAPD
 70
     8
280
     0
  0
ATTDEF
  5
18A
330
168
100
AcDbEntity
  8
AM_6
100
AcDbText
 10
5.970000000000001
 20
-12.625
 30
0.0
 40
0.5
  1
baldor
100
AcDbAttributeDefinition
  3

  2
COMPANY
 70
     8
280
     0
  0
LWPOLYLINE
  5
18B
330
168
100
AcDbEntity
  8
AM_9
 48
0.012367881215613
100
AcDbPolyline
 90
       30
 70
     0
 43
0.0
 10
-0.45
 20
-1.095
 10
-0.4475591751076478
 20
-1.054273235172208
 10
-0.4402953420970588
 20
-1.013514750870216
 10
-0.4274012405587147
 20
-0.9708769935002844
 10
-0.4093320538132136
 20
-0.9291744114757466
 10
-0.3864318029157875
 20
-0.8892190140970027
 10
-0.3584721799070833
 20
-0.8509858997322599
 10
-0.3260372370363518
 20
-0.8153967465530844
 10
-0.2897106133937585
 20
-0.7831758378264424
 10
-0.2490880183364683
 20
-0.7543249816102143
 10
-0.2051382907516806
 20
-0.7297079619502432
 10
-0.1586764042494096
 20
-0.7098873558114352
 10
-0.1103720806296455
 20
-0.6952885300809469
 10
-0.0604673174129471
 20
-0.6859246061394149
 10
-0.0099324453479406
 20
-0.6820292824781085
 10
0.0397637361690352
 20
-0.683670076854656
 10
0.0891128642419383
 20
-0.6906052985012209
 10
0.1371861842466277
 20
-0.7026669799699513
 10
0.183392883993209
 20
-0.719705754752273
 10
0.2274780316162556
 20
-0.7414382121950464
 10
0.2686614049928234
 20
-0.7673854815673639
 10
0.3072001336507593
 20
-0.7978528548191879
 10
0.3420293280544437
 20
-0.8319862031628239
 10
0.3725192914115719
 20
-0.8690753018096726
 10
0.398581534697908
 20
-0.9091755277325624
 10
0.4196686588244734
 20
-0.951416853968644
 10
0.4353608115687837
 20
-0.9949257109535449
 10
0.4434542568814375
 20
-1.028167232785733
 10
0.4483537049330759
 20
-1.061654252296155
 10
0.4499999999999997
 20
-1.095
  0
ELLIPSE
  5
18C
330
168
100
AcDbEntity
  8
AM_9
 48
0.012367881215613
100
AcDbEllipse
 10
0.0000000000000003
 20
-1.145000000000001
 30
0.0
 11
0.1500000000000006
 21
-1.102553507614575E-15
 31
0.0
210
0.0
220
0.0
230
1.0
 40
0.8660254037844409
 41
1.570796326794906
 42
3.141592653589796
  0
LWPOLYLINE
  5
18D
330
168
100
AcDbEntity
  8
AM_9
 48
0.012367881215613
100
AcDbPolyline
 90
       11
 70
     0
 43
0.0
 10
-0.0000000000000001
 20
-0.9625246767943213
 10
-0.0247924152057593
 20
-0.964381675229493
 10
-0.0495848304115185
 20
-0.9701087670198871
 10
-0.072294516736487
 20
-0.9792057684029866
 10
-0.0935785146472021
 20
-0.9919051768009499
 10
-0.1116825398738216
 20
-1.007135345752211
 10
-0.1270951394762366
 20
-1.025281620014413
 10
-0.1385338022852194
 20
-1.044809724482491
 10
-0.1463097585476126
 20
-1.066237939772787
 10
-0.1497639529318289
 20
-1.087707088851871
 10
-0.1499999993228949
 20
-1.094987657016546
  0
LINE
  5
18E
330
168
100
AcDbEntity
  8
AM_9
 48
0.012367881215613
100
AcDbLine
 10
0.1499999999999999
 20
-1.145
 30
0.0
 11
0.1499999999999999
 21
-1.094997050350664
 31
0.0
  0
LINE
  5
18F
330
168
100
AcDbEntity
  8
AM_9
 48
0.012367881215613
100
AcDbLine
 10
-0.1500000000000001
 20
-1.094983498654967
 30
0.0
 11
-0.1500000000000001
 21
-1.145
 31
0.0
  0
ELLIPSE
  5
190
330
168
100
AcDbEntity
  8
AM_9
 48
0.012367881215613
100
AcDbEllipse
 10
-0.0000000000000001
 20
-1.145
 30
0.0
 11
0.15
 21
0.0
 31
0.0
210
0.0
220
0.0
230
1.0
 40
0.866025403784438
 41
3.141592653589793
 42
6.283185307179586
  0
ELLIPSE
  5
191
330
168
100
AcDbEntity
  8
AM_9
 48
0.012367881215613
100
AcDbEllipse
 10
-0.0000000000000005
 20
-1.145000000000001
 30
0.0
 11
0.1500000000000005
 21
1.110223024625156E-15
 31
0.0
210
0.0
220
0.0
230
1.0
 40
0.8660254037844412
 41
6.283185307179584
 42
7.853981633974472
  0
LWPOLYLINE
  5
192
330
168
100
AcDbEntity
  8
AM_9
 48
0.012367881215613
100
AcDbPolyline
 90
        5
 70
     0
 43
0.0
 10
0.1254209100694343
 20
-1.16548139116118
 10
0.1315245507283896
 20
-1.156863825122939
 10
0.1418901350889907
 20
-1.136865142378716
 10
0.1479857004140859
 20
-1.116148790784992
 10
0.1499999998448515
 20
-1.094994091635901
  0
LWPOLYLINE
  5
193
330
168
100
AcDbEntity
  8
AM_9
 48
0.012367881215613
100
AcDbPolyline
 90
       17
 70
     0
 43
0.0
 10
-0.1499999993228949
 20
-1.094987657016546
 10
-0.1490107139410321
 20
-1.109861040976436
 10
-0.1441249056023047
 20
-1.130802841310425
 10
-0.134970219234076
 20
-1.151187938220247
 10
-0.1223026577812418
 20
-1.169348700998703
 10
-0.1057657516007579
 20
-1.185822898848994
 10
-0.0867002989578983
 20
-1.199294369127799
 10
-0.0645864818867164
 20
-1.210150904958654
 10
-0.0412783013964109
 20
-1.217511692307016
 10
-0.016102300110937
 20
-1.221611308342253
 10
0.0087694506965999
 20
-1.222118906845482
 10
0.0341057276708741
 20
-1.219062958722782
 10
0.0577557345765748
 20
-1.212698415356676
 10
0.0804257297236245
 20
-1.20282134729077
 10
0.1002515627682367
 20
-1.190207168460917
 10
0.1177661607409681
 20
-1.174471389703512
 10
0.1254209100694343
 20
-1.16548139116118
  0
LWPOLYLINE
  5
194
330
168
100
AcDbEntity
  8
AM_9
 48
0.012367881215613
100
AcDbPolyline
 90
       12
 70
     0
 43
0.0
 10
0.1499999998448515
 20
-1.094994091635901
 10
0.1499962464390962
 20
-1.094080882534274
 10
0.1477602015701333
 20
-1.072558889224923
 10
0.1412228418719714
 20
-1.050923676305169
 10
0.1309342501802949
 20
-1.03100726653621
 10
0.116600745382947
 20
-1.012262806758854
 10
0.0993832302591703
 20
-0.996258379414631
 10
0.0788113367592858
 20
-0.9826103311635908
 10
0.0565866405173274
 20
-0.9724891060124549
 10
0.0320838073911222
 20
-0.9656487795945325
 10
0.0161356663902839
 20
-0.9633106378157297
 10
-0.0000000000000001
 20
-0.9625246767943213
  0
ELLIPSE
  5
195
330
168
100
AcDbEntity
  8
AM_9
 48
0.012367881215613
100
AcDbEllipse
 10
-0.0000000000000001
 20
-1.145
 30
0.0
 11
-0.35
 21
4.286263797015737E-17
 31
0.0
210
0.0
220
0.0
230
1.0
 40
0.8660254037844388
 41
0.0
 42
6.283185307179586
  0
ELLIPSE
  5
196
330
168
100
AcDbEntity
  8
AM_9
 48
0.012367881215613
100
AcDbEllipse
 10
-0.0000000000000001
 20
-1.095
 30
0.0
 11
0.4499999999999995
 21
4.440892098500626E-16
 31
0.0
210
0.0
220
0.0
230
1.0
 40
0.8660254037844388
 41
0.1373864147176622
 42
2.961262630288962
  0
LINE
  5
197
330
168
100
AcDbEntity
  8
AM_9
 48
0.012367881215613
100
AcDbLine
 10
0.4499890455301183
 20
-1.097818136332336
 30
0.0
 11
0.4499936645156449
 21
-1.092856826352101
 31
0.0
  0
LWPOLYLINE
  5
198
330
168
100
AcDbEntity
  8
AM_9
 48
0.012367881215613
100
AcDbPolyline
 90
       54
 70
     0
 43
0.0
 10
-0.4499973222174879
 20
-1.096393336444889
 10
-0.4499878432696237
 20
-1.097968755377423
 10
-0.4490135994727146
 20
-1.121727206612802
 10
-0.4464854739200854
 20
-1.145377744324247
 10
-0.4424143567859268
 20
-1.168840919251819
 10
-0.436815205518065
 20
-1.192039610321499
 10
-0.4297070247538661
 20
-1.214897603889468
 10
-0.4211129129745001
 20
-1.237339554669921
 10
-0.4110601757264141
 20
-1.259290982968502
 10
-0.3995804871512589
 20
-1.280678327515878
 10
-0.3867100757727077
 20
-1.301429068380765
 10
-0.3724899067035888
 20
-1.321471927661884
 10
-0.3569658314083883
 20
-1.340737147571148
 10
-0.340188678374072
 20
-1.359156837009196
 10
-0.3222142635106756
 20
-1.376665369957362
 10
-0.3031033072255357
 20
-1.393199813168071
 10
-0.2829212547431853
 20
-1.40870035767964
 10
-0.2617380058966724
 20
-1.423110729057876
 10
-0.2396275688213044
 20
-1.436378554787641
 10
-0.216667657610237
 20
-1.448455673132852
 10
-0.1929392564969089
 20
-1.459298374911206
 10
-0.1685261726035944
 20
-1.468867576773284
 10
-0.1435145963498386
 20
-1.477128930717869
 10
-0.1179926841507786
 20
-1.484052879077944
 10
-0.0920501729897125
 20
-1.489614666860593
 10
-0.0657780315980802
 20
-1.493794324260381
 10
-0.0392681488242623
 20
-1.496576631756289
 10
-0.0126130565471128
 20
-1.497951078894068
 10
0.0140943178174834
 20
-1.497911826063434
 10
0.0407608570259278
 20
-1.496457678128934
 10
0.067292842271486
 20
-1.493592161064764
 10
0.0935974305899667
 20
-1.489323462154682
 10
0.1195821994296663
 20
-1.483664450086764
 10
0.1451553672348771
 20
-1.476632730463892
 10
0.1702260371020427
 20
-1.468250716471557
 10
0.1947044720828194
 20
-1.458545708516138
 10
0.2185024100000107
 20
-1.447549973797283
 10
0.2415334238333975
 20
-1.43530081382719
 10
0.2637133307318032
 20
-1.42184060519291
 10
0.2849606483740126
 20
-1.407216796881099
 10
0.305197091829116
 20
-1.391481846864681
 10
0.32434809768121
 20
-1.37469308199788
 10
0.3423433557735089
 20
-1.356912469010525
 10
0.3591173235787798
 20
-1.338206290593314
 10
0.3746096951078832
 20
-1.318644728761898
 10
0.3887657964281402
 20
-1.29830136687129
 10
0.4015368837752528
 20
-1.277252630412426
 10
0.4128803276743873
 20
-1.255577193552068
 10
0.4227596764507673
 20
-1.233355382055
 10
0.4311446034725315
 20
-1.210668603149103
 10
0.4380107527298049
 20
-1.187598829214599
 10
0.4433395054696763
 20
-1.164228155725627
 10
0.447117695696852
 20
-1.140638445858206
 10
0.4484777123295754
 20
-1.12819278302062
  0
LINE
  5
199
330
168
100
AcDbEntity
  8
AM_9
 48
0.012367881215613
100
AcDbLine
 10
-0.4499998900899528
 20
-1.095282284916547
 30
0.0
 11
-0.4499973222174879
 21
-1.096393336444889
 31
0.0
  0
LINE
  5
19A
330
168
100
AcDbEntity
  8
AM_9
 48
0.012367881215613
100
AcDbLine
 10
-0.546
 20
-1.468153602318231
 30
0.0
 11
-0.5847999999999999
 21
-1.409622800610149
 31
0.0
  0
LINE
  5
19B
330
168
100
AcDbEntity
  8
AM_9
 48
0.012367881215613
100
AcDbLine
 10
0.546
 20
-1.468153602318231
 30
0.0
 11
-0.546
 21
-1.468153602318231
 31
0.0
  0
LINE
  5
19C
330
168
100
AcDbEntity
  8
AM_9
 48
0.012367881215613
100
AcDbLine
 10
0.5848000000000001
 20
-1.409622800610149
 30
0.0
 11
0.546
 21
-1.468153602318231
 31
0.0
  0
LINE
  5
19D
330
168
100
AcDbEntity
  8
AM_9
 48
0.012367881215613
100
AcDbLine
 10
-0.5847999999999999
 20
1.409622800610149
 30
0.0
 11
-0.546
 21
1.468153602318231
 31
0.0
  0
LINE
  5
19E
330
168
100
AcDbEntity
  8
AM_9
 48
0.012367881215613
100
AcDbLine
 10
-0.546
 20
1.468153602318231
 30
0.0
 11
0.546
 21
1.468153602318231
 31
0.0
  0
LINE
  5
19F
330
168
100
AcDbEntity
  8
AM_9
 48
0.012367881215613
100
AcDbLine
 10
0.546
 20
1.468153602318231
 30
0.0
 11
0.5848
 21
1.409622800610148
 31
0.0
  0
LINE
  5
1A0
330
168
100
AcDbEntity
  8
AM_9
 48
0.012367881215613
100
AcDbLine
 10
0.546
 20
-1.468153602318231
 30
0.0
 11
0.546
 21
1.468153602318231
 31
0.0
  0
LINE
  5
1A1
330
168
100
AcDbEntity
  8
AM_9
 48
0.012367881215613
100
AcDbLine
 10
-0.546
 20
-1.468153602318231
 30
0.0
 11
-0.546
 21
1.468153602318231
 31
0.0
  0
ELLIPSE
  5
1A2
330
168
100
AcDbEntity
  8
AM_9
 48
0.012367881215613
100
AcDbEllipse
 10
-0.0000000000000001
 20
-1.095
 30
0.0
 11
0.4499999999999994
 21
0.0
 31
0.0
210
0.0
220
0.0
230
1.0
 40
0.866025403784439
 41
3.441583703595214
 42
6.025471009669245
  0
LWPOLYLINE
  5
1A3
330
168
100
AcDbEntity
  8
AM_9
 48
0.012367881215613
100
AcDbPolyline
 90
       39
 70
     0
 43
0.0
 10
0.4499999999999997
 20
-1.095
 10
0.4484793731714372
 20
-1.126825401508545
 10
0.4439403998513609
 20
-1.158120697780415
 10
0.4361410378713388
 20
-1.189558995001345
 10
0.4252438294446442
 20
-1.220002204940867
 10
0.4117651138716566
 20
-1.248427458828722
 10
0.3955422852775068
 20
-1.275566105999247
 10
0.3761087789832567
 20
-1.301971544808271
 10
0.3540343057085766
 20
-1.326717490353062
 10
0.3298568846188837
 20
-1.349334921709115
 10
0.3034288937381895
 20
-1.37011048554187
 10
0.2740753217852964
 20
-1.389448592524496
 10
0.2427266006140309
 20
-1.406642875167626
 10
0.2102354871743147
 20
-1.421341277113102
 10
0.1762501665238064
 20
-1.433827837505164
 10
0.1399270620462109
 20
-1.444305424205619
 10
0.1025327018210537
 20
-1.452320357919586
 10
0.0659828187194989
 20
-1.45763935856241
 10
0.0289643292793259
 20
-1.460635448977486
 10
-0.0093798029698781
 20
-1.461269159401159
 10
-0.0476530240264297
 20
-1.459419292975011
 10
-0.0839046036610037
 20
-1.455330598118535
 10
-0.1195796906871706
 20
-1.449000945866929
 10
-0.1554195491916152
 20
-1.440176212424839
 10
-0.1901438751572609
 20
-1.429055610717194
 10
-0.2228370353556863
 20
-1.415983270940163
 10
-0.2540192518945621
 20
-1.400818688627228
 10
-0.2842836496646228
 20
-1.383113474065948
 10
-0.312538113953426
 20
-1.363351720481922
 10
-0.3383595298823012
 20
-1.341826466659274
 10
-0.3618495163159567
 20
-1.318475624664043
 10
-0.3834099720545509
 20
-1.292657562859607
 10
-0.4021757602303793
 20
-1.265169044737397
 10
-0.4176069178536659
 20
-1.23696424566061
 10
-0.4301437566980276
 20
-1.207490111060272
 10
-0.4399198416101609
 20
-1.175985497991778
 10
-0.4464427811566036
 20
-1.143540234749203
 10
-0.4491059942813934
 20
-1.119461331499155
 10
-0.45
 20
-1.095
  0
LINE
  5
1A4
330
168
100
AcDbEntity
  8
AM_9
 48
0.012367881215613
100
AcDbLine
 10
-0.3096000000000002
 20
-1.668792219607409
 30
0.0
 11
0.5847999999999999
 21
-1.668792219607409
 31
0.0
  0
LINE
  5
1A5
330
168
100
AcDbEntity
  8
AM_9
 48
0.012367881215613
100
AcDbLine
 10
-0.3096000000000002
 20
-1.7545
 30
0.0
 11
0.5847999999999999
 21
-1.7545
 31
0.0
  0
LINE
  5
1A6
330
168
100
AcDbEntity
  8
AM_9
 48
0.012367881215613
100
AcDbLine
 10
-0.3096000000000002
 20
-1.7545
 30
0.0
 11
-0.3096000000000002
 21
-1.583149640660106
 31
0.0
  0
LINE
  5
1A7
330
168
100
AcDbEntity
  8
AM_9
 48
0.012367881215613
100
AcDbLine
 10
-0.3096000000000002
 20
1.668792219607409
 30
0.0
 11
0.5847999999999999
 21
1.668792219607409
 31
0.0
  0
LINE
  5
1A8
330
168
100
AcDbEntity
  8
AM_9
 48
0.012367881215613
100
AcDbLine
 10
-0.3096000000000002
 20
1.583149640660106
 30
0.0
 11
-0.3096000000000002
 21
1.7545
 31
0.0
  0
LINE
  5
1A9
330
168
100
AcDbEntity
  8
AM_9
 48
0.012367881215613
100
AcDbLine
 10
0.2249242424242454
 20
1.7545
 30
0.0
 11
-0.3096000000000002
 21
1.7545
 31
0.0
  0
LINE
  5
1AA
330
168
100
AcDbEntity
  8
AM_9
 48
0.012367881215613
100
AcDbLine
 10
0.5847999999999999
 20
1.7545
 30
0.0
 11
0.2750757575757546
 21
1.7545
 31
0.0
  0
LINE
  5
1AB
330
168
100
AcDbEntity
  8
AM_9
 48
0.012367881215613
100
AcDbLine
 10
-0.3096000000000002
 20
1.583149640660106
 30
0.0
 11
0.5847999999999994
 21
1.583149640660106
 31
0.0
  0
LINE
  5
1AC
330
168
100
AcDbEntity
  8
AM_9
 48
0.012367881215613
100
AcDbLine
 10
0.5847999999999994
 20
-1.583149640660106
 30
0.0
 11
-0.3096000000000002
 21
-1.583149640660106
 31
0.0
  0
LINE
  5
1AD
330
168
100
AcDbEntity
  8
AM_9
 48
0.012367881215613
100
AcDbLine
 10
-0.5848000000000001
 20
-1.67325
 30
0.0
 11
-0.3096000000000002
 21
-1.67325
 31
0.0
  0
LINE
  5
1AE
330
168
100
AcDbEntity
  8
AM_9
 48
0.012367881215613
100
AcDbLine
 10
-0.3096000000000002
 20
1.67325
 30
0.0
 11
-0.5848
 21
1.67325
 31
0.0
  0
LINE
  5
1AF
330
168
100
AcDbEntity
  8
AM_9
 48
0.012367881215613
100
AcDbLine
 10
0.5848
 20
-0.7738920855002976
 30
0.0
 11
0.5848000000000001
 21
0.7738920855002966
 31
0.0
  0
LINE
  5
1B0
330
168
100
AcDbEntity
  8
AM_9
 48
0.012367881215613
100
AcDbLine
 10
-0.5848
 20
0.7738920855002974
 30
0.0
 11
-0.5848
 21
-0.7738920855002974
 31
0.0
  0
LINE
  5
1B1
330
168
100
AcDbEntity
  8
AM_9
 48
0.012367881215613
100
AcDbLine
 10
-0.5848
 20
-0.9011999999999999
 30
0.0
 11
0.5848
 21
-0.9011999999999999
 31
0.0
  0
LINE
  5
1B2
330
168
100
AcDbEntity
  8
AM_9
 48
0.012367881215613
100
AcDbLine
 10
-0.5848
 20
-0.9699999999999999
 30
0.0
 11
0.5847999999999999
 21
-0.9699999999999999
 31
0.0
  0
LINE
  5
1B3
330
168
100
AcDbEntity
  8
AM_9
 48
0.012367881215613
100
AcDbLine
 10
-0.5847999999999999
 20
0.9011999999999997
 30
0.0
 11
0.5848000000000002
 21
0.9011999999999997
 31
0.0
  0
LINE
  5
1B4
330
168
100
AcDbEntity
  8
AM_9
 48
0.012367881215613
100
AcDbLine
 10
-0.5848
 20
0.9699999999999995
 30
0.0
 11
0.5848000000000001
 21
0.9699999999999995
 31
0.0
  0
LINE
  5
1B5
330
168
100
AcDbEntity
  8
AM_7
 48
0.012367881215613
100
AcDbLine
 10
0.0000000000000002
 20
-0.525
 30
0.0
 11
0.0000000000000002
 21
0.525
 31
0.0
  0
LINE
  5
1B6
330
168
100
AcDbEntity
  8
AM_0
 48
0.012367881215613
100
AcDbLine
 10
0.344
 20
1.9925
 30
0.0
 11
0.344
 21
2.375
 31
0.0
  0
LWPOLYLINE
  5
1B7
330
168
100
AcDbEntity
  8
AM_0
 48
0.012367881215613
100
AcDbPolyline
 90
       19
 70
     0
 43
0.0
 10
0.6192000000000002
 20
2.375
 10
0.6251963151010391
 20
2.374738195228712
 10
0.6311469946234852
 20
2.373954773407239
 10
0.6370067503030538
 20
2.372655696848688
 10
0.6427309858608065
 20
2.37085085231007
 10
0.6482761364077607
 20
2.368553975748121
 10
0.6536000000000005
 20
2.365782547780368
 10
0.6586620588209525
 20
2.362557660647082
 10
0.6634237875464344
 20
2.358903857686585
 10
0.667848946545635
 20
2.354848946545633
 10
0.6719038576865862
 20
2.350423787546432
 10
0.6755576606470832
 20
2.34566205882095
 10
0.67878254778037
 20
2.340599999999998
 10
0.681553975748122
 20
2.335276136407758
 10
0.6838508523100708
 20
2.329730985860804
 10
0.6856556968486883
 20
2.324006750303051
 10
0.6869547734072402
 20
2.318146994623483
 10
0.6877381952287123
 20
2.312196315101037
 10
0.6880000000000002
 20
2.30620000144985
  0
LINE
  5
1B8
330
168
100
AcDbEntity
  8
AM_0
 48
0.012367881215613
100
AcDbLine
 10
0.344
 20
2.375
 30
0.0
 11
0.6192000000000002
 21
2.375
 31
0.0
  0
LINE
  5
1B9
330
168
100
AcDbEntity
  8
AM_0
 48
0.012367881215613
100
AcDbLine
 10
-0.3440000000000001
 20
-1.9925
 30
0.0
 11
-0.3440000000000001
 21
-2.375
 31
0.0
  0
LWPOLYLINE
  5
1BA
330
168
100
AcDbEntity
  8
AM_0
 48
0.012367881215613
100
AcDbPolyline
 90
       19
 70
     0
 43
0.0
 10
-0.6191999999999992
 20
-2.375
 10
-0.6251963151010381
 20
-2.374738195228712
 10
-0.631146994623484
 20
-2.373954773407239
 10
-0.6370067503030526
 20
-2.372655696848688
 10
-0.6427309858608053
 20
-2.37085085231007
 10
-0.6482761364077594
 20
-2.368553975748121
 10
-0.6535999999999993
 20
-2.365782547780369
 10
-0.6586620588209513
 20
-2.362557660647082
 10
-0.6634237875464332
 20
-2.358903857686585
 10
-0.6678489465456338
 20
-2.354848946545634
 10
-0.671903857686585
 20
-2.350423787546434
 10
-0.6755576606470819
 20
-2.345662058820952
 10
-0.6787825477803687
 20
-2.3406
 10
-0.6815539757481208
 20
-2.33527613640776
 10
-0.6838508523100698
 20
-2.329730985860806
 10
-0.6856556968486872
 20
-2.324006750303053
 10
-0.6869547734072391
 20
-2.318146994623485
 10
-0.6877381952287114
 20
-2.312196315101038
 10
-0.6879999999999992
 20
-2.306200001449851
  0
LINE
  5
1BB
330
168
100
AcDbEntity
  8
AM_0
 48
0.012367881215613
100
AcDbLine
 10
-0.6192000000000002
 20
-2.375
 30
0.0
 11
-0.3440000000000001
 21
-2.375
 31
0.0
  0
LINE
  5
1BC
330
168
100
AcDbEntity
  8
AM_0
 48
0.012367881215613
100
AcDbLine
 10
0.3439999999999998
 20
-2.375
 30
0.0
 11
0.3439999999999998
 21
-1.9925
 31
0.0
  0
LWPOLYLINE
  5
1BD
330
168
100
AcDbEntity
  8
AM_0
 48
0.012367881215613
100
AcDbPolyline
 90
       19
 70
     0
 43
0.0
 10
0.6879999999999992
 20
-2.306199997100297
 10
0.6877381954814372
 20
-2.31219631221237
 10
0.6869547739107673
 20
-2.318146991767835
 10
0.6856556975991855
 20
-2.324006747502155
 10
0.6838508533018266
 20
-2.329730983135976
 10
0.6815539769735883
 20
-2.335276133779737
 10
0.6787825492302203
 20
-2.340599997488783
 10
0.6755576623102834
 20
-2.345662056445654
 10
0.6719038595504784
 20
-2.350423785325132
 10
0.6678489485960336
 20
-2.354848944495235
 10
0.6634237897677349
 20
-2.358903855822692
 10
0.6586620611962493
 20
-2.362557658983881
 10
0.6536000025112161
 20
-2.365782546330518
 10
0.6482761390357833
 20
-2.368553974522654
 10
0.6427309885856352
 20
-2.370850851318314
 10
0.6370067531039513
 20
-2.372655696098189
 10
0.6311469974791347
 20
-2.373954772903712
 10
0.6251963179897075
 20
-2.374738194975986
 10
0.6192000028997029
 20
-2.375
  0
LINE
  5
1BE
330
168
100
AcDbEntity
  8
AM_0
 48
0.012367881215613
100
AcDbLine
 10
0.3439999999999998
 20
-2.375
 30
0.0
 11
0.6191999999999996
 21
-2.375
 31
0.0
  0
LINE
  5
1BF
330
168
100
AcDbEntity
  8
AM_0
 48
0.012367881215613
100
AcDbLine
 10
0.5848000000000002
 20
0.7738920855002976
 30
0.0
 11
0.5848000000000001
 21
1.80125
 31
0.0
  0
LINE
  5
1C0
330
168
100
AcDbEntity
  8
AM_0
 48
0.012367881215613
100
AcDbLine
 10
-0.5848
 20
1.80125
 30
0.0
 11
-0.5847999999999998
 21
0.7738920855002975
 31
0.0
  0
LINE
  5
1C1
330
168
100
AcDbEntity
  8
AM_0
 48
0.012367881215613
100
AcDbLine
 10
-0.6879999999999997
 20
1.90445
 30
0.0
 11
-0.5848
 21
1.80125
 31
0.0
  0
LINE
  5
1C2
330
168
100
AcDbEntity
  8
AM_0
 48
0.012367881215613
100
AcDbLine
 10
-0.3439999999999999
 20
1.9925
 30
0.0
 11
0.344
 21
1.9925
 31
0.0
  0
LINE
  5
1C3
330
168
100
AcDbEntity
  8
AM_0
 48
0.012367881215613
100
AcDbLine
 10
0.5848000000000001
 20
1.80125
 30
0.0
 11
0.6880000000000001
 21
1.90445
 31
0.0
  0
LINE
  5
1C4
330
168
100
AcDbEntity
  8
AM_0
 48
0.012367881215613
100
AcDbLine
 10
-0.6879999999999996
 20
2.3062
 30
0.0
 11
-0.6879999999999997
 21
1.90445
 31
0.0
  0
LINE
  5
1C5
330
168
100
AcDbEntity
  8
AM_0
 48
0.012367881215613
100
AcDbLine
 10
0.6880000000000001
 20
1.90445
 30
0.0
 11
0.6880000000000001
 21
2.306200000000001
 31
0.0
  0
LINE
  5
1C7
330
168
100
AcDbEntity
  8
AM_4
 48
0.012367881215613
100
AcDbLine
 10
0.6880000000000001
 20
2.306200000000001
 30
0.0
 11
0.344
 21
2.306199999999999
 31
0.0
  0
LINE
  5
1C8
330
168
100
AcDbEntity
  8
AM_0
 48
0.012367881215613
100
AcDbLine
 10
-0.3439999999999999
 20
2.375
 30
0.0
 11
-0.3439999999999999
 21
1.9925
 31
0.0
  0
LINE
  5
1C9
330
168
100
AcDbEntity
  8
AM_0
 48
0.012367881215613
100
AcDbLine
 10
-0.6192000000000009
 20
2.375
 30
0.0
 11
-0.3439999999999999
 21
2.375
 31
0.0
  0
LWPOLYLINE
  5
1CA
330
168
100
AcDbEntity
  8
AM_0
 48
0.012367881215613
100
AcDbPolyline
 90
       19
 70
     0
 43
0.0
 10
-0.6880000000000003
 20
2.3062
 10
-0.6877381952287124
 20
2.312196315101038
 10
-0.6869547734072402
 20
2.318146994623485
 10
-0.6856556968486881
 20
2.324006750303053
 10
-0.6838508523100707
 20
2.329730985860806
 10
-0.6815539757481217
 20
2.33527613640776
 10
-0.6787825477803696
 20
2.3406
 10
-0.6755576606470829
 20
2.345662058820952
 10
-0.6719038576865859
 20
2.350423787546434
 10
-0.6678489465456345
 20
2.354848946545634
 10
-0.663423787546434
 20
2.358903857686586
 10
-0.6586620588209521
 20
2.362557660647083
 10
-0.6536000000000001
 20
2.365782547780369
 10
-0.6482761364077603
 20
2.368553975748121
 10
-0.642730985860806
 20
2.37085085231007
 10
-0.6370067503030535
 20
2.372655696848688
 10
-0.6311469946234848
 20
2.37395477340724
 10
-0.6251963151010389
 20
2.374738195228712
 10
-0.6192000000000009
 20
2.375
  0
LINE
  5
1CB
330
168
100
AcDbEntity
  8
AM_4
 48
0.012367881215613
100
AcDbLine
 10
-0.3439999999999999
 20
2.306199999999999
 30
0.0
 11
-0.6879999999999996
 21
2.3062
 31
0.0
  0
LINE
  5
1CC
330
168
100
AcDbEntity
  8
AM_0
 48
0.012367881215613
100
AcDbLine
 10
0.5847999999999998
 20
-1.80125
 30
0.0
 11
0.5848
 21
-0.7738920855002976
 31
0.0
  0
LINE
  5
1CD
330
168
100
AcDbEntity
  8
AM_0
 48
0.012367881215613
100
AcDbLine
 10
-0.5847999999999998
 20
-0.7738920855002974
 30
0.0
 11
-0.5848000000000001
 21
-1.80125
 31
0.0
  0
LINE
  5
1CE
330
168
100
AcDbEntity
  8
AM_0
 48
0.012367881215613
100
AcDbLine
 10
-0.5848000000000001
 20
-1.80125
 30
0.0
 11
-0.6880000000000001
 21
-1.90445
 31
0.0
  0
LINE
  5
1CF
330
168
100
AcDbEntity
  8
AM_0
 48
0.012367881215613
100
AcDbLine
 10
-0.6880000000000001
 20
-1.90445
 30
0.0
 11
-0.6880000000000002
 21
-2.3062
 31
0.0
  0
LINE
  5
1D0
330
168
100
AcDbEntity
  8
AM_4
 48
0.012367881215613
100
AcDbLine
 10
-0.3440000000000001
 20
-2.3062
 30
0.0
 11
-0.6880000000000002
 21
-2.3062
 31
0.0
  0
LINE
  5
1D1
330
168
100
AcDbEntity
  8
AM_0
 48
0.012367881215613
100
AcDbLine
 10
0.3439999999999998
 20
-1.9925
 30
0.0
 11
-0.3440000000000001
 21
-1.9925
 31
0.0
  0
LINE
  5
1D2
330
168
100
AcDbEntity
  8
AM_4
 48
0.012367881215613
100
AcDbLine
 10
0.6879999999999996
 20
-2.3062
 30
0.0
 11
0.3439999999999998
 21
-2.3062
 31
0.0
  0
LINE
  5
1D3
330
168
100
AcDbEntity
  8
AM_0
 48
0.012367881215613
100
AcDbLine
 10
0.6879999999999996
 20
-2.3062
 30
0.0
 11
0.6879999999999998
 21
-1.90445
 31
0.0
  0
LINE
  5
1D4
330
168
100
AcDbEntity
  8
AM_0
 48
0.012367881215613
100
AcDbLine
 10
0.6879999999999998
 20
-1.90445
 30
0.0
 11
0.5847999999999998
 21
-1.80125
 31
0.0
  0
LWPOLYLINE
  5
1D5
330
168
100
AcDbEntity
  8
AM_0
 48
0.012367881215613
100
AcDbPolyline
 90
       19
 70
     0
 43
0.0
 10
-0.516
 20
-1.625
 10
-0.5219963151010388
 20
-1.624738195228712
 10
-0.5279469946234848
 20
-1.62395477340724
 10
-0.5338067503030535
 20
-1.622655696848688
 10
-0.539530985860806
 20
-1.62085085231007
 10
-0.5450761364077601
 20
-1.618553975748122
 10
-0.5504
 20
-1.615782547780369
 10
-0.5554620588209519
 20
-1.612557660647083
 10
-0.5602237875464339
 20
-1.608903857686586
 10
-0.5646489465456345
 20
-1.604848946545635
 10
-0.5687038576865856
 20
-1.600423787546434
 10
-0.5723576606470826
 20
-1.595662058820952
 10
-0.5755825477803693
 20
-1.5906
 10
-0.5783539757481214
 20
-1.585276136407761
 10
-0.5806508523100704
 20
-1.579730985860806
 10
-0.5824556968486879
 20
-1.574006750303054
 10
-0.5837547734072399
 20
-1.568146994623485
 10
-0.5845381952287121
 20
-1.562196315101039
 10
-0.5848
 20
-1.5562
  0
LINE
  5
1D6
330
168
100
AcDbEntity
  8
AM_0
 48
0.012367881215613
100
AcDbLine
 10
-0.5159999999999999
 20
-1.625
 30
0.0
 11
0.516
 21
-1.625
 31
0.0
  0
LWPOLYLINE
  5
1D7
330
168
100
AcDbEntity
  8
AM_0
 48
0.012367881215613
100
AcDbPolyline
 90
       19
 70
     0
 43
0.0
 10
0.5848
 20
-1.556199997707583
 10
0.5845381954285094
 20
-1.562196312817346
 10
0.5837547738053139
 20
-1.568146992365895
 10
0.582455697442009
 20
-1.574006748088749
 10
0.5806508530941232
 20
-1.579730983706639
 10
0.5783539767169387
 20
-1.585276134330125
 10
0.5755825489265778
 20
-1.590599998014709
 10
0.5723576619619588
 20
-1.595662056943114
 10
0.5687038591601228
 20
-1.600423785790341
 10
0.5646489481666179
 20
-1.604848944924651
 10
0.5602237893025269
 20
-1.608903856213049
 10
0.5554620606987898
 20
-1.612557659332206
 10
0.5504000019852912
 20
-1.615782546634161
 10
0.5450761384853953
 20
-1.618553974779304
 10
0.5395309880149731
 20
-1.620850851526018
 10
0.533806752517358
 20
-1.622655696255367
 10
0.5279469968810746
 20
-1.623954773009166
 10
0.5219963173847323
 20
-1.624738195028915
 10
0.5160000022924167
 20
-1.625
  0
CIRCLE
  5
1D8
330
168
100
AcDbEntity
  8
AM_0
 48
0.012367881215613
100
AcDbCircle
 10
0.0000000000000002
 20
0.0
 30
0.0
 40
0.5
  0
ARC
  5
1D9
330
168
100
AcDbEntity
  8
AM_0
 48
0.012367881215613
100
AcDbCircle
 10
0.0000000000000002
 20
0.0000000000000002
 30
0.0
 40
0.97
100
AcDbArc
 50
307.0769159403522
 51
52.92308405964782
  0
ARC
  5
1DA
330
168
100
AcDbEntity
  8
AM_0
 48
0.012367881215613
100
AcDbCircle
 10
0.0000000000000001
 20
0.0000000000000001
 30
0.0
 40
0.9699999999999996
100
AcDbArc
 50
127.0769159403522
 51
232.9230840596478
  0
LINE
  5
1DB
330
168
100
AcDbEntity
  8
AM_4
 48
0.012367881215613
100
AcDbLine
 10
0.5848
 20
-1.5562
 30
0.0
 11
-0.5847999999999998
 21
-1.5562
 31
0.0
  0
LINE
  5
1DC
330
168
100
AcDbEntity
  8
AM_0
 48
0.012367881215613
100
AcDbLine
 10
-0.5160000000000001
 20
1.625
 30
0.0
 11
0.5160000000000002
 21
1.625
 31
0.0
  0
LWPOLYLINE
  5
1DD
330
168
100
AcDbEntity
  8
AM_0
 48
0.012367881215613
100
AcDbPolyline
 90
       19
 70
     0
 43
0.0
 10
-0.5848
 20
1.556200006151199
 10
-0.5845381946925997
 20
1.56219632122883
 10
-0.5837547723390953
 20
1.568147000681233
 10
-0.5824556952566403
 20
1.574006756244655
 10
-0.5806508502062363
 20
1.579730991641042
 10
-0.5783539731485122
 20
1.58527614198264
 10
-0.5755825447047695
 20
1.590600005327094
 10
-0.5723576571188995
 20
1.595662063859719
 10
-0.5687038537326708
 20
1.600423792258526
 10
-0.5646489421960795
 20
1.604848950895189
 10
-0.5602237828343417
 20
1.6089038616405
 10
-0.5554620537821843
 20
1.612557664175265
 10
-0.5503999946729049
 20
1.615782550855968
 10
-0.5450761308328801
 20
1.618553978347731
 10
-0.5395309800805691
 20
1.620850854413904
 10
-0.5338067443614509
 20
1.622655698440735
 10
-0.5279469885657357
 20
1.623954774475384
 10
-0.5219963089732464
 20
1.624738195764824
 10
-0.5160000000000001
 20
1.625
  0
LINE
  5
1DE
330
168
100
AcDbEntity
  8
AM_4
 48
0.012367881215613
100
AcDbLine
 10
0.5848000000000003
 20
1.5562
 30
0.0
 11
-0.5847999999999997
 21
1.5562
 31
0.0
  0
LWPOLYLINE
  5
1DF
330
168
100
AcDbEntity
  8
AM_0
 48
0.012367881215613
100
AcDbPolyline
 90
       19
 70
     0
 43
0.0
 10
0.5160000000000003
 20
1.625
 10
0.5219963151010393
 20
1.624738195228712
 10
0.5279469946234853
 20
1.62395477340724
 10
0.5338067503030539
 20
1.622655696848688
 10
0.5395309858608066
 20
1.62085085231007
 10
0.5450761364077608
 20
1.618553975748121
 10
0.5504000000000007
 20
1.615782547780369
 10
0.5554620588209527
 20
1.612557660647082
 10
0.5602237875464346
 20
1.608903857686585
 10
0.5646489465456351
 20
1.604848946545634
 10
0.5687038576865865
 20
1.600423787546433
 10
0.5723576606470834
 20
1.595662058820952
 10
0.5755825477803701
 20
1.590599999999999
 10
0.5783539757481223
 20
1.585276136407759
 10
0.5806508523100713
 20
1.579730985860805
 10
0.5824556968486886
 20
1.574006750303053
 10
0.5837547734072407
 20
1.568146994623484
 10
0.5845381952287129
 20
1.562196315101038
 10
0.5848000000000007
 20
1.556199999999999
  0
ENDBLK
  5
16B
330
168
100
AcDbEntity
  8
0
100
AcDbBlockEnd
  0
ENDSEC
  0
SECTION
  2
ENTITIES
  0
ATTDEF
  5
6F
330
1F
100
AcDbEntity
  8
AM_6
100
AcDbText
 10
5.970000000000001
 20
2.375
 30
0.0
 40
0.5
  1
Set Screw Wide Slot Take Up Inch Bore
100
AcDbAttributeDefinition
  3

  2
NN
 70
     8
280
     0
  0
ATTDEF
  5
70
330
1F
100
AcDbEntity
  8
AM_6
100
AcDbText
 10
5.970000000000001
 20
1.875
 30
0.0
 40
0.5
  1
SC Take-Up Bearings -Wide Slot -(Normal Duty)
100
AcDbAttributeDefinition
  3

  2
NT
 70
     8
280
     0
  0
ATTDEF
  5
71
330
1F
100
AcDbEntity
  8
AM_6
100
AcDbText
 10
5.970000000000001
 20
1.375
 30
0.0
 40
0.5
  1
125151
100
AcDbAttributeDefinition
  3

  2
NB
 70
     8
280
     0
  0
ATTDEF
  5
72
330
1F
100
AcDbEntity
  8
AM_6
100
AcDbText
 10
5.970000000000001
 20
0.875
 30
0.0
 40
0.5
  1
$PN.
100
AcDbAttributeDefinition
  3

  2
NBSYN
 70
     8
280
     0
  0
ATTDEF
  5
73
330
1F
100
AcDbEntity
  8
AM_6
100
AcDbText
 10
5.970000000000001
 20
0.375
 30
0.0
 40
0.5
  1
125151
100
AcDbAttributeDefinition
  3

  2
LINA
 70
     8
280
     0
  0
ATTDEF
  5
74
330
1F
100
AcDbEntity
  8
AM_6
100
AcDbText
 10
5.970000000000001
 20
-0.125
 30
0.0
 40
0.5
  1
209
100
AcDbAttributeDefinition
  3

  2
SERIES
 70
     8
280
     0
  0
ATTDEF
  5
75
330
1F
100
AcDbEntity
  8
AM_6
100
AcDbText
 10
5.970000000000001
 20
-0.625
 30
0.0
 40
0.5
  1
1-5/8
100
AcDbAttributeDefinition
  3

  2
SS
 70
     8
280
     0
  0
ATTDEF
  5
76
330
1F
100
AcDbEntity
  8
AM_6
100
AcDbText
 10
5.970000000000001
 20
-1.125
 30
0.0
 40
0.5
  1
125151
100
AcDbAttributeDefinition
  3

  2
PN
 70
     8
280
     0
  0
ATTDEF
  5
77
330
1F
100
AcDbEntity
  8
AM_6
100
AcDbText
 10
5.970000000000001
 20
-1.625
 30
0.0
 40
0.5
  1
WSTU-SC-110L
100
AcDbAttributeDefinition
  3

  2
DESCRIPTION
 70
     8
280
     0
  0
ATTDEF
  5
78
330
1F
100
AcDbEntity
  8
AM_6
100
AcDbText
 10
5.970000000000001
 20
-2.125
 30
0.0
 40
0.5
  1
6.1
100
AcDbAttributeDefinition
  3

  2
W
 70
     8
280
     0
  0
ATTDEF
  5
79
330
1F
100
AcDbEntity
  8
AM_6
100
AcDbText
 10
5.970000000000001
 20
-2.625
 30
0.0
 40
0.5
  1
WS400
100
AcDbAttributeDefinition
  3

  2
FS
 70
     8
280
     0
  0
ATTDEF
  5
7A
330
1F
100
AcDbEntity
  8
AM_6
100
AcDbText
 10
5.970000000000001
 20
-3.125
 30
0.0
 40
0.5
  1
RE-LUBE
100
AcDbAttributeDefinition
  3

  2
LF
 70
     8
280
     0
  0
ATTDEF
  5
7B
330
1F
100
AcDbEntity
  8
AM_6
100
AcDbText
 10
5.970000000000001
 20
-3.625
 30
0.0
 40
0.5
  1
1.94
100
AcDbAttributeDefinition
  3

  2
A
 70
     8
280
     0
  0
ATTDEF
  5
7C
330
1F
100
AcDbEntity
  8
AM_6
100
AcDbText
 10
5.970000000000001
 20
-4.125
 30
0.0
 40
0.5
  1
5.63
100
AcDbAttributeDefinition
  3

  2
B
 70
     8
280
     0
  0
ATTDEF
  5
7D
330
1F
100
AcDbEntity
  8
AM_6
100
AcDbText
 10
5.970000000000001
 20
-4.625
 30
0.0
 40
0.5
  1
0.688
100
AcDbAttributeDefinition
  3

  2
C
 70
     8
280
     0
  0
ATTDEF
  5
7E
330
1F
100
AcDbEntity
  8
AM_6
100
AcDbText
 10
5.970000000000001
 20
-5.125
 30
0.0
 40
0.5
  1
3.25
100
AcDbAttributeDefinition
  3

  2
D
 70
     8
280
     0
  0
ATTDEF
  5
7F
330
1F
100
AcDbEntity
  8
AM_6
100
AcDbText
 10
5.970000000000001
 20
-5.625
 30
0.0
 40
0.5
  1
3.44
100
AcDbAttributeDefinition
  3

  2
E
 70
     8
280
     0
  0
ATTDEF
  5
80
330
1F
100
AcDbEntity
  8
AM_6
100
AcDbText
 10
5.970000000000001
 20
-6.125
 30
0.0
 40
0.5
  1
1
100
AcDbAttributeDefinition
  3

  2
F
 70
     8
280
     0
  0
ATTDEF
  5
81
330
1F
100
AcDbEntity
  8
AM_6
100
AcDbText
 10
5.970000000000001
 20
-6.625
 30
0.0
 40
0.5
  1
0.63
100
AcDbAttributeDefinition
  3

  2
G
 70
     8
280
     0
  0
ATTDEF
  5
82
330
1F
100
AcDbEntity
  8
AM_6
100
AcDbText
 10
5.970000000000001
 20
-7.125
 30
0.0
 40
0.5
  1
0.75
100
AcDbAttributeDefinition
  3

  2
H
 70
     8
280
     0
  0
ATTDEF
  5
83
330
1F
100
AcDbEntity
  8
AM_6
100
AcDbText
 10
5.970000000000001
 20
-7.625
 30
0.0
 40
0.5
  1
3.25
100
AcDbAttributeDefinition
  3

  2
J
 70
     8
280
     0
  0
ATTDEF
  5
84
330
1F
100
AcDbEntity
  8
AM_6
100
AcDbText
 10
5.970000000000001
 20
-8.125
 30
0.0
 40
0.5
  1
1.94
100
AcDbAttributeDefinition
  3

  2
K
 70
     8
280
     0
  0
ATTDEF
  5
85
330
1F
100
AcDbEntity
  8
AM_6
100
AcDbText
 10
5.970000000000001
 20
-8.625
 30
0.0
 40
0.5
  1
2.22
100
AcDbAttributeDefinition
  3

  2
L
 70
     8
280
     0
  0
ATTDEF
  5
86
330
1F
100
AcDbEntity
  8
AM_6
100
AcDbText
 10
5.970000000000001
 20
-9.125
 30
0.0
 40
0.5
  1
3.985 / 4.015
100
AcDbAttributeDefinition
  3

  2
M
 70
     8
280
     0
  0
ATTDEF
  5
87
330
1F
100
AcDbEntity
  8
AM_6
100
AcDbText
 10
5.970000000000001
 20
-9.625
 30
0.0
 40
0.5
  1
4.75
100
AcDbAttributeDefinition
  3

  2
N
 70
     8
280
     0
  0
ATTDEF
  5
88
330
1F
100
AcDbEntity
  8
AM_6
100
AcDbText
 10
5.970000000000001
 20
-10.125
 30
0.0
 40
0.5
  1
0.75
100
AcDbAttributeDefinition
  3

  2
R
 70
     8
280
     0
  0
ATTDEF
  5
89
330
1F
100
AcDbEntity
  8
AM_6
100
AcDbText
 10
5.970000000000001
 20
-10.625
 30
0.0
 40
0.5
  1
1.19
100
AcDbAttributeDefinition
  3

  2
S
 70
     8
280
     0
  0
ATTDEF
  5
8A
330
1F
100
AcDbEntity
  8
AM_6
100
AcDbText
 10
5.970000000000001
 20
-11.125
 30
0.0
 40
0.5
  1
1.94
100
AcDbAttributeDefinition
  3

  2
T
 70
     8
280
     0
  0
ATTDEF
  5
8B
330
1F
100
AcDbEntity
  8
AM_6
100
AcDbText
 10
5.970000000000001
 20
-11.625
 30
0.0
 40
0.5
  1
baldor
100
AcDbAttributeDefinition
  3

  2
COMPANY
 70
     8
280
     0
  0
INSERT
  5
8D
330
1F
100
AcDbEntity
  8
0
100
AcDbBlockReference
  2
1_045874_0_in_125151_2
 10
0.0
 20
0.0
 30
0.0
  0
INSERT
  5
F5
330
1F
100
AcDbEntity
  8
0
100
AcDbBlockReference
  2
2_405016_Inch_0_in_125151_2
 10
0.0
 20
0.0
 30
0.0
  0
INSERT
  5
169
330
1F
100
AcDbEntity
  8
0
100
AcDbBlockReference
  2
3_125151H_0_in_125151_2
 10
0.0
 20
0.0
 30
0.0
  0
POINT
  5
1E1
330
1F
100
AcDbEntity
  8
ConnectionPoints
100
AcDbPoint
 10
-0.0000000000000001
 20
-1.145
 30
-1.983198174666365
  0
POINT
  5
1E2
330
1F
100
AcDbEntity
  8
ConnectionPoints
100
AcDbPoint
 10
-0.0000000000000001
 20
-1.145
 30
-1.983198174666365
  0
POINT
  5
1E3
330
1F
100
AcDbEntity
  8
ConnectionPoints
100
AcDbPoint
 10
-1.19
 20
0.0
 30
0.0000000000000001
  0
ENDSEC
  0
SECTION
  2
OBJECTS
  0
DICTIONARY
  5
C
330
0
100
AcDbDictionary
281
     1
  3
ACAD_DETAILVIEWSTYLE
350
1EB
  3
ACAD_GROUP
350
D
  3
ACAD_LAYOUT
350
1A
  3
ACAD_MATERIAL
350
43
  3
ACAD_MLEADERSTYLE
350
6B
  3
ACAD_MLINESTYLE
350
17
  3
ACAD_PLOTSETTINGS
350
19
  3
ACAD_PLOTSTYLENAME
350
E
  3
ACAD_SCALELIST
350
47
  3
ACAD_SECTIONVIEWSTYLE
350
1EC
  3
ACAD_TABLESTYLE
350
69
  3
ACAD_VISUALSTYLE
350
2A
  3
ACDB_RECOMPOSE_DATA
350
1E8
  3
AcDbVariableDictionary
350
1E4
  0
SUN
  5
6D
330
29
100
AcDbSun
 90
        1
290
     0
 63
     7
421
 16777215
 40
1.0
291
     1
 91
  2455826
 92
 54000000
292
     0
 70
     2
 71
   256
280
     1
  0
DICTIONARY
  5
1EB
102
{ACAD_REACTORS
330
C
102
}
330
C
100
AcDbDictionary
281
     1
  0
DICTIONARY
  5
D
102
{ACAD_REACTORS
330
C
102
}
330
C
100
AcDbDictionary
281
     1
  0
DICTIONARY
  5
1A
102
{ACAD_REACTORS
330
C
102
}
330
C
100
AcDbDictionary
281
     1
  3
Layout1
350
1E
  3
Layout2
350
26
  3
Model
350
22
  0
DICTIONARY
  5
43
102
{ACAD_REACTORS
330
C
102
}
330
C
100
AcDbDictionary
281
     1
  3
ByBlock
350
45
  3
ByLayer
350
44
  3
Global
350
46
  0
DICTIONARY
  5
6B
102
{ACAD_REACTORS
330
C
102
}
330
C
100
AcDbDictionary
281
     1
  3
Standard
350
6C
  0
DICTIONARY
  5
17
102
{ACAD_REACTORS
330
C
102
}
330
C
100
AcDbDictionary
281
     1
  3
Standard
350
18
  0
DICTIONARY
  5
19
102
{ACAD_REACTORS
330
C
102
}
330
C
100
AcDbDictionary
281
     1
  0
ACDBDICTIONARYWDFLT
  5
E
102
{ACAD_REACTORS
330
C
102
}
330
C
100
AcDbDictionary
281
     1
  3
Normal
350
F
100
AcDbDictionaryWithDefault
340
F
  0
DICTIONARY
  5
47
102
{ACAD_REACTORS
330
C
102
}
330
C
100
AcDbDictionary
281
     1
  3
A0
350
48
  3
A1
350
49
  3
A2
350
4A
  3
A3
350
4B
  3
A4
350
4C
  3
A5
350
4D
  3
A6
350
4E
  3
A7
350
4F
  3
A8
350
50
  3
A9
350
51
  3
B0
350
52
  3
B1
350
53
  3
B2
350
54
  3
B3
350
55
  3
B4
350
56
  3
B5
350
57
  3
B6
350
58
  3
B7
350
59
  3
B8
350
5A
  3
B9
350
5B
  3
C0
350
5C
  3
C1
350
5D
  3
C2
350
5E
  3
C3
350
5F
  3
C4
350
60
  3
C5
350
61
  3
C6
350
62
  3
C7
350
63
  3
C8
350
64
  3
C9
350
65
  3
D0
350
66
  3
D1
350
67
  3
D2
350
68
  0
DICTIONARY
  5
1EC
102
{ACAD_REACTORS
330
C
102
}
330
C
100
AcDbDictionary
281
     1
  0
DICTIONARY
  5
69
102
{ACAD_REACTORS
330
C
102
}
330
C
100
AcDbDictionary
281
     1
  3
Standard
350
6A
  0
DICTIONARY
  5
2A
102
{ACAD_REACTORS
330
C
102
}
330
C
100
AcDbDictionary
281
     1
  3
2dWireframe
350
2F
  3
Basic
350
32
  3
Brighten
350
36
  3
ColorChange
350
3A
  3
Conceptual
350
34
  3
Dim
350
35
  3
EdgeColorOff
350
3D
  3
Facepattern
350
39
  3
Flat
350
2B
  3
FlatWithEdges
350
2C
  3
Gouraud
350
2D
  3
GouraudWithEdges
350
2E
  3
Hidden
350
31
  3
JitterOff
350
3B
  3
Linepattern
350
38
  3
OverhangOff
350
3C
  3
Realistic
350
33
  3
Shaded
350
42
  3
Shaded with edges
350
41
  3
Shades of Gray
350
3E
  3
Sketchy
350
3F
  3
Thicken
350
37
  3
Wireframe
350
30
  3
X-Ray
350
40
  0
XRECORD
  5
1E8
102
{ACAD_REACTORS
330
C
102
}
330
C
100
AcDbXrecord
280
     1
 90
        1
330
6A
  0
DICTIONARY
  5
1E4
102
{ACAD_REACTORS
330
C
102
}
330
C
100
AcDbDictionary
281
     1
  3
CANNOSCALE
350
1E5
  3
CMLEADERSTYLE
350
1EA
  3
CTABLESTYLE
350
1E9
  0
LAYOUT
  5
1E
102
{ACAD_REACTORS
330
1A
102
}
330
1A
100
AcDbPlotSettings
  1

  2
none_device
  4

  6

 40
0.0
 41
0.0
 42
0.0
 43
0.0
 44
0.0
 45
0.0
 46
0.0
 47
0.0
 48
0.0
 49
0.0
140
0.0
141
0.0
142
1.0
143
1.0
 70
   688
 72
     0
 73
     0
 74
     5
  7

 75
    16
 76
     0
 77
     2
 78
   300
147
1.0
148
0.0
149
0.0
100
AcDbLayout
  1
Layout1
 70
     1
 71
     1
 10
0.0
 20
0.0
 11
12.0
 21
9.0
 12
0.0
 22
0.0
 32
0.0
 14
1.000000000000000E+20
 24
1.000000000000000E+20
 34
1.000000000000000E+20
 15
-1.000000000000000E+20
 25
-1.000000000000000E+20
 35
-1.000000000000000E+20
146
0.0
 13
0.0
 23
0.0
 33
0.0
 16
1.0
 26
0.0
 36
0.0
 17
0.0
 27
1.0
 37
0.0
 76
     0
330
1B
  0
LAYOUT
  5
26
102
{ACAD_REACTORS
330
1A
102
}
330
1A
100
AcDbPlotSettings
  1

  2
none_device
  4

  6

 40
0.0
 41
0.0
 42
0.0
 43
0.0
 44
0.0
 45
0.0
 46
0.0
 47
0.0
 48
0.0
 49
0.0
140
0.0
141
0.0
142
1.0
143
1.0
 70
   688
 72
     0
 73
     0
 74
     5
  7

 75
    16
 76
     0
 77
     2
 78
   300
147
1.0
148
0.0
149
0.0
100
AcDbLayout
  1
Layout2
 70
     1
 71
     2
 10
0.0
 20
0.0
 11
0.0
 21
0.0
 12
0.0
 22
0.0
 32
0.0
 14
0.0
 24
0.0
 34
0.0
 15
0.0
 25
0.0
 35
0.0
146
0.0
 13
0.0
 23
0.0
 33
0.0
 16
1.0
 26
0.0
 36
0.0
 17
0.0
 27
1.0
 37
0.0
 76
     0
330
23
  0
LAYOUT
  5
22
102
{ACAD_REACTORS
330
1A
102
}
330
1A
100
AcDbPlotSettings
  1

  2
none_device
  4
Letter_(8.50_x_11.00_Inches)
  6

 40
6.35
 41
6.35
 42
6.35000508
 43
6.35000508
 44
215.9
 45
279.4
 46
0.0
 47
0.0
 48
0.0
 49
0.0
140
0.0
141
0.0
142
1.0
143
1.0
 70
  1712
 72
     0
 73
     0
 74
     0
  7

 75
     0
 76
     0
 77
     2
 78
   300
147
1.0
148
0.0
149
0.0
100
AcDbLayout
  1
Model
 70
     1
 71
     0
 10
0.0
 20
0.0
 11
12.0
 21
9.0
 12
0.0
 22
0.0
 32
0.0
 14
1.000000000000000E+20
 24
1.000000000000000E+20
 34
1.000000000000000E+20
 15
-1.000000000000000E+20
 25
-1.000000000000000E+20
 35
-1.000000000000000E+20
146
0.0
 13
0.0
 23
0.0
 33
0.0
 16
1.0
 26
0.0
 36
0.0
 17
0.0
 27
1.0
 37
0.0
 76
     0
330
1F
331
29
  0
MATERIAL
  5
45
102
{ACAD_REACTORS
330
43
102
}
330
43
100
AcDbMaterial
  1
ByBlock
 72
     1
 94
      127
  0
MATERIAL
  5
44
102
{ACAD_REACTORS
330
43
102
}
330
43
100
AcDbMaterial
  1
ByLayer
 72
     1
 94
      127
  0
MATERIAL
  5
46
102
{ACAD_REACTORS
330
43
102
}
330
43
100
AcDbMaterial
  1
Global
 72
     1
 94
      127
  0
MLEADERSTYLE
  5
6C
102
{ACAD_REACTORS
330
6B
102
}
330
6B
100
AcDbMLeaderStyle
179
     2
170
     2
171
     1
172
     0
 90
        2
 40
0.0
 41
0.0
173
     1
 91
-1056964608
340
14
 92
       -2
290
     1
 42
0.09
291
     1
 43
0.36
  3
Standard
341
0
 44
0.18
300

342
11
174
     1
178
     6
175
     1
176
     0
 93
-1056964608
 45
0.18
292
     0
297
     0
 46
0.18
343
0
 94
-1056964608
 47
1.0
 49
1.0
140
1.0
293
     1
141
0.0
294
     1
177
     0
142
1.0
295
     0
296
     0
143
0.125
271
     0
272
     9
273
     9
298
     0
  0
MLINESTYLE
  5
18
102
{ACAD_REACTORS
330
17
102
}
330
17
100
AcDbMlineStyle
  2
Standard
 70
     0
  3

 62
   256
 51
90.0
 52
90.0
 71
     2
 49
0.5
 62
   256
  6
BYLAYER
 49
-0.5
 62
   256
  6
BYLAYER
  0
ACDBPLACEHOLDER
  5
F
102
{ACAD_REACTORS
330
E
102
}
330
E
  0
SCALE
  5
48
102
{ACAD_REACTORS
330
47
102
}
330
47
100
AcDbScale
 70
     0
300
1:1
140
1.0
141
1.0
290
     1
  0
SCALE
  5
49
102
{ACAD_REACTORS
330
47
102
}
330
47
100
AcDbScale
 70
     0
300
1:2
140
1.0
141
2.0
290
     0
  0
SCALE
  5
4A
102
{ACAD_REACTORS
330
47
102
}
330
47
100
AcDbScale
 70
     0
300
1:4
140
1.0
141
4.0
290
     0
  0
SCALE
  5
4B
102
{ACAD_REACTORS
330
47
102
}
330
47
100
AcDbScale
 70
     0
300
1:5
140
1.0
141
5.0
290
     0
  0
SCALE
  5
4C
102
{ACAD_REACTORS
330
47
102
}
330
47
100
AcDbScale
 70
     0
300
1:8
140
1.0
141
8.0
290
     0
  0
SCALE
  5
4D
102
{ACAD_REACTORS
330
47
102
}
330
47
100
AcDbScale
 70
     0
300
1:10
140
1.0
141
10.0
290
     0
  0
SCALE
  5
4E
102
{ACAD_REACTORS
330
47
102
}
330
47
100
AcDbScale
 70
     0
300
1:16
140
1.0
141
16.0
290
     0
  0
SCALE
  5
4F
102
{ACAD_REACTORS
330
47
102
}
330
47
100
AcDbScale
 70
     0
300
1:20
140
1.0
141
20.0
290
     0
  0
SCALE
  5
50
102
{ACAD_REACTORS
330
47
102
}
330
47
100
AcDbScale
 70
     0
300
1:30
140
1.0
141
30.0
290
     0
  0
SCALE
  5
51
102
{ACAD_REACTORS
330
47
102
}
330
47
100
AcDbScale
 70
     0
300
1:40
140
1.0
141
40.0
290
     0
  0
SCALE
  5
52
102
{ACAD_REACTORS
330
47
102
}
330
47
100
AcDbScale
 70
     0
300
1:50
140
1.0
141
50.0
290
     0
  0
SCALE
  5
53
102
{ACAD_REACTORS
330
47
102
}
330
47
100
AcDbScale
 70
     0
300
1:100
140
1.0
141
100.0
290
     0
  0
SCALE
  5
54
102
{ACAD_REACTORS
330
47
102
}
330
47
100
AcDbScale
 70
     0
300
2:1
140
2.0
141
1.0
290
     0
  0
SCALE
  5
55
102
{ACAD_REACTORS
330
47
102
}
330
47
100
AcDbScale
 70
     0
300
4:1
140
4.0
141
1.0
290
     0
  0
SCALE
  5
56
102
{ACAD_REACTORS
330
47
102
}
330
47
100
AcDbScale
 70
     0
300
8:1
140
8.0
141
1.0
290
     0
  0
SCALE
  5
57
102
{ACAD_REACTORS
330
47
102
}
330
47
100
AcDbScale
 70
     0
300
10:1
140
10.0
141
1.0
290
     0
  0
SCALE
  5
58
102
{ACAD_REACTORS
330
47
102
}
330
47
100
AcDbScale
 70
     0
300
100:1
140
100.0
141
1.0
290
     0
  0
SCALE
  5
59
102
{ACAD_REACTORS
330
47
102
}
330
47
100
AcDbScale
 70
     0
300
1/128" = 1'-0"
140
0.0078125
141
12.0
290
     0
  0
SCALE
  5
5A
102
{ACAD_REACTORS
330
47
102
}
330
47
100
AcDbScale
 70
     0
300
1/64" = 1'-0"
140
0.015625
141
12.0
290
     0
  0
SCALE
  5
5B
102
{ACAD_REACTORS
330
47
102
}
330
47
100
AcDbScale
 70
     0
300
1/32" = 1'-0"
140
0.03125
141
12.0
290
     0
  0
SCALE
  5
5C
102
{ACAD_REACTORS
330
47
102
}
330
47
100
AcDbScale
 70
     0
300
1/16" = 1'-0"
140
0.0625
141
12.0
290
     0
  0
SCALE
  5
5D
102
{ACAD_REACTORS
330
47
102
}
330
47
100
AcDbScale
 70
     0
300
3/32" = 1'-0"
140
0.09375
141
12.0
290
     0
  0
SCALE
  5
5E
102
{ACAD_REACTORS
330
47
102
}
330
47
100
AcDbScale
 70
     0
300
1/8" = 1'-0"
140
0.125
141
12.0
290
     0
  0
SCALE
  5
5F
102
{ACAD_REACTORS
330
47
102
}
330
47
100
AcDbScale
 70
     0
300
3/16" = 1'-0"
140
0.1875
141
12.0
290
     0
  0
SCALE
  5
60
102
{ACAD_REACTORS
330
47
102
}
330
47
100
AcDbScale
 70
     0
300
1/4" = 1'-0"
140
0.25
141
12.0
290
     0
  0
SCALE
  5
61
102
{ACAD_REACTORS
330
47
102
}
330
47
100
AcDbScale
 70
     0
300
3/8" = 1'-0"
140
0.375
141
12.0
290
     0
  0
SCALE
  5
62
102
{ACAD_REACTORS
330
47
102
}
330
47
100
AcDbScale
 70
     0
300
1/2" = 1'-0"
140
0.5
141
12.0
290
     0
  0
SCALE
  5
63
102
{ACAD_REACTORS
330
47
102
}
330
47
100
AcDbScale
 70
     0
300
3/4" = 1'-0"
140
0.75
141
12.0
290
     0
  0
SCALE
  5
64
102
{ACAD_REACTORS
330
47
102
}
330
47
100
AcDbScale
 70
     0
300
1" = 1'-0"
140
1.0
141
12.0
290
     0
  0
SCALE
  5
65
102
{ACAD_REACTORS
330
47
102
}
330
47
100
AcDbScale
 70
     0
300
1-1/2" = 1'-0"
140
1.5
141
12.0
290
     0
  0
SCALE
  5
66
102
{ACAD_REACTORS
330
47
102
}
330
47
100
AcDbScale
 70
     0
300
3" = 1'-0"
140
3.0
141
12.0
290
     0
  0
SCALE
  5
67
102
{ACAD_REACTORS
330
47
102
}
330
47
100
AcDbScale
 70
     0
300
6" = 1'-0"
140
6.0
141
12.0
290
     0
  0
SCALE
  5
68
102
{ACAD_REACTORS
330
47
102
}
330
47
100
AcDbScale
 70
     0
300
1'-0" = 1'-0"
140
12.0
141
12.0
290
     0
  0
TABLESTYLE
  5
6A
102
{ACAD_REACTORS
330
69
102
}
102
{ACAD_XDICTIONARY
360
1E6
102
}
330
69
100
AcDbTableStyle
  3
Standard
 70
     0
 71
     0
 40
0.06
 41
0.06
280
     0
281
     0
  7
Standard
140
0.18
170
     2
 62
     0
 63
   257
283
     0
 90
        4
 91
        0
  1

274
    -2
284
     1
 64
     0
275
    -2
285
     1
 65
     0
276
    -2
286
     1
 66
     0
277
    -2
287
     1
 67
     0
278
    -2
288
     1
 68
     0
279
    -2
289
     1
 69
     0
  7
Standard
140
0.25
170
     5
 62
     0
 63
   257
283
     0
 90
        4
 91
        0
  1

274
    -2
284
     1
 64
     0
275
    -2
285
     1
 65
     0
276
    -2
286
     1
 66
     0
277
    -2
287
     1
 67
     0
278
    -2
288
     1
 68
     0
279
    -2
289
     1
 69
     0
  7
Standard
140
0.18
170
     5
 62
     0
 63
   257
283
     0
 90
        4
 91
        0
  1

274
    -2
284
     1
 64
     0
275
    -2
285
     1
 65
     0
276
    -2
286
     1
 66
     0
277
    -2
287
     1
 67
     0
278
    -2
288
     1
 68
     0
279
    -2
289
     1
 69
     0
  0
VISUALSTYLE
  5
2F
102
{ACAD_REACTORS
330
2A
102
}
330
2A
100
AcDbVisualStyle
  2
2dWireframe
 70
     4
177
     3
291
     0
 70
    58
 90
        0
176
     1
 90
        2
176
     1
 90
        0
176
     1
 90
        0
176
     1
 40
0.6
176
     1
 40
30.0
176
     1
 62
     7
420
 16777215
176
     1
 90
        1
176
     1
 90
        4
176
     1
 62
     7
176
     1
 62
   257
176
     1
 90
        1
176
     1
 90
        1
176
     1
 40
1.0
176
     1
 90
        0
176
     1
 62
   257
176
     1
 40
1.0
176
     1
 90
        1
176
     1
 90
        6
176
     1
 90
        2
176
     1
 62
     7
176
     1
 90
        5
176
     1
 90
        0
176
     1
 90
        0
176
     1
290
     0
176
     1
 90
        1
176
     1
 40
0.0
176
     1
 90
        0
176
     1
290
     1
176
     1
290
     1
176
     1
290
     0
176
     1
290
     0
176
     1
290
     0
176
     1
290
     0
176
     1
290
     0
176
     1
290
     0
176
     1
290
     0
176
     1
 90
       50
176
     1
 40
0.0
176
     1
 40
1.0
176
     1
 90
        0
176
     1
 62
    18
420
        0
176
     1
 90
       50
176
     1
 90
        3
176
     1
 62
     5
420
      255
176
     1
290
     0
176
     1
 90
       50
176
     1
 90
       50
176
     1
 90
       50
176
     1
290
     0
176
     1
 90
       50
176
     1
 62
   256
176
     0
 40
1.0
176
     0
 90
        2
176
     1
  1
strokes_ogs.tif
176
     1
290
     0
176
     1
 40
1.0
176
     1
 40
1.0
176
     1
  0
VISUALSTYLE
  5
32
102
{ACAD_REACTORS
330
2A
102
}
330
2A
100
AcDbVisualStyle
  2
Basic
 70
     7
177
     3
291
     1
 70
    58
 90
        1
176
     1
 90
        0
176
     1
 90
        1
176
     1
 90
        0
176
     1
 40
0.6
176
     1
 40
30.0
176
     1
 62
     7
420
 16777215
176
     1
 90
        0
176
     1
 90
        4
176
     1
 62
     7
176
     1
 62
   257
176
     1
 90
        1
176
     1
 90
        1
176
     1
 40
1.0
176
     1
 90
        8
176
     1
 62
     7
176
     1
 40
1.0
176
     1
 90
        1
176
     1
 90
        6
176
     1
 90
        2
176
     1
 62
     7
176
     1
 90
        5
176
     1
 90
        0
176
     1
 90
        0
176
     1
290
     0
176
     1
 90
        1
176
     1
 40
0.0
176
     1
 90
        0
176
     1
290
     0
176
     1
290
     1
176
     1
290
     1
176
     1
290
     0
176
     1
290
     0
176
     1
290
     0
176
     1
290
     0
176
     1
290
     0
176
     1
290
     0
176
     1
 90
       50
176
     1
 40
0.0
176
     1
 40
1.0
176
     1
 90
        0
176
     1
 62
    18
420
        0
176
     1
 90
       50
176
     1
 90
        3
176
     1
 62
     5
420
      255
176
     1
290
     0
176
     1
 90
       50
176
     1
 90
       50
176
     1
 90
       50
176
     1
290
     0
176
     1
 90
       50
176
     1
 62
   256
176
     0
 40
1.0
176
     0
 90
        2
176
     1
  1
strokes_ogs.tif
176
     1
290
     0
176
     1
 40
1.0
176
     1
 40
1.0
176
     1
  0
VISUALSTYLE
  5
36
102
{ACAD_REACTORS
330
2A
102
}
330
2A
100
AcDbVisualStyle
  2
Brighten
 70
    12
177
     3
291
     1
 70
    58
 90
        2
176
     1
 90
        2
176
     1
 90
        0
176
     1
 90
        0
176
     1
 40
0.6
176
     1
 40
30.0
176
     1
 62
     7
420
 16777215
176
     1
 90
        1
176
     1
 90
        4
176
     1
 62
     7
176
     1
 62
   257
176
     1
 90
        1
176
     1
 90
        1
176
     1
 40
1.0
176
     1
 90
        8
176
     1
 62
     7
176
     1
 40
1.0
176
     1
 90
        1
176
     1
 90
        6
176
     1
 90
        2
176
     1
 62
     7
176
     1
 90
        5
176
     1
 90
        0
176
     1
 90
        0
176
     1
290
     0
176
     1
 90
        1
176
     1
 40
50.0
176
     1
 90
        0
176
     1
290
     0
176
     1
290
     1
176
     1
290
     1
176
     1
290
     0
176
     1
290
     0
176
     1
290
     0
176
     1
290
     0
176
     1
290
     0
176
     1
290
     0
176
     1
 90
       50
176
     1
 40
0.0
176
     1
 40
1.0
176
     1
 90
        0
176
     1
 62
    18
420
        0
176
     1
 90
       50
176
     1
 90
        3
176
     1
 62
     5
420
      255
176
     1
290
     0
176
     1
 90
       50
176
     1
 90
       50
176
     1
 90
       50
176
     1
290
     0
176
     1
 90
       50
176
     1
 62
   256
176
     0
 40
1.0
176
     0
 90
        2
176
     1
  1
strokes_ogs.tif
176
     1
290
     0
176
     1
 40
1.0
176
     1
 40
1.0
176
     1
  0
VISUALSTYLE
  5
3A
102
{ACAD_REACTORS
330
2A
102
}
330
2A
100
AcDbVisualStyle
  2
ColorChange
 70
    16
177
     3
291
     1
 70
    58
 90
        2
176
     1
 90
        2
176
     1
 90
        3
176
     1
 90
        0
176
     1
 40
0.6
176
     1
 40
30.0
176
     1
 62
     8
420
  8421504
176
     1
 90
        1
176
     1
 90
        4
176
     1
 62
     7
176
     1
 62
   257
176
     1
 90
        1
176
     1
 90
        1
176
     1
 40
1.0
176
     1
 90
        8
176
     1
 62
     8
420
  8421504
176
     1
 40
1.0
176
     1
 90
        1
176
     1
 90
        6
176
     1
 90
        2
176
     1
 62
     7
176
     1
 90
        5
176
     1
 90
        0
176
     1
 90
        0
176
     1
290
     0
176
     1
 90
        1
176
     1
 40
0.0
176
     1
 90
        0
176
     1
290
     0
176
     1
290
     1
176
     1
290
     1
176
     1
290
     0
176
     1
290
     0
176
     1
290
     0
176
     1
290
     0
176
     1
290
     0
176
     1
290
     0
176
     1
 90
       50
176
     1
 40
0.0
176
     1
 40
1.0
176
     1
 90
        0
176
     1
 62
    18
420
        0
176
     1
 90
       50
176
     1
 90
        3
176
     1
 62
     5
420
      255
176
     1
290
     0
176
     1
 90
       50
176
     1
 90
       50
176
     1
 90
       50
176
     1
290
     0
176
     1
 90
       50
176
     1
 62
   256
176
     0
 40
1.0
176
     0
 90
        2
176
     1
  1
strokes_ogs.tif
176
     1
290
     0
176
     1
 40
1.0
176
     1
 40
1.0
176
     1
  0
VISUALSTYLE
  5
34
102
{ACAD_REACTORS
330
2A
102
}
330
2A
100
AcDbVisualStyle
  2
Conceptual
 70
     9
177
     3
291
     0
 70
    58
 90
        3
176
     1
 90
        2
176
     1
 90
        0
176
     1
 90
        0
176
     1
 40
0.6
176
     1
 40
30.0
176
     1
 62
     7
420
 16777215
176
     1
 90
        2
176
     1
 90
        2
176
     1
 62
     7
176
     1
 62
   257
176
     1
 90
        1
176
     1
 90
        1
176
     1
 40
179.0
176
     1
 90
        8
176
     1
 62
     7
176
     1
 40
1.0
176
     1
 90
        1
176
     1
 90
        6
176
     1
 90
        2
176
     1
 62
     7
176
     1
 90
        3
176
     1
 90
        0
176
     1
 90
        0
176
     1
290
     0
176
     1
 90
        1
176
     1
 40
0.0
176
     1
 90
        0
176
     1
290
     0
176
     1
290
     1
176
     1
290
     1
176
     1
290
     0
176
     1
290
     0
176
     1
290
     0
176
     1
290
     0
176
     1
290
     0
176
     1
290
     0
176
     1
 90
       50
176
     1
 40
0.0
176
     1
 40
1.0
176
     1
 90
        0
176
     1
 62
    18
420
        0
176
     1
 90
       50
176
     1
 90
        3
176
     1
 62
     5
420
      255
176
     1
290
     0
176
     1
 90
       50
176
     1
 90
       50
176
     1
 90
       50
176
     1
290
     0
176
     1
 90
       50
176
     1
 62
   256
176
     0
 40
1.0
176
     0
 90
        2
176
     1
  1
strokes_ogs.tif
176
     1
290
     0
176
     1
 40
1.0
176
     1
 40
1.0
176
     1
  0
VISUALSTYLE
  5
35
102
{ACAD_REACTORS
330
2A
102
}
330
2A
100
AcDbVisualStyle
  2
Dim
 70
    11
177
     3
291
     1
 70
    58
 90
        2
176
     1
 90
        2
176
     1
 90
        0
176
     1
 90
        0
176
     1
 40
0.6
176
     1
 40
30.0
176
     1
 62
     7
420
 16777215
176
     1
 90
        1
176
     1
 90
        4
176
     1
 62
     7
176
     1
 62
   257
176
     1
 90
        1
176
     1
 90
        1
176
     1
 40
1.0
176
     1
 90
        8
176
     1
 62
     7
176
     1
 40
1.0
176
     1
 90
        1
176
     1
 90
        6
176
     1
 90
        2
176
     1
 62
     7
176
     1
 90
        5
176
     1
 90
        0
176
     1
 90
        0
176
     1
290
     0
176
     1
 90
        1
176
     1
 40
-50.0
176
     1
 90
        0
176
     1
290
     0
176
     1
290
     1
176
     1
290
     1
176
     1
290
     0
176
     1
290
     0
176
     1
290
     0
176
     1
290
     0
176
     1
290
     0
176
     1
290
     0
176
     1
 90
       50
176
     1
 40
0.0
176
     1
 40
1.0
176
     1
 90
        0
176
     1
 62
    18
420
        0
176
     1
 90
       50
176
     1
 90
        3
176
     1
 62
     5
420
      255
176
     1
290
     0
176
     1
 90
       50
176
     1
 90
       50
176
     1
 90
       50
176
     1
290
     0
176
     1
 90
       50
176
     1
 62
   256
176
     0
 40
1.0
176
     0
 90
        2
176
     1
  1
strokes_ogs.tif
176
     1
290
     0
176
     1
 40
1.0
176
     1
 40
1.0
176
     1
  0
VISUALSTYLE
  5
3D
102
{ACAD_REACTORS
330
2A
102
}
330
2A
100
AcDbVisualStyle
  2
EdgeColorOff
 70
    22
177
     3
291
     1
 70
    58
 90
        2
176
     0
 90
        2
176
     0
 90
        0
176
     0
 90
        0
176
     0
 40
0.6
176
     0
 40
30.0
176
     0
 62
     7
420
 16777215
176
     0
 90
        1
176
     0
 90
        4
176
     0
 62
     7
176
     0
 62
   257
176
     0
 90
        1
176
     0
 90
        1
176
     0
 40
1.0
176
     0
 90
        8
176
     2
 62
     7
176
     0
 40
1.0
176
     0
 90
        1
176
     0
 90
        6
176
     0
 90
        2
176
     0
 62
     7
176
     0
 90
        5
176
     0
 90
        0
176
     0
 90
        0
176
     0
290
     0
176
     0
 90
        1
176
     0
 40
0.0
176
     0
 90
        0
176
     0
290
     0
176
     0
290
     1
176
     0
290
     1
176
     0
290
     0
176
     0
290
     0
176
     0
290
     0
176
     0
290
     0
176
     0
290
     0
176
     0
290
     0
176
     0
 90
       50
176
     0
 40
0.0
176
     0
 40
1.0
176
     0
 90
        0
176
     0
 62
    18
420
        0
176
     0
 90
       50
176
     0
 90
        3
176
     0
 62
     5
420
      255
176
     0
290
     0
176
     0
 90
       50
176
     0
 90
       50
176
     0
 90
       50
176
     0
290
     0
176
     0
 90
       50
176
     0
 62
   256
176
     0
 40
1.0
176
     0
 90
        2
176
     0
  1
strokes_ogs.tif
176
     0
290
     0
176
     0
 40
1.0
176
     0
 40
1.0
176
     0
  0
VISUALSTYLE
  5
39
102
{ACAD_REACTORS
330
2A
102
}
330
2A
100
AcDbVisualStyle
  2
Facepattern
 70
    15
177
     3
291
     1
 70
    58
 90
        2
176
     1
 90
        2
176
     1
 90
        0
176
     1
 90
        0
176
     1
 40
0.6
176
     1
 40
30.0
176
     1
 62
     7
420
 16777215
176
     1
 90
        1
176
     1
 90
        4
176
     1
 62
     7
176
     1
 62
   257
176
     1
 90
        1
176
     1
 90
        1
176
     1
 40
1.0
176
     1
 90
        8
176
     1
 62
     7
176
     1
 40
1.0
176
     1
 90
        1
176
     1
 90
        6
176
     1
 90
        2
176
     1
 62
     7
176
     1
 90
        5
176
     1
 90
        0
176
     1
 90
        0
176
     1
290
     0
176
     1
 90
        1
176
     1
 40
0.0
176
     1
 90
        0
176
     1
290
     0
176
     1
290
     1
176
     1
290
     1
176
     1
290
     0
176
     1
290
     0
176
     1
290
     0
176
     1
290
     0
176
     1
290
     0
176
     1
290
     0
176
     1
 90
       50
176
     1
 40
0.0
176
     1
 40
1.0
176
     1
 90
        0
176
     1
 62
    18
420
        0
176
     1
 90
       50
176
     1
 90
        3
176
     1
 62
     5
420
      255
176
     1
290
     0
176
     1
 90
       50
176
     1
 90
       50
176
     1
 90
       50
176
     1
290
     0
176
     1
 90
       50
176
     1
 62
   256
176
     0
 40
1.0
176
     0
 90
        2
176
     1
  1
strokes_ogs.tif
176
     1
290
     0
176
     1
 40
1.0
176
     1
 40
1.0
176
     1
  0
VISUALSTYLE
  5
2B
102
{ACAD_REACTORS
330
2A
102
}
330
2A
100
AcDbVisualStyle
  2
Flat
 70
     0
177
     3
291
     1
 70
    58
 90
        2
176
     1
 90
        1
176
     1
 90
        1
176
     1
 90
        2
176
     1
 40
0.6
176
     1
 40
30.0
176
     1
 62
     7
420
 16777215
176
     1
 90
        0
176
     1
 90
        0
176
     1
 62
     7
176
     1
 62
   257
176
     1
 90
        1
176
     1
 90
        1
176
     1
 40
1.0
176
     1
 90
        8
176
     1
 62
     7
176
     1
 40
1.0
176
     1
 90
        1
176
     1
 90
        6
176
     1
 90
        2
176
     1
 62
     7
176
     1
 90
        5
176
     1
 90
        0
176
     1
 90
        0
176
     1
290
     0
176
     1
 90
       13
176
     1
 40
0.0
176
     1
 90
        0
176
     1
290
     0
176
     1
290
     1
176
     1
290
     1
176
     1
290
     0
176
     1
290
     0
176
     1
290
     0
176
     1
290
     0
176
     1
290
     0
176
     1
290
     0
176
     1
 90
       50
176
     1
 40
0.0
176
     1
 40
1.0
176
     1
 90
        0
176
     1
 62
    18
420
        0
176
     1
 90
       50
176
     1
 90
        3
176
     1
 62
     5
420
      255
176
     1
290
     0
176
     1
 90
       50
176
     1
 90
       50
176
     1
 90
       50
176
     1
290
     0
176
     1
 90
       50
176
     1
 62
   256
176
     0
 40
1.0
176
     0
 90
        2
176
     1
  1
strokes_ogs.tif
176
     1
290
     0
176
     1
 40
1.0
176
     1
 40
1.0
176
     1
  0
VISUALSTYLE
  5
2C
102
{ACAD_REACTORS
330
2A
102
}
330
2A
100
AcDbVisualStyle
  2
FlatWithEdges
 70
     1
177
     3
291
     1
 70
    58
 90
        2
176
     1
 90
        1
176
     1
 90
        1
176
     1
 90
        2
176
     1
 40
0.6
176
     1
 40
30.0
176
     1
 62
     7
420
 16777215
176
     1
 90
        1
176
     1
 90
        0
176
     1
 62
     7
176
     1
 62
   257
176
     1
 90
        1
176
     1
 90
        1
176
     1
 40
1.0
176
     1
 90
        0
176
     1
 62
   257
176
     1
 40
1.0
176
     1
 90
        1
176
     1
 90
        6
176
     1
 90
        2
176
     1
 62
     7
176
     1
 90
        5
176
     1
 90
        0
176
     1
 90
        0
176
     1
290
     0
176
     1
 90
       13
176
     1
 40
0.0
176
     1
 90
        0
176
     1
290
     0
176
     1
290
     1
176
     1
290
     1
176
     1
290
     0
176
     1
290
     0
176
     1
290
     0
176
     1
290
     0
176
     1
290
     0
176
     1
290
     0
176
     1
 90
       50
176
     1
 40
0.0
176
     1
 40
1.0
176
     1
 90
        0
176
     1
 62
    18
420
        0
176
     1
 90
       50
176
     1
 90
        3
176
     1
 62
     5
420
      255
176
     1
290
     0
176
     1
 90
       50
176
     1
 90
       50
176
     1
 90
       50
176
     1
290
     0
176
     1
 90
       50
176
     1
 62
   256
176
     0
 40
1.0
176
     0
 90
        2
176
     1
  1
strokes_ogs.tif
176
     1
290
     0
176
     1
 40
1.0
176
     1
 40
1.0
176
     1
  0
VISUALSTYLE
  5
2D
102
{ACAD_REACTORS
330
2A
102
}
330
2A
100
AcDbVisualStyle
  2
Gouraud
 70
     2
177
     3
291
     1
 70
    58
 90
        2
176
     1
 90
        2
176
     1
 90
        1
176
     1
 90
        2
176
     1
 40
0.6
176
     1
 40
30.0
176
     1
 62
     7
420
 16777215
176
     1
 90
        0
176
     1
 90
        0
176
     1
 62
     7
176
     1
 62
   257
176
     1
 90
        1
176
     1
 90
        1
176
     1
 40
1.0
176
     1
 90
        0
176
     1
 62
     7
176
     1
 40
1.0
176
     1
 90
        1
176
     1
 90
        6
176
     1
 90
        2
176
     1
 62
     7
176
     1
 90
        5
176
     1
 90
        0
176
     1
 90
        0
176
     1
290
     0
176
     1
 90
       13
176
     1
 40
0.0
176
     1
 90
        0
176
     1
290
     0
176
     1
290
     1
176
     1
290
     1
176
     1
290
     0
176
     1
290
     0
176
     1
290
     0
176
     1
290
     0
176
     1
290
     0
176
     1
290
     0
176
     1
 90
       50
176
     1
 40
0.0
176
     1
 40
1.0
176
     1
 90
        0
176
     1
 62
    18
420
        0
176
     1
 90
       50
176
     1
 90
        3
176
     1
 62
     5
420
      255
176
     1
290
     0
176
     1
 90
       50
176
     1
 90
       50
176
     1
 90
       50
176
     1
290
     0
176
     1
 90
       50
176
     1
 62
   256
176
     0
 40
1.0
176
     0
 90
        2
176
     1
  1
strokes_ogs.tif
176
     1
290
     0
176
     1
 40
1.0
176
     1
 40
1.0
176
     1
  0
VISUALSTYLE
  5
2E
102
{ACAD_REACTORS
330
2A
102
}
330
2A
100
AcDbVisualStyle
  2
GouraudWithEdges
 70
     3
177
     3
291
     1
 70
    58
 90
        2
176
     1
 90
        2
176
     1
 90
        1
176
     1
 90
        2
176
     1
 40
0.6
176
     1
 40
30.0
176
     1
 62
     7
420
 16777215
176
     1
 90
        1
176
     1
 90
        0
176
     1
 62
     7
176
     1
 62
   257
176
     1
 90
        1
176
     1
 90
        1
176
     1
 40
1.0
176
     1
 90
        0
176
     1
 62
   257
176
     1
 40
1.0
176
     1
 90
        1
176
     1
 90
        6
176
     1
 90
        2
176
     1
 62
     7
176
     1
 90
        5
176
     1
 90
        0
176
     1
 90
        0
176
     1
290
     0
176
     1
 90
       13
176
     1
 40
0.0
176
     1
 90
        0
176
     1
290
     0
176
     1
290
     1
176
     1
290
     1
176
     1
290
     0
176
     1
290
     0
176
     1
290
     0
176
     1
290
     0
176
     1
290
     0
176
     1
290
     0
176
     1
 90
       50
176
     1
 40
0.0
176
     1
 40
1.0
176
     1
 90
        0
176
     1
 62
    18
420
        0
176
     1
 90
       50
176
     1
 90
        3
176
     1
 62
     5
420
      255
176
     1
290
     0
176
     1
 90
       50
176
     1
 90
       50
176
     1
 90
       50
176
     1
290
     0
176
     1
 90
       50
176
     1
 62
   256
176
     0
 40
1.0
176
     0
 90
        2
176
     1
  1
strokes_ogs.tif
176
     1
290
     0
176
     1
 40
1.0
176
     1
 40
1.0
176
     1
  0
VISUALSTYLE
  5
31
102
{ACAD_REACTORS
330
2A
102
}
330
2A
100
AcDbVisualStyle
  2
Hidden
 70
     6
177
     3
291
     0
 70
    58
 90
        1
176
     1
 90
        2
176
     1
 90
        2
176
     1
 90
        0
176
     1
 40
0.6
176
     1
 40
30.0
176
     1
 62
     7
420
 16777215
176
     1
 90
        2
176
     1
 90
        2
176
     1
 62
     7
176
     1
 62
   257
176
     1
 90
        2
176
     1
 90
        1
176
     1
 40
40.0
176
     1
 90
        0
176
     1
 62
   257
176
     1
 40
1.0
176
     1
 90
        1
176
     1
 90
        6
176
     1
 90
        2
176
     1
 62
     7
176
     1
 90
        3
176
     1
 90
        0
176
     1
 90
        0
176
     1
290
     0
176
     1
 90
        1
176
     1
 40
0.0
176
     1
 90
        0
176
     1
290
     0
176
     1
290
     1
176
     1
290
     1
176
     1
290
     0
176
     1
290
     0
176
     1
290
     0
176
     1
290
     0
176
     1
290
     0
176
     1
290
     0
176
     1
 90
       50
176
     1
 40
0.0
176
     1
 40
1.0
176
     1
 90
        0
176
     1
 62
    18
420
        0
176
     1
 90
       50
176
     1
 90
        3
176
     1
 62
     5
420
      255
176
     1
290
     0
176
     1
 90
       50
176
     1
 90
       50
176
     1
 90
       50
176
     1
290
     0
176
     1
 90
       50
176
     1
 62
   256
176
     0
 40
1.0
176
     0
 90
        2
176
     1
  1
strokes_ogs.tif
176
     1
290
     0
176
     1
 40
1.0
176
     1
 40
1.0
176
     1
  0
VISUALSTYLE
  5
3B
102
{ACAD_REACTORS
330
2A
102
}
330
2A
100
AcDbVisualStyle
  2
JitterOff
 70
    20
177
     3
291
     1
 70
    58
 90
        2
176
     0
 90
        2
176
     0
 90
        0
176
     0
 90
        0
176
     0
 40
0.6
176
     0
 40
30.0
176
     0
 62
     7
420
 16777215
176
     0
 90
        1
176
     0
 90
        4
176
     0
 62
     7
176
     0
 62
   257
176
     0
 90
        1
176
     0
 90
        1
176
     0
 40
1.0
176
     0
 90
       10
176
     2
 62
     7
176
     0
 40
1.0
176
     0
 90
        1
176
     0
 90
        6
176
     0
 90
        2
176
     0
 62
     7
176
     0
 90
        5
176
     0
 90
        0
176
     0
 90
        0
176
     0
290
     0
176
     0
 90
        1
176
     0
 40
0.0
176
     0
 90
        0
176
     0
290
     0
176
     0
290
     1
176
     0
290
     1
176
     0
290
     0
176
     0
290
     0
176
     0
290
     0
176
     0
290
     0
176
     0
290
     0
176
     0
290
     0
176
     0
 90
       50
176
     0
 40
0.0
176
     0
 40
1.0
176
     0
 90
        0
176
     0
 62
    18
420
        0
176
     0
 90
       50
176
     0
 90
        3
176
     0
 62
     5
420
      255
176
     0
290
     0
176
     0
 90
       50
176
     0
 90
       50
176
     0
 90
       50
176
     0
290
     0
176
     0
 90
       50
176
     0
 62
   256
176
     0
 40
1.0
176
     0
 90
        2
176
     0
  1
strokes_ogs.tif
176
     0
290
     0
176
     0
 40
1.0
176
     0
 40
1.0
176
     0
  0
VISUALSTYLE
  5
38
102
{ACAD_REACTORS
330
2A
102
}
330
2A
100
AcDbVisualStyle
  2
Linepattern
 70
    14
177
     3
291
     1
 70
    58
 90
        2
176
     1
 90
        2
176
     1
 90
        0
176
     1
 90
        0
176
     1
 40
0.6
176
     1
 40
30.0
176
     1
 62
     7
420
 16777215
176
     1
 90
        1
176
     1
 90
        4
176
     1
 62
     7
176
     1
 62
   257
176
     1
 90
        7
176
     1
 90
        7
176
     1
 40
1.0
176
     1
 90
        8
176
     1
 62
     7
176
     1
 40
1.0
176
     1
 90
        1
176
     1
 90
        6
176
     1
 90
        2
176
     1
 62
     7
176
     1
 90
        5
176
     1
 90
        0
176
     1
 90
        0
176
     1
290
     0
176
     1
 90
        1
176
     1
 40
0.0
176
     1
 90
        0
176
     1
290
     0
176
     1
290
     1
176
     1
290
     1
176
     1
290
     0
176
     1
290
     0
176
     1
290
     0
176
     1
290
     0
176
     1
290
     0
176
     1
290
     0
176
     1
 90
       50
176
     1
 40
0.0
176
     1
 40
1.0
176
     1
 90
        0
176
     1
 62
    18
420
        0
176
     1
 90
       50
176
     1
 90
        3
176
     1
 62
     5
420
      255
176
     1
290
     0
176
     1
 90
       50
176
     1
 90
       50
176
     1
 90
       50
176
     1
290
     0
176
     1
 90
       50
176
     1
 62
   256
176
     0
 40
1.0
176
     0
 90
        2
176
     1
  1
strokes_ogs.tif
176
     1
290
     0
176
     1
 40
1.0
176
     1
 40
1.0
176
     1
  0
VISUALSTYLE
  5
3C
102
{ACAD_REACTORS
330
2A
102
}
330
2A
100
AcDbVisualStyle
  2
OverhangOff
 70
    21
177
     3
291
     1
 70
    58
 90
        2
176
     0
 90
        2
176
     0
 90
        0
176
     0
 90
        0
176
     0
 40
0.6
176
     0
 40
30.0
176
     0
 62
     7
420
 16777215
176
     0
 90
        1
176
     0
 90
        4
176
     0
 62
     7
176
     0
 62
   257
176
     0
 90
        1
176
     0
 90
        1
176
     0
 40
1.0
176
     0
 90
        9
176
     2
 62
     7
176
     0
 40
1.0
176
     0
 90
        1
176
     0
 90
        6
176
     0
 90
        2
176
     0
 62
     7
176
     0
 90
        5
176
     0
 90
        0
176
     0
 90
        0
176
     0
290
     0
176
     0
 90
        1
176
     0
 40
0.0
176
     0
 90
        0
176
     0
290
     0
176
     0
290
     1
176
     0
290
     1
176
     0
290
     0
176
     0
290
     0
176
     0
290
     0
176
     0
290
     0
176
     0
290
     0
176
     0
290
     0
176
     0
 90
       50
176
     0
 40
0.0
176
     0
 40
1.0
176
     0
 90
        0
176
     0
 62
    18
420
        0
176
     0
 90
       50
176
     0
 90
        3
176
     0
 62
     5
420
      255
176
     0
290
     0
176
     0
 90
       50
176
     0
 90
       50
176
     0
 90
       50
176
     0
290
     0
176
     0
 90
       50
176
     0
 62
   256
176
     0
 40
1.0
176
     0
 90
        2
176
     0
  1
strokes_ogs.tif
176
     0
290
     0
176
     0
 40
1.0
176
     0
 40
1.0
176
     0
  0
VISUALSTYLE
  5
33
102
{ACAD_REACTORS
330
2A
102
}
330
2A
100
AcDbVisualStyle
  2
Realistic
 70
     8
177
     3
291
     0
 70
    58
 90
        2
176
     1
 90
        3
176
     1
 90
        0
176
     1
 90
        2
176
     1
 40
0.6
176
     1
 40
30.0
176
     1
 62
     7
420
 16777215
176
     1
 90
        0
176
     1
 90
        0
176
     1
 62
     7
176
     1
 62
   257
176
     1
 90
        1
176
     1
 90
        1
176
     1
 40
1.0
176
     1
 90
        8
176
     1
 62
   257
176
     1
 40
1.0
176
     1
 90
        1
176
     1
 90
        6
176
     1
 90
        2
176
     1
 62
     7
176
     1
 90
        3
176
     1
 90
        0
176
     1
 90
        0
176
     1
290
     0
176
     1
 90
       13
176
     1
 40
0.0
176
     1
 90
        0
176
     1
290
     0
176
     1
290
     1
176
     1
290
     1
176
     1
290
     0
176
     1
290
     0
176
     1
290
     0
176
     1
290
     0
176
     1
290
     0
176
     1
290
     0
176
     1
 90
       50
176
     1
 40
0.0
176
     1
 40
1.0
176
     1
 90
        0
176
     1
 62
    18
420
        0
176
     1
 90
       50
176
     1
 90
        3
176
     1
 62
     5
420
      255
176
     1
290
     0
176
     1
 90
       50
176
     1
 90
       50
176
     1
 90
       50
176
     1
290
     0
176
     1
 90
       50
176
     1
 62
   256
176
     0
 40
1.0
176
     0
 90
        2
176
     1
  1
strokes_ogs.tif
176
     1
290
     0
176
     1
 40
1.0
176
     1
 40
1.0
176
     1
  0
VISUALSTYLE
  5
42
102
{ACAD_REACTORS
330
2A
102
}
330
2A
100
AcDbVisualStyle
  2
Shaded
 70
    27
177
     3
291
     0
 70
    58
 90
        2
176
     1
 90
        2
176
     1
 90
        1
176
     1
 90
        2
176
     1
 40
0.6
176
     1
 40
30.0
176
     1
 62
     7
420
 16777215
176
     1
 90
        0
176
     1
 90
        4
176
     1
 62
     7
176
     1
 62
   257
176
     1
 90
        1
176
     1
 90
        1
176
     1
 40
1.0
176
     1
 90
        8
176
     1
 62
   257
176
     1
 40
1.0
176
     1
 90
        1
176
     1
 90
        6
176
     1
 90
        2
176
     1
 62
     8
420
  7895160
176
     1
 90
        3
176
     1
 90
        0
176
     1
 90
        0
176
     1
290
     0
176
     1
 90
        5
176
     1
 40
0.0
176
     1
 90
        0
176
     1
290
     0
176
     1
290
     1
176
     1
290
     1
176
     1
290
     0
176
     1
290
     0
176
     1
290
     0
176
     1
290
     0
176
     1
290
     0
176
     1
290
     0
176
     1
 90
       50
176
     1
 40
0.0
176
     1
 40
1.0
176
     1
 90
        0
176
     1
 62
    18
420
        0
176
     1
 90
       50
176
     1
 90
        3
176
     1
 62
     5
420
      255
176
     1
290
     0
176
     1
 90
       50
176
     1
 90
       50
176
     1
 90
       50
176
     1
290
     0
176
     1
 90
       50
176
     1
 62
   256
176
     0
 40
1.0
176
     0
 90
        2
176
     1
  1
strokes_ogs.tif
176
     1
290
     0
176
     1
 40
1.0
176
     1
 40
1.0
176
     1
  0
VISUALSTYLE
  5
41
102
{ACAD_REACTORS
330
2A
102
}
330
2A
100
AcDbVisualStyle
  2
Shaded with edges
 70
    26
177
     3
291
     0
 70
    58
 90
        2
176
     1
 90
        2
176
     1
 90
        1
176
     1
 90
        2
176
     1
 40
0.6
176
     1
 40
30.0
176
     1
 62
     7
420
 16777215
176
     1
 90
        1
176
     1
 90
       10
176
     1
 62
     7
176
     1
 62
   257
176
     1
 90
        2
176
     1
 90
        1
176
     1
 40
1.0
176
     1
 90
        8
176
     1
 62
   257
176
     1
 40
1.0
176
     1
 90
        1
176
     1
 90
        6
176
     1
 90
        2
176
     1
 62
     7
176
     1
 90
        3
176
     1
 90
        0
176
     1
 90
        0
176
     1
290
     0
176
     1
 90
        5
176
     1
 40
0.0
176
     1
 90
        0
176
     1
290
     0
176
     1
290
     1
176
     1
290
     1
176
     1
290
     0
176
     1
290
     0
176
     1
290
     0
176
     1
290
     0
176
     1
290
     0
176
     1
290
     0
176
     1
 90
       50
176
     1
 40
0.0
176
     1
 40
1.0
176
     1
 90
        0
176
     1
 62
    18
420
        0
176
     1
 90
       50
176
     1
 90
        3
176
     1
 62
     5
420
      255
176
     1
290
     0
176
     1
 90
       50
176
     1
 90
       50
176
     1
 90
       50
176
     1
290
     0
176
     1
 90
       50
176
     1
 62
   256
176
     0
 40
1.0
176
     0
 90
        2
176
     1
  1
strokes_ogs.tif
176
     1
290
     0
176
     1
 40
1.0
176
     1
 40
1.0
176
     1
  0
VISUALSTYLE
  5
3E
102
{ACAD_REACTORS
330
2A
102
}
330
2A
100
AcDbVisualStyle
  2
Shades of Gray
 70
    23
177
     3
291
     0
 70
    58
 90
        2
176
     1
 90
        2
176
     1
 90
        3
176
     1
 90
        0
176
     1
 40
0.6
176
     1
 40
30.0
176
     1
 62
     7
420
 16777215
176
     1
 90
        2
176
     1
 90
        2
176
     1
 62
     7
176
     1
 62
     7
176
     1
 90
        1
176
     1
 90
        1
176
     1
 40
40.0
176
     1
 90
        8
176
     1
 62
     7
176
     1
 40
1.0
176
     1
 90
        1
176
     1
 90
        6
176
     1
 90
        2
176
     1
 62
     7
176
     1
 90
        3
176
     1
 90
        0
176
     1
 90
        0
176
     1
290
     0
176
     1
 90
        1
176
     1
 40
0.0
176
     1
 90
        0
176
     1
290
     0
176
     1
290
     1
176
     1
290
     1
176
     1
290
     0
176
     1
290
     0
176
     1
290
     0
176
     1
290
     0
176
     1
290
     0
176
     1
290
     0
176
     1
 90
       50
176
     1
 40
0.0
176
     1
 40
1.0
176
     1
 90
        0
176
     1
 62
    18
420
        0
176
     1
 90
       50
176
     1
 90
        3
176
     1
 62
     5
420
      255
176
     1
290
     0
176
     1
 90
       50
176
     1
 90
       50
176
     1
 90
       50
176
     1
290
     0
176
     1
 90
       50
176
     1
 62
   256
176
     0
 40
1.0
176
     0
 90
        2
176
     1
  1
strokes_ogs.tif
176
     1
290
     0
176
     1
 40
1.0
176
     1
 40
1.0
176
     1
  0
VISUALSTYLE
  5
3F
102
{ACAD_REACTORS
330
2A
102
}
330
2A
100
AcDbVisualStyle
  2
Sketchy
 70
    24
177
     3
291
     0
 70
    58
 90
        1
176
     1
 90
        2
176
     1
 90
        2
176
     1
 90
        0
176
     1
 40
0.6
176
     1
 40
30.0
176
     1
 62
     7
420
 16777215
176
     1
 90
        2
176
     1
 90
        2
176
     1
 62
     7
176
     1
 62
     7
176
     1
 90
        1
176
     1
 90
        1
176
     1
 40
40.0
176
     1
 90
       11
176
     1
 62
     7
176
     1
 40
1.0
176
     1
 90
        1
176
     1
 90
        6
176
     1
 90
        2
176
     1
 62
     7
176
     1
 90
        6
176
     1
 90
        0
176
     1
 90
        0
176
     1
290
     0
176
     1
 90
        1
176
     1
 40
0.0
176
     1
 90
        0
176
     1
290
     0
176
     1
290
     1
176
     1
290
     1
176
     1
290
     0
176
     1
290
     0
176
     1
290
     0
176
     1
290
     0
176
     1
290
     0
176
     1
290
     0
176
     1
 90
       50
176
     1
 40
0.0
176
     1
 40
1.0
176
     1
 90
        0
176
     1
 62
    18
420
        0
176
     1
 90
       50
176
     1
 90
        3
176
     1
 62
     5
420
      255
176
     1
290
     0
176
     1
 90
       50
176
     1
 90
       50
176
     1
 90
       50
176
     1
290
     0
176
     1
 90
       50
176
     1
 62
   256
176
     0
 40
1.0
176
     0
 90
        2
176
     1
  1
strokes_ogs.tif
176
     1
290
     0
176
     1
 40
1.0
176
     1
 40
1.0
176
     1
  0
VISUALSTYLE
  5
37
102
{ACAD_REACTORS
330
2A
102
}
330
2A
100
AcDbVisualStyle
  2
Thicken
 70
    13
177
     3
291
     1
 70
    58
 90
        2
176
     1
 90
        2
176
     1
 90
        0
176
     1
 90
        0
176
     1
 40
0.6
176
     1
 40
30.0
176
     1
 62
     7
420
 16777215
176
     1
 90
        1
176
     1
 90
        4
176
     1
 62
     7
176
     1
 62
   257
176
     1
 90
        1
176
     1
 90
        1
176
     1
 40
1.0
176
     1
 90
       12
176
     1
 62
     7
176
     1
 40
1.0
176
     1
 90
        1
176
     1
 90
        6
176
     1
 90
        2
176
     1
 62
     7
176
     1
 90
        5
176
     1
 90
        0
176
     1
 90
        0
176
     1
290
     0
176
     1
 90
        1
176
     1
 40
0.0
176
     1
 90
        0
176
     1
290
     0
176
     1
290
     1
176
     1
290
     1
176
     1
290
     0
176
     1
290
     0
176
     1
290
     0
176
     1
290
     0
176
     1
290
     0
176
     1
290
     0
176
     1
 90
       50
176
     1
 40
0.0
176
     1
 40
1.0
176
     1
 90
        0
176
     1
 62
    18
420
        0
176
     1
 90
       50
176
     1
 90
        3
176
     1
 62
     5
420
      255
176
     1
290
     0
176
     1
 90
       50
176
     1
 90
       50
176
     1
 90
       50
176
     1
290
     0
176
     1
 90
       50
176
     1
 62
   256
176
     0
 40
1.0
176
     0
 90
        2
176
     1
  1
strokes_ogs.tif
176
     1
290
     0
176
     1
 40
1.0
176
     1
 40
1.0
176
     1
  0
VISUALSTYLE
  5
30
102
{ACAD_REACTORS
330
2A
102
}
330
2A
100
AcDbVisualStyle
  2
Wireframe
 70
     5
177
     3
291
     0
 70
    58
 90
        0
176
     1
 90
        2
176
     1
 90
        0
176
     1
 90
        0
176
     1
 40
0.6
176
     1
 40
30.0
176
     1
 62
     7
420
 16777215
176
     1
 90
        1
176
     1
 90
        4
176
     1
 62
     7
176
     1
 62
   257
176
     1
 90
        1
176
     1
 90
        1
176
     1
 40
1.0
176
     1
 90
        0
176
     1
 62
   257
176
     1
 40
1.0
176
     1
 90
        1
176
     1
 90
        6
176
     1
 90
        2
176
     1
 62
     7
176
     1
 90
        3
176
     1
 90
        0
176
     1
 90
        0
176
     1
290
     0
176
     1
 90
        1
176
     1
 40
0.0
176
     1
 90
        0
176
     1
290
     0
176
     1
290
     1
176
     1
290
     1
176
     1
290
     0
176
     1
290
     0
176
     1
290
     0
176
     1
290
     0
176
     1
290
     0
176
     1
290
     0
176
     1
 90
       50
176
     1
 40
0.0
176
     1
 40
1.0
176
     1
 90
        0
176
     1
 62
    18
420
        0
176
     1
 90
       50
176
     1
 90
        3
176
     1
 62
     5
420
      255
176
     1
290
     0
176
     1
 90
       50
176
     1
 90
       50
176
     1
 90
       50
176
     1
290
     0
176
     1
 90
       50
176
     1
 62
   256
176
     0
 40
1.0
176
     0
 90
        2
176
     1
  1
strokes_ogs.tif
176
     1
290
     0
176
     1
 40
1.0
176
     1
 40
1.0
176
     1
  0
VISUALSTYLE
  5
40
102
{ACAD_REACTORS
330
2A
102
}
330
2A
100
AcDbVisualStyle
  2
X-Ray
 70
    25
177
     3
291
     0
 70
    58
 90
        2
176
     1
 90
        2
176
     1
 90
        1
176
     1
 90
        1
176
     1
 40
0.5
176
     1
 40
30.0
176
     1
 62
     7
420
 16777215
176
     1
 90
        1
176
     1
 90
        0
176
     1
 62
     7
176
     1
 62
   257
176
     1
 90
        1
176
     1
 90
        1
176
     1
 40
1.0
176
     1
 90
        8
176
     1
 62
     7
176
     1
 40
1.0
176
     1
 90
        1
176
     1
 90
        6
176
     1
 90
        2
176
     1
 62
     7
176
     1
 90
        3
176
     1
 90
        0
176
     1
 90
        0
176
     1
290
     0
176
     1
 90
       13
176
     1
 40
0.0
176
     1
 90
        0
176
     1
290
     0
176
     1
290
     1
176
     1
290
     1
176
     1
290
     0
176
     1
290
     0
176
     1
290
     0
176
     1
290
     0
176
     1
290
     0
176
     1
290
     0
176
     1
 90
       50
176
     1
 40
0.0
176
     1
 40
1.0
176
     1
 90
        0
176
     1
 62
    18
420
        0
176
     1
 90
       50
176
     1
 90
        3
176
     1
 62
     5
420
      255
176
     1
290
     0
176
     1
 90
       50
176
     1
 90
       50
176
     1
 90
       50
176
     1
290
     0
176
     1
 90
       50
176
     1
 62
   256
176
     0
 40
1.0
176
     0
 90
        2
176
     1
  1
strokes_ogs.tif
176
     1
290
     0
176
     1
 40
1.0
176
     1
 40
1.0
176
     1
  0
DICTIONARYVAR
  5
1E5
102
{ACAD_REACTORS
330
1E4
102
}
330
1E4
100
DictionaryVariables
280
     0
  1
1:1
  0
DICTIONARYVAR
  5
1EA
102
{ACAD_REACTORS
330
1E4
102
}
330
1E4
100
DictionaryVariables
280
     0
  1
Standard
  0
DICTIONARYVAR
  5
1E9
102
{ACAD_REACTORS
330
1E4
102
}
330
1E4
100
DictionaryVariables
280
     0
  1
Standard
  0
DICTIONARY
  5
1E6
330
6A
100
AcDbDictionary
280
     1
281
     1
  3
ACAD_ROUNDTRIP_2008_TABLESTYLE_CELLSTYLEMAP
360
1E7
  0
CELLSTYLEMAP
  5
1E7
102
{ACAD_REACTORS
330
1E6
102
}
330
1E6
100
AcDbCellStyleMap
 90
        3
300
CELLSTYLE
  1
TABLEFORMAT_BEGIN
 90
        5
170
     1
 91
        0
 92
    32768
 62
   257
 93
        1
300
CONTENTFORMAT
  1
CONTENTFORMAT_BEGIN
 90
        0
 91
        0
 92
        4
 93
        0
300

 40
0.0
140
1.0
 94
        5
 62
     0
340
11
144
0.25
309
CONTENTFORMAT_END
171
     1
301
MARGIN
  1
CELLMARGIN_BEGIN
 40
0.06
 40
0.06
 40
0.06
 40
0.06
 40
0.06
 40
0.06
309
CELLMARGIN_END
 94
        6
 95
        1
302
GRIDFORMAT
  1
GRIDFORMAT_BEGIN
 90
        0
 91
        1
 62
     0
 92
       -2
340
14
 93
        0
 40
0.045
309
GRIDFORMAT_END
 95
        2
302
GRIDFORMAT
  1
GRIDFORMAT_BEGIN
 90
        0
 91
        1
 62
     0
 92
       -2
340
14
 93
        0
 40
0.045
309
GRIDFORMAT_END
 95
        4
302
GRIDFORMAT
  1
GRIDFORMAT_BEGIN
 90
        0
 91
        1
 62
     0
 92
       -2
340
14
 93
        0
 40
0.045
309
GRIDFORMAT_END
 95
        8
302
GRIDFORMAT
  1
GRIDFORMAT_BEGIN
 90
        0
 91
        1
 62
     0
 92
       -2
340
14
 93
        0
 40
0.045
309
GRIDFORMAT_END
 95
       16
302
GRIDFORMAT
  1
GRIDFORMAT_BEGIN
 90
        0
 91
        1
 62
     0
 92
       -2
340
14
 93
        0
 40
0.045
309
GRIDFORMAT_END
 95
       32
302
GRIDFORMAT
  1
GRIDFORMAT_BEGIN
 90
        0
 91
        1
 62
     0
 92
       -2
340
14
 93
        0
 40
0.045
309
GRIDFORMAT_END
309
TABLEFORMAT_END
  1
CELLSTYLE_BEGIN
 90
        1
 91
        1
300
_TITLE
309
CELLSTYLE_END
300
CELLSTYLE
  1
TABLEFORMAT_BEGIN
 90
        5
170
     1
 91
        0
 92
        0
 62
   257
 93
        1
300
CONTENTFORMAT
  1
CONTENTFORMAT_BEGIN
 90
        0
 91
        0
 92
        4
 93
        0
300

 40
0.0
140
1.0
 94
        5
 62
     0
340
11
144
0.18
309
CONTENTFORMAT_END
171
     1
301
MARGIN
  1
CELLMARGIN_BEGIN
 40
0.06
 40
0.06
 40
0.06
 40
0.06
 40
0.06
 40
0.06
309
CELLMARGIN_END
 94
        6
 95
        1
302
GRIDFORMAT
  1
GRIDFORMAT_BEGIN
 90
        0
 91
        1
 62
     0
 92
       -2
340
14
 93
        0
 40
0.045
309
GRIDFORMAT_END
 95
        2
302
GRIDFORMAT
  1
GRIDFORMAT_BEGIN
 90
        0
 91
        1
 62
     0
 92
       -2
340
14
 93
        0
 40
0.045
309
GRIDFORMAT_END
 95
        4
302
GRIDFORMAT
  1
GRIDFORMAT_BEGIN
 90
        0
 91
        1
 62
     0
 92
       -2
340
14
 93
        0
 40
0.045
309
GRIDFORMAT_END
 95
        8
302
GRIDFORMAT
  1
GRIDFORMAT_BEGIN
 90
        0
 91
        1
 62
     0
 92
       -2
340
14
 93
        0
 40
0.045
309
GRIDFORMAT_END
 95
       16
302
GRIDFORMAT
  1
GRIDFORMAT_BEGIN
 90
        0
 91
        1
 62
     0
 92
       -2
340
14
 93
        0
 40
0.045
309
GRIDFORMAT_END
 95
       32
302
GRIDFORMAT
  1
GRIDFORMAT_BEGIN
 90
        0
 91
        1
 62
     0
 92
       -2
340
14
 93
        0
 40
0.045
309
GRIDFORMAT_END
309
TABLEFORMAT_END
  1
CELLSTYLE_BEGIN
 90
        2
 91
        1
300
_HEADER
309
CELLSTYLE_END
300
CELLSTYLE
  1
TABLEFORMAT_BEGIN
 90
        5
170
     1
 91
        0
 92
        0
 62
   257
 93
        1
300
CONTENTFORMAT
  1
CONTENTFORMAT_BEGIN
 90
        0
 91
        0
 92
        4
 93
        0
300

 40
0.0
140
1.0
 94
        2
 62
     0
340
11
144
0.18
309
CONTENTFORMAT_END
171
     1
301
MARGIN
  1
CELLMARGIN_BEGIN
 40
0.06
 40
0.06
 40
0.06
 40
0.06
 40
0.06
 40
0.06
309
CELLMARGIN_END
 94
        6
 95
        1
302
GRIDFORMAT
  1
GRIDFORMAT_BEGIN
 90
        0
 91
        1
 62
     0
 92
       -2
340
14
 93
        0
 40
0.045
309
GRIDFORMAT_END
 95
        2
302
GRIDFORMAT
  1
GRIDFORMAT_BEGIN
 90
        0
 91
        1
 62
     0
 92
       -2
340
14
 93
        0
 40
0.045
309
GRIDFORMAT_END
 95
        4
302
GRIDFORMAT
  1
GRIDFORMAT_BEGIN
 90
        0
 91
        1
 62
     0
 92
       -2
340
14
 93
        0
 40
0.045
309
GRIDFORMAT_END
 95
        8
302
GRIDFORMAT
  1
GRIDFORMAT_BEGIN
 90
        0
 91
        1
 62
     0
 92
       -2
340
14
 93
        0
 40
0.045
309
GRIDFORMAT_END
 95
       16
302
GRIDFORMAT
  1
GRIDFORMAT_BEGIN
 90
        0
 91
        1
 62
     0
 92
       -2
340
14
 93
        0
 40
0.045
309
GRIDFORMAT_END
 95
       32
302
GRIDFORMAT
  1
GRIDFORMAT_BEGIN
 90
        0
 91
        1
 62
     0
 92
       -2
340
14
 93
        0
 40
0.045
309
GRIDFORMAT_END
309
TABLEFORMAT_END
  1
CELLSTYLE_BEGIN
 90
        3
 91
        2
300
_DATA
309
CELLSTYLE_END
  0
ENDSEC
  0
EOF