0
SECTION
  2
HEADER
  9
$ACADVER
  1
AC1027
  9
$ACADMAINTVER
 70
   105
  9
$DWGCODEPAGE
  3
ANSI_1252
  9
$REQUIREDVERSIONS
160
                 0
  9
$COMMENTS
  1
File was created by Cadenas
  9
$CUSTOMPROPERTYTAG
  1
NN
  9
$CUSTOMPROPERTY
  1
Set Screw Wide Slot Take Up Inch Bore
  9
$CUSTOMPROPERTYTAG
  1
NT
  9
$CUSTOMPROPERTY
  1
SC Take-Up Bearings -Wide Slot -(Normal Duty)
  9
$CUSTOMPROPERTYTAG
  1
NB
  9
$CUSTOMPROPERTY
  1
125151
  9
$CUSTOMPROPERTYTAG
  1
NBSYN
  9
$CUSTOMPROPERTY
  1
$PN.
  9
$CUSTOMPROPERTYTAG
  1
LINA
  9
$CUSTOMPROPERTY
  1
125151
  9
$CUSTOMPROPERTYTAG
  1
SERIES
  9
$CUSTOMPROPERTY
  1
209
  9
$CUSTOMPROPERTYTAG
  1
SS
  9
$CUSTOMPROPERTY
  1
1-5/8
  9
$CUSTOMPROPERTYTAG
  1
PN
  9
$CUSTOMPROPERTY
  1
125151
  9
$CUSTOMPROPERTYTAG
  1
DESCRIPTION
  9
$CUSTOMPROPERTY
  1
WSTU-SC-110L
  9
$CUSTOMPROPERTYTAG
  1
W
  9
$CUSTOMPROPERTY
  1
6.1
  9
$CUSTOMPROPERTYTAG
  1
FS
  9
$CUSTOMPROPERTY
  1
WS400
  9
$CUSTOMPROPERTYTAG
  1
LF
  9
$CUSTOMPROPERTY
  1
RE-LUBE
  9
$CUSTOMPROPERTYTAG
  1
A
  9
$CUSTOMPROPERTY
  1
1.94
  9
$CUSTOMPROPERTYTAG
  1
B
  9
$CUSTOMPROPERTY
  1
5.63
  9
$CUSTOMPROPERTYTAG
  1
C
  9
$CUSTOMPROPERTY
  1
0.688
  9
$CUSTOMPROPERTYTAG
  1
D
  9
$CUSTOMPROPERTY
  1
3.25
  9
$CUSTOMPROPERTYTAG
  1
E
  9
$CUSTOMPROPERTY
  1
3.44
  9
$CUSTOMPROPERTYTAG
  1
F
  9
$CUSTOMPROPERTY
  1
1
  9
$CUSTOMPROPERTYTAG
  1
G
  9
$CUSTOMPROPERTY
  1
0.63
  9
$CUSTOMPROPERTYTAG
  1
H
  9
$CUSTOMPROPERTY
  1
0.75
  9
$CUSTOMPROPERTYTAG
  1
J
  9
$CUSTOMPROPERTY
  1
3.25
  9
$CUSTOMPROPERTYTAG
  1
K
  9
$CUSTOMPROPERTY
  1
1.94
  9
$CUSTOMPROPERTYTAG
  1
L
  9
$CUSTOMPROPERTY
  1
2.22
  9
$CUSTOMPROPERTYTAG
  1
M
  9
$CUSTOMPROPERTY
  1
3.985 / 4.015
  9
$CUSTOMPROPERTYTAG
  1
N
  9
$CUSTOMPROPERTY
  1
4.75
  9
$CUSTOMPROPERTYTAG
  1
R
  9
$CUSTOMPROPERTY
  1
0.75
  9
$CUSTOMPROPERTYTAG
  1
S
  9
$CUSTOMPROPERTY
  1
1.19
  9
$CUSTOMPROPERTYTAG
  1
T
  9
$CUSTOMPROPERTY
  1
1.94
  9
$CUSTOMPROPERTYTAG
  1
COMPANY
  9
$CUSTOMPROPERTY
  1
baldor
  9
$INSBASE
 10
0.0
 20
0.0
 30
0.0
  9
$EXTMIN
 10
1.000000000000000E+20
 20
1.000000000000000E+20
 30
1.000000000000000E+20
  9
$EXTMAX
 10
-1.000000000000000E+20
 20
-1.000000000000000E+20
 30
-1.000000000000000E+20
  9
$LIMMIN
 10
0.0
 20
0.0
  9
$LIMMAX
 10
12.0
 20
9.0
  9
$ORTHOMODE
 70
     0
  9
$REGENMODE
 70
     1
  9
$FILLMODE
 70
     1
  9
$QTEXTMODE
 70
     0
  9
$MIRRTEXT
 70
     1
  9
$LTSCALE
 40
1.0
  9
$ATTMODE
 70
     1
  9
$TEXTSIZE
 40
0.2
  9
$TRACEWID
 40
0.05
  9
$TEXTSTYLE
  7
Standard
  9
$CLAYER
  8
0
  9
$CELTYPE
  6
ByLayer
  9
$CECOLOR
 62
   256
  9
$CELTSCALE
 40
1.0
  9
$DISPSILH
 70
     0
  9
$DIMSCALE
 40
1.0
  9
$DIMASZ
 40
0.18
  9
$DIMEXO
 40
0.0625
  9
$DIMDLI
 40
0.38
  9
$DIMRND
 40
0.0
  9
$DIMDLE
 40
0.0
  9
$DIMEXE
 40
0.18
  9
$DIMTP
 40
0.0
  9
$DIMTM
 40
0.0
  9
$DIMTXT
 40
0.18
  9
$DIMCEN
 40
0.09
  9
$DIMTSZ
 40
0.0
  9
$DIMTOL
 70
     0
  9
$DIMLIM
 70
     0
  9
$DIMTIH
 70
     1
  9
$DIMTOH
 70
     1
  9
$DIMSE1
 70
     0
  9
$DIMSE2
 70
     0
  9
$DIMTAD
 70
     0
  9
$DIMZIN
 70
     0
  9
$DIMBLK
  1

  9
$DIMASO
 70
     1
  9
$DIMSHO
 70
     1
  9
$DIMPOST
  1

  9
$DIMAPOST
  1

  9
$DIMALT
 70
     0
  9
$DIMALTD
 70
     2
  9
$DIMALTF
 40
25.4
  9
$DIMLFAC
 40
1.0
  9
$DIMTOFL
 70
     0
  9
$DIMTVP
 40
0.0
  9
$DIMTIX
 70
     0
  9
$DIMSOXD
 70
     0
  9
$DIMSAH
 70
     0
  9
$DIMBLK1
  1

  9
$DIMBLK2
  1

  9
$DIMSTYLE
  2
Standard
  9
$DIMCLRD
 70
     0
  9
$DIMCLRE
 70
     0
  9
$DIMCLRT
 70
     0
  9
$DIMTFAC
 40
1.0
  9
$DIMGAP
 40
0.09
  9
$DIMJUST
 70
     0
  9
$DIMSD1
 70
     0
  9
$DIMSD2
 70
     0
  9
$DIMTOLJ
 70
     1
  9
$DIMTZIN
 70
     0
  9
$DIMALTZ
 70
     0
  9
$DIMALTTZ
 70
     0
  9
$DIMUPT
 70
     0
  9
$DIMDEC
 70
     4
  9
$DIMTDEC
 70
     4
  9
$DIMALTU
 70
     2
  9
$DIMALTTD
 70
     2
  9
$DIMTXSTY
  7
Standard
  9
$DIMAUNIT
 70
     0
  9
$DIMADEC
 70
     0
  9
$DIMALTRND
 40
0.0
  9
$DIMAZIN
 70
     0
  9
$DIMDSEP
 70
    46
  9
$DIMATFIT
 70
     3
  9
$DIMFRAC
 70
     0
  9
$DIMLDRBLK
  1

  9
$DIMLUNIT
 70
     2
  9
$DIMLWD
 70
    -2
  9
$DIMLWE
 70
    -2
  9
$DIMTMOVE
 70
     0
  9
$DIMFXL
 40
1.0
  9
$DIMFXLON
 70
     0
  9
$DIMJOGANG
 40
0.7853981633974483
  9
$DIMTFILL
 70
     0
  9
$DIMTFILLCLR
 70
     0
  9
$DIMARCSYM
 70
     0
  9
$DIMLTYPE
  6

  9
$DIMLTEX1
  6

  9
$DIMLTEX2
  6

  9
$DIMTXTDIRECTION
 70
     0
  9
$LUNITS
 70
     2
  9
$LUPREC
 70
     4
  9
$SKETCHINC
 40
0.1
  9
$FILLETRAD
 40
0.5
  9
$AUNITS
 70
     0
  9
$AUPREC
 70
     0
  9
$MENU
  1
.
  9
$ELEVATION
 40
0.0
  9
$PELEVATION
 40
0.0
  9
$THICKNESS
 40
0.0
  9
$LIMCHECK
 70
     0
  9
$CHAMFERA
 40
0.0
  9
$CHAMFERB
 40
0.0
  9
$CHAMFERC
 40
0.0
  9
$CHAMFERD
 40
0.0
  9
$SKPOLY
 70
     0
  9
$TDCREATE
 40
2458169.009929711
  9
$TDUCREATE
 40
2458168.968263044
  9
$TDUPDATE
 40
2458169.009929884
  9
$TDUUPDATE
 40
2458168.968263218
  9
$TDINDWG
 40
0.0000000116
  9
$TDUSRTIMER
 40
0.0000000116
  9
$USRTIMER
 70
     1
  9
$ANGBASE
 50
0.0
  9
$ANGDIR
 70
     0
  9
$PDMODE
 70
     0
  9
$PDSIZE
 40
0.0
  9
$PLINEWID
 40
0.0
  9
$SPLFRAME
 70
     0
  9
$SPLINETYPE
 70
     6
  9
$SPLINESEGS
 70
     8
  9
$HANDSEED
  5
1B2
  9
$SURFTAB1
 70
     6
  9
$SURFTAB2
 70
     6
  9
$SURFTYPE
 70
     6
  9
$SURFU
 70
     6
  9
$SURFV
 70
     6
  9
$UCSBASE
  2

  9
$UCSNAME
  2

  9
$UCSORG
 10
0.0
 20
0.0
 30
0.0
  9
$UCSXDIR
 10
1.0
 20
0.0
 30
0.0
  9
$UCSYDIR
 10
0.0
 20
1.0
 30
0.0
  9
$UCSORTHOREF
  2

  9
$UCSORTHOVIEW
 70
     0
  9
$UCSORGTOP
 10
0.0
 20
0.0
 30
0.0
  9
$UCSORGBOTTOM
 10
0.0
 20
0.0
 30
0.0
  9
$UCSORGLEFT
 10
0.0
 20
0.0
 30
0.0
  9
$UCSORGRIGHT
 10
0.0
 20
0.0
 30
0.0
  9
$UCSORGFRONT
 10
0.0
 20
0.0
 30
0.0
  9
$UCSORGBACK
 10
0.0
 20
0.0
 30
0.0
  9
$PUCSBASE
  2

  9
$PUCSNAME
  2

  9
$PUCSORG
 10
0.0
 20
0.0
 30
0.0
  9
$PUCSXDIR
 10
1.0
 20
0.0
 30
0.0
  9
$PUCSYDIR
 10
0.0
 20
1.0
 30
0.0
  9
$PUCSORTHOREF
  2

  9
$PUCSORTHOVIEW
 70
     0
  9
$PUCSORGTOP
 10
0.0
 20
0.0
 30
0.0
  9
$PUCSORGBOTTOM
 10
0.0
 20
0.0
 30
0.0
  9
$PUCSORGLEFT
 10
0.0
 20
0.0
 30
0.0
  9
$PUCSORGRIGHT
 10
0.0
 20
0.0
 30
0.0
  9
$PUCSORGFRONT
 10
0.0
 20
0.0
 30
0.0
  9
$PUCSORGBACK
 10
0.0
 20
0.0
 30
0.0
  9
$USERI1
 70
     0
  9
$USERI2
 70
     0
  9
$USERI3
 70
     0
  9
$USERI4
 70
     0
  9
$USERI5
 70
     0
  9
$USERR1
 40
0.0
  9
$USERR2
 40
0.0
  9
$USERR3
 40
0.0
  9
$USERR4
 40
0.0
  9
$USERR5
 40
0.0
  9
$WORLDVIEW
 70
     1
  9
$SHADEDGE
 70
     3
  9
$SHADEDIF
 70
    70
  9
$TILEMODE
 70
     1
  9
$MAXACTVP
 70
    64
  9
$PINSBASE
 10
0.0
 20
0.0
 30
0.0
  9
$PLIMCHECK
 70
     0
  9
$PEXTMIN
 10
1.000000000000000E+20
 20
1.000000000000000E+20
 30
1.000000000000000E+20
  9
$PEXTMAX
 10
-1.000000000000000E+20
 20
-1.000000000000000E+20
 30
-1.000000000000000E+20
  9
$PLIMMIN
 10
0.0
 20
0.0
  9
$PLIMMAX
 10
12.0
 20
9.0
  9
$UNITMODE
 70
     0
  9
$VISRETAIN
 70
     1
  9
$PLINEGEN
 70
     0
  9
$PSLTSCALE
 70
     1
  9
$TREEDEPTH
 70
  3020
  9
$CMLSTYLE
  2
Standard
  9
$CMLJUST
 70
     0
  9
$CMLSCALE
 40
1.0
  9
$PROXYGRAPHICS
 70
     1
  9
$MEASUREMENT
 70
     0
  9
$CELWEIGHT
370
    -1
  9
$ENDCAPS
280
     0
  9
$JOINSTYLE
280
     0
  9
$LWDISPLAY
290
     0
  9
$INSUNITS
 70
     1
  9
$HYPERLINKBASE
  1

  9
$STYLESHEET
  1

  9
$XEDIT
290
     1
  9
$CEPSNTYPE
380
     0
  9
$PSTYLEMODE
290
     1
  9
$FINGERPRINTGUID
  2
{8F4B0DA0-994B-40FA-B7F0-FDECF5BB51CC}
  9
$VERSIONGUID
  2
{FAEB1C32-E019-11D5-929B-00C0DF256EC4}
  9
$EXTNAMES
290
     1
  9
$PSVPSCALE
 40
0.0
  9
$OLESTARTUP
290
     0
  9
$SORTENTS
280
   127
  9
$INDEXCTL
280
     0
  9
$HIDETEXT
280
     1
  9
$XCLIPFRAME
280
     2
  9
$HALOGAP
280
     0
  9
$OBSCOLOR
 70
   257
  9
$OBSLTYPE
280
     0
  9
$INTERSECTIONDISPLAY
280
     0
  9
$INTERSECTIONCOLOR
 70
   257
  9
$DIMASSOC
280
     2
  9
$PROJECTNAME
  1

  9
$CAMERADISPLAY
290
     0
  9
$LENSLENGTH
 40
50.0
  9
$CAMERAHEIGHT
 40
0.0
  9
$STEPSPERSEC
 40
2.0
  9
$STEPSIZE
 40
6.0
  9
$3DDWFPREC
 40
2.0
  9
$PSOLWIDTH
 40
0.25
  9
$PSOLHEIGHT
 40
4.0
  9
$LOFTANG1
 40
1.570796326794897
  9
$LOFTANG2
 40
1.570796326794897
  9
$LOFTMAG1
 40
0.0
  9
$LOFTMAG2
 40
0.0
  9
$LOFTPARAM
 70
     7
  9
$LOFTNORMALS
280
     1
  9
$LATITUDE
 40
37.795
  9
$LONGITUDE
 40
-122.394
  9
$NORTHDIRECTION
 40
0.0
  9
$TIMEZONE
 70
 -8000
  9
$LIGHTGLYPHDISPLAY
280
     1
  9
$TILEMODELIGHTSYNCH
280
     1
  9
$CMATERIAL
347
44
  9
$SOLIDHIST
280
     0
  9
$SHOWHIST
280
     1
  9
$DWFFRAME
280
     2
  9
$DGNFRAME
280
     2
  9
$REALWORLDSCALE
290
     1
  9
$INTERFERECOLOR
 62
   256
  9
$CSHADOW
280
     0
  9
$SHADOWPLANELOCATION
 40
0.0
  0
ENDSEC
  0
SECTION
  2
CLASSES
  0
CLASS
  1
ACDBDICTIONARYWDFLT
  2
AcDbDictionaryWithDefault
  3
ObjectDBX Classes
 90
        0
 91
        4
280
     0
281
     0
  0
CLASS
  1
VISUALSTYLE
  2
AcDbVisualStyle
  3
ObjectDBX Classes
 90
     4095
 91
        4
280
     0
281
     0
  0
CLASS
  1
MATERIAL
  2
AcDbMaterial
  3
ObjectDBX Classes
 90
     1153
 91
        4
280
     0
281
     0
  0
CLASS
  1
SCALE
  2
AcDbScale
  3
ObjectDBX Classes
 90
     1153
 91
        4
280
     0
281
     0
  0
CLASS
  1
TABLESTYLE
  2
AcDbTableStyle
  3
ObjectDBX Classes
 90
     4095
 91
        4
280
     0
281
     0
  0
CLASS
  1
MLEADERSTYLE
  2
AcDbMLeaderStyle
  3
ACDB_MLEADERSTYLE_CLASS
 90
     4095
 91
        4
280
     0
281
     0
  0
CLASS
  1
SUN
  2
AcDbSun
  3
SCENEOE
 90
     1153
 91
        4
280
     0
281
     0
  0
CLASS
  1
DICTIONARYVAR
  2
AcDbDictionaryVar
  3
ObjectDBX Classes
 90
        0
 91
        4
280
     0
281
     0
  0
CLASS
  1
CELLSTYLEMAP
  2
AcDbCellStyleMap
  3
ObjectDBX Classes
 90
     1152
 91
        4
280
     0
281
     0
  0
ENDSEC
  0
SECTION
  2
TABLES
  0
TABLE
  2
VPORT
  5
8
330
0
100
AcDbSymbolTable
 70
     1
  0
VPORT
  5
29
330
8
100
AcDbSymbolTableRecord
100
AcDbViewportTableRecord
  2
*Active
 70
     0
 10
0.0
 20
0.0
 11
1.0
 21
1.0
 12
5.284785137180471
 22
-4.375
 13
0.0
 23
0.0
 14
0.5
 24
0.5
 15
0.5
 25
0.5
 16
0.0
 26
0.0
 36
1.0
 17
0.0
 27
0.0
 37
0.0
 40
14.79
 41
1.07994096630023
 42
50.0
 43
0.0
 44
0.0
 50
0.0
 51
0.0
 71
     0
 72
   100
 73
     1
 74
     3
 75
     0
 76
     0
 77
     0
 78
     0
281
     0
 65
     1
110
0.0
120
0.0
130
0.0
111
1.0
121
0.0
131
0.0
112
0.0
122
1.0
132
0.0
 79
     0
146
0.0
348
2F
 60
     3
 61
     5
292
     1
282
     1
141
0.0
142
0.0
 63
   250
361
6D
  0
ENDTAB
  0
TABLE
  2
LTYPE
  5
5
330
0
100
AcDbSymbolTable
 70
     3
  0
LTYPE
  5
14
330
5
100
AcDbSymbolTableRecord
100
AcDbLinetypeTableRecord
  2
ByBlock
 70
     0
  3

 72
    65
 73
     0
 40
0.0
  0
LTYPE
  5
15
330
5
100
AcDbSymbolTableRecord
100
AcDbLinetypeTableRecord
  2
ByLayer
 70
     0
  3

 72
    65
 73
     0
 40
0.0
  0
LTYPE
  5
16
330
5
100
AcDbSymbolTableRecord
100
AcDbLinetypeTableRecord
  2
Continuous
 70
     0
  3
Solid line
 72
    65
 73
     0
 40
0.0
  0
LTYPE
  5
A2
330
5
100
AcDbSymbolTableRecord
100
AcDbLinetypeTableRecord
  2
Dashed
 70
     0
  3

 72
    65
 73
     2
 40
2.0
 49
1.0
 74
     0
 49
-1.0
 74
     0
  0
LTYPE
  5
C5
330
5
100
AcDbSymbolTableRecord
100
AcDbLinetypeTableRecord
  2
Center
 70
     0
  3

 72
    65
 73
     4
 40
1.5
 49
0.45
 74
     0
 49
-0.5
 74
     0
 49
0.05
 74
     0
 49
-0.5
 74
     0
  0
ENDTAB
  0
TABLE
  2
LAYER
  5
2
330
0
100
AcDbSymbolTable
 70
     8
  0
LAYER
  5
10
330
2
100
AcDbSymbolTableRecord
100
AcDbLayerTableRecord
  2
0
 70
     0
 62
     7
  6
Continuous
370
    -3
390
F
347
46
348
0
  0
LAYER
  5
6E
330
2
100
AcDbSymbolTableRecord
100
AcDbLayerTableRecord
  2
AM_6
 70
     0
 62
    -2
  6
Continuous
370
    35
390
F
347
46
348
0
  0
LAYER
  5
A3
330
2
100
AcDbSymbolTableRecord
100
AcDbLayerTableRecord
  2
AM_9
 70
     0
 62
     6
  6
Dashed
370
    25
390
F
347
46
348
0
  0
LAYER
  5
C0
330
2
100
AcDbSymbolTableRecord
100
AcDbLayerTableRecord
  2
AM_5
 70
     0
 62
     3
  6
Continuous
370
    25
390
F
347
46
348
0
  0
LAYER
  5
C6
330
2
100
AcDbSymbolTableRecord
100
AcDbLayerTableRecord
  2
AM_7
 70
     0
 62
     7
  6
Center
370
    25
390
F
347
46
348
0
  0
LAYER
  5
C8
330
2
100
AcDbSymbolTableRecord
100
AcDbLayerTableRecord
  2
AM_0
 70
     0
 62
     7
  6
Continuous
370
    50
390
F
347
46
348
0
  0
LAYER
  5
CB
330
2
100
AcDbSymbolTableRecord
100
AcDbLayerTableRecord
  2
AM_4
 70
     0
 62
     3
  6
Continuous
370
    25
390
F
347
46
348
0
  0
LAYER
  5
1A5
330
2
100
AcDbSymbolTableRecord
100
AcDbLayerTableRecord
  2
ConnectionPoints
 70
     0
 62
     7
  6
Continuous
370
    50
390
F
347
46
348
0
  0
ENDTAB
  0
TABLE
  2
STYLE
  5
3
330
0
100
AcDbSymbolTable
 70
     1
  0
STYLE
  5
11
330
3
100
AcDbSymbolTableRecord
100
AcDbTextStyleTableRecord
  2
Standard
 70
     0
 40
0.0
 41
1.0
 50
0.0
 71
     0
 42
0.2
  3
txt
  4

  0
ENDTAB
  0
TABLE
  2
VIEW
  5
6
330
0
100
AcDbSymbolTable
 70
     0
  0
ENDTAB
  0
TABLE
  2
UCS
  5
7
330
0
100
AcDbSymbolTable
 70
     0
  0
ENDTAB
  0
TABLE
  2
APPID
  5
9
330
0
100
AcDbSymbolTable
 70
     1
  0
APPID
  5
12
330
9
100
AcDbSymbolTableRecord
100
AcDbRegAppTableRecord
  2
ACAD
 70
     0
  0
ENDTAB
  0
TABLE
  2
DIMSTYLE
  5
A
330
0
100
AcDbSymbolTable
 70
     1
100
AcDbDimStyleTable
  0
DIMSTYLE
105
27
330
A
100
AcDbSymbolTableRecord
100
AcDbDimStyleTableRecord
  2
Standard
 70
     0
178
     0
340
11
  0
ENDTAB
  0
TABLE
  2
BLOCK_RECORD
  5
1
330
0
100
AcDbSymbolTable
 70
     4
  0
BLOCK_RECORD
  5
1F
330
1
100
AcDbSymbolTableRecord
100
AcDbBlockTableRecord
  2
*Model_Space
340
22
 70
     0
280
     1
281
     0
  0
BLOCK_RECORD
  5
1B
330
1
100
AcDbSymbolTableRecord
100
AcDbBlockTableRecord
  2
*Paper_Space
340
1E
 70
     0
280
     1
281
     0
  0
BLOCK_RECORD
  5
23
330
1
100
AcDbSymbolTableRecord
100
AcDbBlockTableRecord
  2
*Paper_Space0
340
26
 70
     0
280
     1
281
     0
  0
BLOCK_RECORD
  5
8C
330
1
100
AcDbSymbolTableRecord
100
AcDbBlockTableRecord
  2
1_045874_0_in_125151_0
340
0
102
{BLKREFS
331
8D
102
}
 70
     0
280
     1
281
     0
  0
BLOCK_RECORD
  5
D2
330
1
100
AcDbSymbolTableRecord
100
AcDbBlockTableRecord
  2
2_405016_Inch_0_in_125151_0
340
0
102
{BLKREFS
331
D3
102
}
 70
     0
280
     1
281
     0
  0
BLOCK_RECORD
  5
148
330
1
100
AcDbSymbolTableRecord
100
AcDbBlockTableRecord
  2
3_125151H_0_in_125151_0
340
0
102
{BLKREFS
331
149
102
}
 70
     0
280
     1
281
     0
  0
ENDTAB
  0
ENDSEC
  0
SECTION
  2
BLOCKS
  0
BLOCK
  5
20
330
1F
100
AcDbEntity
  8
0
100
AcDbBlockBegin
  2
*Model_Space
 70
     0
 10
0.0
 20
0.0
 30
0.0
  3
*Model_Space
  1

  0
ENDBLK
  5
21
330
1F
100
AcDbEntity
  8
0
100
AcDbBlockEnd
  0
BLOCK
  5
1C
330
1B
100
AcDbEntity
 67
     1
  8
0
100
AcDbBlockBegin
  2
*Paper_Space
 70
     0
 10
0.0
 20
0.0
 30
0.0
  3
*Paper_Space
  1

  0
ENDBLK
  5
1D
330
1B
100
AcDbEntity
 67
     1
  8
0
100
AcDbBlockEnd
  0
BLOCK
  5
24
330
23
100
AcDbEntity
  8
0
100
AcDbBlockBegin
  2
*Paper_Space0
 70
     0
 10
0.0
 20
0.0
 30
0.0
  3
*Paper_Space0
  1

  0
ENDBLK
  5
25
330
23
100
AcDbEntity
  8
0
100
AcDbBlockEnd
  0
BLOCK
  5
8E
330
8C
100
AcDbEntity
  8
0
100
AcDbBlockBegin
  2
1_045874_0_in_125151_0
 70
     2
 10
0.0
 20
0.0
 30
0.0
  3
1_045874_0_in_125151_0
  1

  0
ATTDEF
  5
90
330
8C
100
AcDbEntity
  8
AM_6
100
AcDbText
 10
6.661254213689164
 20
1.7545
 30
0.0
 40
0.5
  1
Set Screw Insert Inch Bore
100
AcDbAttributeDefinition
  3

  2
NN
 70
     8
280
     0
  0
ATTDEF
  5
91
330
8C
100
AcDbEntity
  8
AM_6
100
AcDbText
 10
6.661254213689164
 20
1.2545
 30
0.0
 40
0.5
  1
SC Normal Duty Bearing Inserts
100
AcDbAttributeDefinition
  3

  2
NT
 70
     8
280
     0
  0
ATTDEF
  5
92
330
8C
100
AcDbEntity
  8
AM_6
100
AcDbText
 10
6.661254213689164
 20
0.7544999999999997
 30
0.0
 40
0.5
  1
045874
100
AcDbAttributeDefinition
  3

  2
NB
 70
     8
280
     0
  0
ATTDEF
  5
93
330
8C
100
AcDbEntity
  8
AM_6
100
AcDbText
 10
6.661254213689164
 20
0.2544999999999997
 30
0.0
 40
0.5
  1
$PN.
100
AcDbAttributeDefinition
  3

  2
NBSYN
 70
     8
280
     0
  0
ATTDEF
  5
94
330
8C
100
AcDbEntity
  8
AM_6
100
AcDbText
 10
6.661254213689164
 20
-0.2455000000000003
 30
0.0
 40
0.5
  1
045874
100
AcDbAttributeDefinition
  3

  2
LINA
 70
     8
280
     0
  0
ATTDEF
  5
95
330
8C
100
AcDbEntity
  8
AM_6
100
AcDbText
 10
6.661254213689164
 20
-0.7455000000000003
 30
0.0
 40
0.5
  1
209
100
AcDbAttributeDefinition
  3

  2
SERIES
 70
     8
280
     0
  0
ATTDEF
  5
96
330
8C
100
AcDbEntity
  8
AM_6
100
AcDbText
 10
6.661254213689164
 20
-1.2455
 30
0.0
 40
0.5
  1
1-5/8
100
AcDbAttributeDefinition
  3

  2
SS
 70
     8
280
     0
  0
ATTDEF
  5
97
330
8C
100
AcDbEntity
  8
AM_6
100
AcDbText
 10
6.661254213689164
 20
-1.7455
 30
0.0
 40
0.5
  1
045874
100
AcDbAttributeDefinition
  3

  2
PN
 70
     8
280
     0
  0
ATTDEF
  5
98
330
8C
100
AcDbEntity
  8
AM_6
100
AcDbText
 10
6.661254213689164
 20
-2.2455
 30
0.0
 40
0.5
  1
INS-SC-110L
100
AcDbAttributeDefinition
  3

  2
DESCRIPTION
 70
     8
280
     0
  0
ATTDEF
  5
99
330
8C
100
AcDbEntity
  8
AM_6
100
AcDbText
 10
6.661254213689164
 20
-2.7455
 30
0.0
 40
0.5
  1
1.94
100
AcDbAttributeDefinition
  3

  2
A
 70
     8
280
     0
  0
ATTDEF
  5
9A
330
8C
100
AcDbEntity
  8
AM_6
100
AcDbText
 10
6.661254213689164
 20
-3.2455
 30
0.0
 40
0.5
  1
0.87
100
AcDbAttributeDefinition
  3

  2
C
 70
     8
280
     0
  0
ATTDEF
  5
9B
330
8C
100
AcDbEntity
  8
AM_6
100
AcDbText
 10
6.661254213689164
 20
-3.7455
 30
0.0
 40
0.5
  1
3.3465
100
AcDbAttributeDefinition
  3

  2
D
 70
     8
280
     0
  0
ATTDEF
  5
9C
330
8C
100
AcDbEntity
  8
AM_6
100
AcDbText
 10
6.661254213689164
 20
-4.2455
 30
0.0
 40
0.5
  1
0.25
100
AcDbAttributeDefinition
  3

  2
J
 70
     8
280
     0
  0
ATTDEF
  5
9D
330
8C
100
AcDbEntity
  8
AM_6
100
AcDbText
 10
6.661254213689164
 20
-4.7455
 30
0.0
 40
0.5
  1
2.22
100
AcDbAttributeDefinition
  3

  2
L
 70
     8
280
     0
  0
ATTDEF
  5
9E
330
8C
100
AcDbEntity
  8
AM_6
100
AcDbText
 10
6.661254213689164
 20
-5.2455
 30
0.0
 40
0.5
  1
5/16 - 24
100
AcDbAttributeDefinition
  3

  2
N
 70
     8
280
     0
  0
ATTDEF
  5
9F
330
8C
100
AcDbEntity
  8
AM_6
100
AcDbText
 10
6.661254213689164
 20
-5.7455
 30
0.0
 40
0.5
  1
0.75
100
AcDbAttributeDefinition
  3

  2
W
 70
     8
280
     0
  0
ATTDEF
  5
A0
330
8C
100
AcDbEntity
  8
AM_6
100
AcDbText
 10
6.661254213689164
 20
-6.2455
 30
0.0
 40
0.5
  1
1.19
100
AcDbAttributeDefinition
  3

  2
Y
 70
     8
280
     0
  0
ATTDEF
  5
A1
330
8C
100
AcDbEntity
  8
AM_6
100
AcDbText
 10
6.661254213689164
 20
-6.7455
 30
0.0
 40
0.5
  1
baldor
100
AcDbAttributeDefinition
  3

  2
COMPANY
 70
     8
280
     0
  0
LINE
  5
A4
330
8C
100
AcDbEntity
  8
AM_9
 48
0.0113467699194944
100
AcDbLine
 10
0.0250757575757545
 20
1.7545
 30
0.0
 11
-0.0250757545552953
 21
1.7545
 31
0.0
  0
ARC
  5
A5
330
8C
100
AcDbEntity
  8
AM_9
 48
0.0113467699194944
100
AcDbCircle
 10
-0.025075757575753
 20
1.67540909090909
 30
0.0
 40
0.0790909090909093
100
AcDbArc
 50
90.0000000000012
 51
179.9999999999997
  0
ARC
  5
A6
330
8C
100
AcDbEntity
  8
AM_9
 48
0.0113467699194944
100
AcDbCircle
 10
0.0250757575757528
 20
1.67540909090909
 30
0.0
 40
0.0790909090909091
100
AcDbArc
 50
0.0000000000003217
 51
89.99999999999883
  0
LINE
  5
A7
330
8C
100
AcDbEntity
  8
AM_9
 48
0.0113467699194944
100
AcDbLine
 10
0.1041666666666619
 20
1.675409090909091
 30
0.0
 11
-0.1041666666666621
 21
1.675409090909091
 31
0.0
  0
LINE
  5
A8
330
8C
100
AcDbEntity
  8
AM_9
 48
0.0113467699194944
100
AcDbLine
 10
-0.1041666666666621
 20
1.675409090909091
 30
0.0
 11
-0.1041666666666621
 21
1.651195463733609
 31
0.0
  0
LINE
  5
A9
330
8C
100
AcDbEntity
  8
AM_9
 48
0.0113467699194944
100
AcDbLine
 10
0.1041666666666619
 20
1.651182503385823
 30
0.0
 11
0.1041666666666619
 21
1.675409090909091
 31
0.0
  0
LWPOLYLINE
  5
AA
330
8C
100
AcDbEntity
  8
AM_9
 48
0.0113467699194944
100
AcDbPolyline
 90
       11
 70
     0
 43
0.0
 10
0.1041666644944127
 20
1.651182676575132
 10
0.0984322794026999
 20
1.656338528516509
 10
0.0813134940443054
 20
1.661014130165442
 10
0.0548830109763327
 20
1.664536770341666
 10
0.0224015605369063
 20
1.666517192406679
 10
-0.012322915846571
 20
1.666773070056524
 10
-0.0454961787122767
 20
1.665313126304985
 10
-0.0736444260717082
 20
1.66230250265337
 10
-0.09376181886976
 20
1.658042599336232
 10
-0.1034990203892421
 20
1.652967723769555
 10
-0.1041666385907844
 20
1.651197476951825
  0
LWPOLYLINE
  5
AB
330
8C
100
AcDbEntity
  8
AM_9
 48
0.0113467699194944
100
AcDbPolyline
 90
        4
 70
     0
 43
0.0
 10
-0.1041666385907844
 20
1.651197476951825
 10
-0.1014967572814498
 20
1.647634182016388
 10
-0.0877762330844972
 20
1.64267164668637
 10
-0.0735099670549949
 20
1.639973488073228
  0
LWPOLYLINE
  5
AC
330
8C
100
AcDbEntity
  8
AM_9
 48
0.0113467699194944
100
AcDbPolyline
 90
        9
 70
     0
 43
0.0
 10
-0.0735099670549949
 20
1.639973488073228
 10
-0.0451356518171238
 20
1.636910148264565
 10
-0.0116211595544469
 20
1.635437761830965
 10
0.0230057080169686
 20
1.635731531794892
 10
0.0549512850831861
 20
1.637732657060982
 10
0.0808884871129606
 20
1.641218496482033
 10
0.0979909464811258
 20
1.645827460183327
 10
0.1041636807449278
 20
1.651066477992922
 10
0.1041666644944127
 20
1.651182676575132
  0
CIRCLE
  5
AD
330
8C
100
AcDbEntity
  8
AM_9
 48
0.0113467699194944
100
AcDbCircle
 10
0.0
 20
0.0
 30
0.0
 40
1.589916666666666
  0
LINE
  5
AE
330
8C
100
AcDbEntity
  8
AM_9
 48
0.0113467699194944
100
AcDbLine
 10
0.2234232541808837
 20
-0.7819110138571284
 30
0.0
 11
0.2257616835442216
 21
-0.7827621325403173
 31
0.0
  0
LINE
  5
AF
330
8C
100
AcDbEntity
  8
AM_9
 48
0.0113467699194944
100
AcDbLine
 10
0.8048344263858168
 20
0.1262
 30
0.0
 11
0.8031629248004234
 21
0.1278715015853935
 31
0.0
  0
LINE
  5
B0
330
8C
100
AcDbEntity
  8
AM_9
 48
0.0113467699194944
100
AcDbLine
 10
0.8031629248004234
 20
-0.1278715015853935
 30
0.0
 11
0.8048344263858168
 21
-0.1262
 31
0.0
  0
LINE
  5
B1
330
8C
100
AcDbEntity
  8
AM_9
 48
0.0113467699194944
100
AcDbLine
 10
0.4545137689922721
 20
-0.6760932832769647
 30
0.0
 11
0.455768942891749
 21
-0.6726447213306634
 31
0.0
  0
LINE
  5
B2
330
8C
100
AcDbEntity
  8
AM_9
 48
0.0113467699194944
100
AcDbLine
 10
0.8048344263858168
 20
-0.1113453910326476
 30
0.0
 11
0.8048344263858168
 21
-0.1262
 31
0.0
  0
LINE
  5
B3
330
8C
100
AcDbEntity
  8
AM_9
 48
0.0113467699194944
100
AcDbLine
 10
0.8048344263858168
 20
-0.1262
 30
0.0
 11
1.09144765002706
 21
-0.1262
 31
0.0
  0
LINE
  5
B4
330
8C
100
AcDbEntity
  8
AM_9
 48
0.0113467699194944
100
AcDbLine
 10
1.09144765002706
 20
0.1262
 30
0.0
 11
0.8048344263858168
 21
0.1262
 31
0.0
  0
LINE
  5
B5
330
8C
100
AcDbEntity
  8
AM_9
 48
0.0113467699194944
100
AcDbLine
 10
0.8048344263858168
 20
0.1262
 30
0.0
 11
0.8048344263858168
 21
0.1113453910326476
 31
0.0
  0
LINE
  5
B6
330
8C
100
AcDbEntity
  8
AM_9
 48
0.0113467699194944
100
AcDbLine
 10
0.2392245313247173
 20
-0.7764843035196972
 30
0.0
 11
0.2257616835442215
 21
-0.7827621325403173
 31
0.0
  0
LINE
  5
B7
330
8C
100
AcDbEntity
  8
AM_9
 48
0.0113467699194944
100
AcDbLine
 10
0.2257616835442216
 20
-0.7827621325403171
 30
0.0
 11
0.3468896659113824
 21
-1.042521928994053
 31
0.0
  0
LINE
  5
B8
330
8C
100
AcDbEntity
  8
AM_9
 48
0.0113467699194944
100
AcDbLine
 10
0.5756417513594327
 20
-0.9358530797307009
 30
0.0
 11
0.454513768992272
 21
-0.6760932832769646
 31
0.0
  0
LINE
  5
B9
330
8C
100
AcDbEntity
  8
AM_9
 48
0.0113467699194944
100
AcDbLine
 10
0.4545137689922721
 20
-0.6760932832769649
 30
0.0
 11
0.4410509212117759
 21
-0.6823711122975852
 31
0.0
  0
LINE
  5
BA
330
8C
100
AcDbEntity
  8
AM_9
 48
0.0113467699194944
100
AcDbLine
 10
0.5756417513594327
 20
-0.9358530797307009
 30
0.0
 11
0.3468896659113824
 21
-1.042521928994053
 31
0.0
  0
LINE
  5
BB
330
8C
100
AcDbEntity
  8
AM_9
 48
0.0113467699194944
100
AcDbLine
 10
0.3468896659113824
 20
-1.042521928994053
 30
0.0
 11
0.3420867717719589
 21
-1.05571777219015
 31
0.0
  0
LINE
  5
BC
330
8C
100
AcDbEntity
  8
AM_9
 48
0.0113467699194944
100
AcDbLine
 10
0.5890719254043044
 20
-0.9407412633240486
 30
0.0
 11
0.5756417513594327
 21
-0.9358530797307009
 31
0.0
  0
LINE
  5
BD
330
8C
100
AcDbEntity
  8
AM_9
 48
0.0113467699194944
100
AcDbLine
 10
1.09144765002706
 20
0.1262
 30
0.0
 11
1.09144765002706
 21
-0.1262
 31
0.0
  0
LINE
  5
BE
330
8C
100
AcDbEntity
  8
AM_9
 48
0.0113467699194944
100
AcDbLine
 10
1.09144765002706
 20
-0.1262
 30
0.0
 11
1.101389560879783
 21
-0.1361419108527231
 31
0.0
  0
LINE
  5
BF
330
8C
100
AcDbEntity
  8
AM_9
 48
0.0113467699194944
100
AcDbLine
 10
1.101390969831941
 20
0.1361433198048801
 30
0.0
 11
1.09144765002706
 21
0.1262
 31
0.0
  0
LINE
  5
C1
330
8C
100
AcDbEntity
  8
AM_5
 48
0.0113467699194944
100
AcDbLine
 10
0.7973344263858172
 20
0.15625
 30
0.0
 11
1.098947650027062
 21
0.15625
 31
0.0
  0
LINE
  5
C2
330
8C
100
AcDbEntity
  8
AM_5
 48
0.0113467699194944
100
AcDbLine
 10
0.7973344263858172
 20
-0.15625
 30
0.0
 11
1.098947650027062
 21
-0.15625
 31
0.0
  0
LINE
  5
C3
330
8C
100
AcDbEntity
  8
AM_5
 48
0.0113467699194944
100
AcDbLine
 10
0.4785786810296682
 20
-0.6565962961088824
 30
0.0
 11
0.60604593732294
 21
-0.9299507093681689
 31
0.0
  0
LINE
  5
C4
330
8C
100
AcDbEntity
  8
AM_5
 48
0.0113467699194944
100
AcDbLine
 10
0.1953574975807152
 20
-0.7886645029028508
 30
0.0
 11
0.3228247538739868
 21
-1.062018916162138
 31
0.0
  0
LINE
  5
C7
330
8C
100
AcDbEntity
  8
AM_7
 48
0.0113467699194944
100
AcDbLine
 10
0.2922898986280679
 20
-0.6268177104029288
 30
0.0
 11
0.5091135362755866
 21
-1.09179750186809
 31
0.0
  0
CIRCLE
  5
C9
330
8C
100
AcDbEntity
  8
AM_0
 48
0.0113467699194944
100
AcDbCircle
 10
0.0
 20
0.0
 30
0.0
 40
1.661254213689163
  0
CIRCLE
  5
CA
330
8C
100
AcDbEntity
  8
AM_0
 48
0.0113467699194944
100
AcDbCircle
 10
0.0
 20
0.0
 30
0.0
 40
1.646136556455752
  0
CIRCLE
  5
CC
330
8C
100
AcDbEntity
  8
AM_4
 48
0.0113467699194944
100
AcDbCircle
 10
0.0
 20
0.0
 30
0.0
 40
1.576932326544167
  0
CIRCLE
  5
CD
330
8C
100
AcDbEntity
  8
AM_4
 48
0.0113467699194944
100
AcDbCircle
 10
0.0
 20
0.0
 30
0.0
 40
1.625505623850998
  0
CIRCLE
  5
CE
330
8C
100
AcDbEntity
  8
AM_0
 48
0.0113467699194944
100
AcDbCircle
 10
0.0
 20
0.0
 30
0.0
 40
1.11
  0
CIRCLE
  5
CF
330
8C
100
AcDbEntity
  8
AM_0
 48
0.0113467699194944
100
AcDbCircle
 10
0.0
 20
0.0
 30
0.0
 40
1.0656
  0
CIRCLE
  5
D0
330
8C
100
AcDbEntity
  8
AM_0
 48
0.0113467699194944
100
AcDbCircle
 10
0.0
 20
0.0
 30
0.0
 40
0.8125
  0
CIRCLE
  5
D1
330
8C
100
AcDbEntity
  8
AM_0
 48
0.0113467699194944
100
AcDbCircle
 10
0.0
 20
0.0
 30
0.0
 40
0.8569
  0
ENDBLK
  5
8F
330
8C
100
AcDbEntity
  8
0
100
AcDbBlockEnd
  0
BLOCK
  5
D4
330
D2
100
AcDbEntity
  8
0
100
AcDbBlockBegin
  2
2_405016_Inch_0_in_125151_0
 70
     2
 10
0.0
 20
0.0
 30
0.0
  3
2_405016_Inch_0_in_125151_0
  1

  0
ATTDEF
  5
D6
330
D2
100
AcDbEntity
  8
AM_6
100
AcDbText
 10
3.287076745350094
 20
-0.8869256983551583
 30
0.0
 40
0.5
  1
405016 -Inch
100
AcDbAttributeDefinition
  3

  2
NN
 70
     8
280
     0
  0
ATTDEF
  5
D7
330
D2
100
AcDbEntity
  8
AM_6
100
AcDbText
 10
3.287076745350094
 20
-1.386925698355158
 30
0.0
 40
0.5
  1
Grease Fitting
100
AcDbAttributeDefinition
  3

  2
NT
 70
     8
280
     0
  0
ATTDEF
  5
D8
330
D2
100
AcDbEntity
  8
AM_6
100
AcDbText
 10
3.287076745350094
 20
-1.886925698355158
 30
0.0
 40
0.5
  1
405016-Inch
100
AcDbAttributeDefinition
  3

  2
NB
 70
     8
280
     0
  0
ATTDEF
  5
D9
330
D2
100
AcDbEntity
  8
AM_6
100
AcDbText
 10
3.287076745350094
 20
-2.386925698355158
 30
0.0
 40
0.5
  1
$MN.-Inch
100
AcDbAttributeDefinition
  3

  2
NBSYN
 70
     8
280
     0
  0
ATTDEF
  5
DA
330
D2
100
AcDbEntity
  8
AM_6
100
AcDbText
 10
3.287076745350094
 20
-2.886925698355158
 30
0.0
 40
0.5
  1
405016
100
AcDbAttributeDefinition
  3

  2
LINA
 70
     8
280
     0
  0
ATTDEF
  5
DB
330
D2
100
AcDbEntity
  8
AM_6
100
AcDbText
 10
3.287076745350094
 20
-3.386925698355158
 30
0.0
 40
0.5
  1
405016
100
AcDbAttributeDefinition
  3

  2
MN
 70
     8
280
     0
  0
ATTDEF
  5
DC
330
D2
100
AcDbEntity
  8
AM_6
100
AcDbText
 10
3.287076745350094
 20
-3.886925698355158
 30
0.0
 40
0.5
  1
7/16 HEX
100
AcDbAttributeDefinition
  3

  2
H
 70
     8
280
     0
  0
ATTDEF
  5
DD
330
D2
100
AcDbEntity
  8
AM_6
100
AcDbText
 10
3.287076745350094
 20
-4.386925698355158
 30
0.0
 40
0.5
  1
0.383
100
AcDbAttributeDefinition
  3

  2
NDR
 70
     8
280
     0
  0
ATTDEF
  5
DE
330
D2
100
AcDbEntity
  8
AM_6
100
AcDbText
 10
3.287076745350094
 20
-4.886925698355158
 30
0.0
 40
0.5
  1
0.337
100
AcDbAttributeDefinition
  3

  2
KDR
 70
     8
280
     0
  0
ATTDEF
  5
DF
330
D2
100
AcDbEntity
  8
AM_6
100
AcDbText
 10
3.287076745350094
 20
-5.386925698355158
 30
0.0
 40
0.5
  1
0.1575
100
AcDbAttributeDefinition
  3

  2
BZE
 70
     8
280
     0
  0
ATTDEF
  5
E0
330
D2
100
AcDbEntity
  8
AM_6
100
AcDbText
 10
3.287076745350094
 20
-5.886925698355158
 30
0.0
 40
0.5
  1
0.4375
100
AcDbAttributeDefinition
  3

  2
HEX
 70
     8
280
     0
  0
ATTDEF
  5
E1
330
D2
100
AcDbEntity
  8
AM_6
100
AcDbText
 10
3.287076745350094
 20
-6.386925698355158
 30
0.0
 40
0.5
  1
0.281250
100
AcDbAttributeDefinition
  3

  2
HEX2
 70
     8
280
     0
  0
ATTDEF
  5
E2
330
D2
100
AcDbEntity
  8
AM_6
100
AcDbText
 10
3.287076745350094
 20
-6.886925698355158
 30
0.0
 40
0.5
  1
baldor
100
AcDbAttributeDefinition
  3

  2
COMPANY
 70
     8
280
     0
  0
LINE
  5
E3
330
D2
100
AcDbEntity
  8
AM_9
 48
0.002192532306459
100
AcDbLine
 10
-1.712923254649907
 20
-1.175629893480119
 30
0.0
 11
-1.874586980527131
 21
-0.8956201065198804
 31
0.0
  0
LINE
  5
E4
330
D2
100
AcDbEntity
  8
AM_9
 48
0.002192532306459
100
AcDbLine
 10
-1.874586980527131
 20
-0.8956201065198804
 30
0.0
 11
-1.907034953539614
 21
-0.8869256983551583
 31
0.0
  0
LINE
  5
E5
330
D2
100
AcDbEntity
  8
AM_9
 48
0.002192532306459
100
AcDbLine
 10
-1.721617662814629
 20
-1.208077866492603
 30
0.0
 11
-1.712923254649907
 21
-1.175629893480119
 31
0.0
  0
ARC
  5
E6
330
D2
100
AcDbEntity
  8
AM_9
 48
0.002192532306459
100
AcDbCircle
 10
-2.264656430896307
 20
-1.3075
 30
0.0
 40
0.1999999999999999
100
AcDbArc
 50
166.0493241738567
 51
254.1862111126964
  0
LINE
  5
E7
330
D2
100
AcDbEntity
  8
AM_9
 48
0.002192532306459
100
AcDbLine
 10
-1.721617662814629
 20
-1.208077866492603
 30
0.0
 11
-1.907034953539614
 21
-0.8869256983551583
 31
0.0
  0
LINE
  5
E8
330
D2
100
AcDbEntity
  8
AM_9
 48
0.002192532306459
100
AcDbLine
 10
-1.907034953539614
 20
-0.8869256983551583
 30
0.0
 11
-2.078953791591479
 21
-0.9791464063755988
 31
0.0
  0
LINE
  5
E9
330
D2
100
AcDbEntity
  8
AM_9
 48
0.002192532306459
100
AcDbLine
 10
-1.88744255774125
 20
-1.310853593624401
 30
0.0
 11
-1.721617662814629
 21
-1.208077866492603
 31
0.0
  0
LINE
  5
EA
330
D2
100
AcDbEntity
  8
AM_9
 48
0.002192532306459
100
AcDbLine
 10
-2.410066072480448
 20
-1.48520229571137
 30
0.0
 11
-2.421387645704325
 21
-1.491738809059826
 31
0.0
  0
LINE
  5
EB
330
D2
100
AcDbEntity
  8
AM_9
 48
0.002192532306459
100
AcDbLine
 10
-2.491255954085239
 20
-1.34457729571137
 30
0.0
 11
-2.502577527309116
 21
-1.351113809059826
 31
0.0
  0
LWPOLYLINE
  5
EC
330
D2
100
AcDbEntity
  8
AM_9
 48
0.002192532306459
100
AcDbPolyline
 90
        6
 70
     0
 43
0.0
 10
-2.491255954085239
 20
-1.34457729571137
 10
-2.474640112097711
 20
-1.368510622598914
 10
-2.458585499442577
 20
-1.393367212109331
 10
-2.443101833378894
 20
-1.419566312422038
 10
-2.428612918264143
 20
-1.446595324422913
 10
-2.410066072480448
 20
-1.48520229571137
  0
LINE
  5
ED
330
D2
100
AcDbEntity
  8
AM_9
 48
0.002192532306459
100
AcDbLine
 10
-2.209947374049163
 20
-1.402258866093428
 30
0.0
 11
-2.319869207939893
 21
-1.211868664933536
 31
0.0
  0
ELLIPSE
  5
EE
330
D2
100
AcDbEntity
  8
AM_9
 48
0.002192532306459
100
AcDbEllipse
 10
-2.335272566391605
 20
-1.348270244837341
 30
0.0
 11
-0.0703125
 21
0.1217848224071865
 31
0.0
210
0.0
220
0.0
230
1.0
 40
0.906307787036649
 41
5.859216366485143
 42
9.848746901463828
  0
LWPOLYLINE
  5
EF
330
D2
100
AcDbEntity
  8
AM_9
 48
0.002192532306459
100
AcDbPolyline
 90
        6
 70
     0
 43
0.0
 10
-2.410066072480448
 20
-1.48520229571137
 10
-2.380861464980924
 20
-1.485146258798399
 10
-2.351987696266792
 20
-1.485585121917566
 10
-2.323298965679264
 20
-1.486646289109957
 10
-2.295510484106293
 20
-1.488363121169831
 10
-2.258891226441951
 20
-1.491671457656344
  0
LWPOLYLINE
  5
F0
330
D2
100
AcDbEntity
  8
AM_9
 48
0.002192532306459
100
AcDbPolyline
 90
        6
 70
     0
 43
0.0
 10
-2.421270989651533
 20
-1.210421457656344
 10
-2.431580126008862
 20
-1.232992854288234
 10
-2.442923952843072
 20
-1.256456884363538
 10
-2.455637927419879
 20
-1.281210167846305
 10
-2.469533853609571
 20
-1.306768689712644
 10
-2.491255954085239
 20
-1.34457729571137
  0
LWPOLYLINE
  5
F1
330
D2
100
AcDbEntity
  8
AM_9
 48
0.002192532306459
100
AcDbPolyline
 90
        5
 70
     0
 43
0.0
 10
-2.220087330712347
 20
-1.384695945966246
 10
-2.22805479578854
 20
-1.400209976006311
 10
-2.238810869222722
 20
-1.414357975630669
 10
-2.251453920745165
 20
-1.425955943415793
 10
-2.261863446365217
 20
-1.432904528105156
  0
LWPOLYLINE
  5
F2
330
D2
100
AcDbEntity
  8
AM_9
 48
0.002192532306459
100
AcDbPolyline
 90
       13
 70
     0
 43
0.0
 10
-2.220087330712347
 20
-1.384695945966246
 10
-2.215132670240279
 20
-1.368701216295605
 10
-2.213024785773536
 20
-1.352644458256412
 10
-2.213504557491423
 20
-1.335877825105295
 10
-2.216720094444061
 20
-1.318429808725254
 10
-2.222738457686843
 20
-1.300957633207593
 10
-2.23108954550659
 20
-1.284747492794571
 10
-2.241963145983339
 20
-1.269477046299115
 10
-2.254361467697321
 20
-1.256547828583382
 10
-2.268784898063313
 20
-1.245495849846331
 10
-2.284297877924131
 20
-1.237226804053057
 10
-2.301391281711102
 20
-1.231703487144151
 10
-2.309225531080267
 20
-1.230304054033754
  0
LINE
  5
F3
330
D2
100
AcDbEntity
  8
AM_9
 48
0.002192532306459
100
AcDbLine
 10
-2.371853657005649
 20
-1.242373288128892
 30
0.0
 11
-2.390272566391604
 21
-1.253007450421052
 31
0.0
  0
LINE
  5
F4
330
D2
100
AcDbEntity
  8
AM_9
 48
0.002192532306459
100
AcDbLine
 10
-2.280272566391604
 20
-1.443533039253629
 30
0.0
 11
-2.261853728364493
 21
-1.432898918160516
 31
0.0
  0
LWPOLYLINE
  5
F5
330
D2
100
AcDbEntity
  8
AM_9
 48
0.002192532306459
100
AcDbPolyline
 90
        3
 70
     0
 43
0.0
 10
-2.386231047583282
 20
-1.252534473898506
 10
-2.376722994572491
 20
-1.245381372029879
 10
-2.371861347408238
 20
-1.242377728641494
  0
LWPOLYLINE
  5
F6
330
D2
100
AcDbEntity
  8
AM_9
 48
0.002192532306459
100
AcDbPolyline
 90
       19
 70
     0
 43
0.0
 10
-2.277245274018399
 20
-1.440055782335481
 10
-2.282246220697887
 20
-1.441712011960484
 10
-2.299607190519605
 20
-1.44526170963818
 10
-2.31696266764985
 20
-1.445684256104104
 10
-2.334820379234139
 20
-1.442990967168627
 10
-2.351650140734213
 20
-1.437417196040507
 10
-2.367966884634918
 20
-1.428797239076489
 10
-2.382365935494752
 20
-1.417880991490922
 10
-2.395298288360499
 20
-1.404336212655024
 10
-2.405658016520199
 20
-1.389330271317741
 10
-2.413768191336896
 20
-1.372408286749774
 10
-2.418944832527738
 20
-1.355004703027538
 10
-2.421344768971887
 20
-1.336607393511457
 10
-2.42076718501476
 20
-1.318747455120003
 10
-2.417195481205636
 20
-1.300922481606624
 10
-2.410917933937973
 20
-1.2845960564441
 10
-2.401760334875252
 20
-1.269328872764631
 10
-2.39046414571324
 20
-1.256370478489194
 10
-2.386231047583282
 20
-1.252534473898506
  0
LWPOLYLINE
  5
F7
330
D2
100
AcDbEntity
  8
AM_9
 48
0.002192532306459
100
AcDbPolyline
 90
        3
 70
     0
 43
0.0
 10
-2.261863446365217
 20
-1.432904528105156
 10
-2.266344343891006
 20
-1.435334802540261
 10
-2.277245274018399
 20
-1.440055782335481
  0
LWPOLYLINE
  5
F8
330
D2
100
AcDbEntity
  8
AM_9
 48
0.002192532306459
100
AcDbPolyline
 90
        5
 70
     0
 43
0.0
 10
-2.371861347408238
 20
-1.242377728641494
 10
-2.361661504833009
 20
-1.237268942862664
 10
-2.344868082013349
 20
-1.231820477436415
 10
-2.327468745859353
 20
-1.229480939756072
 10
-2.30922553108025
 20
-1.230304054033761
  0
ELLIPSE
  5
F9
330
D2
100
AcDbEntity
  8
AM_9
 48
0.002192532306459
100
AcDbEllipse
 10
-2.335272566391603
 20
-1.34827024483734
 30
0.0
 11
-0.07031249999999822
 21
0.1217848224071856
 31
0.0
210
0.0
220
0.0
230
1.0
 40
0.9063077870366515
 41
3.764821264091943
 42
4.571432719802711
  0
ELLIPSE
  5
FA
330
D2
100
AcDbEntity
  8
AM_9
 48
0.002192532306459
100
AcDbEllipse
 10
-2.335272566391605
 20
-1.348270244837343
 30
0.0
 11
-0.07031250000001818
 21
0.1217848224071789
 31
0.0
210
0.0
220
0.0
230
1.0
 40
0.9063077870366867
 41
4.853345240966592
 42
5.659956696677309
  0
LWPOLYLINE
  5
FB
330
D2
100
AcDbEntity
  8
AM_9
 48
0.002192532306459
100
AcDbPolyline
 90
        5
 70
     0
 43
0.0
 10
-2.421387645704325
 20
-1.491738809059826
 10
-2.443250034202951
 20
-1.458670119967152
 10
-2.464146121132944
 20
-1.424312409178914
 10
-2.484063740687853
 20
-1.388126446285356
 10
-2.502577527309116
 20
-1.351113809059826
  0
LWPOLYLINE
  5
FC
330
D2
100
AcDbEntity
  8
AM_9
 48
0.002192532306459
100
AcDbPolyline
 90
        4
 70
     0
 43
0.0
 10
-2.318298815566851
 20
-1.49779792903043
 10
-2.347554808060843
 20
-1.496802555641742
 10
-2.385173602422027
 20
-1.494676787031713
 10
-2.421387645704325
 20
-1.491738809059826
  0
LWPOLYLINE
  5
FD
330
D2
100
AcDbEntity
  8
AM_9
 48
0.002192532306459
100
AcDbPolyline
 90
        4
 70
     0
 43
0.0
 10
-2.502577527309116
 20
-1.351113809059826
 10
-2.48770040926604
 20
-1.319688517736611
 10
-2.471271137023366
 20
-1.286997724328327
 10
-2.456267991986206
 20
-1.258783795777514
  0
ELLIPSE
  5
FE
330
D2
100
AcDbEntity
  8
AM_9
 48
0.002192532306459
100
AcDbEllipse
 10
-2.353572473930138
 20
-1.358835701380859
 30
0.0
 11
-0.0703125
 21
0.1217848224071865
 31
0.0
210
0.0
220
0.0
230
1.0
 40
0.9063077870366508
 41
0.2501663860830021
 42
2.894927906767736
  0
LWPOLYLINE
  5
FF
330
D2
100
AcDbEntity
  8
AM_9
 48
0.002192532306459
100
AcDbPolyline
 90
       19
 70
     0
 43
0.0
 10
-2.298887369107818
 20
-1.34651535548223
 10
-2.295407800980424
 20
-1.356188171167526
 10
-2.291413717484656
 20
-1.37338656354317
 10
-2.290112865484488
 20
-1.390454773198396
 10
-2.291446557461927
 20
-1.406859850649636
 10
-2.295272177773422
 20
-1.422142291261026
 10
-2.301409148696205
 20
-1.435943248931003
 10
-2.309706343102498
 20
-1.448005988881055
 10
-2.320112747764726
 20
-1.458127298257913
 10
-2.332677374319293
 20
-1.466035871866081
 10
-2.347316062619706
 20
-1.471260143748859
 10
-2.363209059708015
 20
-1.473266189363454
 10
-2.379492025103314
 20
-1.471986505709594
 10
-2.395605453500284
 20
-1.467598016324316
 10
-2.411122148193754
 20
-1.460308357941279
 10
-2.425618195599851
 20
-1.450351443075294
 10
-2.438660683147369
 20
-1.438027035158005
 10
-2.449838278934854
 20
-1.423720184823398
 10
-2.454095832735792
 20
-1.416872889647148
  0
LWPOLYLINE
  5
100
330
D2
100
AcDbEntity
  8
AM_9
 48
0.002192532306459
100
AcDbPolyline
 90
       19
 70
     0
 43
0.0
 10
-2.454095832735792
 20
-1.416872889647148
 10
-2.457789904905717
 20
-1.409978670147003
 10
-2.464582660612888
 20
-1.393288608690318
 10
-2.468749031985952
 20
-1.376101145720972
 10
-2.470221949993332
 20
-1.359008003034264
 10
-2.469053678924503
 20
-1.342545639466335
 10
-2.465382581618689
 20
-1.327179260555413
 10
-2.459388628914686
 20
-1.313274591981214
 10
-2.451227123920639
 20
-1.301094144508669
 10
-2.440956929775179
 20
-1.290841722622426
 10
-2.428531847629947
 20
-1.282779448075852
 10
-2.414014586934477
 20
-1.27736550996661
 10
-2.398172814928695
 20
-1.275145181348721
 10
-2.381895500268066
 20
-1.276217499968246
 10
-2.365757841296096
 20
-1.280411770871468
 10
-2.350190083856137
 20
-1.287520941580087
 10
-2.335615153532288
 20
-1.297314083315923
 10
-2.322466131448635
 20
-1.309496537545926
 10
-2.315787753002888
 20
-1.317344636809047
  0
ELLIPSE
  5
101
330
D2
100
AcDbEntity
  8
AM_9
 48
0.002192532306459
100
AcDbEllipse
 10
-2.404573377194123
 20
-1.388281086609234
 30
0.0
 11
0.06659694825923307
 21
-0.1153492980140273
 31
0.0
210
0.0
220
0.0
230
1.0
 40
0.9063077870366515
 41
0.0
 42
6.283185307179586
  0
LINE
  5
102
330
D2
100
AcDbEntity
  8
AM_5
 48
0.002192532306459
100
AcDbLine
 10
-1.863114466520824
 20
-1.268716103579453
 30
0.0
 11
-1.712923254649907
 21
-1.175629893480119
 31
0.0
  0
LINE
  5
103
330
D2
100
AcDbEntity
  8
AM_5
 48
0.002192532306459
100
AcDbLine
 10
-1.88744255774125
 20
-1.310853593624401
 30
0.0
 11
-1.863114466520824
 21
-1.268716103579453
 31
0.0
  0
LINE
  5
104
330
D2
100
AcDbEntity
  8
AM_5
 48
0.002192532306459
100
AcDbLine
 10
-2.030297609150627
 20
-0.9791464063755988
 30
0.0
 11
-1.874586980527131
 21
-0.8956201065198804
 31
0.0
  0
LINE
  5
105
330
D2
100
AcDbEntity
  8
AM_5
 48
0.002192532306459
100
AcDbLine
 10
-2.078953791591479
 20
-0.9791464063755989
 30
0.0
 11
-2.030297609150627
 21
-0.9791464063755988
 31
0.0
  0
LINE
  5
106
330
D2
100
AcDbEntity
  8
AM_5
 48
0.002192532306459
100
AcDbLine
 10
-2.04180322357574
 20
-0.959218097619007
 30
0.0
 11
-1.851608852095712
 21
-1.288644412336045
 31
0.0
  0
ELLIPSE
  5
107
330
D2
100
AcDbEntity
  8
AM_9
 48
0.002192532306459
100
AcDbEllipse
 10
-2.335272566391604
 20
-1.34827024483734
 30
0.0
 11
-0.05499999999999974
 21
0.09526279441628874
 31
0.0
210
0.0
220
0.0
230
1.0
 40
0.9063077870366522
 41
0.0
 42
6.283185307179586
  0
LINE
  5
108
330
D2
100
AcDbEntity
  8
AM_7
 48
0.002192532306459
100
AcDbLine
 10
-2.474656430896306
 20
-1.3075
 30
0.0
 11
-2.054656430896308
 21
-1.3075
 31
0.0
  0
LINE
  5
109
330
D2
100
AcDbEntity
  8
AM_7
 48
0.002192532306459
100
AcDbLine
 10
-2.264656430896307
 20
-1.5175
 30
0.0
 11
-2.264656430896307
 21
-1.097500000000001
 31
0.0
  0
LINE
  5
10A
330
D2
100
AcDbEntity
  8
AM_0
 48
0.002192532306459
100
AcDbLine
 10
-2.028083949715468
 20
-1.423505557077846
 30
0.0
 11
-2.003310806641621
 21
-1.448278700151693
 31
0.0
  0
LINE
  5
10B
330
D2
100
AcDbEntity
  8
AM_0
 48
0.002192532306459
100
AcDbLine
 10
-2.028083949715468
 20
-1.423505557077846
 30
0.0
 11
-2.246833949715468
 21
-1.044619442922154
 31
0.0
  0
LINE
  5
10C
330
D2
100
AcDbEntity
  8
AM_0
 48
0.002192532306459
100
AcDbLine
 10
-2.255901549412082
 20
-1.010778700151693
 30
0.0
 11
-2.246833949715468
 21
-1.044619442922154
 31
0.0
  0
LINE
  5
10D
330
D2
100
AcDbEntity
  8
AM_0
 48
0.002192532306459
100
AcDbLine
 10
-1.93241380964041
 20
-1.407346299848307
 30
0.0
 11
-1.941481409337024
 21
-1.373505557077846
 31
0.0
  0
LINE
  5
10E
330
D2
100
AcDbEntity
  8
AM_0
 48
0.002192532306459
100
AcDbLine
 10
-1.941481409337024
 20
-1.373505557077846
 30
0.0
 11
-2.160231409337024
 21
-0.9946194429221539
 31
0.0
  0
LINE
  5
10F
330
D2
100
AcDbEntity
  8
AM_0
 48
0.002192532306459
100
AcDbLine
 10
-2.160231409337024
 20
-0.9946194429221539
 30
0.0
 11
-2.185004552410871
 21
-0.9698462998483071
 31
0.0
  0
ARC
  5
110
330
D2
100
AcDbEntity
  8
AM_0
 48
0.002192532306459
100
AcDbCircle
 10
-2.264656430896307
 20
-1.307499999999999
 30
0.0
 40
0.2000000000000004
100
AcDbArc
 50
254.1862111126964
 51
299.9999999999998
  0
ARC
  5
111
330
D2
100
AcDbEntity
  8
AM_0
 48
0.002192532306459
100
AcDbCircle
 10
-2.264656430896304
 20
-1.307500000000002
 30
0.0
 40
0.2000000000000029
100
AcDbArc
 50
120.0000000000005
 51
166.0493241738563
  0
LINE
  5
112
330
D2
100
AcDbEntity
  8
AM_0
 48
0.002192532306459
100
AcDbLine
 10
-2.083198174666365
 20
-0.9717949192431121
 30
0.0
 11
-2.150856409337024
 21
-1.010857419243112
 31
0.0
  0
LINE
  5
113
330
D2
100
AcDbEntity
  8
AM_0
 48
0.002192532306459
100
AcDbLine
 10
-1.950856409337024
 20
-1.357267580756888
 30
0.0
 11
-1.883198174666365
 21
-1.318205080756887
 31
0.0
  0
LINE
  5
114
330
D2
100
AcDbEntity
  8
AM_4
 48
0.002192532306459
100
AcDbLine
 10
-2.319869207939893
 20
-1.211868664933536
 30
0.0
 11
-2.364656430896307
 21
-1.134294919243112
 31
0.0
  0
LINE
  5
115
330
D2
100
AcDbEntity
  8
AM_0
 48
0.002192532306459
100
AcDbLine
 10
-2.237458949715468
 20
-1.060857419243112
 30
0.0
 11
-2.364656430896307
 21
-1.134294919243112
 31
0.0
  0
LINE
  5
116
330
D2
100
AcDbEntity
  8
AM_0
 48
0.002192532306459
100
AcDbLine
 10
-2.164656430896307
 20
-1.480705080756887
 30
0.0
 11
-2.037458949715468
 21
-1.407267580756888
 31
0.0
  0
LINE
  5
117
330
D2
100
AcDbEntity
  8
AM_4
 48
0.002192532306459
100
AcDbLine
 10
-2.164656430896307
 20
-1.480705080756887
 30
0.0
 11
-2.209947374049163
 21
-1.402258866093428
 31
0.0
  0
LINE
  5
118
330
D2
100
AcDbEntity
  8
AM_0
 48
0.002192532306459
100
AcDbLine
 10
-2.255901549412082
 20
-1.010778700151693
 30
0.0
 11
-2.185004552410871
 21
-0.9698462998483071
 31
0.0
  0
LWPOLYLINE
  5
119
330
D2
100
AcDbEntity
  8
AM_0
 48
0.002192532306459
100
AcDbPolyline
 90
        3
 70
     0
 43
0.0
 10
-2.232180478254391
 20
-1.07
 10
-2.245894671116775
 20
-1.041459559607482
 10
-2.255901549412082
 20
-1.010778700151693
  0
LWPOLYLINE
  5
11A
330
D2
100
AcDbEntity
  8
AM_0
 48
0.002192532306459
100
AcDbPolyline
 90
        3
 70
     0
 43
0.0
 10
-2.145577937875947
 20
-1.02
 10
-2.131863745013563
 20
-1.048540440392517
 10
-2.121856866718256
 20
-1.079221299848307
  0
LWPOLYLINE
  5
11B
330
D2
100
AcDbEntity
  8
AM_0
 48
0.002192532306459
100
AcDbPolyline
 90
        3
 70
     0
 43
0.0
 10
-2.185004552410871
 20
-0.9698462998483071
 10
-2.163526881493248
 20
-0.9937405676118846
 10
-2.145577937875947
 20
-1.02
  0
LINE
  5
11C
330
D2
100
AcDbEntity
  8
AM_0
 48
0.002192532306459
100
AcDbLine
 10
-2.192753863719467
 20
-1.120153700151693
 30
0.0
 11
-2.121856866718256
 21
-1.079221299848307
 31
0.0
  0
LWPOLYLINE
  5
11D
330
D2
100
AcDbEntity
  8
AM_0
 48
0.002192532306459
100
AcDbPolyline
 90
        3
 70
     0
 43
0.0
 10
-2.066458492334236
 20
-1.338903700151693
 10
-2.103652102425307
 20
-1.28778862725104
 10
-2.137458949715468
 20
-1.2340625
  0
LWPOLYLINE
  5
11E
330
D2
100
AcDbEntity
  8
AM_0
 48
0.002192532306459
100
AcDbPolyline
 90
        3
 70
     0
 43
0.0
 10
-2.050856409337024
 20
-1.1840625
 10
-2.021355295051486
 20
-1.239946690392517
 10
-1.995561495333025
 20
-1.297971299848307
  0
LWPOLYLINE
  5
11F
330
D2
100
AcDbEntity
  8
AM_0
 48
0.002192532306459
100
AcDbPolyline
 90
        4
 70
     0
 43
0.0
 10
-2.121856866718256
 20
-1.079221299848307
 10
-2.104004133907401
 20
-1.102972765773117
 10
-2.076362433440835
 20
-1.142736426839267
 10
-2.050856409337024
 20
-1.1840625
  0
LWPOLYLINE
  5
120
330
D2
100
AcDbEntity
  8
AM_0
 48
0.002192532306459
100
AcDbPolyline
 90
        4
 70
     0
 43
0.0
 10
-2.137458949715468
 20
-1.2340625
 10
-2.160431214150969
 20
-1.191438249398529
 10
-2.181110857256888
 20
-1.147490353255273
 10
-2.192753863719467
 20
-1.120153700151693
  0
LWPOLYLINE
  5
121
330
D2
100
AcDbEntity
  8
AM_0
 48
0.002192532306459
100
AcDbPolyline
 90
        3
 70
     0
 43
0.0
 10
-2.192753863719467
 20
-1.120153700151693
 10
-2.21423153463709
 20
-1.096259432388115
 10
-2.232180478254391
 20
-1.07
  0
LINE
  5
122
330
D2
100
AcDbEntity
  8
AM_0
 48
0.002192532306459
100
AcDbLine
 10
-2.066458492334236
 20
-1.338903700151693
 30
0.0
 11
-1.995561495333025
 21
-1.297971299848307
 31
0.0
  0
LWPOLYLINE
  5
123
330
D2
100
AcDbEntity
  8
AM_0
 48
0.002192532306459
100
AcDbPolyline
 90
        3
 70
     0
 43
0.0
 10
-2.042737421176545
 20
-1.398125
 10
-2.056451614038929
 20
-1.369584559607483
 10
-2.066458492334236
 20
-1.338903700151693
  0
LWPOLYLINE
  5
124
330
D2
100
AcDbEntity
  8
AM_0
 48
0.002192532306459
100
AcDbPolyline
 90
        3
 70
     0
 43
0.0
 10
-2.003310806641621
 20
-1.448278700151693
 10
-2.024788477559244
 20
-1.424384432388115
 10
-2.042737421176545
 20
-1.398125
  0
LINE
  5
125
330
D2
100
AcDbEntity
  8
AM_0
 48
0.002192532306459
100
AcDbLine
 10
-2.003310806641621
 20
-1.448278700151693
 30
0.0
 11
-1.93241380964041
 21
-1.407346299848307
 31
0.0
  0
LWPOLYLINE
  5
126
330
D2
100
AcDbEntity
  8
AM_0
 48
0.002192532306459
100
AcDbPolyline
 90
        3
 70
     0
 43
0.0
 10
-1.956134880798101
 20
-1.348125
 10
-1.942420687935717
 20
-1.376665440392517
 10
-1.93241380964041
 20
-1.407346299848307
  0
LWPOLYLINE
  5
127
330
D2
100
AcDbEntity
  8
AM_0
 48
0.002192532306459
100
AcDbPolyline
 90
        3
 70
     0
 43
0.0
 10
-1.995561495333025
 20
-1.297971299848307
 10
-1.974083824415402
 20
-1.321865567611885
 10
-1.956134880798101
 20
-1.348125
  0
LINE
  5
128
330
D2
100
AcDbEntity
  8
AM_0
 48
0.002192532306459
100
AcDbLine
 10
-2.270578472661496
 20
-1.498419092407283
 30
0.0
 11
-2.318298815566851
 21
-1.49779792903043
 31
0.0
  0
LINE
  5
129
330
D2
100
AcDbEntity
  8
AM_0
 48
0.002192532306459
100
AcDbLine
 10
-2.456267991986206
 20
-1.258783795777514
 30
0.0
 11
-2.432958235871078
 21
-1.217169092407283
 31
0.0
  0
LWPOLYLINE
  5
12A
330
D2
100
AcDbEntity
  8
AM_0
 48
0.002192532306459
100
AcDbPolyline
 90
        3
 70
     0
 43
0.0
 10
-2.270094610313673
 20
-1.216889734350518
 10
-2.298156910282517
 20
-1.214238843014547
 10
-2.327945015120504
 20
-1.212187592413266
  0
LINE
  5
12B
330
D2
100
AcDbEntity
  8
AM_0
 48
0.002192532306459
100
AcDbLine
 10
-2.327945015120504
 20
-1.212187592413266
 30
0.0
 11
-2.353953824146488
 21
-1.211052666893888
 31
0.0
  0
LWPOLYLINE
  5
12C
330
D2
100
AcDbEntity
  8
AM_0
 48
0.002192532306459
100
AcDbPolyline
 90
        3
 70
     0
 43
0.0
 10
-2.353953824146488
 20
-1.211052666893888
 10
-2.376943858838728
 20
-1.210510369847584
 10
-2.421270989651533
 20
-1.210421457656344
  0
LINE
  5
12D
330
D2
100
AcDbEntity
  8
AM_0
 48
0.002192532306459
100
AcDbLine
 10
-2.421270989651533
 20
-1.210421457656344
 30
0.0
 11
-2.432958235871078
 21
-1.217169092407283
 31
0.0
  0
LWPOLYLINE
  5
12E
330
D2
100
AcDbEntity
  8
AM_0
 48
0.002192532306459
100
AcDbPolyline
 90
        3
 70
     0
 43
0.0
 10
-2.432958235871078
 20
-1.217169092407283
 10
-2.403278414637276
 20
-1.219648491521736
 10
-2.37225373168502
 20
-1.221618123437406
  0
LWPOLYLINE
  5
12F
330
D2
100
AcDbEntity
  8
AM_0
 48
0.002192532306459
100
AcDbPolyline
 90
        3
 70
     0
 43
0.0
 10
-2.258891226441951
 20
-1.491671457656344
 10
-2.241917544108428
 20
-1.462339189975666
 10
-2.225779286924245
 20
-1.43305747759944
  0
LINE
  5
130
330
D2
100
AcDbEntity
  8
AM_0
 48
0.002192532306459
100
AcDbLine
 10
-2.225779286924245
 20
-1.43305747759944
 30
0.0
 11
-2.213757756742438
 21
-1.409965725501071
 31
0.0
  0
LWPOLYLINE
  5
131
330
D2
100
AcDbEntity
  8
AM_0
 48
0.002192532306459
100
AcDbPolyline
 90
        3
 70
     0
 43
0.0
 10
-2.213757756742438
 20
-1.409965725501071
 10
-2.20459277016588
 20
-1.391421611213502
 10
-2.188904728708882
 20
-1.357514734350518
  0
LWPOLYLINE
  5
132
330
D2
100
AcDbEntity
  8
AM_0
 48
0.002192532306459
100
AcDbPolyline
 90
        3
 70
     0
 43
0.0
 10
-2.244079194462778
 20
-1.443622934142958
 10
-2.257814372227351
 20
-1.471327936735335
 10
-2.270578472661496
 20
-1.498419092407283
  0
LINE
  5
133
330
D2
100
AcDbEntity
  8
AM_0
 48
0.002192532306459
100
AcDbLine
 10
-2.258891226441951
 20
-1.491671457656344
 30
0.0
 11
-2.270578472661496
 21
-1.498419092407283
 31
0.0
  0
LWPOLYLINE
  5
134
330
D2
100
AcDbEntity
  8
AM_0
 48
0.002192532306459
100
AcDbPolyline
 90
        3
 70
     0
 43
0.0
 10
-2.200960378019861
 20
-1.364475066725467
 10
-2.216847662582957
 20
-1.392576183495197
 10
-2.232057664280971
 20
-1.420531182044589
  0
LWPOLYLINE
  5
135
330
D2
100
AcDbEntity
  8
AM_0
 48
0.002192532306459
100
AcDbPolyline
 90
        3
 70
     0
 43
0.0
 10
-2.346244922659037
 20
-1.222753048956784
 10
-2.314594371805013
 20
-1.22355559349426
 10
-2.282150259624652
 20
-1.223850066725467
  0
LWPOLYLINE
  5
136
330
D2
100
AcDbEntity
  8
AM_0
 48
0.002192532306459
100
AcDbPolyline
 90
        3
 70
     0
 43
0.0
 10
-2.188904728708882
 20
-1.357514734350518
 10
-2.201900616558493
 20
-1.329890958955647
 10
-2.216114516672734
 20
-1.302287038418517
  0
LINE
  5
137
330
D2
100
AcDbEntity
  8
AM_0
 48
0.002192532306459
100
AcDbLine
 10
-2.216114516672734
 20
-1.302287038418517
 30
0.0
 11
-2.235870916626002
 21
-1.268067949924796
 31
0.0
  0
LWPOLYLINE
  5
138
330
D2
100
AcDbEntity
  8
AM_0
 48
0.002192532306459
100
AcDbPolyline
 90
        3
 70
     0
 43
0.0
 10
-2.235870916626002
 20
-1.268067949924796
 10
-2.245119552039896
 20
-1.2534112730526
 10
-2.270094610313673
 20
-1.216889734350518
  0
LINE
  5
139
330
D2
100
AcDbEntity
  8
AM_0
 48
0.002192532306459
100
AcDbLine
 10
-2.270094610313673
 20
-1.216889734350518
 30
0.0
 11
-2.282150259624652
 21
-1.223850066725467
 31
0.0
  0
LWPOLYLINE
  5
13A
330
D2
100
AcDbEntity
  8
AM_0
 48
0.002192532306459
100
AcDbPolyline
 90
        3
 70
     0
 43
0.0
 10
-2.282150259624652
 20
-1.223850066725467
 10
-2.268616994124262
 20
-1.251294122408012
 10
-2.254170824164537
 20
-1.278633406468319
  0
LWPOLYLINE
  5
13B
330
D2
100
AcDbEntity
  8
AM_0
 48
0.002192532306459
100
AcDbPolyline
 90
        3
 70
     0
 43
0.0
 10
-2.234414424211267
 20
-1.312852494962034
 10
-2.21803246959229
 20
-1.338922855181632
 10
-2.200960378019861
 20
-1.364475066725467
  0
LINE
  5
13C
330
D2
100
AcDbEntity
  8
AM_0
 48
0.002192532306459
100
AcDbLine
 10
-2.188904728708882
 20
-1.357514734350518
 30
0.0
 11
-2.200960378019861
 21
-1.364475066725467
 31
0.0
  0
LINE
  5
13D
330
D2
100
AcDbEntity
  8
AM_0
 48
0.002192532306459
100
AcDbLine
 10
-2.37225373168502
 20
-1.221618123437406
 30
0.0
 11
-2.346244922659037
 21
-1.222753048956784
 31
0.0
  0
ELLIPSE
  5
13E
330
D2
100
AcDbEntity
  8
AM_0
 48
0.002192532306459
100
AcDbEllipse
 10
-2.353572473930137
 20
-1.35883570138086
 30
0.0
 11
-0.07031249999999865
 21
0.1217848224071849
 31
0.0
210
0.0
220
0.0
230
1.0
 40
0.9063077870366497
 41
2.894927906767732
 42
3.565561594284251
  0
ELLIPSE
  5
13F
330
D2
100
AcDbEntity
  8
AM_0
 48
0.002192532306459
100
AcDbEllipse
 10
-2.353572473930137
 20
-1.358835701380858
 30
0.0
 11
-0.07031250000000309
 21
0.1217848224071851
 31
0.0
210
0.0
220
0.0
230
1.0
 40
0.9063077870366508
 41
5.859216366485114
 42
6.533351693262569
  0
LINE
  5
140
330
D2
100
AcDbEntity
  8
AM_0
 48
0.002192532306459
100
AcDbLine
 10
-2.232057664280971
 20
-1.420531182044589
 30
0.0
 11
-2.244079194462778
 21
-1.443622934142958
 31
0.0
  0
ELLIPSE
  5
141
330
D2
100
AcDbEntity
  8
AM_0
 48
0.002192532306459
100
AcDbEllipse
 10
-2.353572473930139
 20
-1.358835701380858
 30
0.0
 11
-0.0703125000000009
 21
0.1217848224071876
 31
0.0
210
0.0
220
0.0
230
1.0
 40
0.9063077870366522
 41
3.764821264091939
 42
4.571432719802696
  0
LWPOLYLINE
  5
142
330
D2
100
AcDbEntity
  8
AM_0
 48
0.002192532306459
100
AcDbPolyline
 90
        3
 70
     0
 43
0.0
 10
-2.254170824164537
 20
-1.278633406468319
 10
-2.244720625278228
 20
-1.295869806845232
 10
-2.234414424211267
 20
-1.312852494962034
  0
ELLIPSE
  5
143
330
D2
100
AcDbEntity
  8
AM_0
 48
0.002192532306459
100
AcDbEllipse
 10
-2.353572473930139
 20
-1.35883570138086
 30
0.0
 11
-0.07031250000000043
 21
0.1217848224071885
 31
0.0
210
0.0
220
0.0
230
1.0
 40
0.9063077870366514
 41
4.853345240966684
 42
5.659956696677434
  0
LWPOLYLINE
  5
144
330
D2
100
AcDbEntity
  8
AM_0
 48
0.002192532306459
100
AcDbPolyline
 90
        6
 70
     0
 43
0.0
 10
-2.544120138240507
 20
-1.368725135307957
 10
-2.544786868496199
 20
-1.381639786285403
 10
-2.543303433077121
 20
-1.403251690752073
 10
-2.538614212467934
 20
-1.424628643171123
 10
-2.530820853637836
 20
-1.445248398516277
 10
-2.524464052031639
 20
-1.4575
  0
LWPOLYLINE
  5
145
330
D2
100
AcDbEntity
  8
AM_0
 48
0.002192532306459
100
AcDbPolyline
 90
       34
 70
     0
 43
0.0
 10
-2.457061767673127
 20
-1.519068055057956
 10
-2.450200163288705
 20
-1.52194482722765
 10
-2.429722021334238
 20
-1.528103235327367
 10
-2.408795569918196
 20
-1.530900102719567
 10
-2.387955111677071
 20
-1.53027209403487
 10
-2.367728572243734
 20
-1.526252227500829
 10
-2.348617119359862
 20
-1.518964527934805
 10
-2.331079583152047
 20
-1.508612291572743
 10
-2.315524514701448
 20
-1.495464614821434
 10
-2.302312521374667
 20
-1.47985240852213
 10
-2.291739886959864
 20
-1.462145938258449
 10
-2.284048249386886
 20
-1.442755994019352
 10
-2.279421233770297
 20
-1.422132250718631
 10
-2.277977678546405
 20
-1.400759123598087
 10
-2.279764244627509
 20
-1.379146940443806
 10
-2.284750383119742
 20
-1.357818983377429
 10
-2.292827139436216
 20
-1.337296695240067
 10
-2.303809467389807
 20
-1.318085350779711
 10
-2.317440738543391
 20
-1.300661365901568
 10
-2.333395400258344
 20
-1.285463441304632
 10
-2.351288791130161
 20
-1.272876626684413
 10
-2.370682153219283
 20
-1.263224403706346
 10
-2.391091136997513
 20
-1.256757104134081
 10
-2.411998152132136
 20
-1.253640480529962
 10
-2.432869394079196
 20
-1.253946904033218
 10
-2.453175431186306
 20
-1.257652295210937
 10
-2.472411819022039
 20
-1.264640747637934
 10
-2.490115281994632
 20
-1.274715810898362
 10
-2.505872787000599
 20
-1.28761442095344
 10
-2.519318167417768
 20
-1.303010386470963
 10
-2.530149693767687
 20
-1.320537120668509
 10
-2.538120522226352
 20
-1.339787576399101
 10
-2.543041330265954
 20
-1.360315615958238
 10
-2.544120138240507
 20
-1.368725135307957
  0
ELLIPSE
  5
146
330
D2
100
AcDbEntity
  8
AM_0
 48
0.002192532306459
100
AcDbEllipse
 10
-2.443242020868951
 20
-1.410606438444094
 30
0.0
 11
0.05174132036229517
 21
-0.08961859571819297
 31
0.0
210
0.0
220
0.0
230
1.0
 40
0.9063077870366506
 41
0.0
 42
6.283185307179586
  0
ELLIPSE
  5
147
330
D2
100
AcDbEntity
  8
AM_4
 48
0.002192532306459
100
AcDbEllipse
 10
-2.415248358671468
 20
-1.394444290038773
 30
0.0
 11
-0.06957427803572135
 21
0.1205061844577915
 31
0.0
210
0.0
220
0.0
230
1.0
 40
0.9063077870366492
 41
0.0
 42
6.283185307179586
  0
ENDBLK
  5
D5
330
D2
100
AcDbEntity
  8
0
100
AcDbBlockEnd
  0
BLOCK
  5
14A
330
148
100
AcDbEntity
  8
0
100
AcDbBlockBegin
  2
3_125151H_0_in_125151_0
 70
     2
 10
0.0
 20
0.0
 30
0.0
  3
3_125151H_0_in_125151_0
  1

  0
ATTDEF
  5
14C
330
148
100
AcDbEntity
  8
AM_6
100
AcDbText
 10
8.471499999999999
 20
2.375
 30
0.0
 40
0.5
  1
WSTU-SC -Inch - housing
100
AcDbAttributeDefinition
  3

  2
NN
 70
     8
280
     0
  0
ATTDEF
  5
14D
330
148
100
AcDbEntity
  8
AM_6
100
AcDbText
 10
8.471499999999999
 20
1.875
 30
0.0
 40
0.5
  1
SC Take-Up Bearings -Wide Slot -(Normal Duty)
100
AcDbAttributeDefinition
  3

  2
NT
 70
     8
280
     0
  0
ATTDEF
  5
14E
330
148
100
AcDbEntity
  8
AM_6
100
AcDbText
 10
8.471499999999999
 20
1.375
 30
0.0
 40
0.5
  1
125151H
100
AcDbAttributeDefinition
  3

  2
NB
 70
     8
280
     0
  0
ATTDEF
  5
14F
330
148
100
AcDbEntity
  8
AM_6
100
AcDbText
 10
8.471499999999999
 20
0.875
 30
0.0
 40
0.5
  1
$PN.H
100
AcDbAttributeDefinition
  3

  2
NBSYN
 70
     8
280
     0
  0
ATTDEF
  5
150
330
148
100
AcDbEntity
  8
AM_6
100
AcDbText
 10
8.471499999999999
 20
0.375
 30
0.0
 40
0.5
  1
125151
100
AcDbAttributeDefinition
  3

  2
LINA
 70
     8
280
     0
  0
ATTDEF
  5
151
330
148
100
AcDbEntity
  8
AM_6
100
AcDbText
 10
8.471499999999999
 20
-0.125
 30
0.0
 40
0.5
  1
209
100
AcDbAttributeDefinition
  3

  2
SERIES
 70
     8
280
     0
  0
ATTDEF
  5
152
330
148
100
AcDbEntity
  8
AM_6
100
AcDbText
 10
8.471499999999999
 20
-0.625
 30
0.0
 40
0.5
  1
1-5/8
100
AcDbAttributeDefinition
  3

  2
SS
 70
     8
280
     0
  0
ATTDEF
  5
153
330
148
100
AcDbEntity
  8
AM_6
100
AcDbText
 10
8.471499999999999
 20
-1.125
 30
0.0
 40
0.5
  1
125151
100
AcDbAttributeDefinition
  3

  2
PN
 70
     8
280
     0
  0
ATTDEF
  5
154
330
148
100
AcDbEntity
  8
AM_6
100
AcDbText
 10
8.471499999999999
 20
-1.625
 30
0.0
 40
0.5
  1
WSTU-SC-110L
100
AcDbAttributeDefinition
  3

  2
DESCRIPTION
 70
     8
280
     0
  0
ATTDEF
  5
155
330
148
100
AcDbEntity
  8
AM_6
100
AcDbText
 10
8.471499999999999
 20
-2.125
 30
0.0
 40
0.5
  1
6.1
100
AcDbAttributeDefinition
  3

  2
W
 70
     8
280
     0
  0
ATTDEF
  5
156
330
148
100
AcDbEntity
  8
AM_6
100
AcDbText
 10
8.471499999999999
 20
-2.625
 30
0.0
 40
0.5
  1
WS400
100
AcDbAttributeDefinition
  3

  2
FS
 70
     8
280
     0
  0
ATTDEF
  5
157
330
148
100
AcDbEntity
  8
AM_6
100
AcDbText
 10
8.471499999999999
 20
-3.125
 30
0.0
 40
0.5
  1
RE-LUBE
100
AcDbAttributeDefinition
  3

  2
LF
 70
     8
280
     0
  0
ATTDEF
  5
158
330
148
100
AcDbEntity
  8
AM_6
100
AcDbText
 10
8.471499999999999
 20
-3.625
 30
0.0
 40
0.5
  1
1.94
100
AcDbAttributeDefinition
  3

  2
A
 70
     8
280
     0
  0
ATTDEF
  5
159
330
148
100
AcDbEntity
  8
AM_6
100
AcDbText
 10
8.471499999999999
 20
-4.125
 30
0.0
 40
0.5
  1
5.63
100
AcDbAttributeDefinition
  3

  2
B
 70
     8
280
     0
  0
ATTDEF
  5
15A
330
148
100
AcDbEntity
  8
AM_6
100
AcDbText
 10
8.471499999999999
 20
-4.625
 30
0.0
 40
0.5
  1
0.688
100
AcDbAttributeDefinition
  3

  2
C
 70
     8
280
     0
  0
ATTDEF
  5
15B
330
148
100
AcDbEntity
  8
AM_6
100
AcDbText
 10
8.471499999999999
 20
-5.125
 30
0.0
 40
0.5
  1
3.25
100
AcDbAttributeDefinition
  3

  2
D
 70
     8
280
     0
  0
ATTDEF
  5
15C
330
148
100
AcDbEntity
  8
AM_6
100
AcDbText
 10
8.471499999999999
 20
-5.625
 30
0.0
 40
0.5
  1
3.44
100
AcDbAttributeDefinition
  3

  2
E
 70
     8
280
     0
  0
ATTDEF
  5
15D
330
148
100
AcDbEntity
  8
AM_6
100
AcDbText
 10
8.471499999999999
 20
-6.125
 30
0.0
 40
0.5
  1
1
100
AcDbAttributeDefinition
  3

  2
F
 70
     8
280
     0
  0
ATTDEF
  5
15E
330
148
100
AcDbEntity
  8
AM_6
100
AcDbText
 10
8.471499999999999
 20
-6.625
 30
0.0
 40
0.5
  1
0.63
100
AcDbAttributeDefinition
  3

  2
G
 70
     8
280
     0
  0
ATTDEF
  5
15F
330
148
100
AcDbEntity
  8
AM_6
100
AcDbText
 10
8.471499999999999
 20
-7.125
 30
0.0
 40
0.5
  1
0.75
100
AcDbAttributeDefinition
  3

  2
H
 70
     8
280
     0
  0
ATTDEF
  5
160
330
148
100
AcDbEntity
  8
AM_6
100
AcDbText
 10
8.471499999999999
 20
-7.625
 30
0.0
 40
0.5
  1
3.25
100
AcDbAttributeDefinition
  3

  2
J
 70
     8
280
     0
  0
ATTDEF
  5
161
330
148
100
AcDbEntity
  8
AM_6
100
AcDbText
 10
8.471499999999999
 20
-8.125
 30
0.0
 40
0.5
  1
1.94
100
AcDbAttributeDefinition
  3

  2
K
 70
     8
280
     0
  0
ATTDEF
  5
162
330
148
100
AcDbEntity
  8
AM_6
100
AcDbText
 10
8.471499999999999
 20
-8.625
 30
0.0
 40
0.5
  1
2.22
100
AcDbAttributeDefinition
  3

  2
L
 70
     8
280
     0
  0
ATTDEF
  5
163
330
148
100
AcDbEntity
  8
AM_6
100
AcDbText
 10
8.471499999999999
 20
-9.125
 30
0.0
 40
0.5
  1
3.985 / 4.015
100
AcDbAttributeDefinition
  3

  2
M
 70
     8
280
     0
  0
ATTDEF
  5
164
330
148
100
AcDbEntity
  8
AM_6
100
AcDbText
 10
8.471499999999999
 20
-9.625
 30
0.0
 40
0.5
  1
4.75
100
AcDbAttributeDefinition
  3

  2
N
 70
     8
280
     0
  0
ATTDEF
  5
165
330
148
100
AcDbEntity
  8
AM_6
100
AcDbText
 10
8.471499999999999
 20
-10.125
 30
0.0
 40
0.5
  1
0.75
100
AcDbAttributeDefinition
  3

  2
R
 70
     8
280
     0
  0
ATTDEF
  5
166
330
148
100
AcDbEntity
  8
AM_6
100
AcDbText
 10
8.471499999999999
 20
-10.625
 30
0.0
 40
0.5
  1
1.19
100
AcDbAttributeDefinition
  3

  2
S
 70
     8
280
     0
  0
ATTDEF
  5
167
330
148
100
AcDbEntity
  8
AM_6
100
AcDbText
 10
8.471499999999999
 20
-11.125
 30
0.0
 40
0.5
  1
1.94
100
AcDbAttributeDefinition
  3

  2
T
 70
     8
280
     0
  0
ATTDEF
  5
168
330
148
100
AcDbEntity
  8
AM_6
100
AcDbText
 10
8.471499999999999
 20
-11.625
 30
0.0
 40
0.5
  1
4450
100
AcDbAttributeDefinition
  3

  2
CAPS
 70
     8
280
     0
  0
ATTDEF
  5
169
330
148
100
AcDbEntity
  8
AM_6
100
AcDbText
 10
8.471499999999999
 20
-12.125
 30
0.0
 40
0.5
  1
7891
100
AcDbAttributeDefinition
  3

  2
CAPD
 70
     8
280
     0
  0
ATTDEF
  5
16A
330
148
100
AcDbEntity
  8
AM_6
100
AcDbText
 10
8.471499999999999
 20
-12.625
 30
0.0
 40
0.5
  1
baldor
100
AcDbAttributeDefinition
  3

  2
COMPANY
 70
     8
280
     0
  0
LINE
  5
16B
330
148
100
AcDbEntity
  8
AM_9
 48
0.0198429495488199
100
AcDbLine
 10
-1.908198174666365
 20
-1.274903810567666
 30
0.0
 11
-1.817169612464857
 21
-1.22234844567668
 31
0.0
  0
LINE
  5
16C
330
148
100
AcDbEntity
  8
AM_9
 48
0.0198429495488199
100
AcDbLine
 10
-1.967141643746577
 20
-0.9625246767943213
 30
0.0
 11
-2.058198174666365
 21
-1.015096189432334
 31
0.0
  0
ARC
  5
16D
330
148
100
AcDbEntity
  8
AM_9
 48
0.0198429495488199
100
AcDbCircle
 10
0.0000000000000001
 20
-0.0000000000000033
 30
0.0
 40
1.754500000000003
100
AcDbArc
 50
72.01729300447262
 51
107.9827069955274
  0
LINE
  5
16E
330
148
100
AcDbEntity
  8
AM_9
 48
0.0198429495488199
100
AcDbLine
 10
-0.5416666666666666
 20
-1.583149640660106
 30
0.0
 11
-0.5416666666666666
 21
-1.668792219607409
 31
0.0
  0
LINE
  5
16F
330
148
100
AcDbEntity
  8
AM_9
 48
0.0198429495488199
100
AcDbLine
 10
0.5416666666666657
 20
-1.668792219607409
 30
0.0
 11
0.5416666666666666
 21
-1.583149640660106
 31
0.0
  0
LINE
  5
170
330
148
100
AcDbEntity
  8
AM_9
 48
0.0198429495488199
100
AcDbLine
 10
0.5416666666666666
 20
1.583149640660106
 30
0.0
 11
0.5416666666666666
 21
1.668792219607409
 31
0.0
  0
LINE
  5
171
330
148
100
AcDbEntity
  8
AM_9
 48
0.0198429495488199
100
AcDbLine
 10
-0.5416666666666666
 20
1.668792219607409
 30
0.0
 11
-0.5416666666666666
 21
1.583149640660106
 31
0.0
  0
ARC
  5
172
330
148
100
AcDbEntity
  8
AM_9
 48
0.0198429495488199
100
AcDbCircle
 10
0.0000000000000002
 20
0.0000000000000049
 30
0.0
 40
1.754500000000005
100
AcDbArc
 50
252.0172930044726
 51
287.9827069955273
  0
LINE
  5
173
330
148
100
AcDbEntity
  8
AM_9
 48
0.0198429495488199
100
AcDbLine
 10
1.625
 20
1.9925
 30
0.0
 11
-1.625
 21
1.9925
 31
0.0
  0
LINE
  5
174
330
148
100
AcDbEntity
  8
AM_9
 48
0.0198429495488199
100
AcDbLine
 10
1.625
 20
-1.9925
 30
0.0
 11
-1.625
 21
-1.9925
 31
0.0
  0
LINE
  5
175
330
148
100
AcDbEntity
  8
AM_9
 48
0.0198429495488199
100
AcDbLine
 10
2.81
 20
-0.5
 30
0.0
 11
3.44
 21
-0.5
 31
0.0
  0
LINE
  5
176
330
148
100
AcDbEntity
  8
AM_9
 48
0.0198429495488199
100
AcDbLine
 10
3.44
 20
0.5
 30
0.0
 11
2.81
 21
0.5
 31
0.0
  0
LINE
  5
177
330
148
100
AcDbEntity
  8
AM_7
 48
0.0198429495488199
100
AcDbLine
 10
-1.7569125
 20
0.0
 30
0.0
 11
1.7569125
 21
0.0
 31
0.0
  0
LINE
  5
178
330
148
100
AcDbEntity
  8
AM_7
 48
0.0198429495488199
100
AcDbLine
 10
0.0
 20
-1.7569125
 30
0.0
 11
-0.0000000000000001
 21
1.786725
 31
0.0
  0
LINE
  5
179
330
148
100
AcDbEntity
  8
AM_7
 48
0.0198429495488199
100
AcDbLine
 10
-2.470066831356429
 20
-1.42609375
 30
0.0
 11
-1.437380163850553
 21
-0.8298718245269451
 31
0.0
  0
LINE
  5
17A
330
148
100
AcDbEntity
  8
AM_7
 48
0.0198429495488199
100
AcDbLine
 10
3.4715
 20
0.0
 30
0.0
 11
2.7785
 21
0.0
 31
0.0
  0
LINE
  5
17B
330
148
100
AcDbEntity
  8
AM_0
 48
0.0198429495488199
100
AcDbLine
 10
-2.158198174666365
 20
-0.841891108675446
 30
0.0
 11
-1.80819817481741
 21
-1.448108891062935
 31
0.0
  0
ARC
  5
17C
330
148
100
AcDbEntity
  8
AM_0
 48
0.0198429495488199
100
AcDbCircle
 10
-1.721595634287921
 20
-1.398108891324553
 30
0.0
 40
0.0999999999999999
100
AcDbArc
 50
210.0000000000002
 51
300.0000000000002
  0
ARC
  5
17D
330
148
100
AcDbEntity
  8
AM_0
 48
0.0198429495488199
100
AcDbCircle
 10
-2.071595634287921
 20
-0.7918911086754464
 30
0.0
 40
0.0999999999999995
100
AcDbArc
 50
119.9999999999995
 51
210.0
  0
LINE
  5
17E
330
148
100
AcDbEntity
  8
AM_4
 48
0.0198429495488199
100
AcDbLine
 10
-2.12159563428792
 20
-0.7052885682970027
 30
0.0
 11
-1.671595634287921
 21
-1.484711431702997
 31
0.0
  0
LINE
  5
17F
330
148
100
AcDbEntity
  8
AM_0
 48
0.0198429495488199
100
AcDbLine
 10
-1.671595634287921
 20
-1.484711431702997
 30
0.0
 11
-1.631403633784611
 21
-1.461506569393141
 31
0.0
  0
LINE
  5
180
330
148
100
AcDbEntity
  8
AM_0
 48
0.0198429495488199
100
AcDbLine
 10
-2.08125606534459
 20
-0.6819985073085774
 30
0.0
 11
-2.121595634287921
 21
-0.7052885682970025
 31
0.0
  0
ARC
  5
181
330
148
100
AcDbEntity
  8
AM_0
 48
0.0198429495488199
100
AcDbCircle
 10
-0.0000000000000011
 20
0.0
 30
0.0
 40
2.189999999999999
100
AcDbArc
 50
137.9028452206786
 51
222.0971547793214
  0
LWPOLYLINE
  5
182
330
148
100
AcDbEntity
  8
AM_0
 48
0.0198429495488199
100
AcDbPolyline
 90
       19
 70
     0
 43
0.0
 10
3.44
 20
1.556200006151199
 10
3.4397381946926
 20
1.56219632122883
 10
3.438954772339095
 20
1.568147000681233
 10
3.43765569525664
 20
1.574006756244655
 10
3.435850850206236
 20
1.579730991641042
 10
3.433553973148512
 20
1.58527614198264
 10
3.43078254470477
 20
1.590600005327094
 10
3.427557657118899
 20
1.595662063859719
 10
3.42390385373267
 20
1.600423792258526
 10
3.419848942196079
 20
1.604848950895189
 10
3.415423782834341
 20
1.6089038616405
 10
3.410662053782184
 20
1.612557664175265
 10
3.405599994672905
 20
1.615782550855968
 10
3.400276130832879
 20
1.618553978347731
 10
3.394730980080569
 20
1.620850854413904
 10
3.38900674436145
 20
1.622655698440735
 10
3.383146988565735
 20
1.623954774475384
 10
3.377196308973246
 20
1.624738195764824
 10
3.3712
 20
1.625
  0
LINE
  5
183
330
148
100
AcDbEntity
  8
AM_0
 48
0.0198429495488199
100
AcDbLine
 10
3.3712
 20
1.625
 30
0.0
 11
1.625
 21
1.625
 31
0.0
  0
LWPOLYLINE
  5
184
330
148
100
AcDbEntity
  8
AM_0
 48
0.0198429495488199
100
AcDbPolyline
 90
       19
 70
     0
 43
0.0
 10
3.3712
 20
-1.625
 10
3.377196315101038
 20
-1.624738195228712
 10
3.383146994623484
 20
-1.62395477340724
 10
3.389006750303053
 20
-1.622655696848688
 10
3.394730985860805
 20
-1.62085085231007
 10
3.40027613640776
 20
-1.618553975748122
 10
3.4056
 20
-1.615782547780369
 10
3.410662058820952
 20
-1.612557660647083
 10
3.415423787546433
 20
-1.608903857686586
 10
3.419848946545634
 20
-1.604848946545635
 10
3.423903857686585
 20
-1.600423787546434
 10
3.427557660647082
 20
-1.595662058820952
 10
3.430782547780369
 20
-1.5906
 10
3.433553975748121
 20
-1.585276136407761
 10
3.43585085231007
 20
-1.579730985860806
 10
3.437655696848688
 20
-1.574006750303054
 10
3.438954773407239
 20
-1.568146994623485
 10
3.439738195228712
 20
-1.562196315101039
 10
3.44
 20
-1.5562
  0
LINE
  5
185
330
148
100
AcDbEntity
  8
AM_0
 48
0.0198429495488199
100
AcDbLine
 10
3.3712
 20
-1.625
 30
0.0
 11
1.625
 21
-1.625
 31
0.0
  0
LINE
  5
186
330
148
100
AcDbEntity
  8
AM_0
 48
0.0198429495488199
100
AcDbLine
 10
2.809999999999999
 20
-0.9011999999999999
 30
0.0
 11
2.81
 21
0.9011999999999997
 31
0.0
  0
LINE
  5
187
330
148
100
AcDbEntity
  8
AM_0
 48
0.0198429495488199
100
AcDbLine
 10
3.44
 20
1.5562
 30
0.0
 11
3.44
 21
-1.5562
 31
0.0
  0
CIRCLE
  5
188
330
148
100
AcDbEntity
  8
AM_0
 48
0.0198429495488199
100
AcDbCircle
 10
0.0
 20
0.0
 30
0.0
 40
1.67325
  0
LINE
  5
189
330
148
100
AcDbEntity
  8
AM_4
 48
0.0198429495488199
100
AcDbLine
 10
3.44
 20
1.5562
 30
0.0
 11
1.625
 21
1.5562
 31
0.0
  0
ARC
  5
18A
330
148
100
AcDbEntity
  8
AM_0
 48
0.0198429495488199
100
AcDbCircle
 10
-0.0000000000000024
 20
0.0
 30
0.0
 40
2.151199999999998
100
AcDbArc
 50
139.0596633159512
 51
220.9403366840488
  0
LINE
  5
18B
330
148
100
AcDbEntity
  8
AM_4
 48
0.0198429495488199
100
AcDbLine
 10
3.44
 20
-1.5562
 30
0.0
 11
1.625
 21
-1.5562
 31
0.0
  0
ARC
  5
18C
330
148
100
AcDbEntity
  8
AM_0
 48
0.0198429495488199
100
AcDbCircle
 10
2.741199999999998
 20
-0.9011999999999988
 30
0.0
 40
0.0688000000000011
100
AcDbArc
 50
270.0000000000018
 51
359.9999999999991
  0
LINE
  5
18D
330
148
100
AcDbEntity
  8
AM_0
 48
0.0198429495488199
100
AcDbLine
 10
2.1288
 20
-0.9699999999999998
 30
0.0
 11
2.7412
 21
-0.9699999999999999
 31
0.0
  0
ARC
  5
18E
330
148
100
AcDbEntity
  8
AM_0
 48
0.0198429495488199
100
AcDbCircle
 10
2.1288
 20
-0.9011999999999996
 30
0.0
 40
0.0688
100
AcDbArc
 50
180.0000000000002
 51
270.0
  0
LINE
  5
18F
330
148
100
AcDbEntity
  8
AM_0
 48
0.0198429495488199
100
AcDbLine
 10
2.06
 20
0.9011999999999999
 30
0.0
 11
2.06
 21
-0.9011999999999998
 31
0.0
  0
ARC
  5
190
330
148
100
AcDbEntity
  8
AM_0
 48
0.0198429495488199
100
AcDbCircle
 10
2.1288
 20
0.9012000000000002
 30
0.0
 40
0.0687999999999996
100
AcDbArc
 50
89.99999999999926
 51
180.0000000000003
  0
LINE
  5
191
330
148
100
AcDbEntity
  8
AM_0
 48
0.0198429495488199
100
AcDbLine
 10
2.7412
 20
0.9699999999999995
 30
0.0
 11
2.1288
 21
0.9699999999999999
 31
0.0
  0
ARC
  5
192
330
148
100
AcDbEntity
  8
AM_0
 48
0.0198429495488199
100
AcDbCircle
 10
2.7412
 20
0.9012
 30
0.0
 40
0.0687999999999995
100
AcDbArc
 50
359.9999999999997
 51
90.0
  0
LWPOLYLINE
  5
193
330
148
100
AcDbEntity
  8
AM_0
 48
0.0198429495488199
100
AcDbPolyline
 90
       19
 70
     0
 43
0.0
 10
1.624999999999999
 20
2.3062
 10
1.624738195228711
 20
2.312196315101038
 10
1.623954773407239
 20
2.318146994623485
 10
1.622655696848687
 20
2.324006750303053
 10
1.62085085231007
 20
2.329730985860806
 10
1.618553975748121
 20
2.33527613640776
 10
1.615782547780369
 20
2.3406
 10
1.612557660647082
 20
2.345662058820952
 10
1.608903857686585
 20
2.350423787546434
 10
1.604848946545634
 20
2.354848946545634
 10
1.600423787546433
 20
2.358903857686586
 10
1.595662058820951
 20
2.362557660647083
 10
1.590599999999999
 20
2.365782547780369
 10
1.585276136407759
 20
2.368553975748121
 10
1.579730985860805
 20
2.37085085231007
 10
1.574006750303052
 20
2.372655696848688
 10
1.568146994623484
 20
2.37395477340724
 10
1.562196315101038
 20
2.374738195228712
 10
1.5562
 20
2.375
  0
LWPOLYLINE
  5
194
330
148
100
AcDbEntity
  8
AM_0
 48
0.0198429495488199
100
AcDbPolyline
 90
       19
 70
     0
 43
0.0
 10
-1.5562
 20
2.375
 10
-1.562196315101039
 20
2.374738195228712
 10
-1.568146994623485
 20
2.37395477340724
 10
-1.574006750303053
 20
2.372655696848688
 10
-1.579730985860806
 20
2.370850852310071
 10
-1.58527613640776
 20
2.368553975748121
 10
-1.5906
 20
2.36578254778037
 10
-1.595662058820952
 20
2.362557660647083
 10
-1.600423787546434
 20
2.358903857686586
 10
-1.604848946545634
 20
2.354848946545635
 10
-1.608903857686586
 20
2.350423787546434
 10
-1.612557660647082
 20
2.345662058820952
 10
-1.615782547780369
 20
2.3406
 10
-1.618553975748121
 20
2.33527613640776
 10
-1.62085085231007
 20
2.329730985860806
 10
-1.622655696848688
 20
2.324006750303054
 10
-1.62395477340724
 20
2.318146994623485
 10
-1.624738195228712
 20
2.312196315101039
 10
-1.625
 20
2.3062
  0
LINE
  5
195
330
148
100
AcDbEntity
  8
AM_0
 48
0.0198429495488199
100
AcDbLine
 10
1.5562
 20
2.375
 30
0.0
 11
-1.5562
 21
2.375
 31
0.0
  0
LINE
  5
196
330
148
100
AcDbEntity
  8
AM_0
 48
0.0198429495488199
100
AcDbLine
 10
1.625
 20
2.3062
 30
0.0
 11
1.625
 21
1.5562
 31
0.0
  0
LINE
  5
197
330
148
100
AcDbEntity
  8
AM_0
 48
0.0198429495488199
100
AcDbLine
 10
-1.625
 20
2.3062
 30
0.0
 11
-1.625
 21
1.409622800610149
 31
0.0
  0
LINE
  5
198
330
148
100
AcDbEntity
  8
AM_4
 48
0.0198429495488199
100
AcDbLine
 10
1.625
 20
2.3062
 30
0.0
 11
-1.625
 21
2.3062
 31
0.0
  0
LINE
  5
199
330
148
100
AcDbEntity
  8
AM_0
 48
0.0198429495488199
100
AcDbLine
 10
1.625
 20
1.80125
 30
0.0
 11
-1.625
 21
1.80125
 31
0.0
  0
LINE
  5
19A
330
148
100
AcDbEntity
  8
AM_0
 48
0.0198429495488199
100
AcDbLine
 10
1.625
 20
1.90445
 30
0.0
 11
-1.625
 21
1.90445
 31
0.0
  0
LINE
  5
19B
330
148
100
AcDbEntity
  8
AM_0
 48
0.0198429495488199
100
AcDbLine
 10
1.625
 20
-1.80125
 30
0.0
 11
-1.625
 21
-1.80125
 31
0.0
  0
LINE
  5
19C
330
148
100
AcDbEntity
  8
AM_0
 48
0.0198429495488199
100
AcDbLine
 10
-1.625
 20
-1.409622800610149
 30
0.0
 11
-1.625
 21
-2.3062
 31
0.0
  0
LINE
  5
19D
330
148
100
AcDbEntity
  8
AM_0
 48
0.0198429495488199
100
AcDbLine
 10
1.625
 20
-1.5562
 30
0.0
 11
1.625
 21
-2.3062
 31
0.0
  0
LINE
  5
19E
330
148
100
AcDbEntity
  8
AM_0
 48
0.0198429495488199
100
AcDbLine
 10
1.625
 20
-1.90445
 30
0.0
 11
-1.625
 21
-1.90445
 31
0.0
  0
LINE
  5
19F
330
148
100
AcDbEntity
  8
AM_0
 48
0.0198429495488199
100
AcDbLine
 10
1.5562
 20
-2.375
 30
0.0
 11
-1.5562
 21
-2.375
 31
0.0
  0
LWPOLYLINE
  5
1A0
330
148
100
AcDbEntity
  8
AM_0
 48
0.0198429495488199
100
AcDbPolyline
 90
       19
 70
     0
 43
0.0
 10
1.556200000000001
 20
-2.375
 10
1.56219631510104
 20
-2.374738195228712
 10
1.568146994623486
 20
-2.373954773407239
 10
1.574006750303054
 20
-2.372655696848688
 10
1.579730985860807
 20
-2.37085085231007
 10
1.585276136407761
 20
-2.368553975748121
 10
1.590600000000001
 20
-2.365782547780369
 10
1.595662058820953
 20
-2.362557660647082
 10
1.600423787546435
 20
-2.358903857686585
 10
1.604848946545635
 20
-2.354848946545634
 10
1.608903857686587
 20
-2.350423787546434
 10
1.612557660647084
 20
-2.345662058820952
 10
1.61578254778037
 20
-2.3406
 10
1.618553975748122
 20
-2.33527613640776
 10
1.620850852310071
 20
-2.329730985860806
 10
1.622655696848689
 20
-2.324006750303053
 10
1.623954773407241
 20
-2.318146994623485
 10
1.624738195228713
 20
-2.312196315101038
 10
1.625000000000001
 20
-2.306200001449851
  0
LINE
  5
1A1
330
148
100
AcDbEntity
  8
AM_4
 48
0.0198429495488199
100
AcDbLine
 10
1.625
 20
-2.3062
 30
0.0
 11
-1.625
 21
-2.3062
 31
0.0
  0
LWPOLYLINE
  5
1A2
330
148
100
AcDbEntity
  8
AM_0
 48
0.0198429495488199
100
AcDbPolyline
 90
       19
 70
     0
 43
0.0
 10
-1.625
 20
-2.306199999999999
 10
-1.624738195228712
 20
-2.312196315101038
 10
-1.62395477340724
 20
-2.318146994623484
 10
-1.622655696848688
 20
-2.324006750303053
 10
-1.620850852310071
 20
-2.329730985860805
 10
-1.618553975748122
 20
-2.335276136407759
 10
-1.61578254778037
 20
-2.340599999999999
 10
-1.612557660647083
 20
-2.345662058820952
 10
-1.608903857686586
 20
-2.350423787546433
 10
-1.604848946545635
 20
-2.354848946545634
 10
-1.600423787546434
 20
-2.358903857686585
 10
-1.595662058820952
 20
-2.362557660647082
 10
-1.5906
 20
-2.365782547780369
 10
-1.58527613640776
 20
-2.368553975748121
 10
-1.579730985860806
 20
-2.37085085231007
 10
-1.574006750303053
 20
-2.372655696848688
 10
-1.568146994623485
 20
-2.37395477340724
 10
-1.562196315101039
 20
-2.374738195228712
 10
-1.5562
 20
-2.375
  0
LINE
  5
1A3
330
148
100
AcDbEntity
  8
AM_0
 48
0.0198429495488199
100
AcDbLine
 10
2.81
 20
0.7738920855002975
 30
0.0
 11
3.44
 21
0.7738920855002975
 31
0.0
  0
LINE
  5
1A4
330
148
100
AcDbEntity
  8
AM_0
 48
0.0198429495488199
100
AcDbLine
 10
3.44
 20
-0.7738920855002974
 30
0.0
 11
2.81
 21
-0.7738920855002975
 31
0.0
  0
ENDBLK
  5
14B
330
148
100
AcDbEntity
  8
0
100
AcDbBlockEnd
  0
ENDSEC
  0
SECTION
  2
ENTITIES
  0
ATTDEF
  5
6F
330
1F
100
AcDbEntity
  8
AM_6
100
AcDbText
 10
8.471499999999999
 20
2.375
 30
0.0
 40
0.5
  1
Set Screw Wide Slot Take Up Inch Bore
100
AcDbAttributeDefinition
  3

  2
NN
 70
     8
280
     0
  0
ATTDEF
  5
70
330
1F
100
AcDbEntity
  8
AM_6
100
AcDbText
 10
8.471499999999999
 20
1.875
 30
0.0
 40
0.5
  1
SC Take-Up Bearings -Wide Slot -(Normal Duty)
100
AcDbAttributeDefinition
  3

  2
NT
 70
     8
280
     0
  0
ATTDEF
  5
71
330
1F
100
AcDbEntity
  8
AM_6
100
AcDbText
 10
8.471499999999999
 20
1.375
 30
0.0
 40
0.5
  1
125151
100
AcDbAttributeDefinition
  3

  2
NB
 70
     8
280
     0
  0
ATTDEF
  5
72
330
1F
100
AcDbEntity
  8
AM_6
100
AcDbText
 10
8.471499999999999
 20
0.875
 30
0.0
 40
0.5
  1
$PN.
100
AcDbAttributeDefinition
  3

  2
NBSYN
 70
     8
280
     0
  0
ATTDEF
  5
73
330
1F
100
AcDbEntity
  8
AM_6
100
AcDbText
 10
8.471499999999999
 20
0.375
 30
0.0
 40
0.5
  1
125151
100
AcDbAttributeDefinition
  3

  2
LINA
 70
     8
280
     0
  0
ATTDEF
  5
74
330
1F
100
AcDbEntity
  8
AM_6
100
AcDbText
 10
8.471499999999999
 20
-0.125
 30
0.0
 40
0.5
  1
209
100
AcDbAttributeDefinition
  3

  2
SERIES
 70
     8
280
     0
  0
ATTDEF
  5
75
330
1F
100
AcDbEntity
  8
AM_6
100
AcDbText
 10
8.471499999999999
 20
-0.625
 30
0.0
 40
0.5
  1
1-5/8
100
AcDbAttributeDefinition
  3

  2
SS
 70
     8
280
     0
  0
ATTDEF
  5
76
330
1F
100
AcDbEntity
  8
AM_6
100
AcDbText
 10
8.471499999999999
 20
-1.125
 30
0.0
 40
0.5
  1
125151
100
AcDbAttributeDefinition
  3

  2
PN
 70
     8
280
     0
  0
ATTDEF
  5
77
330
1F
100
AcDbEntity
  8
AM_6
100
AcDbText
 10
8.471499999999999
 20
-1.625
 30
0.0
 40
0.5
  1
WSTU-SC-110L
100
AcDbAttributeDefinition
  3

  2
DESCRIPTION
 70
     8
280
     0
  0
ATTDEF
  5
78
330
1F
100
AcDbEntity
  8
AM_6
100
AcDbText
 10
8.471499999999999
 20
-2.125
 30
0.0
 40
0.5
  1
6.1
100
AcDbAttributeDefinition
  3

  2
W
 70
     8
280
     0
  0
ATTDEF
  5
79
330
1F
100
AcDbEntity
  8
AM_6
100
AcDbText
 10
8.471499999999999
 20
-2.625
 30
0.0
 40
0.5
  1
WS400
100
AcDbAttributeDefinition
  3

  2
FS
 70
     8
280
     0
  0
ATTDEF
  5
7A
330
1F
100
AcDbEntity
  8
AM_6
100
AcDbText
 10
8.471499999999999
 20
-3.125
 30
0.0
 40
0.5
  1
RE-LUBE
100
AcDbAttributeDefinition
  3

  2
LF
 70
     8
280
     0
  0
ATTDEF
  5
7B
330
1F
100
AcDbEntity
  8
AM_6
100
AcDbText
 10
8.471499999999999
 20
-3.625
 30
0.0
 40
0.5
  1
1.94
100
AcDbAttributeDefinition
  3

  2
A
 70
     8
280
     0
  0
ATTDEF
  5
7C
330
1F
100
AcDbEntity
  8
AM_6
100
AcDbText
 10
8.471499999999999
 20
-4.125
 30
0.0
 40
0.5
  1
5.63
100
AcDbAttributeDefinition
  3

  2
B
 70
     8
280
     0
  0
ATTDEF
  5
7D
330
1F
100
AcDbEntity
  8
AM_6
100
AcDbText
 10
8.471499999999999
 20
-4.625
 30
0.0
 40
0.5
  1
0.688
100
AcDbAttributeDefinition
  3

  2
C
 70
     8
280
     0
  0
ATTDEF
  5
7E
330
1F
100
AcDbEntity
  8
AM_6
100
AcDbText
 10
8.471499999999999
 20
-5.125
 30
0.0
 40
0.5
  1
3.25
100
AcDbAttributeDefinition
  3

  2
D
 70
     8
280
     0
  0
ATTDEF
  5
7F
330
1F
100
AcDbEntity
  8
AM_6
100
AcDbText
 10
8.471499999999999
 20
-5.625
 30
0.0
 40
0.5
  1
3.44
100
AcDbAttributeDefinition
  3

  2
E
 70
     8
280
     0
  0
ATTDEF
  5
80
330
1F
100
AcDbEntity
  8
AM_6
100
AcDbText
 10
8.471499999999999
 20
-6.125
 30
0.0
 40
0.5
  1
1
100
AcDbAttributeDefinition
  3

  2
F
 70
     8
280
     0
  0
ATTDEF
  5
81
330
1F
100
AcDbEntity
  8
AM_6
100
AcDbText
 10
8.471499999999999
 20
-6.625
 30
0.0
 40
0.5
  1
0.63
100
AcDbAttributeDefinition
  3

  2
G
 70
     8
280
     0
  0
ATTDEF
  5
82
330
1F
100
AcDbEntity
  8
AM_6
100
AcDbText
 10
8.471499999999999
 20
-7.125
 30
0.0
 40
0.5
  1
0.75
100
AcDbAttributeDefinition
  3

  2
H
 70
     8
280
     0
  0
ATTDEF
  5
83
330
1F
100
AcDbEntity
  8
AM_6
100
AcDbText
 10
8.471499999999999
 20
-7.625
 30
0.0
 40
0.5
  1
3.25
100
AcDbAttributeDefinition
  3

  2
J
 70
     8
280
     0
  0
ATTDEF
  5
84
330
1F
100
AcDbEntity
  8
AM_6
100
AcDbText
 10
8.471499999999999
 20
-8.125
 30
0.0
 40
0.5
  1
1.94
100
AcDbAttributeDefinition
  3

  2
K
 70
     8
280
     0
  0
ATTDEF
  5
85
330
1F
100
AcDbEntity
  8
AM_6
100
AcDbText
 10
8.471499999999999
 20
-8.625
 30
0.0
 40
0.5
  1
2.22
100
AcDbAttributeDefinition
  3

  2
L
 70
     8
280
     0
  0
ATTDEF
  5
86
330
1F
100
AcDbEntity
  8
AM_6
100
AcDbText
 10
8.471499999999999
 20
-9.125
 30
0.0
 40
0.5
  1
3.985 / 4.015
100
AcDbAttributeDefinition
  3

  2
M
 70
     8
280
     0
  0
ATTDEF
  5
87
330
1F
100
AcDbEntity
  8
AM_6
100
AcDbText
 10
8.471499999999999
 20
-9.625
 30
0.0
 40
0.5
  1
4.75
100
AcDbAttributeDefinition
  3

  2
N
 70
     8
280
     0
  0
ATTDEF
  5
88
330
1F
100
AcDbEntity
  8
AM_6
100
AcDbText
 10
8.471499999999999
 20
-10.125
 30
0.0
 40
0.5
  1
0.75
100
AcDbAttributeDefinition
  3

  2
R
 70
     8
280
     0
  0
ATTDEF
  5
89
330
1F
100
AcDbEntity
  8
AM_6
100
AcDbText
 10
8.471499999999999
 20
-10.625
 30
0.0
 40
0.5
  1
1.19
100
AcDbAttributeDefinition
  3

  2
S
 70
     8
280
     0
  0
ATTDEF
  5
8A
330
1F
100
AcDbEntity
  8
AM_6
100
AcDbText
 10
8.471499999999999
 20
-11.125
 30
0.0
 40
0.5
  1
1.94
100
AcDbAttributeDefinition
  3

  2
T
 70
     8
280
     0
  0
ATTDEF
  5
8B
330
1F
100
AcDbEntity
  8
AM_6
100
AcDbText
 10
8.471499999999999
 20
-11.625
 30
0.0
 40
0.5
  1
baldor
100
AcDbAttributeDefinition
  3

  2
COMPANY
 70
     8
280
     0
  0
INSERT
  5
8D
330
1F
100
AcDbEntity
  8
0
100
AcDbBlockReference
  2
1_045874_0_in_125151_0
 10
0.0
 20
0.0
 30
0.0
  0
INSERT
  5
D3
330
1F
100
AcDbEntity
  8
0
100
AcDbBlockReference
  2
2_405016_Inch_0_in_125151_0
 10
0.0
 20
0.0
 30
0.0
  0
INSERT
  5
149
330
1F
100
AcDbEntity
  8
0
100
AcDbBlockReference
  2
3_125151H_0_in_125151_0
 10
0.0
 20
0.0
 30
0.0
  0
POINT
  5
1A6
330
1F
100
AcDbEntity
  8
ConnectionPoints
100
AcDbPoint
 10
-1.983198174666365
 20
-1.145
 30
0.0
  0
POINT
  5
1A7
330
1F
100
AcDbEntity
  8
ConnectionPoints
100
AcDbPoint
 10
-1.983198174666365
 20
-1.145
 30
0.0
  0
POINT
  5
1A8
330
1F
100
AcDbEntity
  8
ConnectionPoints
100
AcDbPoint
 10
0.0
 20
0.0
 30
1.19
  0
ENDSEC
  0
SECTION
  2
OBJECTS
  0
DICTIONARY
  5
C
330
0
100
AcDbDictionary
281
     1
  3
ACAD_DETAILVIEWSTYLE
350
1B0
  3
ACAD_GROUP
350
D
  3
ACAD_LAYOUT
350
1A
  3
ACAD_MATERIAL
350
43
  3
ACAD_MLEADERSTYLE
350
6B
  3
ACAD_MLINESTYLE
350
17
  3
ACAD_PLOTSETTINGS
350
19
  3
ACAD_PLOTSTYLENAME
350
E
  3
ACAD_SCALELIST
350
47
  3
ACAD_SECTIONVIEWSTYLE
350
1B1
  3
ACAD_TABLESTYLE
350
69
  3
ACAD_VISUALSTYLE
350
2A
  3
ACDB_RECOMPOSE_DATA
350
1AD
  3
AcDbVariableDictionary
350
1A9
  0
SUN
  5
6D
330
29
100
AcDbSun
 90
        1
290
     0
 63
     7
421
 16777215
 40
1.0
291
     1
 91
  2455826
 92
 54000000
292
     0
 70
     2
 71
   256
280
     1
  0
DICTIONARY
  5
1B0
102
{ACAD_REACTORS
330
C
102
}
330
C
100
AcDbDictionary
281
     1
  0
DICTIONARY
  5
D
102
{ACAD_REACTORS
330
C
102
}
330
C
100
AcDbDictionary
281
     1
  0
DICTIONARY
  5
1A
102
{ACAD_REACTORS
330
C
102
}
330
C
100
AcDbDictionary
281
     1
  3
Layout1
350
1E
  3
Layout2
350
26
  3
Model
350
22
  0
DICTIONARY
  5
43
102
{ACAD_REACTORS
330
C
102
}
330
C
100
AcDbDictionary
281
     1
  3
ByBlock
350
45
  3
ByLayer
350
44
  3
Global
350
46
  0
DICTIONARY
  5
6B
102
{ACAD_REACTORS
330
C
102
}
330
C
100
AcDbDictionary
281
     1
  3
Standard
350
6C
  0
DICTIONARY
  5
17
102
{ACAD_REACTORS
330
C
102
}
330
C
100
AcDbDictionary
281
     1
  3
Standard
350
18
  0
DICTIONARY
  5
19
102
{ACAD_REACTORS
330
C
102
}
330
C
100
AcDbDictionary
281
     1
  0
ACDBDICTIONARYWDFLT
  5
E
102
{ACAD_REACTORS
330
C
102
}
330
C
100
AcDbDictionary
281
     1
  3
Normal
350
F
100
AcDbDictionaryWithDefault
340
F
  0
DICTIONARY
  5
47
102
{ACAD_REACTORS
330
C
102
}
330
C
100
AcDbDictionary
281
     1
  3
A0
350
48
  3
A1
350
49
  3
A2
350
4A
  3
A3
350
4B
  3
A4
350
4C
  3
A5
350
4D
  3
A6
350
4E
  3
A7
350
4F
  3
A8
350
50
  3
A9
350
51
  3
B0
350
52
  3
B1
350
53
  3
B2
350
54
  3
B3
350
55
  3
B4
350
56
  3
B5
350
57
  3
B6
350
58
  3
B7
350
59
  3
B8
350
5A
  3
B9
350
5B
  3
C0
350
5C
  3
C1
350
5D
  3
C2
350
5E
  3
C3
350
5F
  3
C4
350
60
  3
C5
350
61
  3
C6
350
62
  3
C7
350
63
  3
C8
350
64
  3
C9
350
65
  3
D0
350
66
  3
D1
350
67
  3
D2
350
68
  0
DICTIONARY
  5
1B1
102
{ACAD_REACTORS
330
C
102
}
330
C
100
AcDbDictionary
281
     1
  0
DICTIONARY
  5
69
102
{ACAD_REACTORS
330
C
102
}
330
C
100
AcDbDictionary
281
     1
  3
Standard
350
6A
  0
DICTIONARY
  5
2A
102
{ACAD_REACTORS
330
C
102
}
330
C
100
AcDbDictionary
281
     1
  3
2dWireframe
350
2F
  3
Basic
350
32
  3
Brighten
350
36
  3
ColorChange
350
3A
  3
Conceptual
350
34
  3
Dim
350
35
  3
EdgeColorOff
350
3D
  3
Facepattern
350
39
  3
Flat
350
2B
  3
FlatWithEdges
350
2C
  3
Gouraud
350
2D
  3
GouraudWithEdges
350
2E
  3
Hidden
350
31
  3
JitterOff
350
3B
  3
Linepattern
350
38
  3
OverhangOff
350
3C
  3
Realistic
350
33
  3
Shaded
350
42
  3
Shaded with edges
350
41
  3
Shades of Gray
350
3E
  3
Sketchy
350
3F
  3
Thicken
350
37
  3
Wireframe
350
30
  3
X-Ray
350
40
  0
XRECORD
  5
1AD
102
{ACAD_REACTORS
330
C
102
}
330
C
100
AcDbXrecord
280
     1
 90
        1
330
6A
  0
DICTIONARY
  5
1A9
102
{ACAD_REACTORS
330
C
102
}
330
C
100
AcDbDictionary
281
     1
  3
CANNOSCALE
350
1AA
  3
CMLEADERSTYLE
350
1AF
  3
CTABLESTYLE
350
1AE
  0
LAYOUT
  5
1E
102
{ACAD_REACTORS
330
1A
102
}
330
1A
100
AcDbPlotSettings
  1

  2
none_device
  4

  6

 40
0.0
 41
0.0
 42
0.0
 43
0.0
 44
0.0
 45
0.0
 46
0.0
 47
0.0
 48
0.0
 49
0.0
140
0.0
141
0.0
142
1.0
143
1.0
 70
   688
 72
     0
 73
     0
 74
     5
  7

 75
    16
 76
     0
 77
     2
 78
   300
147
1.0
148
0.0
149
0.0
100
AcDbLayout
  1
Layout1
 70
     1
 71
     1
 10
0.0
 20
0.0
 11
12.0
 21
9.0
 12
0.0
 22
0.0
 32
0.0
 14
1.000000000000000E+20
 24
1.000000000000000E+20
 34
1.000000000000000E+20
 15
-1.000000000000000E+20
 25
-1.000000000000000E+20
 35
-1.000000000000000E+20
146
0.0
 13
0.0
 23
0.0
 33
0.0
 16
1.0
 26
0.0
 36
0.0
 17
0.0
 27
1.0
 37
0.0
 76
     0
330
1B
  0
LAYOUT
  5
26
102
{ACAD_REACTORS
330
1A
102
}
330
1A
100
AcDbPlotSettings
  1

  2
none_device
  4

  6

 40
0.0
 41
0.0
 42
0.0
 43
0.0
 44
0.0
 45
0.0
 46
0.0
 47
0.0
 48
0.0
 49
0.0
140
0.0
141
0.0
142
1.0
143
1.0
 70
   688
 72
     0
 73
     0
 74
     5
  7

 75
    16
 76
     0
 77
     2
 78
   300
147
1.0
148
0.0
149
0.0
100
AcDbLayout
  1
Layout2
 70
     1
 71
     2
 10
0.0
 20
0.0
 11
0.0
 21
0.0
 12
0.0
 22
0.0
 32
0.0
 14
0.0
 24
0.0
 34
0.0
 15
0.0
 25
0.0
 35
0.0
146
0.0
 13
0.0
 23
0.0
 33
0.0
 16
1.0
 26
0.0
 36
0.0
 17
0.0
 27
1.0
 37
0.0
 76
     0
330
23
  0
LAYOUT
  5
22
102
{ACAD_REACTORS
330
1A
102
}
330
1A
100
AcDbPlotSettings
  1

  2
none_device
  4
Letter_(8.50_x_11.00_Inches)
  6

 40
6.35
 41
6.35
 42
6.35000508
 43
6.35000508
 44
215.9
 45
279.4
 46
0.0
 47
0.0
 48
0.0
 49
0.0
140
0.0
141
0.0
142
1.0
143
1.0
 70
  1712
 72
     0
 73
     0
 74
     0
  7

 75
     0
 76
     0
 77
     2
 78
   300
147
1.0
148
0.0
149
0.0
100
AcDbLayout
  1
Model
 70
     1
 71
     0
 10
0.0
 20
0.0
 11
12.0
 21
9.0
 12
0.0
 22
0.0
 32
0.0
 14
1.000000000000000E+20
 24
1.000000000000000E+20
 34
1.000000000000000E+20
 15
-1.000000000000000E+20
 25
-1.000000000000000E+20
 35
-1.000000000000000E+20
146
0.0
 13
0.0
 23
0.0
 33
0.0
 16
1.0
 26
0.0
 36
0.0
 17
0.0
 27
1.0
 37
0.0
 76
     0
330
1F
331
29
  0
MATERIAL
  5
45
102
{ACAD_REACTORS
330
43
102
}
330
43
100
AcDbMaterial
  1
ByBlock
 72
     1
 94
      127
  0
MATERIAL
  5
44
102
{ACAD_REACTORS
330
43
102
}
330
43
100
AcDbMaterial
  1
ByLayer
 72
     1
 94
      127
  0
MATERIAL
  5
46
102
{ACAD_REACTORS
330
43
102
}
330
43
100
AcDbMaterial
  1
Global
 72
     1
 94
      127
  0
MLEADERSTYLE
  5
6C
102
{ACAD_REACTORS
330
6B
102
}
330
6B
100
AcDbMLeaderStyle
179
     2
170
     2
171
     1
172
     0
 90
        2
 40
0.0
 41
0.0
173
     1
 91
-1056964608
340
14
 92
       -2
290
     1
 42
0.09
291
     1
 43
0.36
  3
Standard
341
0
 44
0.18
300

342
11
174
     1
178
     6
175
     1
176
     0
 93
-1056964608
 45
0.18
292
     0
297
     0
 46
0.18
343
0
 94
-1056964608
 47
1.0
 49
1.0
140
1.0
293
     1
141
0.0
294
     1
177
     0
142
1.0
295
     0
296
     0
143
0.125
271
     0
272
     9
273
     9
298
     0
  0
MLINESTYLE
  5
18
102
{ACAD_REACTORS
330
17
102
}
330
17
100
AcDbMlineStyle
  2
Standard
 70
     0
  3

 62
   256
 51
90.0
 52
90.0
 71
     2
 49
0.5
 62
   256
  6
BYLAYER
 49
-0.5
 62
   256
  6
BYLAYER
  0
ACDBPLACEHOLDER
  5
F
102
{ACAD_REACTORS
330
E
102
}
330
E
  0
SCALE
  5
48
102
{ACAD_REACTORS
330
47
102
}
330
47
100
AcDbScale
 70
     0
300
1:1
140
1.0
141
1.0
290
     1
  0
SCALE
  5
49
102
{ACAD_REACTORS
330
47
102
}
330
47
100
AcDbScale
 70
     0
300
1:2
140
1.0
141
2.0
290
     0
  0
SCALE
  5
4A
102
{ACAD_REACTORS
330
47
102
}
330
47
100
AcDbScale
 70
     0
300
1:4
140
1.0
141
4.0
290
     0
  0
SCALE
  5
4B
102
{ACAD_REACTORS
330
47
102
}
330
47
100
AcDbScale
 70
     0
300
1:5
140
1.0
141
5.0
290
     0
  0
SCALE
  5
4C
102
{ACAD_REACTORS
330
47
102
}
330
47
100
AcDbScale
 70
     0
300
1:8
140
1.0
141
8.0
290
     0
  0
SCALE
  5
4D
102
{ACAD_REACTORS
330
47
102
}
330
47
100
AcDbScale
 70
     0
300
1:10
140
1.0
141
10.0
290
     0
  0
SCALE
  5
4E
102
{ACAD_REACTORS
330
47
102
}
330
47
100
AcDbScale
 70
     0
300
1:16
140
1.0
141
16.0
290
     0
  0
SCALE
  5
4F
102
{ACAD_REACTORS
330
47
102
}
330
47
100
AcDbScale
 70
     0
300
1:20
140
1.0
141
20.0
290
     0
  0
SCALE
  5
50
102
{ACAD_REACTORS
330
47
102
}
330
47
100
AcDbScale
 70
     0
300
1:30
140
1.0
141
30.0
290
     0
  0
SCALE
  5
51
102
{ACAD_REACTORS
330
47
102
}
330
47
100
AcDbScale
 70
     0
300
1:40
140
1.0
141
40.0
290
     0
  0
SCALE
  5
52
102
{ACAD_REACTORS
330
47
102
}
330
47
100
AcDbScale
 70
     0
300
1:50
140
1.0
141
50.0
290
     0
  0
SCALE
  5
53
102
{ACAD_REACTORS
330
47
102
}
330
47
100
AcDbScale
 70
     0
300
1:100
140
1.0
141
100.0
290
     0
  0
SCALE
  5
54
102
{ACAD_REACTORS
330
47
102
}
330
47
100
AcDbScale
 70
     0
300
2:1
140
2.0
141
1.0
290
     0
  0
SCALE
  5
55
102
{ACAD_REACTORS
330
47
102
}
330
47
100
AcDbScale
 70
     0
300
4:1
140
4.0
141
1.0
290
     0
  0
SCALE
  5
56
102
{ACAD_REACTORS
330
47
102
}
330
47
100
AcDbScale
 70
     0
300
8:1
140
8.0
141
1.0
290
     0
  0
SCALE
  5
57
102
{ACAD_REACTORS
330
47
102
}
330
47
100
AcDbScale
 70
     0
300
10:1
140
10.0
141
1.0
290
     0
  0
SCALE
  5
58
102
{ACAD_REACTORS
330
47
102
}
330
47
100
AcDbScale
 70
     0
300
100:1
140
100.0
141
1.0
290
     0
  0
SCALE
  5
59
102
{ACAD_REACTORS
330
47
102
}
330
47
100
AcDbScale
 70
     0
300
1/128" = 1'-0"
140
0.0078125
141
12.0
290
     0
  0
SCALE
  5
5A
102
{ACAD_REACTORS
330
47
102
}
330
47
100
AcDbScale
 70
     0
300
1/64" = 1'-0"
140
0.015625
141
12.0
290
     0
  0
SCALE
  5
5B
102
{ACAD_REACTORS
330
47
102
}
330
47
100
AcDbScale
 70
     0
300
1/32" = 1'-0"
140
0.03125
141
12.0
290
     0
  0
SCALE
  5
5C
102
{ACAD_REACTORS
330
47
102
}
330
47
100
AcDbScale
 70
     0
300
1/16" = 1'-0"
140
0.0625
141
12.0
290
     0
  0
SCALE
  5
5D
102
{ACAD_REACTORS
330
47
102
}
330
47
100
AcDbScale
 70
     0
300
3/32" = 1'-0"
140
0.09375
141
12.0
290
     0
  0
SCALE
  5
5E
102
{ACAD_REACTORS
330
47
102
}
330
47
100
AcDbScale
 70
     0
300
1/8" = 1'-0"
140
0.125
141
12.0
290
     0
  0
SCALE
  5
5F
102
{ACAD_REACTORS
330
47
102
}
330
47
100
AcDbScale
 70
     0
300
3/16" = 1'-0"
140
0.1875
141
12.0
290
     0
  0
SCALE
  5
60
102
{ACAD_REACTORS
330
47
102
}
330
47
100
AcDbScale
 70
     0
300
1/4" = 1'-0"
140
0.25
141
12.0
290
     0
  0
SCALE
  5
61
102
{ACAD_REACTORS
330
47
102
}
330
47
100
AcDbScale
 70
     0
300
3/8" = 1'-0"
140
0.375
141
12.0
290
     0
  0
SCALE
  5
62
102
{ACAD_REACTORS
330
47
102
}
330
47
100
AcDbScale
 70
     0
300
1/2" = 1'-0"
140
0.5
141
12.0
290
     0
  0
SCALE
  5
63
102
{ACAD_REACTORS
330
47
102
}
330
47
100
AcDbScale
 70
     0
300
3/4" = 1'-0"
140
0.75
141
12.0
290
     0
  0
SCALE
  5
64
102
{ACAD_REACTORS
330
47
102
}
330
47
100
AcDbScale
 70
     0
300
1" = 1'-0"
140
1.0
141
12.0
290
     0
  0
SCALE
  5
65
102
{ACAD_REACTORS
330
47
102
}
330
47
100
AcDbScale
 70
     0
300
1-1/2" = 1'-0"
140
1.5
141
12.0
290
     0
  0
SCALE
  5
66
102
{ACAD_REACTORS
330
47
102
}
330
47
100
AcDbScale
 70
     0
300
3" = 1'-0"
140
3.0
141
12.0
290
     0
  0
SCALE
  5
67
102
{ACAD_REACTORS
330
47
102
}
330
47
100
AcDbScale
 70
     0
300
6" = 1'-0"
140
6.0
141
12.0
290
     0
  0
SCALE
  5
68
102
{ACAD_REACTORS
330
47
102
}
330
47
100
AcDbScale
 70
     0
300
1'-0" = 1'-0"
140
12.0
141
12.0
290
     0
  0
TABLESTYLE
  5
6A
102
{ACAD_REACTORS
330
69
102
}
102
{ACAD_XDICTIONARY
360
1AB
102
}
330
69
100
AcDbTableStyle
  3
Standard
 70
     0
 71
     0
 40
0.06
 41
0.06
280
     0
281
     0
  7
Standard
140
0.18
170
     2
 62
     0
 63
   257
283
     0
 90
        4
 91
        0
  1

274
    -2
284
     1
 64
     0
275
    -2
285
     1
 65
     0
276
    -2
286
     1
 66
     0
277
    -2
287
     1
 67
     0
278
    -2
288
     1
 68
     0
279
    -2
289
     1
 69
     0
  7
Standard
140
0.25
170
     5
 62
     0
 63
   257
283
     0
 90
        4
 91
        0
  1

274
    -2
284
     1
 64
     0
275
    -2
285
     1
 65
     0
276
    -2
286
     1
 66
     0
277
    -2
287
     1
 67
     0
278
    -2
288
     1
 68
     0
279
    -2
289
     1
 69
     0
  7
Standard
140
0.18
170
     5
 62
     0
 63
   257
283
     0
 90
        4
 91
        0
  1

274
    -2
284
     1
 64
     0
275
    -2
285
     1
 65
     0
276
    -2
286
     1
 66
     0
277
    -2
287
     1
 67
     0
278
    -2
288
     1
 68
     0
279
    -2
289
     1
 69
     0
  0
VISUALSTYLE
  5
2F
102
{ACAD_REACTORS
330
2A
102
}
330
2A
100
AcDbVisualStyle
  2
2dWireframe
 70
     4
177
     3
291
     0
 70
    58
 90
        0
176
     1
 90
        2
176
     1
 90
        0
176
     1
 90
        0
176
     1
 40
0.6
176
     1
 40
30.0
176
     1
 62
     7
420
 16777215
176
     1
 90
        1
176
     1
 90
        4
176
     1
 62
     7
176
     1
 62
   257
176
     1
 90
        1
176
     1
 90
        1
176
     1
 40
1.0
176
     1
 90
        0
176
     1
 62
   257
176
     1
 40
1.0
176
     1
 90
        1
176
     1
 90
        6
176
     1
 90
        2
176
     1
 62
     7
176
     1
 90
        5
176
     1
 90
        0
176
     1
 90
        0
176
     1
290
     0
176
     1
 90
        1
176
     1
 40
0.0
176
     1
 90
        0
176
     1
290
     1
176
     1
290
     1
176
     1
290
     0
176
     1
290
     0
176
     1
290
     0
176
     1
290
     0
176
     1
290
     0
176
     1
290
     0
176
     1
290
     0
176
     1
 90
       50
176
     1
 40
0.0
176
     1
 40
1.0
176
     1
 90
        0
176
     1
 62
    18
420
        0
176
     1
 90
       50
176
     1
 90
        3
176
     1
 62
     5
420
      255
176
     1
290
     0
176
     1
 90
       50
176
     1
 90
       50
176
     1
 90
       50
176
     1
290
     0
176
     1
 90
       50
176
     1
 62
   256
176
     0
 40
1.0
176
     0
 90
        2
176
     1
  1
strokes_ogs.tif
176
     1
290
     0
176
     1
 40
1.0
176
     1
 40
1.0
176
     1
  0
VISUALSTYLE
  5
32
102
{ACAD_REACTORS
330
2A
102
}
330
2A
100
AcDbVisualStyle
  2
Basic
 70
     7
177
     3
291
     1
 70
    58
 90
        1
176
     1
 90
        0
176
     1
 90
        1
176
     1
 90
        0
176
     1
 40
0.6
176
     1
 40
30.0
176
     1
 62
     7
420
 16777215
176
     1
 90
        0
176
     1
 90
        4
176
     1
 62
     7
176
     1
 62
   257
176
     1
 90
        1
176
     1
 90
        1
176
     1
 40
1.0
176
     1
 90
        8
176
     1
 62
     7
176
     1
 40
1.0
176
     1
 90
        1
176
     1
 90
        6
176
     1
 90
        2
176
     1
 62
     7
176
     1
 90
        5
176
     1
 90
        0
176
     1
 90
        0
176
     1
290
     0
176
     1
 90
        1
176
     1
 40
0.0
176
     1
 90
        0
176
     1
290
     0
176
     1
290
     1
176
     1
290
     1
176
     1
290
     0
176
     1
290
     0
176
     1
290
     0
176
     1
290
     0
176
     1
290
     0
176
     1
290
     0
176
     1
 90
       50
176
     1
 40
0.0
176
     1
 40
1.0
176
     1
 90
        0
176
     1
 62
    18
420
        0
176
     1
 90
       50
176
     1
 90
        3
176
     1
 62
     5
420
      255
176
     1
290
     0
176
     1
 90
       50
176
     1
 90
       50
176
     1
 90
       50
176
     1
290
     0
176
     1
 90
       50
176
     1
 62
   256
176
     0
 40
1.0
176
     0
 90
        2
176
     1
  1
strokes_ogs.tif
176
     1
290
     0
176
     1
 40
1.0
176
     1
 40
1.0
176
     1
  0
VISUALSTYLE
  5
36
102
{ACAD_REACTORS
330
2A
102
}
330
2A
100
AcDbVisualStyle
  2
Brighten
 70
    12
177
     3
291
     1
 70
    58
 90
        2
176
     1
 90
        2
176
     1
 90
        0
176
     1
 90
        0
176
     1
 40
0.6
176
     1
 40
30.0
176
     1
 62
     7
420
 16777215
176
     1
 90
        1
176
     1
 90
        4
176
     1
 62
     7
176
     1
 62
   257
176
     1
 90
        1
176
     1
 90
        1
176
     1
 40
1.0
176
     1
 90
        8
176
     1
 62
     7
176
     1
 40
1.0
176
     1
 90
        1
176
     1
 90
        6
176
     1
 90
        2
176
     1
 62
     7
176
     1
 90
        5
176
     1
 90
        0
176
     1
 90
        0
176
     1
290
     0
176
     1
 90
        1
176
     1
 40
50.0
176
     1
 90
        0
176
     1
290
     0
176
     1
290
     1
176
     1
290
     1
176
     1
290
     0
176
     1
290
     0
176
     1
290
     0
176
     1
290
     0
176
     1
290
     0
176
     1
290
     0
176
     1
 90
       50
176
     1
 40
0.0
176
     1
 40
1.0
176
     1
 90
        0
176
     1
 62
    18
420
        0
176
     1
 90
       50
176
     1
 90
        3
176
     1
 62
     5
420
      255
176
     1
290
     0
176
     1
 90
       50
176
     1
 90
       50
176
     1
 90
       50
176
     1
290
     0
176
     1
 90
       50
176
     1
 62
   256
176
     0
 40
1.0
176
     0
 90
        2
176
     1
  1
strokes_ogs.tif
176
     1
290
     0
176
     1
 40
1.0
176
     1
 40
1.0
176
     1
  0
VISUALSTYLE
  5
3A
102
{ACAD_REACTORS
330
2A
102
}
330
2A
100
AcDbVisualStyle
  2
ColorChange
 70
    16
177
     3
291
     1
 70
    58
 90
        2
176
     1
 90
        2
176
     1
 90
        3
176
     1
 90
        0
176
     1
 40
0.6
176
     1
 40
30.0
176
     1
 62
     8
420
  8421504
176
     1
 90
        1
176
     1
 90
        4
176
     1
 62
     7
176
     1
 62
   257
176
     1
 90
        1
176
     1
 90
        1
176
     1
 40
1.0
176
     1
 90
        8
176
     1
 62
     8
420
  8421504
176
     1
 40
1.0
176
     1
 90
        1
176
     1
 90
        6
176
     1
 90
        2
176
     1
 62
     7
176
     1
 90
        5
176
     1
 90
        0
176
     1
 90
        0
176
     1
290
     0
176
     1
 90
        1
176
     1
 40
0.0
176
     1
 90
        0
176
     1
290
     0
176
     1
290
     1
176
     1
290
     1
176
     1
290
     0
176
     1
290
     0
176
     1
290
     0
176
     1
290
     0
176
     1
290
     0
176
     1
290
     0
176
     1
 90
       50
176
     1
 40
0.0
176
     1
 40
1.0
176
     1
 90
        0
176
     1
 62
    18
420
        0
176
     1
 90
       50
176
     1
 90
        3
176
     1
 62
     5
420
      255
176
     1
290
     0
176
     1
 90
       50
176
     1
 90
       50
176
     1
 90
       50
176
     1
290
     0
176
     1
 90
       50
176
     1
 62
   256
176
     0
 40
1.0
176
     0
 90
        2
176
     1
  1
strokes_ogs.tif
176
     1
290
     0
176
     1
 40
1.0
176
     1
 40
1.0
176
     1
  0
VISUALSTYLE
  5
34
102
{ACAD_REACTORS
330
2A
102
}
330
2A
100
AcDbVisualStyle
  2
Conceptual
 70
     9
177
     3
291
     0
 70
    58
 90
        3
176
     1
 90
        2
176
     1
 90
        0
176
     1
 90
        0
176
     1
 40
0.6
176
     1
 40
30.0
176
     1
 62
     7
420
 16777215
176
     1
 90
        2
176
     1
 90
        2
176
     1
 62
     7
176
     1
 62
   257
176
     1
 90
        1
176
     1
 90
        1
176
     1
 40
179.0
176
     1
 90
        8
176
     1
 62
     7
176
     1
 40
1.0
176
     1
 90
        1
176
     1
 90
        6
176
     1
 90
        2
176
     1
 62
     7
176
     1
 90
        3
176
     1
 90
        0
176
     1
 90
        0
176
     1
290
     0
176
     1
 90
        1
176
     1
 40
0.0
176
     1
 90
        0
176
     1
290
     0
176
     1
290
     1
176
     1
290
     1
176
     1
290
     0
176
     1
290
     0
176
     1
290
     0
176
     1
290
     0
176
     1
290
     0
176
     1
290
     0
176
     1
 90
       50
176
     1
 40
0.0
176
     1
 40
1.0
176
     1
 90
        0
176
     1
 62
    18
420
        0
176
     1
 90
       50
176
     1
 90
        3
176
     1
 62
     5
420
      255
176
     1
290
     0
176
     1
 90
       50
176
     1
 90
       50
176
     1
 90
       50
176
     1
290
     0
176
     1
 90
       50
176
     1
 62
   256
176
     0
 40
1.0
176
     0
 90
        2
176
     1
  1
strokes_ogs.tif
176
     1
290
     0
176
     1
 40
1.0
176
     1
 40
1.0
176
     1
  0
VISUALSTYLE
  5
35
102
{ACAD_REACTORS
330
2A
102
}
330
2A
100
AcDbVisualStyle
  2
Dim
 70
    11
177
     3
291
     1
 70
    58
 90
        2
176
     1
 90
        2
176
     1
 90
        0
176
     1
 90
        0
176
     1
 40
0.6
176
     1
 40
30.0
176
     1
 62
     7
420
 16777215
176
     1
 90
        1
176
     1
 90
        4
176
     1
 62
     7
176
     1
 62
   257
176
     1
 90
        1
176
     1
 90
        1
176
     1
 40
1.0
176
     1
 90
        8
176
     1
 62
     7
176
     1
 40
1.0
176
     1
 90
        1
176
     1
 90
        6
176
     1
 90
        2
176
     1
 62
     7
176
     1
 90
        5
176
     1
 90
        0
176
     1
 90
        0
176
     1
290
     0
176
     1
 90
        1
176
     1
 40
-50.0
176
     1
 90
        0
176
     1
290
     0
176
     1
290
     1
176
     1
290
     1
176
     1
290
     0
176
     1
290
     0
176
     1
290
     0
176
     1
290
     0
176
     1
290
     0
176
     1
290
     0
176
     1
 90
       50
176
     1
 40
0.0
176
     1
 40
1.0
176
     1
 90
        0
176
     1
 62
    18
420
        0
176
     1
 90
       50
176
     1
 90
        3
176
     1
 62
     5
420
      255
176
     1
290
     0
176
     1
 90
       50
176
     1
 90
       50
176
     1
 90
       50
176
     1
290
     0
176
     1
 90
       50
176
     1
 62
   256
176
     0
 40
1.0
176
     0
 90
        2
176
     1
  1
strokes_ogs.tif
176
     1
290
     0
176
     1
 40
1.0
176
     1
 40
1.0
176
     1
  0
VISUALSTYLE
  5
3D
102
{ACAD_REACTORS
330
2A
102
}
330
2A
100
AcDbVisualStyle
  2
EdgeColorOff
 70
    22
177
     3
291
     1
 70
    58
 90
        2
176
     0
 90
        2
176
     0
 90
        0
176
     0
 90
        0
176
     0
 40
0.6
176
     0
 40
30.0
176
     0
 62
     7
420
 16777215
176
     0
 90
        1
176
     0
 90
        4
176
     0
 62
     7
176
     0
 62
   257
176
     0
 90
        1
176
     0
 90
        1
176
     0
 40
1.0
176
     0
 90
        8
176
     2
 62
     7
176
     0
 40
1.0
176
     0
 90
        1
176
     0
 90
        6
176
     0
 90
        2
176
     0
 62
     7
176
     0
 90
        5
176
     0
 90
        0
176
     0
 90
        0
176
     0
290
     0
176
     0
 90
        1
176
     0
 40
0.0
176
     0
 90
        0
176
     0
290
     0
176
     0
290
     1
176
     0
290
     1
176
     0
290
     0
176
     0
290
     0
176
     0
290
     0
176
     0
290
     0
176
     0
290
     0
176
     0
290
     0
176
     0
 90
       50
176
     0
 40
0.0
176
     0
 40
1.0
176
     0
 90
        0
176
     0
 62
    18
420
        0
176
     0
 90
       50
176
     0
 90
        3
176
     0
 62
     5
420
      255
176
     0
290
     0
176
     0
 90
       50
176
     0
 90
       50
176
     0
 90
       50
176
     0
290
     0
176
     0
 90
       50
176
     0
 62
   256
176
     0
 40
1.0
176
     0
 90
        2
176
     0
  1
strokes_ogs.tif
176
     0
290
     0
176
     0
 40
1.0
176
     0
 40
1.0
176
     0
  0
VISUALSTYLE
  5
39
102
{ACAD_REACTORS
330
2A
102
}
330
2A
100
AcDbVisualStyle
  2
Facepattern
 70
    15
177
     3
291
     1
 70
    58
 90
        2
176
     1
 90
        2
176
     1
 90
        0
176
     1
 90
        0
176
     1
 40
0.6
176
     1
 40
30.0
176
     1
 62
     7
420
 16777215
176
     1
 90
        1
176
     1
 90
        4
176
     1
 62
     7
176
     1
 62
   257
176
     1
 90
        1
176
     1
 90
        1
176
     1
 40
1.0
176
     1
 90
        8
176
     1
 62
     7
176
     1
 40
1.0
176
     1
 90
        1
176
     1
 90
        6
176
     1
 90
        2
176
     1
 62
     7
176
     1
 90
        5
176
     1
 90
        0
176
     1
 90
        0
176
     1
290
     0
176
     1
 90
        1
176
     1
 40
0.0
176
     1
 90
        0
176
     1
290
     0
176
     1
290
     1
176
     1
290
     1
176
     1
290
     0
176
     1
290
     0
176
     1
290
     0
176
     1
290
     0
176
     1
290
     0
176
     1
290
     0
176
     1
 90
       50
176
     1
 40
0.0
176
     1
 40
1.0
176
     1
 90
        0
176
     1
 62
    18
420
        0
176
     1
 90
       50
176
     1
 90
        3
176
     1
 62
     5
420
      255
176
     1
290
     0
176
     1
 90
       50
176
     1
 90
       50
176
     1
 90
       50
176
     1
290
     0
176
     1
 90
       50
176
     1
 62
   256
176
     0
 40
1.0
176
     0
 90
        2
176
     1
  1
strokes_ogs.tif
176
     1
290
     0
176
     1
 40
1.0
176
     1
 40
1.0
176
     1
  0
VISUALSTYLE
  5
2B
102
{ACAD_REACTORS
330
2A
102
}
330
2A
100
AcDbVisualStyle
  2
Flat
 70
     0
177
     3
291
     1
 70
    58
 90
        2
176
     1
 90
        1
176
     1
 90
        1
176
     1
 90
        2
176
     1
 40
0.6
176
     1
 40
30.0
176
     1
 62
     7
420
 16777215
176
     1
 90
        0
176
     1
 90
        0
176
     1
 62
     7
176
     1
 62
   257
176
     1
 90
        1
176
     1
 90
        1
176
     1
 40
1.0
176
     1
 90
        8
176
     1
 62
     7
176
     1
 40
1.0
176
     1
 90
        1
176
     1
 90
        6
176
     1
 90
        2
176
     1
 62
     7
176
     1
 90
        5
176
     1
 90
        0
176
     1
 90
        0
176
     1
290
     0
176
     1
 90
       13
176
     1
 40
0.0
176
     1
 90
        0
176
     1
290
     0
176
     1
290
     1
176
     1
290
     1
176
     1
290
     0
176
     1
290
     0
176
     1
290
     0
176
     1
290
     0
176
     1
290
     0
176
     1
290
     0
176
     1
 90
       50
176
     1
 40
0.0
176
     1
 40
1.0
176
     1
 90
        0
176
     1
 62
    18
420
        0
176
     1
 90
       50
176
     1
 90
        3
176
     1
 62
     5
420
      255
176
     1
290
     0
176
     1
 90
       50
176
     1
 90
       50
176
     1
 90
       50
176
     1
290
     0
176
     1
 90
       50
176
     1
 62
   256
176
     0
 40
1.0
176
     0
 90
        2
176
     1
  1
strokes_ogs.tif
176
     1
290
     0
176
     1
 40
1.0
176
     1
 40
1.0
176
     1
  0
VISUALSTYLE
  5
2C
102
{ACAD_REACTORS
330
2A
102
}
330
2A
100
AcDbVisualStyle
  2
FlatWithEdges
 70
     1
177
     3
291
     1
 70
    58
 90
        2
176
     1
 90
        1
176
     1
 90
        1
176
     1
 90
        2
176
     1
 40
0.6
176
     1
 40
30.0
176
     1
 62
     7
420
 16777215
176
     1
 90
        1
176
     1
 90
        0
176
     1
 62
     7
176
     1
 62
   257
176
     1
 90
        1
176
     1
 90
        1
176
     1
 40
1.0
176
     1
 90
        0
176
     1
 62
   257
176
     1
 40
1.0
176
     1
 90
        1
176
     1
 90
        6
176
     1
 90
        2
176
     1
 62
     7
176
     1
 90
        5
176
     1
 90
        0
176
     1
 90
        0
176
     1
290
     0
176
     1
 90
       13
176
     1
 40
0.0
176
     1
 90
        0
176
     1
290
     0
176
     1
290
     1
176
     1
290
     1
176
     1
290
     0
176
     1
290
     0
176
     1
290
     0
176
     1
290
     0
176
     1
290
     0
176
     1
290
     0
176
     1
 90
       50
176
     1
 40
0.0
176
     1
 40
1.0
176
     1
 90
        0
176
     1
 62
    18
420
        0
176
     1
 90
       50
176
     1
 90
        3
176
     1
 62
     5
420
      255
176
     1
290
     0
176
     1
 90
       50
176
     1
 90
       50
176
     1
 90
       50
176
     1
290
     0
176
     1
 90
       50
176
     1
 62
   256
176
     0
 40
1.0
176
     0
 90
        2
176
     1
  1
strokes_ogs.tif
176
     1
290
     0
176
     1
 40
1.0
176
     1
 40
1.0
176
     1
  0
VISUALSTYLE
  5
2D
102
{ACAD_REACTORS
330
2A
102
}
330
2A
100
AcDbVisualStyle
  2
Gouraud
 70
     2
177
     3
291
     1
 70
    58
 90
        2
176
     1
 90
        2
176
     1
 90
        1
176
     1
 90
        2
176
     1
 40
0.6
176
     1
 40
30.0
176
     1
 62
     7
420
 16777215
176
     1
 90
        0
176
     1
 90
        0
176
     1
 62
     7
176
     1
 62
   257
176
     1
 90
        1
176
     1
 90
        1
176
     1
 40
1.0
176
     1
 90
        0
176
     1
 62
     7
176
     1
 40
1.0
176
     1
 90
        1
176
     1
 90
        6
176
     1
 90
        2
176
     1
 62
     7
176
     1
 90
        5
176
     1
 90
        0
176
     1
 90
        0
176
     1
290
     0
176
     1
 90
       13
176
     1
 40
0.0
176
     1
 90
        0
176
     1
290
     0
176
     1
290
     1
176
     1
290
     1
176
     1
290
     0
176
     1
290
     0
176
     1
290
     0
176
     1
290
     0
176
     1
290
     0
176
     1
290
     0
176
     1
 90
       50
176
     1
 40
0.0
176
     1
 40
1.0
176
     1
 90
        0
176
     1
 62
    18
420
        0
176
     1
 90
       50
176
     1
 90
        3
176
     1
 62
     5
420
      255
176
     1
290
     0
176
     1
 90
       50
176
     1
 90
       50
176
     1
 90
       50
176
     1
290
     0
176
     1
 90
       50
176
     1
 62
   256
176
     0
 40
1.0
176
     0
 90
        2
176
     1
  1
strokes_ogs.tif
176
     1
290
     0
176
     1
 40
1.0
176
     1
 40
1.0
176
     1
  0
VISUALSTYLE
  5
2E
102
{ACAD_REACTORS
330
2A
102
}
330
2A
100
AcDbVisualStyle
  2
GouraudWithEdges
 70
     3
177
     3
291
     1
 70
    58
 90
        2
176
     1
 90
        2
176
     1
 90
        1
176
     1
 90
        2
176
     1
 40
0.6
176
     1
 40
30.0
176
     1
 62
     7
420
 16777215
176
     1
 90
        1
176
     1
 90
        0
176
     1
 62
     7
176
     1
 62
   257
176
     1
 90
        1
176
     1
 90
        1
176
     1
 40
1.0
176
     1
 90
        0
176
     1
 62
   257
176
     1
 40
1.0
176
     1
 90
        1
176
     1
 90
        6
176
     1
 90
        2
176
     1
 62
     7
176
     1
 90
        5
176
     1
 90
        0
176
     1
 90
        0
176
     1
290
     0
176
     1
 90
       13
176
     1
 40
0.0
176
     1
 90
        0
176
     1
290
     0
176
     1
290
     1
176
     1
290
     1
176
     1
290
     0
176
     1
290
     0
176
     1
290
     0
176
     1
290
     0
176
     1
290
     0
176
     1
290
     0
176
     1
 90
       50
176
     1
 40
0.0
176
     1
 40
1.0
176
     1
 90
        0
176
     1
 62
    18
420
        0
176
     1
 90
       50
176
     1
 90
        3
176
     1
 62
     5
420
      255
176
     1
290
     0
176
     1
 90
       50
176
     1
 90
       50
176
     1
 90
       50
176
     1
290
     0
176
     1
 90
       50
176
     1
 62
   256
176
     0
 40
1.0
176
     0
 90
        2
176
     1
  1
strokes_ogs.tif
176
     1
290
     0
176
     1
 40
1.0
176
     1
 40
1.0
176
     1
  0
VISUALSTYLE
  5
31
102
{ACAD_REACTORS
330
2A
102
}
330
2A
100
AcDbVisualStyle
  2
Hidden
 70
     6
177
     3
291
     0
 70
    58
 90
        1
176
     1
 90
        2
176
     1
 90
        2
176
     1
 90
        0
176
     1
 40
0.6
176
     1
 40
30.0
176
     1
 62
     7
420
 16777215
176
     1
 90
        2
176
     1
 90
        2
176
     1
 62
     7
176
     1
 62
   257
176
     1
 90
        2
176
     1
 90
        1
176
     1
 40
40.0
176
     1
 90
        0
176
     1
 62
   257
176
     1
 40
1.0
176
     1
 90
        1
176
     1
 90
        6
176
     1
 90
        2
176
     1
 62
     7
176
     1
 90
        3
176
     1
 90
        0
176
     1
 90
        0
176
     1
290
     0
176
     1
 90
        1
176
     1
 40
0.0
176
     1
 90
        0
176
     1
290
     0
176
     1
290
     1
176
     1
290
     1
176
     1
290
     0
176
     1
290
     0
176
     1
290
     0
176
     1
290
     0
176
     1
290
     0
176
     1
290
     0
176
     1
 90
       50
176
     1
 40
0.0
176
     1
 40
1.0
176
     1
 90
        0
176
     1
 62
    18
420
        0
176
     1
 90
       50
176
     1
 90
        3
176
     1
 62
     5
420
      255
176
     1
290
     0
176
     1
 90
       50
176
     1
 90
       50
176
     1
 90
       50
176
     1
290
     0
176
     1
 90
       50
176
     1
 62
   256
176
     0
 40
1.0
176
     0
 90
        2
176
     1
  1
strokes_ogs.tif
176
     1
290
     0
176
     1
 40
1.0
176
     1
 40
1.0
176
     1
  0
VISUALSTYLE
  5
3B
102
{ACAD_REACTORS
330
2A
102
}
330
2A
100
AcDbVisualStyle
  2
JitterOff
 70
    20
177
     3
291
     1
 70
    58
 90
        2
176
     0
 90
        2
176
     0
 90
        0
176
     0
 90
        0
176
     0
 40
0.6
176
     0
 40
30.0
176
     0
 62
     7
420
 16777215
176
     0
 90
        1
176
     0
 90
        4
176
     0
 62
     7
176
     0
 62
   257
176
     0
 90
        1
176
     0
 90
        1
176
     0
 40
1.0
176
     0
 90
       10
176
     2
 62
     7
176
     0
 40
1.0
176
     0
 90
        1
176
     0
 90
        6
176
     0
 90
        2
176
     0
 62
     7
176
     0
 90
        5
176
     0
 90
        0
176
     0
 90
        0
176
     0
290
     0
176
     0
 90
        1
176
     0
 40
0.0
176
     0
 90
        0
176
     0
290
     0
176
     0
290
     1
176
     0
290
     1
176
     0
290
     0
176
     0
290
     0
176
     0
290
     0
176
     0
290
     0
176
     0
290
     0
176
     0
290
     0
176
     0
 90
       50
176
     0
 40
0.0
176
     0
 40
1.0
176
     0
 90
        0
176
     0
 62
    18
420
        0
176
     0
 90
       50
176
     0
 90
        3
176
     0
 62
     5
420
      255
176
     0
290
     0
176
     0
 90
       50
176
     0
 90
       50
176
     0
 90
       50
176
     0
290
     0
176
     0
 90
       50
176
     0
 62
   256
176
     0
 40
1.0
176
     0
 90
        2
176
     0
  1
strokes_ogs.tif
176
     0
290
     0
176
     0
 40
1.0
176
     0
 40
1.0
176
     0
  0
VISUALSTYLE
  5
38
102
{ACAD_REACTORS
330
2A
102
}
330
2A
100
AcDbVisualStyle
  2
Linepattern
 70
    14
177
     3
291
     1
 70
    58
 90
        2
176
     1
 90
        2
176
     1
 90
        0
176
     1
 90
        0
176
     1
 40
0.6
176
     1
 40
30.0
176
     1
 62
     7
420
 16777215
176
     1
 90
        1
176
     1
 90
        4
176
     1
 62
     7
176
     1
 62
   257
176
     1
 90
        7
176
     1
 90
        7
176
     1
 40
1.0
176
     1
 90
        8
176
     1
 62
     7
176
     1
 40
1.0
176
     1
 90
        1
176
     1
 90
        6
176
     1
 90
        2
176
     1
 62
     7
176
     1
 90
        5
176
     1
 90
        0
176
     1
 90
        0
176
     1
290
     0
176
     1
 90
        1
176
     1
 40
0.0
176
     1
 90
        0
176
     1
290
     0
176
     1
290
     1
176
     1
290
     1
176
     1
290
     0
176
     1
290
     0
176
     1
290
     0
176
     1
290
     0
176
     1
290
     0
176
     1
290
     0
176
     1
 90
       50
176
     1
 40
0.0
176
     1
 40
1.0
176
     1
 90
        0
176
     1
 62
    18
420
        0
176
     1
 90
       50
176
     1
 90
        3
176
     1
 62
     5
420
      255
176
     1
290
     0
176
     1
 90
       50
176
     1
 90
       50
176
     1
 90
       50
176
     1
290
     0
176
     1
 90
       50
176
     1
 62
   256
176
     0
 40
1.0
176
     0
 90
        2
176
     1
  1
strokes_ogs.tif
176
     1
290
     0
176
     1
 40
1.0
176
     1
 40
1.0
176
     1
  0
VISUALSTYLE
  5
3C
102
{ACAD_REACTORS
330
2A
102
}
330
2A
100
AcDbVisualStyle
  2
OverhangOff
 70
    21
177
     3
291
     1
 70
    58
 90
        2
176
     0
 90
        2
176
     0
 90
        0
176
     0
 90
        0
176
     0
 40
0.6
176
     0
 40
30.0
176
     0
 62
     7
420
 16777215
176
     0
 90
        1
176
     0
 90
        4
176
     0
 62
     7
176
     0
 62
   257
176
     0
 90
        1
176
     0
 90
        1
176
     0
 40
1.0
176
     0
 90
        9
176
     2
 62
     7
176
     0
 40
1.0
176
     0
 90
        1
176
     0
 90
        6
176
     0
 90
        2
176
     0
 62
     7
176
     0
 90
        5
176
     0
 90
        0
176
     0
 90
        0
176
     0
290
     0
176
     0
 90
        1
176
     0
 40
0.0
176
     0
 90
        0
176
     0
290
     0
176
     0
290
     1
176
     0
290
     1
176
     0
290
     0
176
     0
290
     0
176
     0
290
     0
176
     0
290
     0
176
     0
290
     0
176
     0
290
     0
176
     0
 90
       50
176
     0
 40
0.0
176
     0
 40
1.0
176
     0
 90
        0
176
     0
 62
    18
420
        0
176
     0
 90
       50
176
     0
 90
        3
176
     0
 62
     5
420
      255
176
     0
290
     0
176
     0
 90
       50
176
     0
 90
       50
176
     0
 90
       50
176
     0
290
     0
176
     0
 90
       50
176
     0
 62
   256
176
     0
 40
1.0
176
     0
 90
        2
176
     0
  1
strokes_ogs.tif
176
     0
290
     0
176
     0
 40
1.0
176
     0
 40
1.0
176
     0
  0
VISUALSTYLE
  5
33
102
{ACAD_REACTORS
330
2A
102
}
330
2A
100
AcDbVisualStyle
  2
Realistic
 70
     8
177
     3
291
     0
 70
    58
 90
        2
176
     1
 90
        3
176
     1
 90
        0
176
     1
 90
        2
176
     1
 40
0.6
176
     1
 40
30.0
176
     1
 62
     7
420
 16777215
176
     1
 90
        0
176
     1
 90
        0
176
     1
 62
     7
176
     1
 62
   257
176
     1
 90
        1
176
     1
 90
        1
176
     1
 40
1.0
176
     1
 90
        8
176
     1
 62
   257
176
     1
 40
1.0
176
     1
 90
        1
176
     1
 90
        6
176
     1
 90
        2
176
     1
 62
     7
176
     1
 90
        3
176
     1
 90
        0
176
     1
 90
        0
176
     1
290
     0
176
     1
 90
       13
176
     1
 40
0.0
176
     1
 90
        0
176
     1
290
     0
176
     1
290
     1
176
     1
290
     1
176
     1
290
     0
176
     1
290
     0
176
     1
290
     0
176
     1
290
     0
176
     1
290
     0
176
     1
290
     0
176
     1
 90
       50
176
     1
 40
0.0
176
     1
 40
1.0
176
     1
 90
        0
176
     1
 62
    18
420
        0
176
     1
 90
       50
176
     1
 90
        3
176
     1
 62
     5
420
      255
176
     1
290
     0
176
     1
 90
       50
176
     1
 90
       50
176
     1
 90
       50
176
     1
290
     0
176
     1
 90
       50
176
     1
 62
   256
176
     0
 40
1.0
176
     0
 90
        2
176
     1
  1
strokes_ogs.tif
176
     1
290
     0
176
     1
 40
1.0
176
     1
 40
1.0
176
     1
  0
VISUALSTYLE
  5
42
102
{ACAD_REACTORS
330
2A
102
}
330
2A
100
AcDbVisualStyle
  2
Shaded
 70
    27
177
     3
291
     0
 70
    58
 90
        2
176
     1
 90
        2
176
     1
 90
        1
176
     1
 90
        2
176
     1
 40
0.6
176
     1
 40
30.0
176
     1
 62
     7
420
 16777215
176
     1
 90
        0
176
     1
 90
        4
176
     1
 62
     7
176
     1
 62
   257
176
     1
 90
        1
176
     1
 90
        1
176
     1
 40
1.0
176
     1
 90
        8
176
     1
 62
   257
176
     1
 40
1.0
176
     1
 90
        1
176
     1
 90
        6
176
     1
 90
        2
176
     1
 62
     8
420
  7895160
176
     1
 90
        3
176
     1
 90
        0
176
     1
 90
        0
176
     1
290
     0
176
     1
 90
        5
176
     1
 40
0.0
176
     1
 90
        0
176
     1
290
     0
176
     1
290
     1
176
     1
290
     1
176
     1
290
     0
176
     1
290
     0
176
     1
290
     0
176
     1
290
     0
176
     1
290
     0
176
     1
290
     0
176
     1
 90
       50
176
     1
 40
0.0
176
     1
 40
1.0
176
     1
 90
        0
176
     1
 62
    18
420
        0
176
     1
 90
       50
176
     1
 90
        3
176
     1
 62
     5
420
      255
176
     1
290
     0
176
     1
 90
       50
176
     1
 90
       50
176
     1
 90
       50
176
     1
290
     0
176
     1
 90
       50
176
     1
 62
   256
176
     0
 40
1.0
176
     0
 90
        2
176
     1
  1
strokes_ogs.tif
176
     1
290
     0
176
     1
 40
1.0
176
     1
 40
1.0
176
     1
  0
VISUALSTYLE
  5
41
102
{ACAD_REACTORS
330
2A
102
}
330
2A
100
AcDbVisualStyle
  2
Shaded with edges
 70
    26
177
     3
291
     0
 70
    58
 90
        2
176
     1
 90
        2
176
     1
 90
        1
176
     1
 90
        2
176
     1
 40
0.6
176
     1
 40
30.0
176
     1
 62
     7
420
 16777215
176
     1
 90
        1
176
     1
 90
       10
176
     1
 62
     7
176
     1
 62
   257
176
     1
 90
        2
176
     1
 90
        1
176
     1
 40
1.0
176
     1
 90
        8
176
     1
 62
   257
176
     1
 40
1.0
176
     1
 90
        1
176
     1
 90
        6
176
     1
 90
        2
176
     1
 62
     7
176
     1
 90
        3
176
     1
 90
        0
176
     1
 90
        0
176
     1
290
     0
176
     1
 90
        5
176
     1
 40
0.0
176
     1
 90
        0
176
     1
290
     0
176
     1
290
     1
176
     1
290
     1
176
     1
290
     0
176
     1
290
     0
176
     1
290
     0
176
     1
290
     0
176
     1
290
     0
176
     1
290
     0
176
     1
 90
       50
176
     1
 40
0.0
176
     1
 40
1.0
176
     1
 90
        0
176
     1
 62
    18
420
        0
176
     1
 90
       50
176
     1
 90
        3
176
     1
 62
     5
420
      255
176
     1
290
     0
176
     1
 90
       50
176
     1
 90
       50
176
     1
 90
       50
176
     1
290
     0
176
     1
 90
       50
176
     1
 62
   256
176
     0
 40
1.0
176
     0
 90
        2
176
     1
  1
strokes_ogs.tif
176
     1
290
     0
176
     1
 40
1.0
176
     1
 40
1.0
176
     1
  0
VISUALSTYLE
  5
3E
102
{ACAD_REACTORS
330
2A
102
}
330
2A
100
AcDbVisualStyle
  2
Shades of Gray
 70
    23
177
     3
291
     0
 70
    58
 90
        2
176
     1
 90
        2
176
     1
 90
        3
176
     1
 90
        0
176
     1
 40
0.6
176
     1
 40
30.0
176
     1
 62
     7
420
 16777215
176
     1
 90
        2
176
     1
 90
        2
176
     1
 62
     7
176
     1
 62
     7
176
     1
 90
        1
176
     1
 90
        1
176
     1
 40
40.0
176
     1
 90
        8
176
     1
 62
     7
176
     1
 40
1.0
176
     1
 90
        1
176
     1
 90
        6
176
     1
 90
        2
176
     1
 62
     7
176
     1
 90
        3
176
     1
 90
        0
176
     1
 90
        0
176
     1
290
     0
176
     1
 90
        1
176
     1
 40
0.0
176
     1
 90
        0
176
     1
290
     0
176
     1
290
     1
176
     1
290
     1
176
     1
290
     0
176
     1
290
     0
176
     1
290
     0
176
     1
290
     0
176
     1
290
     0
176
     1
290
     0
176
     1
 90
       50
176
     1
 40
0.0
176
     1
 40
1.0
176
     1
 90
        0
176
     1
 62
    18
420
        0
176
     1
 90
       50
176
     1
 90
        3
176
     1
 62
     5
420
      255
176
     1
290
     0
176
     1
 90
       50
176
     1
 90
       50
176
     1
 90
       50
176
     1
290
     0
176
     1
 90
       50
176
     1
 62
   256
176
     0
 40
1.0
176
     0
 90
        2
176
     1
  1
strokes_ogs.tif
176
     1
290
     0
176
     1
 40
1.0
176
     1
 40
1.0
176
     1
  0
VISUALSTYLE
  5
3F
102
{ACAD_REACTORS
330
2A
102
}
330
2A
100
AcDbVisualStyle
  2
Sketchy
 70
    24
177
     3
291
     0
 70
    58
 90
        1
176
     1
 90
        2
176
     1
 90
        2
176
     1
 90
        0
176
     1
 40
0.6
176
     1
 40
30.0
176
     1
 62
     7
420
 16777215
176
     1
 90
        2
176
     1
 90
        2
176
     1
 62
     7
176
     1
 62
     7
176
     1
 90
        1
176
     1
 90
        1
176
     1
 40
40.0
176
     1
 90
       11
176
     1
 62
     7
176
     1
 40
1.0
176
     1
 90
        1
176
     1
 90
        6
176
     1
 90
        2
176
     1
 62
     7
176
     1
 90
        6
176
     1
 90
        0
176
     1
 90
        0
176
     1
290
     0
176
     1
 90
        1
176
     1
 40
0.0
176
     1
 90
        0
176
     1
290
     0
176
     1
290
     1
176
     1
290
     1
176
     1
290
     0
176
     1
290
     0
176
     1
290
     0
176
     1
290
     0
176
     1
290
     0
176
     1
290
     0
176
     1
 90
       50
176
     1
 40
0.0
176
     1
 40
1.0
176
     1
 90
        0
176
     1
 62
    18
420
        0
176
     1
 90
       50
176
     1
 90
        3
176
     1
 62
     5
420
      255
176
     1
290
     0
176
     1
 90
       50
176
     1
 90
       50
176
     1
 90
       50
176
     1
290
     0
176
     1
 90
       50
176
     1
 62
   256
176
     0
 40
1.0
176
     0
 90
        2
176
     1
  1
strokes_ogs.tif
176
     1
290
     0
176
     1
 40
1.0
176
     1
 40
1.0
176
     1
  0
VISUALSTYLE
  5
37
102
{ACAD_REACTORS
330
2A
102
}
330
2A
100
AcDbVisualStyle
  2
Thicken
 70
    13
177
     3
291
     1
 70
    58
 90
        2
176
     1
 90
        2
176
     1
 90
        0
176
     1
 90
        0
176
     1
 40
0.6
176
     1
 40
30.0
176
     1
 62
     7
420
 16777215
176
     1
 90
        1
176
     1
 90
        4
176
     1
 62
     7
176
     1
 62
   257
176
     1
 90
        1
176
     1
 90
        1
176
     1
 40
1.0
176
     1
 90
       12
176
     1
 62
     7
176
     1
 40
1.0
176
     1
 90
        1
176
     1
 90
        6
176
     1
 90
        2
176
     1
 62
     7
176
     1
 90
        5
176
     1
 90
        0
176
     1
 90
        0
176
     1
290
     0
176
     1
 90
        1
176
     1
 40
0.0
176
     1
 90
        0
176
     1
290
     0
176
     1
290
     1
176
     1
290
     1
176
     1
290
     0
176
     1
290
     0
176
     1
290
     0
176
     1
290
     0
176
     1
290
     0
176
     1
290
     0
176
     1
 90
       50
176
     1
 40
0.0
176
     1
 40
1.0
176
     1
 90
        0
176
     1
 62
    18
420
        0
176
     1
 90
       50
176
     1
 90
        3
176
     1
 62
     5
420
      255
176
     1
290
     0
176
     1
 90
       50
176
     1
 90
       50
176
     1
 90
       50
176
     1
290
     0
176
     1
 90
       50
176
     1
 62
   256
176
     0
 40
1.0
176
     0
 90
        2
176
     1
  1
strokes_ogs.tif
176
     1
290
     0
176
     1
 40
1.0
176
     1
 40
1.0
176
     1
  0
VISUALSTYLE
  5
30
102
{ACAD_REACTORS
330
2A
102
}
330
2A
100
AcDbVisualStyle
  2
Wireframe
 70
     5
177
     3
291
     0
 70
    58
 90
        0
176
     1
 90
        2
176
     1
 90
        0
176
     1
 90
        0
176
     1
 40
0.6
176
     1
 40
30.0
176
     1
 62
     7
420
 16777215
176
     1
 90
        1
176
     1
 90
        4
176
     1
 62
     7
176
     1
 62
   257
176
     1
 90
        1
176
     1
 90
        1
176
     1
 40
1.0
176
     1
 90
        0
176
     1
 62
   257
176
     1
 40
1.0
176
     1
 90
        1
176
     1
 90
        6
176
     1
 90
        2
176
     1
 62
     7
176
     1
 90
        3
176
     1
 90
        0
176
     1
 90
        0
176
     1
290
     0
176
     1
 90
        1
176
     1
 40
0.0
176
     1
 90
        0
176
     1
290
     0
176
     1
290
     1
176
     1
290
     1
176
     1
290
     0
176
     1
290
     0
176
     1
290
     0
176
     1
290
     0
176
     1
290
     0
176
     1
290
     0
176
     1
 90
       50
176
     1
 40
0.0
176
     1
 40
1.0
176
     1
 90
        0
176
     1
 62
    18
420
        0
176
     1
 90
       50
176
     1
 90
        3
176
     1
 62
     5
420
      255
176
     1
290
     0
176
     1
 90
       50
176
     1
 90
       50
176
     1
 90
       50
176
     1
290
     0
176
     1
 90
       50
176
     1
 62
   256
176
     0
 40
1.0
176
     0
 90
        2
176
     1
  1
strokes_ogs.tif
176
     1
290
     0
176
     1
 40
1.0
176
     1
 40
1.0
176
     1
  0
VISUALSTYLE
  5
40
102
{ACAD_REACTORS
330
2A
102
}
330
2A
100
AcDbVisualStyle
  2
X-Ray
 70
    25
177
     3
291
     0
 70
    58
 90
        2
176
     1
 90
        2
176
     1
 90
        1
176
     1
 90
        1
176
     1
 40
0.5
176
     1
 40
30.0
176
     1
 62
     7
420
 16777215
176
     1
 90
        1
176
     1
 90
        0
176
     1
 62
     7
176
     1
 62
   257
176
     1
 90
        1
176
     1
 90
        1
176
     1
 40
1.0
176
     1
 90
        8
176
     1
 62
     7
176
     1
 40
1.0
176
     1
 90
        1
176
     1
 90
        6
176
     1
 90
        2
176
     1
 62
     7
176
     1
 90
        3
176
     1
 90
        0
176
     1
 90
        0
176
     1
290
     0
176
     1
 90
       13
176
     1
 40
0.0
176
     1
 90
        0
176
     1
290
     0
176
     1
290
     1
176
     1
290
     1
176
     1
290
     0
176
     1
290
     0
176
     1
290
     0
176
     1
290
     0
176
     1
290
     0
176
     1
290
     0
176
     1
 90
       50
176
     1
 40
0.0
176
     1
 40
1.0
176
     1
 90
        0
176
     1
 62
    18
420
        0
176
     1
 90
       50
176
     1
 90
        3
176
     1
 62
     5
420
      255
176
     1
290
     0
176
     1
 90
       50
176
     1
 90
       50
176
     1
 90
       50
176
     1
290
     0
176
     1
 90
       50
176
     1
 62
   256
176
     0
 40
1.0
176
     0
 90
        2
176
     1
  1
strokes_ogs.tif
176
     1
290
     0
176
     1
 40
1.0
176
     1
 40
1.0
176
     1
  0
DICTIONARYVAR
  5
1AA
102
{ACAD_REACTORS
330
1A9
102
}
330
1A9
100
DictionaryVariables
280
     0
  1
1:1
  0
DICTIONARYVAR
  5
1AF
102
{ACAD_REACTORS
330
1A9
102
}
330
1A9
100
DictionaryVariables
280
     0
  1
Standard
  0
DICTIONARYVAR
  5
1AE
102
{ACAD_REACTORS
330
1A9
102
}
330
1A9
100
DictionaryVariables
280
     0
  1
Standard
  0
DICTIONARY
  5
1AB
330
6A
100
AcDbDictionary
280
     1
281
     1
  3
ACAD_ROUNDTRIP_2008_TABLESTYLE_CELLSTYLEMAP
360
1AC
  0
CELLSTYLEMAP
  5
1AC
102
{ACAD_REACTORS
330
1AB
102
}
330
1AB
100
AcDbCellStyleMap
 90
        3
300
CELLSTYLE
  1
TABLEFORMAT_BEGIN
 90
        5
170
     1
 91
        0
 92
    32768
 62
   257
 93
        1
300
CONTENTFORMAT
  1
CONTENTFORMAT_BEGIN
 90
        0
 91
        0
 92
        4
 93
        0
300

 40
0.0
140
1.0
 94
        5
 62
     0
340
11
144
0.25
309
CONTENTFORMAT_END
171
     1
301
MARGIN
  1
CELLMARGIN_BEGIN
 40
0.06
 40
0.06
 40
0.06
 40
0.06
 40
0.06
 40
0.06
309
CELLMARGIN_END
 94
        6
 95
        1
302
GRIDFORMAT
  1
GRIDFORMAT_BEGIN
 90
        0
 91
        1
 62
     0
 92
       -2
340
14
 93
        0
 40
0.045
309
GRIDFORMAT_END
 95
        2
302
GRIDFORMAT
  1
GRIDFORMAT_BEGIN
 90
        0
 91
        1
 62
     0
 92
       -2
340
14
 93
        0
 40
0.045
309
GRIDFORMAT_END
 95
        4
302
GRIDFORMAT
  1
GRIDFORMAT_BEGIN
 90
        0
 91
        1
 62
     0
 92
       -2
340
14
 93
        0
 40
0.045
309
GRIDFORMAT_END
 95
        8
302
GRIDFORMAT
  1
GRIDFORMAT_BEGIN
 90
        0
 91
        1
 62
     0
 92
       -2
340
14
 93
        0
 40
0.045
309
GRIDFORMAT_END
 95
       16
302
GRIDFORMAT
  1
GRIDFORMAT_BEGIN
 90
        0
 91
        1
 62
     0
 92
       -2
340
14
 93
        0
 40
0.045
309
GRIDFORMAT_END
 95
       32
302
GRIDFORMAT
  1
GRIDFORMAT_BEGIN
 90
        0
 91
        1
 62
     0
 92
       -2
340
14
 93
        0
 40
0.045
309
GRIDFORMAT_END
309
TABLEFORMAT_END
  1
CELLSTYLE_BEGIN
 90
        1
 91
        1
300
_TITLE
309
CELLSTYLE_END
300
CELLSTYLE
  1
TABLEFORMAT_BEGIN
 90
        5
170
     1
 91
        0
 92
        0
 62
   257
 93
        1
300
CONTENTFORMAT
  1
CONTENTFORMAT_BEGIN
 90
        0
 91
        0
 92
        4
 93
        0
300

 40
0.0
140
1.0
 94
        5
 62
     0
340
11
144
0.18
309
CONTENTFORMAT_END
171
     1
301
MARGIN
  1
CELLMARGIN_BEGIN
 40
0.06
 40
0.06
 40
0.06
 40
0.06
 40
0.06
 40
0.06
309
CELLMARGIN_END
 94
        6
 95
        1
302
GRIDFORMAT
  1
GRIDFORMAT_BEGIN
 90
        0
 91
        1
 62
     0
 92
       -2
340
14
 93
        0
 40
0.045
309
GRIDFORMAT_END
 95
        2
302
GRIDFORMAT
  1
GRIDFORMAT_BEGIN
 90
        0
 91
        1
 62
     0
 92
       -2
340
14
 93
        0
 40
0.045
309
GRIDFORMAT_END
 95
        4
302
GRIDFORMAT
  1
GRIDFORMAT_BEGIN
 90
        0
 91
        1
 62
     0
 92
       -2
340
14
 93
        0
 40
0.045
309
GRIDFORMAT_END
 95
        8
302
GRIDFORMAT
  1
GRIDFORMAT_BEGIN
 90
        0
 91
        1
 62
     0
 92
       -2
340
14
 93
        0
 40
0.045
309
GRIDFORMAT_END
 95
       16
302
GRIDFORMAT
  1
GRIDFORMAT_BEGIN
 90
        0
 91
        1
 62
     0
 92
       -2
340
14
 93
        0
 40
0.045
309
GRIDFORMAT_END
 95
       32
302
GRIDFORMAT
  1
GRIDFORMAT_BEGIN
 90
        0
 91
        1
 62
     0
 92
       -2
340
14
 93
        0
 40
0.045
309
GRIDFORMAT_END
309
TABLEFORMAT_END
  1
CELLSTYLE_BEGIN
 90
        2
 91
        1
300
_HEADER
309
CELLSTYLE_END
300
CELLSTYLE
  1
TABLEFORMAT_BEGIN
 90
        5
170
     1
 91
        0
 92
        0
 62
   257
 93
        1
300
CONTENTFORMAT
  1
CONTENTFORMAT_BEGIN
 90
        0
 91
        0
 92
        4
 93
        0
300

 40
0.0
140
1.0
 94
        2
 62
     0
340
11
144
0.18
309
CONTENTFORMAT_END
171
     1
301
MARGIN
  1
CELLMARGIN_BEGIN
 40
0.06
 40
0.06
 40
0.06
 40
0.06
 40
0.06
 40
0.06
309
CELLMARGIN_END
 94
        6
 95
        1
302
GRIDFORMAT
  1
GRIDFORMAT_BEGIN
 90
        0
 91
        1
 62
     0
 92
       -2
340
14
 93
        0
 40
0.045
309
GRIDFORMAT_END
 95
        2
302
GRIDFORMAT
  1
GRIDFORMAT_BEGIN
 90
        0
 91
        1
 62
     0
 92
       -2
340
14
 93
        0
 40
0.045
309
GRIDFORMAT_END
 95
        4
302
GRIDFORMAT
  1
GRIDFORMAT_BEGIN
 90
        0
 91
        1
 62
     0
 92
       -2
340
14
 93
        0
 40
0.045
309
GRIDFORMAT_END
 95
        8
302
GRIDFORMAT
  1
GRIDFORMAT_BEGIN
 90
        0
 91
        1
 62
     0
 92
       -2
340
14
 93
        0
 40
0.045
309
GRIDFORMAT_END
 95
       16
302
GRIDFORMAT
  1
GRIDFORMAT_BEGIN
 90
        0
 91
        1
 62
     0
 92
       -2
340
14
 93
        0
 40
0.045
309
GRIDFORMAT_END
 95
       32
302
GRIDFORMAT
  1
GRIDFORMAT_BEGIN
 90
        0
 91
        1
 62
     0
 92
       -2
340
14
 93
        0
 40
0.045
309
GRIDFORMAT_END
309
TABLEFORMAT_END
  1
CELLSTYLE_BEGIN
 90
        3
 91
        2
300
_DATA
309
CELLSTYLE_END
  0
ENDSEC
  0
EOF