0
SECTION
  2
HEADER
  9
$ACADVER
  1
AC1027
  9
$ACADMAINTVER
 70
     8
  9
$DWGCODEPAGE
  3
ANSI_1252
  9
$REQUIREDVERSIONS
160
                 0
  9
$COMMENTS
  1
File was created by Cadenas
  9
$CUSTOMPROPERTYTAG
  1
NN
  9
$CUSTOMPROPERTY
  1
Set Screw Wide Slot Take Up Inch Bore
  9
$CUSTOMPROPERTYTAG
  1
NT
  9
$CUSTOMPROPERTY
  1
SC Take-Up Bearings -Wide Slot -(Normal Duty)
  9
$CUSTOMPROPERTYTAG
  1
NB
  9
$CUSTOMPROPERTY
  1
125012
  9
$CUSTOMPROPERTYTAG
  1
NBSYN
  9
$CUSTOMPROPERTY
  1
$PN.
  9
$CUSTOMPROPERTYTAG
  1
LINA
  9
$CUSTOMPROPERTY
  1
125012
  9
$CUSTOMPROPERTYTAG
  1
SERIES
  9
$CUSTOMPROPERTY
  1
205
  9
$CUSTOMPROPERTYTAG
  1
SS
  9
$CUSTOMPROPERTY
  1
1
  9
$CUSTOMPROPERTYTAG
  1
PN
  9
$CUSTOMPROPERTY
  1
125012
  9
$CUSTOMPROPERTYTAG
  1
DESCRIPTION
  9
$CUSTOMPROPERTY
  1
WSTU-SC-100
  9
$CUSTOMPROPERTYTAG
  1
W
  9
$CUSTOMPROPERTY
  1
2.0
  9
$CUSTOMPROPERTYTAG
  1
FS
  9
$CUSTOMPROPERTY
  1
WS300
  9
$CUSTOMPROPERTYTAG
  1
LF
  9
$CUSTOMPROPERTY
  1
RE-LUBE
  9
$CUSTOMPROPERTYTAG
  1
A
  9
$CUSTOMPROPERTY
  1
1.34
  9
$CUSTOMPROPERTYTAG
  1
B
  9
$CUSTOMPROPERTY
  1
3.81
  9
$CUSTOMPROPERTYTAG
  1
C
  9
$CUSTOMPROPERTY
  1
0.531
  9
$CUSTOMPROPERTYTAG
  1
D
  9
$CUSTOMPROPERTY
  1
2
  9
$CUSTOMPROPERTYTAG
  1
E
  9
$CUSTOMPROPERTY
  1
2.44
  9
$CUSTOMPROPERTYTAG
  1
F
  9
$CUSTOMPROPERTY
  1
5/8
  9
$CUSTOMPROPERTYTAG
  1
G
  9
$CUSTOMPROPERTY
  1
0.38
  9
$CUSTOMPROPERTYTAG
  1
H
  9
$CUSTOMPROPERTY
  1
0.63
  9
$CUSTOMPROPERTYTAG
  1
J
  9
$CUSTOMPROPERTY
  1
2
  9
$CUSTOMPROPERTYTAG
  1
K
  9
$CUSTOMPROPERTY
  1
1.31
  9
$CUSTOMPROPERTYTAG
  1
L
  9
$CUSTOMPROPERTY
  1
1.32
  9
$CUSTOMPROPERTYTAG
  1
M
  9
$CUSTOMPROPERTY
  1
2.985 / 3.015
  9
$CUSTOMPROPERTYTAG
  1
N
  9
$CUSTOMPROPERTY
  1
3.63
  9
$CUSTOMPROPERTYTAG
  1
R
  9
$CUSTOMPROPERTY
  1
0.56
  9
$CUSTOMPROPERTYTAG
  1
S
  9
$CUSTOMPROPERTY
  1
0.78
  9
$CUSTOMPROPERTYTAG
  1
T
  9
$CUSTOMPROPERTY
  1
1.38
  9
$CUSTOMPROPERTYTAG
  1
COMPANY
  9
$CUSTOMPROPERTY
  1
baldor
  9
$INSBASE
 10
0.0
 20
0.0
 30
0.0
  9
$EXTMIN
 10
1.000000000000000E+20
 20
1.000000000000000E+20
 30
1.000000000000000E+20
  9
$EXTMAX
 10
-1.000000000000000E+20
 20
-1.000000000000000E+20
 30
-1.000000000000000E+20
  9
$LIMMIN
 10
0.0
 20
0.0
  9
$LIMMAX
 10
12.0
 20
9.0
  9
$ORTHOMODE
 70
     0
  9
$REGENMODE
 70
     1
  9
$FILLMODE
 70
     1
  9
$QTEXTMODE
 70
     0
  9
$MIRRTEXT
 70
     1
  9
$LTSCALE
 40
1.0
  9
$ATTMODE
 70
     1
  9
$TEXTSIZE
 40
0.2
  9
$TRACEWID
 40
0.05
  9
$TEXTSTYLE
  7
Standard
  9
$CLAYER
  8
0
  9
$CELTYPE
  6
ByLayer
  9
$CECOLOR
 62
   256
  9
$CELTSCALE
 40
1.0
  9
$DISPSILH
 70
     0
  9
$DIMSCALE
 40
1.0
  9
$DIMASZ
 40
0.18
  9
$DIMEXO
 40
0.0625
  9
$DIMDLI
 40
0.38
  9
$DIMRND
 40
0.0
  9
$DIMDLE
 40
0.0
  9
$DIMEXE
 40
0.18
  9
$DIMTP
 40
0.0
  9
$DIMTM
 40
0.0
  9
$DIMTXT
 40
0.18
  9
$DIMCEN
 40
0.09
  9
$DIMTSZ
 40
0.0
  9
$DIMTOL
 70
     0
  9
$DIMLIM
 70
     0
  9
$DIMTIH
 70
     1
  9
$DIMTOH
 70
     1
  9
$DIMSE1
 70
     0
  9
$DIMSE2
 70
     0
  9
$DIMTAD
 70
     0
  9
$DIMZIN
 70
     0
  9
$DIMBLK
  1

  9
$DIMASO
 70
     1
  9
$DIMSHO
 70
     1
  9
$DIMPOST
  1

  9
$DIMAPOST
  1

  9
$DIMALT
 70
     0
  9
$DIMALTD
 70
     2
  9
$DIMALTF
 40
25.4
  9
$DIMLFAC
 40
1.0
  9
$DIMTOFL
 70
     0
  9
$DIMTVP
 40
0.0
  9
$DIMTIX
 70
     0
  9
$DIMSOXD
 70
     0
  9
$DIMSAH
 70
     0
  9
$DIMBLK1
  1

  9
$DIMBLK2
  1

  9
$DIMSTYLE
  2
Standard
  9
$DIMCLRD
 70
     0
  9
$DIMCLRE
 70
     0
  9
$DIMCLRT
 70
     0
  9
$DIMTFAC
 40
1.0
  9
$DIMGAP
 40
0.09
  9
$DIMJUST
 70
     0
  9
$DIMSD1
 70
     0
  9
$DIMSD2
 70
     0
  9
$DIMTOLJ
 70
     1
  9
$DIMTZIN
 70
     0
  9
$DIMALTZ
 70
     0
  9
$DIMALTTZ
 70
     0
  9
$DIMUPT
 70
     0
  9
$DIMDEC
 70
     4
  9
$DIMTDEC
 70
     4
  9
$DIMALTU
 70
     2
  9
$DIMALTTD
 70
     2
  9
$DIMTXSTY
  7
Standard
  9
$DIMAUNIT
 70
     0
  9
$DIMADEC
 70
     0
  9
$DIMALTRND
 40
0.0
  9
$DIMAZIN
 70
     0
  9
$DIMDSEP
 70
    46
  9
$DIMATFIT
 70
     3
  9
$DIMFRAC
 70
     0
  9
$DIMLDRBLK
  1

  9
$DIMLUNIT
 70
     2
  9
$DIMLWD
 70
    -2
  9
$DIMLWE
 70
    -2
  9
$DIMTMOVE
 70
     0
  9
$DIMFXL
 40
1.0
  9
$DIMFXLON
 70
     0
  9
$DIMJOGANG
 40
0.7853981633974483
  9
$DIMTFILL
 70
     0
  9
$DIMTFILLCLR
 70
     0
  9
$DIMARCSYM
 70
     0
  9
$DIMLTYPE
  6

  9
$DIMLTEX1
  6

  9
$DIMLTEX2
  6

  9
$DIMTXTDIRECTION
 70
     0
  9
$LUNITS
 70
     2
  9
$LUPREC
 70
     4
  9
$SKETCHINC
 40
0.1
  9
$FILLETRAD
 40
0.5
  9
$AUNITS
 70
     0
  9
$AUPREC
 70
     0
  9
$MENU
  1
.
  9
$ELEVATION
 40
0.0
  9
$PELEVATION
 40
0.0
  9
$THICKNESS
 40
0.0
  9
$LIMCHECK
 70
     0
  9
$CHAMFERA
 40
0.0
  9
$CHAMFERB
 40
0.0
  9
$CHAMFERC
 40
0.0
  9
$CHAMFERD
 40
0.0
  9
$SKPOLY
 70
     0
  9
$TDCREATE
 40
2458168.969176539
  9
$TDUCREATE
 40
2458168.927509873
  9
$TDUPDATE
 40
2458168.969176713
  9
$TDUUPDATE
 40
2458168.927510046
  9
$TDINDWG
 40
0.0000000116
  9
$TDUSRTIMER
 40
0.0000000116
  9
$USRTIMER
 70
     1
  9
$ANGBASE
 50
0.0
  9
$ANGDIR
 70
     0
  9
$PDMODE
 70
     0
  9
$PDSIZE
 40
0.0
  9
$PLINEWID
 40
0.0
  9
$SPLFRAME
 70
     0
  9
$SPLINETYPE
 70
     6
  9
$SPLINESEGS
 70
     8
  9
$HANDSEED
  5
210
  9
$SURFTAB1
 70
     6
  9
$SURFTAB2
 70
     6
  9
$SURFTYPE
 70
     6
  9
$SURFU
 70
     6
  9
$SURFV
 70
     6
  9
$UCSBASE
  2

  9
$UCSNAME
  2

  9
$UCSORG
 10
0.0
 20
0.0
 30
0.0
  9
$UCSXDIR
 10
1.0
 20
0.0
 30
0.0
  9
$UCSYDIR
 10
0.0
 20
1.0
 30
0.0
  9
$UCSORTHOREF
  2

  9
$UCSORTHOVIEW
 70
     0
  9
$UCSORGTOP
 10
0.0
 20
0.0
 30
0.0
  9
$UCSORGBOTTOM
 10
0.0
 20
0.0
 30
0.0
  9
$UCSORGLEFT
 10
0.0
 20
0.0
 30
0.0
  9
$UCSORGRIGHT
 10
0.0
 20
0.0
 30
0.0
  9
$UCSORGFRONT
 10
0.0
 20
0.0
 30
0.0
  9
$UCSORGBACK
 10
0.0
 20
0.0
 30
0.0
  9
$PUCSBASE
  2

  9
$PUCSNAME
  2

  9
$PUCSORG
 10
0.0
 20
0.0
 30
0.0
  9
$PUCSXDIR
 10
1.0
 20
0.0
 30
0.0
  9
$PUCSYDIR
 10
0.0
 20
1.0
 30
0.0
  9
$PUCSORTHOREF
  2

  9
$PUCSORTHOVIEW
 70
     0
  9
$PUCSORGTOP
 10
0.0
 20
0.0
 30
0.0
  9
$PUCSORGBOTTOM
 10
0.0
 20
0.0
 30
0.0
  9
$PUCSORGLEFT
 10
0.0
 20
0.0
 30
0.0
  9
$PUCSORGRIGHT
 10
0.0
 20
0.0
 30
0.0
  9
$PUCSORGFRONT
 10
0.0
 20
0.0
 30
0.0
  9
$PUCSORGBACK
 10
0.0
 20
0.0
 30
0.0
  9
$USERI1
 70
     0
  9
$USERI2
 70
     0
  9
$USERI3
 70
     0
  9
$USERI4
 70
     0
  9
$USERI5
 70
     0
  9
$USERR1
 40
0.0
  9
$USERR2
 40
0.0
  9
$USERR3
 40
0.0
  9
$USERR4
 40
0.0
  9
$USERR5
 40
0.0
  9
$WORLDVIEW
 70
     1
  9
$SHADEDGE
 70
     3
  9
$SHADEDIF
 70
    70
  9
$TILEMODE
 70
     1
  9
$MAXACTVP
 70
    64
  9
$PINSBASE
 10
0.0
 20
0.0
 30
0.0
  9
$PLIMCHECK
 70
     0
  9
$PEXTMIN
 10
1.000000000000000E+20
 20
1.000000000000000E+20
 30
1.000000000000000E+20
  9
$PEXTMAX
 10
-1.000000000000000E+20
 20
-1.000000000000000E+20
 30
-1.000000000000000E+20
  9
$PLIMMIN
 10
0.0
 20
0.0
  9
$PLIMMAX
 10
12.0
 20
9.0
  9
$UNITMODE
 70
     0
  9
$VISRETAIN
 70
     1
  9
$PLINEGEN
 70
     0
  9
$PSLTSCALE
 70
     1
  9
$TREEDEPTH
 70
  3020
  9
$CMLSTYLE
  2
Standard
  9
$CMLJUST
 70
     0
  9
$CMLSCALE
 40
1.0
  9
$PROXYGRAPHICS
 70
     1
  9
$MEASUREMENT
 70
     0
  9
$CELWEIGHT
370
    -1
  9
$ENDCAPS
280
     0
  9
$JOINSTYLE
280
     0
  9
$LWDISPLAY
290
     0
  9
$INSUNITS
 70
     1
  9
$HYPERLINKBASE
  1

  9
$STYLESHEET
  1

  9
$XEDIT
290
     1
  9
$CEPSNTYPE
380
     0
  9
$PSTYLEMODE
290
     1
  9
$FINGERPRINTGUID
  2
{FA32A962-2190-44A9-9293-3390A3C2E3C6}
  9
$VERSIONGUID
  2
{FAEB1C32-E019-11D5-929B-00C0DF256EC4}
  9
$EXTNAMES
290
     1
  9
$PSVPSCALE
 40
0.0
  9
$OLESTARTUP
290
     0
  9
$SORTENTS
280
   127
  9
$INDEXCTL
280
     0
  9
$HIDETEXT
280
     1
  9
$XCLIPFRAME
280
     2
  9
$HALOGAP
280
     0
  9
$OBSCOLOR
 70
   257
  9
$OBSLTYPE
280
     0
  9
$INTERSECTIONDISPLAY
280
     0
  9
$INTERSECTIONCOLOR
 70
   257
  9
$DIMASSOC
280
     2
  9
$PROJECTNAME
  1

  9
$CAMERADISPLAY
290
     0
  9
$LENSLENGTH
 40
50.0
  9
$CAMERAHEIGHT
 40
0.0
  9
$STEPSPERSEC
 40
2.0
  9
$STEPSIZE
 40
6.0
  9
$3DDWFPREC
 40
2.0
  9
$PSOLWIDTH
 40
0.25
  9
$PSOLHEIGHT
 40
4.0
  9
$LOFTANG1
 40
1.570796326794897
  9
$LOFTANG2
 40
1.570796326794897
  9
$LOFTMAG1
 40
0.0
  9
$LOFTMAG2
 40
0.0
  9
$LOFTPARAM
 70
     7
  9
$LOFTNORMALS
280
     1
  9
$LATITUDE
 40
37.795
  9
$LONGITUDE
 40
-122.394
  9
$NORTHDIRECTION
 40
0.0
  9
$TIMEZONE
 70
 -8000
  9
$LIGHTGLYPHDISPLAY
280
     1
  9
$TILEMODELIGHTSYNCH
280
     1
  9
$CMATERIAL
347
44
  9
$SOLIDHIST
280
     0
  9
$SHOWHIST
280
     1
  9
$DWFFRAME
280
     2
  9
$DGNFRAME
280
     2
  9
$REALWORLDSCALE
290
     1
  9
$INTERFERECOLOR
 62
   256
  9
$CSHADOW
280
     0
  9
$SHADOWPLANELOCATION
 40
0.0
  0
ENDSEC
  0
SECTION
  2
CLASSES
  0
CLASS
  1
ACDBDICTIONARYWDFLT
  2
AcDbDictionaryWithDefault
  3
ObjectDBX Classes
 90
        0
 91
        4
280
     0
281
     0
  0
CLASS
  1
VISUALSTYLE
  2
AcDbVisualStyle
  3
ObjectDBX Classes
 90
     4095
 91
        4
280
     0
281
     0
  0
CLASS
  1
MATERIAL
  2
AcDbMaterial
  3
ObjectDBX Classes
 90
     1153
 91
        4
280
     0
281
     0
  0
CLASS
  1
SCALE
  2
AcDbScale
  3
ObjectDBX Classes
 90
     1153
 91
        4
280
     0
281
     0
  0
CLASS
  1
TABLESTYLE
  2
AcDbTableStyle
  3
ObjectDBX Classes
 90
     4095
 91
        4
280
     0
281
     0
  0
CLASS
  1
MLEADERSTYLE
  2
AcDbMLeaderStyle
  3
ACDB_MLEADERSTYLE_CLASS
 90
     4095
 91
        4
280
     0
281
     0
  0
CLASS
  1
SUN
  2
AcDbSun
  3
SCENEOE
 90
     1153
 91
        4
280
     0
281
     0
  0
CLASS
  1
DICTIONARYVAR
  2
AcDbDictionaryVar
  3
ObjectDBX Classes
 90
        0
 91
        4
280
     0
281
     0
  0
CLASS
  1
CELLSTYLEMAP
  2
AcDbCellStyleMap
  3
ObjectDBX Classes
 90
     1152
 91
        4
280
     0
281
     0
  0
ENDSEC
  0
SECTION
  2
TABLES
  0
TABLE
  2
VPORT
  5
8
330
0
100
AcDbSymbolTable
 70
     1
  0
VPORT
  5
29
330
8
100
AcDbSymbolTableRecord
100
AcDbViewportTableRecord
  2
*Active
 70
     0
 10
0.0
 20
0.0
 11
1.0
 21
1.0
 12
-0.0785
 22
0.0
 13
0.0
 23
0.0
 14
0.5
 24
0.5
 15
0.5
 25
0.5
 16
0.0
 26
0.0
 36
1.0
 17
0.0
 27
0.0
 37
0.0
 40
3.702599999999999
 41
0.4234159779614323
 42
50.0
 43
0.0
 44
0.0
 50
0.0
 51
0.0
 71
     0
 72
   100
 73
     1
 74
     3
 75
     0
 76
     0
 77
     0
 78
     0
281
     0
 65
     1
110
0.0
120
0.0
130
0.0
111
1.0
121
0.0
131
0.0
112
0.0
122
1.0
132
0.0
 79
     0
146
0.0
348
2F
 60
     3
 61
     5
292
     1
282
     1
141
0.0
142
0.0
 63
   250
361
6D
  0
ENDTAB
  0
TABLE
  2
LTYPE
  5
5
330
0
100
AcDbSymbolTable
 70
     3
  0
LTYPE
  5
14
330
5
100
AcDbSymbolTableRecord
100
AcDbLinetypeTableRecord
  2
ByBlock
 70
     0
  3

 72
    65
 73
     0
 40
0.0
  0
LTYPE
  5
15
330
5
100
AcDbSymbolTableRecord
100
AcDbLinetypeTableRecord
  2
ByLayer
 70
     0
  3

 72
    65
 73
     0
 40
0.0
  0
LTYPE
  5
16
330
5
100
AcDbSymbolTableRecord
100
AcDbLinetypeTableRecord
  2
Continuous
 70
     0
  3
Solid line
 72
    65
 73
     0
 40
0.0
  0
LTYPE
  5
A6
330
5
100
AcDbSymbolTableRecord
100
AcDbLinetypeTableRecord
  2
Dashed
 70
     0
  3

 72
    65
 73
     2
 40
2.0
 49
1.0
 74
     0
 49
-1.0
 74
     0
  0
LTYPE
  5
E6
330
5
100
AcDbSymbolTableRecord
100
AcDbLinetypeTableRecord
  2
Center
 70
     0
  3

 72
    65
 73
     4
 40
1.5
 49
0.45
 74
     0
 49
-0.5
 74
     0
 49
0.05
 74
     0
 49
-0.5
 74
     0
  0
ENDTAB
  0
TABLE
  2
LAYER
  5
2
330
0
100
AcDbSymbolTable
 70
     7
  0
LAYER
  5
10
330
2
100
AcDbSymbolTableRecord
100
AcDbLayerTableRecord
  2
0
 70
     0
 62
     7
  6
Continuous
370
    -3
390
F
347
46
348
0
  0
LAYER
  5
72
330
2
100
AcDbSymbolTableRecord
100
AcDbLayerTableRecord
  2
AM_6
 70
     0
 62
    -2
  6
Continuous
370
    35
390
F
347
46
348
0
  0
LAYER
  5
A7
330
2
100
AcDbSymbolTableRecord
100
AcDbLayerTableRecord
  2
AM_9
 70
     0
 62
     6
  6
Dashed
370
    25
390
F
347
46
348
0
  0
LAYER
  5
E2
330
2
100
AcDbSymbolTableRecord
100
AcDbLayerTableRecord
  2
AM_5
 70
     0
 62
     3
  6
Continuous
370
    25
390
F
347
46
348
0
  0
LAYER
  5
E7
330
2
100
AcDbSymbolTableRecord
100
AcDbLayerTableRecord
  2
AM_7
 70
     0
 62
     7
  6
Center
370
    25
390
F
347
46
348
0
  0
LAYER
  5
EB
330
2
100
AcDbSymbolTableRecord
100
AcDbLayerTableRecord
  2
AM_4
 70
     0
 62
     7
  6
Continuous
370
    50
390
F
347
46
348
0
  0
LAYER
  5
203
330
2
100
AcDbSymbolTableRecord
100
AcDbLayerTableRecord
  2
ConnectionPoints
 70
     0
 62
     7
  6
Continuous
370
    50
390
F
347
46
348
0
  0
ENDTAB
  0
TABLE
  2
STYLE
  5
3
330
0
100
AcDbSymbolTable
 70
     1
  0
STYLE
  5
11
330
3
100
AcDbSymbolTableRecord
100
AcDbTextStyleTableRecord
  2
Standard
 70
     0
 40
0.0
 41
1.0
 50
0.0
 71
     0
 42
0.2
  3
txt
  4

  0
ENDTAB
  0
TABLE
  2
VIEW
  5
6
330
0
100
AcDbSymbolTable
 70
     0
  0
ENDTAB
  0
TABLE
  2
UCS
  5
7
330
0
100
AcDbSymbolTable
 70
     0
  0
ENDTAB
  0
TABLE
  2
APPID
  5
9
330
0
100
AcDbSymbolTable
 70
     1
  0
APPID
  5
12
330
9
100
AcDbSymbolTableRecord
100
AcDbRegAppTableRecord
  2
ACAD
 70
     0
  0
ENDTAB
  0
TABLE
  2
DIMSTYLE
  5
A
330
0
100
AcDbSymbolTable
 70
     1
100
AcDbDimStyleTable
  0
DIMSTYLE
105
27
330
A
100
AcDbSymbolTableRecord
100
AcDbDimStyleTableRecord
  2
Standard
 70
     0
178
     0
340
11
  0
ENDTAB
  0
TABLE
  2
BLOCK_RECORD
  5
1
330
0
100
AcDbSymbolTable
 70
     5
  0
BLOCK_RECORD
  5
1F
330
1
100
AcDbSymbolTableRecord
100
AcDbBlockTableRecord
  2
*Model_Space
340
22
 70
     0
280
     1
281
     0
  0
BLOCK_RECORD
  5
1B
330
1
100
AcDbSymbolTableRecord
100
AcDbBlockTableRecord
  2
*Paper_Space
340
1E
 70
     0
280
     1
281
     0
  0
BLOCK_RECORD
  5
23
330
1
100
AcDbSymbolTableRecord
100
AcDbBlockTableRecord
  2
*Paper_Space0
340
26
 70
     0
280
     1
281
     0
  0
BLOCK_RECORD
  5
6E
330
1
100
AcDbSymbolTableRecord
100
AcDbBlockTableRecord
  2
1_125012_2
340
0
102
{BLKREFS
331
6F
102
}
 70
     0
280
     1
281
     0
  0
BLOCK_RECORD
  5
90
330
1
100
AcDbSymbolTableRecord
100
AcDbBlockTableRecord
  2
2_123335_0_in_125012_2
340
0
102
{BLKREFS
331
91
102
}
 70
     0
280
     1
281
     0
  0
BLOCK_RECORD
  5
FF
330
1
100
AcDbSymbolTableRecord
100
AcDbBlockTableRecord
  2
3_405016_Inch_0_in_125012_2
340
0
102
{BLKREFS
331
100
102
}
 70
     0
280
     1
281
     0
  0
BLOCK_RECORD
  5
180
330
1
100
AcDbSymbolTableRecord
100
AcDbBlockTableRecord
  2
4_125012H_0_in_125012_2
340
0
102
{BLKREFS
331
181
102
}
 70
     0
280
     1
281
     0
  0
ENDTAB
  0
ENDSEC
  0
SECTION
  2
BLOCKS
  0
BLOCK
  5
20
330
1F
100
AcDbEntity
  8
0
100
AcDbBlockBegin
  2
*Model_Space
 70
     0
 10
0.0
 20
0.0
 30
0.0
  3
*Model_Space
  1

  0
ENDBLK
  5
21
330
1F
100
AcDbEntity
  8
0
100
AcDbBlockEnd
  0
BLOCK
  5
1C
330
1B
100
AcDbEntity
 67
     1
  8
0
100
AcDbBlockBegin
  2
*Paper_Space
 70
     0
 10
0.0
 20
0.0
 30
0.0
  3
*Paper_Space
  1

  0
ENDBLK
  5
1D
330
1B
100
AcDbEntity
 67
     1
  8
0
100
AcDbBlockEnd
  0
BLOCK
  5
24
330
23
100
AcDbEntity
  8
0
100
AcDbBlockBegin
  2
*Paper_Space0
 70
     0
 10
0.0
 20
0.0
 30
0.0
  3
*Paper_Space0
  1

  0
ENDBLK
  5
25
330
23
100
AcDbEntity
  8
0
100
AcDbBlockEnd
  0
BLOCK
  5
70
330
6E
100
AcDbEntity
  8
0
100
AcDbBlockBegin
  2
1_125012_2
 70
     2
 10
0.0
 20
0.0
 30
0.0
  3
1_125012_2
  1

  0
ATTDEF
  5
73
330
6E
100
AcDbEntity
  8
AM_6
100
AcDbText
 10
5.69
 20
1.815
 30
0.0
 40
0.5
  1
Set Screw Wide Slot Take Up Inch Bore
100
AcDbAttributeDefinition
  3

  2
NN
 70
     8
280
     0
  0
ATTDEF
  5
74
330
6E
100
AcDbEntity
  8
AM_6
100
AcDbText
 10
5.69
 20
1.315
 30
0.0
 40
0.5
  1
SC Take-Up Bearings -Wide Slot -(Normal Duty)
100
AcDbAttributeDefinition
  3

  2
NT
 70
     8
280
     0
  0
ATTDEF
  5
75
330
6E
100
AcDbEntity
  8
AM_6
100
AcDbText
 10
5.69
 20
0.815
 30
0.0
 40
0.5
  1
125012
100
AcDbAttributeDefinition
  3

  2
NB
 70
     8
280
     0
  0
ATTDEF
  5
76
330
6E
100
AcDbEntity
  8
AM_6
100
AcDbText
 10
5.69
 20
0.3149999999999999
 30
0.0
 40
0.5
  1
$PN.
100
AcDbAttributeDefinition
  3

  2
NBSYN
 70
     8
280
     0
  0
ATTDEF
  5
77
330
6E
100
AcDbEntity
  8
AM_6
100
AcDbText
 10
5.69
 20
-0.1850000000000001
 30
0.0
 40
0.5
  1
125012
100
AcDbAttributeDefinition
  3

  2
LINA
 70
     8
280
     0
  0
ATTDEF
  5
78
330
6E
100
AcDbEntity
  8
AM_6
100
AcDbText
 10
5.69
 20
-0.685
 30
0.0
 40
0.5
  1
205
100
AcDbAttributeDefinition
  3

  2
SERIES
 70
     8
280
     0
  0
ATTDEF
  5
79
330
6E
100
AcDbEntity
  8
AM_6
100
AcDbText
 10
5.69
 20
-1.185
 30
0.0
 40
0.5
  1
1
100
AcDbAttributeDefinition
  3

  2
SS
 70
     8
280
     0
  0
ATTDEF
  5
7A
330
6E
100
AcDbEntity
  8
AM_6
100
AcDbText
 10
5.69
 20
-1.685
 30
0.0
 40
0.5
  1
125012
100
AcDbAttributeDefinition
  3

  2
PN
 70
     8
280
     0
  0
ATTDEF
  5
7B
330
6E
100
AcDbEntity
  8
AM_6
100
AcDbText
 10
5.69
 20
-2.185
 30
0.0
 40
0.5
  1
WSTU-SC-100
100
AcDbAttributeDefinition
  3

  2
DESCRIPTION
 70
     8
280
     0
  0
ATTDEF
  5
7C
330
6E
100
AcDbEntity
  8
AM_6
100
AcDbText
 10
5.69
 20
-2.685
 30
0.0
 40
0.5
  1
2.0
100
AcDbAttributeDefinition
  3

  2
W
 70
     8
280
     0
  0
ATTDEF
  5
7D
330
6E
100
AcDbEntity
  8
AM_6
100
AcDbText
 10
5.69
 20
-3.185
 30
0.0
 40
0.5
  1
WS300
100
AcDbAttributeDefinition
  3

  2
FS
 70
     8
280
     0
  0
ATTDEF
  5
7E
330
6E
100
AcDbEntity
  8
AM_6
100
AcDbText
 10
5.69
 20
-3.685
 30
0.0
 40
0.5
  1
RE-LUBE
100
AcDbAttributeDefinition
  3

  2
LF
 70
     8
280
     0
  0
ATTDEF
  5
7F
330
6E
100
AcDbEntity
  8
AM_6
100
AcDbText
 10
5.69
 20
-4.185
 30
0.0
 40
0.5
  1
1.34
100
AcDbAttributeDefinition
  3

  2
A
 70
     8
280
     0
  0
ATTDEF
  5
80
330
6E
100
AcDbEntity
  8
AM_6
100
AcDbText
 10
5.69
 20
-4.685
 30
0.0
 40
0.5
  1
3.81
100
AcDbAttributeDefinition
  3

  2
B
 70
     8
280
     0
  0
ATTDEF
  5
81
330
6E
100
AcDbEntity
  8
AM_6
100
AcDbText
 10
5.69
 20
-5.185
 30
0.0
 40
0.5
  1
0.531
100
AcDbAttributeDefinition
  3

  2
C
 70
     8
280
     0
  0
ATTDEF
  5
82
330
6E
100
AcDbEntity
  8
AM_6
100
AcDbText
 10
5.69
 20
-5.685
 30
0.0
 40
0.5
  1
2
100
AcDbAttributeDefinition
  3

  2
D
 70
     8
280
     0
  0
ATTDEF
  5
83
330
6E
100
AcDbEntity
  8
AM_6
100
AcDbText
 10
5.69
 20
-6.185
 30
0.0
 40
0.5
  1
2.44
100
AcDbAttributeDefinition
  3

  2
E
 70
     8
280
     0
  0
ATTDEF
  5
84
330
6E
100
AcDbEntity
  8
AM_6
100
AcDbText
 10
5.69
 20
-6.685
 30
0.0
 40
0.5
  1
5/8
100
AcDbAttributeDefinition
  3

  2
F
 70
     8
280
     0
  0
ATTDEF
  5
85
330
6E
100
AcDbEntity
  8
AM_6
100
AcDbText
 10
5.69
 20
-7.185
 30
0.0
 40
0.5
  1
0.38
100
AcDbAttributeDefinition
  3

  2
G
 70
     8
280
     0
  0
ATTDEF
  5
86
330
6E
100
AcDbEntity
  8
AM_6
100
AcDbText
 10
5.69
 20
-7.685
 30
0.0
 40
0.5
  1
0.63
100
AcDbAttributeDefinition
  3

  2
H
 70
     8
280
     0
  0
ATTDEF
  5
87
330
6E
100
AcDbEntity
  8
AM_6
100
AcDbText
 10
5.69
 20
-8.185
 30
0.0
 40
0.5
  1
2
100
AcDbAttributeDefinition
  3

  2
J
 70
     8
280
     0
  0
ATTDEF
  5
88
330
6E
100
AcDbEntity
  8
AM_6
100
AcDbText
 10
5.69
 20
-8.685
 30
0.0
 40
0.5
  1
1.31
100
AcDbAttributeDefinition
  3

  2
K
 70
     8
280
     0
  0
ATTDEF
  5
89
330
6E
100
AcDbEntity
  8
AM_6
100
AcDbText
 10
5.69
 20
-9.185
 30
0.0
 40
0.5
  1
1.32
100
AcDbAttributeDefinition
  3

  2
L
 70
     8
280
     0
  0
ATTDEF
  5
8A
330
6E
100
AcDbEntity
  8
AM_6
100
AcDbText
 10
5.69
 20
-9.685
 30
0.0
 40
0.5
  1
2.985 / 3.015
100
AcDbAttributeDefinition
  3

  2
M
 70
     8
280
     0
  0
ATTDEF
  5
8B
330
6E
100
AcDbEntity
  8
AM_6
100
AcDbText
 10
5.69
 20
-10.185
 30
0.0
 40
0.5
  1
3.63
100
AcDbAttributeDefinition
  3

  2
N
 70
     8
280
     0
  0
ATTDEF
  5
8C
330
6E
100
AcDbEntity
  8
AM_6
100
AcDbText
 10
5.69
 20
-10.685
 30
0.0
 40
0.5
  1
0.56
100
AcDbAttributeDefinition
  3

  2
R
 70
     8
280
     0
  0
ATTDEF
  5
8D
330
6E
100
AcDbEntity
  8
AM_6
100
AcDbText
 10
5.69
 20
-11.185
 30
0.0
 40
0.5
  1
0.78
100
AcDbAttributeDefinition
  3

  2
S
 70
     8
280
     0
  0
ATTDEF
  5
8E
330
6E
100
AcDbEntity
  8
AM_6
100
AcDbText
 10
5.69
 20
-11.685
 30
0.0
 40
0.5
  1
1.38
100
AcDbAttributeDefinition
  3

  2
T
 70
     8
280
     0
  0
ATTDEF
  5
8F
330
6E
100
AcDbEntity
  8
AM_6
100
AcDbText
 10
5.69
 20
-12.185
 30
0.0
 40
0.5
  1
baldor
100
AcDbAttributeDefinition
  3

  2
COMPANY
 70
     8
280
     0
  0
INSERT
  5
91
330
6E
100
AcDbEntity
  8
0
100
AcDbBlockReference
  2
2_123335_0_in_125012_2
 10
0.0
 20
0.0
 30
0.0
  0
INSERT
  5
100
330
6E
100
AcDbEntity
  8
0
100
AcDbBlockReference
  2
3_405016_Inch_0_in_125012_2
 10
0.0
 20
0.0
 30
0.0
  0
INSERT
  5
181
330
6E
100
AcDbEntity
  8
0
100
AcDbBlockReference
  2
4_125012H_0_in_125012_2
 10
0.0
 20
0.0
 30
0.0
  0
ENDBLK
  5
71
330
6E
100
AcDbEntity
  8
0
100
AcDbBlockEnd
  0
BLOCK
  5
92
330
90
100
AcDbEntity
  8
0
100
AcDbBlockBegin
  2
2_123335_0_in_125012_2
 70
     2
 10
0.0
 20
0.0
 30
0.0
  3
2_123335_0_in_125012_2
  1

  0
ATTDEF
  5
94
330
90
100
AcDbEntity
  8
AM_6
100
AcDbText
 10
5.627
 20
1.09428
 30
0.0
 40
0.5
  1
Set Screw Insert Inch Bore
100
AcDbAttributeDefinition
  3

  2
NN
 70
     8
280
     0
  0
ATTDEF
  5
95
330
90
100
AcDbEntity
  8
AM_6
100
AcDbText
 10
5.627
 20
0.5942800000000001
 30
0.0
 40
0.5
  1
SC Normal Duty Bearing Inserts
100
AcDbAttributeDefinition
  3

  2
NT
 70
     8
280
     0
  0
ATTDEF
  5
96
330
90
100
AcDbEntity
  8
AM_6
100
AcDbText
 10
5.627
 20
0.0942800000000001
 30
0.0
 40
0.5
  1
123335
100
AcDbAttributeDefinition
  3

  2
NB
 70
     8
280
     0
  0
ATTDEF
  5
97
330
90
100
AcDbEntity
  8
AM_6
100
AcDbText
 10
5.627
 20
-0.4057199999999999
 30
0.0
 40
0.5
  1
$PN.
100
AcDbAttributeDefinition
  3

  2
NBSYN
 70
     8
280
     0
  0
ATTDEF
  5
98
330
90
100
AcDbEntity
  8
AM_6
100
AcDbText
 10
5.627
 20
-0.9057199999999999
 30
0.0
 40
0.5
  1
123335
100
AcDbAttributeDefinition
  3

  2
LINA
 70
     8
280
     0
  0
ATTDEF
  5
99
330
90
100
AcDbEntity
  8
AM_6
100
AcDbText
 10
5.627
 20
-1.40572
 30
0.0
 40
0.5
  1
205
100
AcDbAttributeDefinition
  3

  2
SERIES
 70
     8
280
     0
  0
ATTDEF
  5
9A
330
90
100
AcDbEntity
  8
AM_6
100
AcDbText
 10
5.627
 20
-1.90572
 30
0.0
 40
0.5
  1
1
100
AcDbAttributeDefinition
  3

  2
SS
 70
     8
280
     0
  0
ATTDEF
  5
9B
330
90
100
AcDbEntity
  8
AM_6
100
AcDbText
 10
5.627
 20
-2.40572
 30
0.0
 40
0.5
  1
123335
100
AcDbAttributeDefinition
  3

  2
PN
 70
     8
280
     0
  0
ATTDEF
  5
9C
330
90
100
AcDbEntity
  8
AM_6
100
AcDbText
 10
5.627
 20
-2.90572
 30
0.0
 40
0.5
  1
INS-SC-100
100
AcDbAttributeDefinition
  3

  2
DESCRIPTION
 70
     8
280
     0
  0
ATTDEF
  5
9D
330
90
100
AcDbEntity
  8
AM_6
100
AcDbText
 10
5.627
 20
-3.40572
 30
0.0
 40
0.5
  1
1.34
100
AcDbAttributeDefinition
  3

  2
A
 70
     8
280
     0
  0
ATTDEF
  5
9E
330
90
100
AcDbEntity
  8
AM_6
100
AcDbText
 10
5.627
 20
-3.90572
 30
0.0
 40
0.5
  1
0.59
100
AcDbAttributeDefinition
  3

  2
C
 70
     8
280
     0
  0
ATTDEF
  5
9F
330
90
100
AcDbEntity
  8
AM_6
100
AcDbText
 10
5.627
 20
-4.40572
 30
0.0
 40
0.5
  1
2.0472
100
AcDbAttributeDefinition
  3

  2
D
 70
     8
280
     0
  0
ATTDEF
  5
A0
330
90
100
AcDbEntity
  8
AM_6
100
AcDbText
 10
5.627
 20
-4.90572
 30
0.0
 40
0.5
  1
0.16
100
AcDbAttributeDefinition
  3

  2
J
 70
     8
280
     0
  0
ATTDEF
  5
A1
330
90
100
AcDbEntity
  8
AM_6
100
AcDbText
 10
5.627
 20
-5.40572
 30
0.0
 40
0.5
  1
1.32
100
AcDbAttributeDefinition
  3

  2
L
 70
     8
280
     0
  0
ATTDEF
  5
A2
330
90
100
AcDbEntity
  8
AM_6
100
AcDbText
 10
5.627
 20
-5.90572
 30
0.0
 40
0.5
  1
1/4-28
100
AcDbAttributeDefinition
  3

  2
N
 70
     8
280
     0
  0
ATTDEF
  5
A3
330
90
100
AcDbEntity
  8
AM_6
100
AcDbText
 10
5.627
 20
-6.40572
 30
0.0
 40
0.5
  1
0.56
100
AcDbAttributeDefinition
  3

  2
W
 70
     8
280
     0
  0
ATTDEF
  5
A4
330
90
100
AcDbEntity
  8
AM_6
100
AcDbText
 10
5.627
 20
-6.90572
 30
0.0
 40
0.5
  1
0.78
100
AcDbAttributeDefinition
  3

  2
Y
 70
     8
280
     0
  0
ATTDEF
  5
A5
330
90
100
AcDbEntity
  8
AM_6
100
AcDbText
 10
5.627
 20
-7.40572
 30
0.0
 40
0.5
  1
baldor
100
AcDbAttributeDefinition
  3

  2
COMPANY
 70
     8
280
     0
  0
LINE
  5
A8
330
90
100
AcDbEntity
  8
AM_9
100
AcDbLine
 10
0.1896969696969725
 20
1.0736
 30
0.0
 11
0.1303030303030275
 21
1.0736
 31
0.0
  0
ARC
  5
A9
330
90
100
AcDbEntity
  8
AM_9
100
AcDbCircle
 10
0.1303030303030255
 20
1.019963636363637
 30
0.0
 40
0.0536363636363635
100
AcDbArc
 50
90.0
 51
179.2024788670938
  0
ARC
  5
AA
330
90
100
AcDbEntity
  8
AM_9
100
AcDbCircle
 10
0.1896969696969744
 20
1.019963636363637
 30
0.0
 40
0.0536363636363636
100
AcDbArc
 50
0.0
 51
90.0
  0
LINE
  5
AB
330
90
100
AcDbEntity
  8
AM_9
100
AcDbLine
 10
0.2433333333333381
 20
0.9943012214369336
 30
0.0
 11
0.2433333333333381
 21
1.019963636363636
 31
0.0
  0
LINE
  5
AC
330
90
100
AcDbEntity
  8
AM_9
100
AcDbLine
 10
0.2433333333333381
 20
1.019963636363636
 30
0.0
 11
0.0815209251606402
 21
1.019963636363636
 31
0.0
  0
ELLIPSE
  5
AD
330
90
100
AcDbEntity
  8
AM_9
100
AcDbEllipse
 10
-0.5375
 20
-0.4451538406149882
 30
0.0
 11
-0.09795000000000087
 21
1.199541539764843E-17
 31
0.0
210
0.0
220
0.0
230
1.0
 40
0.4226182617407013
 41
1.26947802029037
 42
1.872114633299424
  0
ELLIPSE
  5
AE
330
90
100
AcDbEntity
  8
AM_9
100
AcDbEllipse
 10
-0.5375
 20
-0.4451538406149886
 30
0.0
 11
-0.0979500000000003
 21
1.459568750932798E-9
 31
0.0
210
0.0
220
0.0
230
1.0
 40
0.4226182617406975
 41
4.41107068272855
 42
5.013707295737601
  0
LINE
  5
AF
330
90
100
AcDbEntity
  8
AM_9
100
AcDbLine
 10
-0.63545
 20
-0.4530909154454303
 30
0.0
 11
-0.63545
 21
-0.5809476251235367
 31
0.0
  0
LINE
  5
B0
330
90
100
AcDbEntity
  8
AM_9
100
AcDbLine
 10
-0.4395500000000001
 20
-0.5809476251235367
 30
0.0
 11
-0.4395500000000001
 21
-0.4530909154454303
 31
0.0
  0
LWPOLYLINE
  5
B1
330
90
100
AcDbEntity
  8
AM_9
100
AcDbPolyline
 90
        9
 70
     0
 43
0.0
 10
-0.6354499999899839
 20
-0.4531544855080121
 10
-0.6351304460442209
 20
-0.4564382978613794
 10
-0.6324792587701793
 20
-0.4627339446156351
 10
-0.6272515449344782
 20
-0.4683356704137182
 10
-0.619528068630393
 20
-0.4731654718724729
 10
-0.6095761234980152
 20
-0.4771800233218457
 10
-0.597420076386232
 20
-0.4804221163075919
 10
-0.5835662404009465
 20
-0.4828621813340028
 10
-0.5665695398603141
 20
-0.4846842713711406
  0
LWPOLYLINE
  5
B2
330
90
100
AcDbEntity
  8
AM_9
100
AcDbPolyline
 90
        9
 70
     0
 43
0.0
 10
-0.4395500000100162
 20
-0.4531533015250811
 10
-0.4398695539557791
 20
-0.4497561963303008
 10
-0.4425207412298207
 20
-0.4425318161130378
 10
-0.447748455065522
 20
-0.435178444445416
 10
-0.4554719313696072
 20
-0.4279326821747934
 10
-0.4654238765019851
 20
-0.4211182498597251
 10
-0.4775799236137683
 20
-0.4149397442407114
 10
-0.4914337595990538
 20
-0.4097988098153025
 10
-0.5084304601396863
 20
-0.4056234098588367
  0
ELLIPSE
  5
B3
330
90
100
AcDbEntity
  8
AM_9
100
AcDbEllipse
 10
-0.5375000000000002
 20
-0.5809476251235369
 30
0.0
 11
-0.09794999999999987
 21
1.199541539764831E-17
 31
0.0
210
0.0
220
0.0
230
1.0
 40
0.4226182617407022
 41
2.645670687102867
 42
5.934838649081098
  0
LINE
  5
B4
330
90
100
AcDbEntity
  8
AM_9
100
AcDbLine
 10
-0.6241487849718649
 20
-0.5616446057014006
 30
0.0
 11
-0.6388939879055758
 21
-0.5734664300541958
 31
0.0
  0
LINE
  5
B5
330
90
100
AcDbEntity
  8
AM_9
100
AcDbLine
 10
-0.4360252287779469
 20
-0.573531197299674
 30
0.0
 11
-0.4508512150281352
 21
-0.5616446057014006
 31
0.0
  0
LWPOLYLINE
  5
B6
330
90
100
AcDbEntity
  8
AM_9
100
AcDbPolyline
 90
        3
 70
     0
 43
0.0
 10
-0.4510855271338694
 20
-0.5637982218121024
 10
-0.4472912187184293
 20
-0.5659117852474523
 10
-0.4359726215192007
 20
-0.573573374736823
  0
LWPOLYLINE
  5
B7
330
90
100
AcDbEntity
  8
AM_9
100
AcDbPolyline
 90
        6
 70
     0
 43
0.0
 10
-0.4359726215192007
 20
-0.573573374736823
 10
-0.4352878062087918
 20
-0.5741291591790436
 10
-0.4270891663459395
 20
-0.5822966305390332
 10
-0.4220813764447216
 20
-0.5906195405783191
 10
-0.4207645784413315
 20
-0.5954217324961038
 10
-0.4206614607123884
 20
-0.600093835093711
  0
LWPOLYLINE
  5
B8
330
90
100
AcDbEntity
  8
AM_9
100
AcDbPolyline
 90
        6
 70
     0
 43
0.0
 10
-0.5084304601396867
 20
0.093536967837907
 10
-0.521558553609789
 20
0.0974069524299465
 10
-0.535600740526458
 20
0.0990046274577461
 10
-0.5487797308079085
 20
0.0982192759838211
 10
-0.5620157221215086
 20
0.0951530869736242
 10
-0.5665695398603133
 20
0.093536967837907
  0
LWPOLYLINE
  5
B9
330
90
100
AcDbEntity
  8
AM_9
100
AcDbPolyline
 90
        6
 70
     0
 43
0.0
 10
-0.5665695398603133
 20
-0.093536967837907
 10
-0.5534414463902111
 20
-0.0974069524299465
 10
-0.5393992594735421
 20
-0.0990046274577461
 10
-0.5262202691920914
 20
-0.0982192759838211
 10
-0.5129842778784913
 20
-0.0951530869736242
 10
-0.5084304601396867
 20
-0.093536967837907
  0
LWPOLYLINE
  5
BA
330
90
100
AcDbEntity
  8
AM_9
100
AcDbPolyline
 90
        5
 70
     0
 43
0.0
 10
-0.5665695398603141
 20
-0.4846842713711406
 10
-0.5523885223562178
 20
-0.4856880418381708
 10
-0.5386710410780717
 20
-0.4860260673617529
 10
-0.5244618154979432
 20
-0.4857680803665017
 10
-0.5084304601396858
 20
-0.4846842713711406
  0
LWPOLYLINE
  5
BB
330
90
100
AcDbEntity
  8
AM_9
100
AcDbPolyline
 90
        5
 70
     0
 43
0.0
 10
-0.4510538646070453
 20
-0.4706919013656904
 10
-0.4482974505719491
 20
-0.4687561331170923
 10
-0.4427343660917221
 20
-0.4630666854987195
 10
-0.4399350134800483
 20
-0.4567005953181397
 10
-0.4395500000100162
 20
-0.4531533015250811
  0
LWPOLYLINE
  5
BC
330
90
100
AcDbEntity
  8
AM_9
100
AcDbPolyline
 90
        5
 70
     0
 43
0.0
 10
-0.4922111876208936
 20
-0.482970030064743
 10
-0.4791024578375702
 20
-0.4807480966583074
 10
-0.4667570798211274
 20
-0.4776010383606528
 10
-0.4563978062476755
 20
-0.4736234449573115
 10
-0.4510538646070453
 20
-0.4706919013656904
  0
LWPOLYLINE
  5
BD
330
90
100
AcDbEntity
  8
AM_9
100
AcDbPolyline
 90
        3
 70
     0
 43
0.0
 10
-0.5084304601396858
 20
-0.4846842713711406
 10
-0.4931304914479247
 20
-0.4830918872165615
 10
-0.4922111876208936
 20
-0.482970030064743
  0
LWPOLYLINE
  5
BE
330
90
100
AcDbEntity
  8
AM_9
100
AcDbPolyline
 90
        6
 70
     0
 43
0.0
 10
-0.5084304601396863
 20
-0.4056234098588368
 10
-0.5202893591762899
 20
-0.4034687056108966
 10
-0.5328892569782272
 20
-0.4024080428259212
 10
-0.5461946740048536
 20
-0.4026167230629143
 10
-0.5596413409780877
 20
-0.4042245769324393
 10
-0.5665695398603138
 20
-0.4056234098588368
  0
LWPOLYLINE
  5
BF
330
90
100
AcDbEntity
  8
AM_9
100
AcDbPolyline
 90
        9
 70
     0
 43
0.0
 10
-0.5665695398603138
 20
-0.4056234098588367
 10
-0.5818695085520751
 20
-0.4092913734775767
 10
-0.5958975421624295
 20
-0.4142804163465814
 10
-0.6082429201788725
 20
-0.4203502050037228
 10
-0.6186021937523244
 20
-0.4271997442197851
 10
-0.6267025494280507
 20
-0.4345776199116274
 10
-0.6322656339082778
 20
-0.4421280573452552
 10
-0.6350649865199516
 20
-0.4494675234679203
 10
-0.6354499999899839
 20
-0.4531544855080121
  0
LINE
  5
C0
330
90
100
AcDbEntity
  8
AM_9
100
AcDbLine
 10
-0.7535999999999998
 20
-0.5
 30
0.0
 11
0.5336000000000002
 21
-0.5
 31
0.0
  0
LINE
  5
C1
330
90
100
AcDbEntity
  8
AM_9
100
AcDbLine
 10
0.5336000000000002
 20
0.5
 30
0.0
 11
-0.7535999999999998
 21
0.5
 31
0.0
  0
LINE
  5
C2
330
90
100
AcDbEntity
  8
AM_9
100
AcDbLine
 10
0.5336000000000002
 20
-0.5
 30
0.0
 11
0.56
 21
-0.5264
 31
0.0
  0
LINE
  5
C3
330
90
100
AcDbEntity
  8
AM_9
100
AcDbLine
 10
0.56
 20
0.5264
 30
0.0
 11
0.5336000000000002
 21
0.5
 31
0.0
  0
LINE
  5
C4
330
90
100
AcDbEntity
  8
AM_9
100
AcDbLine
 10
-0.7535999999999998
 20
0.4999999999999999
 30
0.0
 11
-0.7799999999999999
 21
0.5264
 31
0.0
  0
LINE
  5
C5
330
90
100
AcDbEntity
  8
AM_9
100
AcDbLine
 10
-0.7799999999999999
 20
-0.5264
 30
0.0
 11
-0.7535999999999998
 21
-0.4999999999999999
 31
0.0
  0
LINE
  5
C6
330
90
100
AcDbEntity
  8
AM_9
100
AcDbLine
 10
0.56
 20
0.4031128874149272
 30
0.0
 11
0.56
 21
-0.4031128874149272
 31
0.0
  0
LWPOLYLINE
  5
C7
330
90
100
AcDbEntity
  8
AM_9
100
AcDbPolyline
 90
       30
 70
     0
 43
0.0
 10
-0.4512413926451707
 20
-0.0728589518792136
 10
-0.4528691235174712
 20
-0.0744698822521896
 10
-0.4669727547501887
 20
-0.0860981372739935
 10
-0.4827216400526052
 20
-0.0954056181904357
 10
-0.5010551632090039
 20
-0.1026280203168274
 10
-0.5203206269952015
 20
-0.1068642140846471
 10
-0.5409428662021589
 20
-0.1079844730639964
 10
-0.5614702068852303
 20
-0.105737249842032
 10
-0.5815791643585598
 20
-0.1000267119306887
 10
-0.6004114338406048
 20
-0.0910127902952815
 10
-0.6170873227841803
 20
-0.0790566172229299
 10
-0.6313676238678517
 20
-0.0643403169641321
 10
-0.6420937104656173
 20
-0.0482019168933897
 10
-0.649708239114298
 20
-0.0303718446689342
 10
-0.6535722734298072
 20
-0.013032336956407
 10
-0.6543329300227382
 20
0.0047222394345463
 10
-0.6521362723176787
 20
0.0212623145380637
 10
-0.6472595335138429
 20
0.0372101995574243
 10
-0.6398115646810686
 20
0.0522193692673403
 10
-0.630112722371478
 20
0.0658722295680686
 10
-0.6176478529487855
 20
0.078579239777268
 10
-0.6033613557452286
 20
0.0892103666313062
 10
-0.58630492209929
 20
0.0981331225746633
 10
-0.5680388567964157
 20
0.1042757911488217
 10
-0.5479004841541979
 20
0.1076017670418884
 10
-0.5274816013827808
 20
0.1076428351619991
 10
-0.5068692088037023
 20
0.104241258755337
 10
-0.487130536932985
 20
0.0974630625648359
 10
-0.4713909048366726
 20
0.0890455974881433
 10
-0.4571037726986023
 20
0.078372397382643
  0
LWPOLYLINE
  5
C8
330
90
100
AcDbEntity
  8
AM_9
100
AcDbPolyline
 90
       11
 70
     0
 43
0.0
 10
-0.4511283064889293
 20
0.0727445650795717
 10
-0.4454436090268257
 20
0.0665232223210578
 10
-0.4356881505788816
 20
0.0530605573468765
 10
-0.4274090354806317
 20
0.0363250074381478
 10
-0.4222643595858322
 20
0.0183638534476256
 10
-0.4205752539155445
 20
0.0011628889152879
 10
-0.4218622696286902
 20
-0.0160733748159454
 10
-0.4258878353045683
 20
-0.0321537063586408
 10
-0.4324416610495382
 20
-0.0473681808570583
 10
-0.441598589441479
 20
-0.0617181817020909
 10
-0.4512413926451707
 20
-0.0728589518792136
  0
LINE
  5
C9
330
90
100
AcDbEntity
  8
AM_9
100
AcDbLine
 10
-0.4571037726986023
 20
0.078372397382643
 30
0.0
 11
-0.4511283064889293
 21
0.0727445650795717
 31
0.0
  0
LWPOLYLINE
  5
CA
330
90
100
AcDbEntity
  8
AM_9
100
AcDbPolyline
 90
        6
 70
     0
 43
0.0
 10
-0.4206614607123884
 20
-0.600093835093711
 10
-0.423006819058029
 20
-0.6070854292907434
 10
-0.4282761286528374
 20
-0.6134254883492534
 10
-0.4359349025159875
 20
-0.6187846031090378
 10
-0.4458236521894933
 20
-0.62338170833554
 10
-0.451098887906445
 20
-0.6252523022961883
  0
LINE
  5
CB
330
90
100
AcDbEntity
  8
AM_9
100
AcDbLine
 10
-0.4513499999999999
 20
-0.6599999999999998
 30
0.0
 11
-0.295
 21
-0.6599999999999998
 31
0.0
  0
LINE
  5
CC
330
90
100
AcDbEntity
  8
AM_9
100
AcDbLine
 10
-0.295
 20
0.6599999999999998
 30
0.0
 11
-0.45135
 21
0.6599999999999998
 31
0.0
  0
LINE
  5
CD
330
90
100
AcDbEntity
  8
AM_9
100
AcDbLine
 10
0.5336000000000001
 20
0.4374597581492495
 30
0.0
 11
0.5336000000000001
 21
-0.4374597581492495
 31
0.0
  0
LINE
  5
CE
330
90
100
AcDbEntity
  8
AM_9
100
AcDbLine
 10
0.295
 20
-0.6599999999999998
 30
0.0
 11
0.45135
 21
-0.6599999999999998
 31
0.0
  0
LINE
  5
CF
330
90
100
AcDbEntity
  8
AM_9
100
AcDbLine
 10
0.4513500000000001
 20
0.6599999999999998
 30
0.0
 11
0.295
 21
0.6599999999999998
 31
0.0
  0
LINE
  5
D0
330
90
100
AcDbEntity
  8
AM_9
100
AcDbLine
 10
-0.192
 20
-0.9702666666666667
 30
0.0
 11
-0.128
 21
-0.9702666666666667
 31
0.0
  0
LINE
  5
D1
330
90
100
AcDbEntity
  8
AM_9
100
AcDbLine
 10
-0.128
 20
0.9702666666666667
 30
0.0
 11
-0.192
 21
0.9702666666666667
 31
0.0
  0
LINE
  5
D2
330
90
100
AcDbEntity
  8
AM_9
100
AcDbLine
 10
0.295
 20
0.9560865860370598
 30
0.0
 11
0.295
 21
-0.9560865860333977
 31
0.0
  0
ARC
  5
D3
330
90
100
AcDbEntity
  8
AM_9
100
AcDbCircle
 10
0.2630000000000001
 20
-0.9560865860370601
 30
0.0
 40
0.0319999999999998
100
AcDbArc
 50
285.3804988373585
 51
0.0
  0
ARC
  5
D4
330
90
100
AcDbEntity
  8
AM_9
100
AcDbCircle
 10
0.2630000000000001
 20
0.9560865860370601
 30
0.0
 40
0.0319999999999999
100
AcDbArc
 50
0.0
 51
74.61950116264151
  0
LINE
  5
D5
330
90
100
AcDbEntity
  8
AM_9
100
AcDbLine
 10
-0.295
 20
0.9560865860370598
 30
0.0
 11
-0.295
 21
-0.9560865860333977
 31
0.0
  0
ARC
  5
D6
330
90
100
AcDbEntity
  8
AM_9
100
AcDbCircle
 10
-0.2629999999999998
 20
-0.9560865860370596
 30
0.0
 40
0.0320000000000001
100
AcDbArc
 50
180.0
 51
254.6195040508821
  0
ARC
  5
D7
330
90
100
AcDbEntity
  8
AM_9
100
AcDbCircle
 10
-0.2629999999999999
 20
0.9560865860370598
 30
0.0
 40
0.032
100
AcDbArc
 50
105.3804959491178
 51
180.0
  0
LINE
  5
D8
330
90
100
AcDbEntity
  8
AM_9
100
AcDbLine
 10
-0.2714872932634126
 20
0.9869405299188527
 30
0.0
 11
-0.2714872932634126
 21
-0.9869405299187886
 31
0.0
  0
LINE
  5
D9
330
90
100
AcDbEntity
  8
AM_9
100
AcDbLine
 10
-0.192
 20
1.005431728164573
 30
0.0
 11
-0.192
 21
-1.005431728164509
 31
0.0
  0
ARC
  5
DA
330
90
100
AcDbEntity
  8
AM_9
100
AcDbCircle
 10
-0.000000000000669
 20
-0.0000000000028086
 30
0.0
 40
1.023599999997053
100
AcDbArc
 50
254.6195040508757
 51
259.1888031871541
  0
ARC
  5
DB
330
90
100
AcDbEntity
  8
AM_9
100
AcDbCircle
 10
0.00000000002001
 20
-0.0000000000860843
 30
0.0
 40
1.023600000088247
100
AcDbArc
 50
100.8111968130496
 51
105.3804959489206
  0
LINE
  5
DC
330
90
100
AcDbEntity
  8
AM_9
100
AcDbLine
 10
-0.1279999999999998
 20
1.015565340093881
 30
0.0
 11
-0.1279999999999998
 21
-1.015565340093876
 31
0.0
  0
LINE
  5
DD
330
90
100
AcDbEntity
  8
AM_9
100
AcDbLine
 10
0.2714872948187388
 20
0.9869405294910142
 30
0.0
 11
0.2714872948187388
 21
-0.9869405294910095
 31
0.0
  0
ARC
  5
DE
330
90
100
AcDbEntity
  8
AM_9
100
AcDbCircle
 10
0.0000000000002752
 20
-0.0000000000038383
 30
0.0
 40
1.023599999996222
100
AcDbArc
 50
262.8164233462471
 51
285.3804960394527
  0
ARC
  5
DF
330
90
100
AcDbEntity
  8
AM_9
100
AcDbCircle
 10
-0.0000000000048985
 20
-0.0000000000194597
 30
0.0
 40
1.023600000020058
100
AcDbArc
 50
74.61950396061397
 51
76.2635331618666
  0
ARC
  5
E0
330
90
100
AcDbEntity
  8
AM_9
100
AcDbCircle
 10
-0.0000000000000106
 20
-0.0000000000004201
 30
0.0
 40
1.023600000000411
100
AcDbArc
 50
85.69774039456607
 51
97.1835766537072
  0
LINE
  5
E1
330
90
100
AcDbEntity
  8
AM_9
100
AcDbLine
 10
0.2433333333333286
 20
0.9942564301471084
 30
0.0
 11
0.0815209251606402
 21
1.019963636363637
 31
0.0
  0
ARC
  5
E3
330
90
100
AcDbEntity
  8
AM_5
100
AcDbCircle
 10
-0.5374999999999999
 20
-0.0000000000000001
 30
0.0
 40
0.1250000000000001
100
AcDbArc
 50
75.00000000000006
 51
15.00000000000002
  0
ARC
  5
E4
330
90
100
AcDbEntity
  8
AM_5
100
AcDbCircle
 10
-0.53
 20
-0.0000000000000002
 30
0.0
 40
0.1250000000000001
100
AcDbArc
 50
75.00000000000006
 51
15.00000000000002
  0
CIRCLE
  5
E5
330
90
100
AcDbEntity
  8
AM_9
100
AcDbCircle
 10
-0.5375
 20
-0.0000000000000001
 30
0.0
 40
0.0979500000000001
  0
LINE
  5
E8
330
90
100
AcDbEntity
  8
AM_7
100
AcDbLine
 10
-0.847
 20
0.0
 30
0.0
 11
0.6269999999999999
 21
0.0
 31
0.0
  0
LINE
  5
E9
330
90
100
AcDbEntity
  8
AM_7
100
AcDbLine
 10
0.16
 20
1.09428
 30
0.0
 11
0.16
 21
0.63932
 31
0.0
  0
LINE
  5
EA
330
90
100
AcDbEntity
  8
AM_7
100
AcDbLine
 10
-0.5375
 20
-0.1028475000000003
 30
0.0
 11
-0.5375
 21
0.1028475
 31
0.0
  0
ELLIPSE
  5
EC
330
90
100
AcDbEntity
  8
AM_4
100
AcDbEllipse
 10
-0.5375
 20
-0.5809476251235367
 30
0.0
 11
-0.09794999999999998
 21
1.199541539764832E-17
 31
0.0
210
0.0
220
0.0
230
1.0
 40
0.4226182617406994
 41
5.934838649081103
 42
8.928855994282443
  0
LWPOLYLINE
  5
ED
330
90
100
AcDbEntity
  8
AM_4
100
AcDbPolyline
 90
       13
 70
     0
 43
0.0
 10
-0.6390166497187765
 20
-0.5735647753842176
 10
-0.6361946477186204
 20
-0.5714078384851522
 10
-0.62519732793276
 20
-0.564493955429526
 10
-0.6122416833167248
 20
-0.5583292772178639
 10
-0.5964457430728899
 20
-0.552755787069226
 10
-0.5792289197642857
 20
-0.5484903232467624
 10
-0.5597665062562688
 20
-0.5455757897833863
 10
-0.5397166842617946
 20
-0.544444707839863
 10
-0.5189402803683477
 20
-0.5452287542830803
 10
-0.4986857769239588
 20
-0.5479314580195819
 10
-0.4795018300478562
 20
-0.5524785465026274
 10
-0.4620245905247539
 20
-0.5586349173397498
 10
-0.4510855271338694
 20
-0.5637982218121024
  0
LINE
  5
EE
330
90
100
AcDbEntity
  8
AM_4
100
AcDbLine
 10
0.56
 20
-0.4031128874149272
 30
0.0
 11
0.56
 21
-0.6336
 31
0.0
  0
LINE
  5
EF
330
90
100
AcDbEntity
  8
AM_4
100
AcDbLine
 10
0.56
 20
0.6336
 30
0.0
 11
0.56
 21
0.4031128874149272
 31
0.0
  0
LINE
  5
F0
330
90
100
AcDbEntity
  8
AM_4
100
AcDbLine
 10
0.56
 20
0.6336
 30
0.0
 11
0.5336000000000001
 21
0.66
 31
0.0
  0
LINE
  5
F1
330
90
100
AcDbEntity
  8
AM_4
100
AcDbLine
 10
0.5336000000000001
 20
-0.66
 30
0.0
 11
0.56
 21
-0.6336
 31
0.0
  0
LINE
  5
F2
330
90
100
AcDbEntity
  8
AM_4
100
AcDbLine
 10
-0.7799999999999999
 20
0.6336
 30
0.0
 11
-0.7799999999999999
 21
-0.6336
 31
0.0
  0
LINE
  5
F3
330
90
100
AcDbEntity
  8
AM_4
100
AcDbLine
 10
-0.7799999999999999
 20
-0.6336
 30
0.0
 11
-0.7535999999999998
 21
-0.66
 31
0.0
  0
LINE
  5
F4
330
90
100
AcDbEntity
  8
AM_4
100
AcDbLine
 10
-0.7535999999999998
 20
0.66
 30
0.0
 11
-0.7799999999999999
 21
0.6336
 31
0.0
  0
LINE
  5
F5
330
90
100
AcDbEntity
  8
AM_4
100
AcDbLine
 10
-0.7535999999999998
 20
0.66
 30
0.0
 11
-0.7535999999999998
 21
-0.6599999999999998
 31
0.0
  0
LWPOLYLINE
  5
F6
330
90
100
AcDbEntity
  8
AM_4
100
AcDbPolyline
 90
       19
 70
     0
 43
0.0
 10
-0.451098887906445
 20
-0.6252523022961883
 10
-0.4584962801140242
 20
-0.6274252766237699
 10
-0.4729699481751795
 20
-0.6306227019786164
 10
-0.4901964113082438
 20
-0.6331674045721869
 10
-0.5085999592550255
 20
-0.6348299550721147
 10
-0.5288160944415214
 20
-0.635672056341646
 10
-0.5492671266627337
 20
-0.6356043176383895
 10
-0.5698350297017147
 20
-0.6345884299822036
 10
-0.589478796956315
 20
-0.6325858683756777
 10
-0.6074656289128557
 20
-0.6295551891949768
 10
-0.623365888499601
 20
-0.6254257090881933
 10
-0.6360439473616639
 20
-0.6203761349632002
 10
-0.6457523029496318
 20
-0.6142594007258597
 10
-0.6516104344390986
 20
-0.6077215355497608
 10
-0.6542941108041649
 20
-0.6004574620119325
 10
-0.6537759398670204
 20
-0.5932493495697903
 10
-0.6504415215901898
 20
-0.5858069061982869
 10
-0.6445040454015506
 20
-0.578484889228133
 10
-0.6390166497187765
 20
-0.5735647753842176
  0
LINE
  5
F7
330
90
100
AcDbEntity
  8
AM_4
100
AcDbLine
 10
-0.7535999999999998
 20
-0.6599999999999998
 30
0.0
 11
-0.4513499999999999
 21
-0.6599999999999998
 31
0.0
  0
LINE
  5
F8
330
90
100
AcDbEntity
  8
AM_4
100
AcDbLine
 10
-0.45135
 20
0.6599999999999998
 30
0.0
 11
-0.7535999999999998
 21
0.6599999999999998
 31
0.0
  0
LINE
  5
F9
330
90
100
AcDbEntity
  8
AM_4
100
AcDbLine
 10
0.5336000000000001
 20
-0.4374597581492495
 30
0.0
 11
0.5336000000000001
 21
-0.6599999999999998
 31
0.0
  0
LINE
  5
FA
330
90
100
AcDbEntity
  8
AM_4
100
AcDbLine
 10
0.5336000000000001
 20
0.66
 30
0.0
 11
0.5336000000000001
 21
0.4374597581492495
 31
0.0
  0
LINE
  5
FB
330
90
100
AcDbEntity
  8
AM_4
100
AcDbLine
 10
0.45135
 20
-0.6599999999999998
 30
0.0
 11
0.5336000000000001
 21
-0.6599999999999998
 31
0.0
  0
LINE
  5
FC
330
90
100
AcDbEntity
  8
AM_4
100
AcDbLine
 10
0.5336000000000001
 20
0.6599999999999998
 30
0.0
 11
0.4513500000000001
 21
0.6599999999999998
 31
0.0
  0
ARC
  5
FD
330
90
100
AcDbEntity
  8
AM_5
100
AcDbCircle
 10
-0.5375
 20
0.0000000000000001
 30
0.0
 40
0.125
100
AcDbArc
 50
345.0
 51
285.0
  0
ARC
  5
FE
330
90
100
AcDbEntity
  8
AM_5
100
AcDbCircle
 10
-0.5300000000000001
 20
-0.0000000000000001
 30
0.0
 40
0.1250000000000001
100
AcDbArc
 50
345.0
 51
285.0
  0
ENDBLK
  5
93
330
90
100
AcDbEntity
  8
0
100
AcDbBlockEnd
  0
BLOCK
  5
101
330
FF
100
AcDbEntity
  8
0
100
AcDbBlockBegin
  2
3_405016_Inch_0_in_125012_2
 70
     2
 10
0.0
 20
0.0
 30
0.0
  3
3_405016_Inch_0_in_125012_2
  1

  0
ATTDEF
  5
103
330
FF
100
AcDbEntity
  8
AM_6
100
AcDbText
 10
5.21875
 20
-0.4769256983551579
 30
0.0
 40
0.5
  1
405016 -Inch
100
AcDbAttributeDefinition
  3

  2
NN
 70
     8
280
     0
  0
ATTDEF
  5
104
330
FF
100
AcDbEntity
  8
AM_6
100
AcDbText
 10
5.21875
 20
-0.976925698355158
 30
0.0
 40
0.5
  1
Grease Fitting
100
AcDbAttributeDefinition
  3

  2
NT
 70
     8
280
     0
  0
ATTDEF
  5
105
330
FF
100
AcDbEntity
  8
AM_6
100
AcDbText
 10
5.21875
 20
-1.476925698355158
 30
0.0
 40
0.5
  1
405016-Inch
100
AcDbAttributeDefinition
  3

  2
NB
 70
     8
280
     0
  0
ATTDEF
  5
106
330
FF
100
AcDbEntity
  8
AM_6
100
AcDbText
 10
5.21875
 20
-1.976925698355158
 30
0.0
 40
0.5
  1
$MN.-Inch
100
AcDbAttributeDefinition
  3

  2
NBSYN
 70
     8
280
     0
  0
ATTDEF
  5
107
330
FF
100
AcDbEntity
  8
AM_6
100
AcDbText
 10
5.21875
 20
-2.476925698355158
 30
0.0
 40
0.5
  1
405016
100
AcDbAttributeDefinition
  3

  2
LINA
 70
     8
280
     0
  0
ATTDEF
  5
108
330
FF
100
AcDbEntity
  8
AM_6
100
AcDbText
 10
5.21875
 20
-2.976925698355158
 30
0.0
 40
0.5
  1
405016
100
AcDbAttributeDefinition
  3

  2
MN
 70
     8
280
     0
  0
ATTDEF
  5
109
330
FF
100
AcDbEntity
  8
AM_6
100
AcDbText
 10
5.21875
 20
-3.476925698355158
 30
0.0
 40
0.5
  1
7/16 HEX
100
AcDbAttributeDefinition
  3

  2
H
 70
     8
280
     0
  0
ATTDEF
  5
10A
330
FF
100
AcDbEntity
  8
AM_6
100
AcDbText
 10
5.21875
 20
-3.976925698355158
 30
0.0
 40
0.5
  1
0.383
100
AcDbAttributeDefinition
  3

  2
NDR
 70
     8
280
     0
  0
ATTDEF
  5
10B
330
FF
100
AcDbEntity
  8
AM_6
100
AcDbText
 10
5.21875
 20
-4.476925698355158
 30
0.0
 40
0.5
  1
0.337
100
AcDbAttributeDefinition
  3

  2
KDR
 70
     8
280
     0
  0
ATTDEF
  5
10C
330
FF
100
AcDbEntity
  8
AM_6
100
AcDbText
 10
5.21875
 20
-4.976925698355158
 30
0.0
 40
0.5
  1
0.1575
100
AcDbAttributeDefinition
  3

  2
BZE
 70
     8
280
     0
  0
ATTDEF
  5
10D
330
FF
100
AcDbEntity
  8
AM_6
100
AcDbText
 10
5.21875
 20
-5.476925698355158
 30
0.0
 40
0.5
  1
0.4375
100
AcDbAttributeDefinition
  3

  2
HEX
 70
     8
280
     0
  0
ATTDEF
  5
10E
330
FF
100
AcDbEntity
  8
AM_6
100
AcDbText
 10
5.21875
 20
-5.976925698355158
 30
0.0
 40
0.5
  1
0.281250
100
AcDbAttributeDefinition
  3

  2
HEX2
 70
     8
280
     0
  0
ATTDEF
  5
10F
330
FF
100
AcDbEntity
  8
AM_6
100
AcDbText
 10
5.21875
 20
-6.476925698355158
 30
0.0
 40
0.5
  1
baldor
100
AcDbAttributeDefinition
  3

  2
COMPANY
 70
     8
280
     0
  0
LWPOLYLINE
  5
110
330
FF
100
AcDbEntity
  8
AM_9
100
AcDbPolyline
 90
        5
 70
     0
 43
0.0
 10
-0.1791093260592887
 20
-1.081738809059826
 10
-0.1842540823997054
 20
-1.048670119967152
 10
-0.1862220679364951
 20
-1.014312409178914
 10
-0.1844124966919382
 20
-0.9781264462853559
 10
-0.1791093260592887
 20
-0.9411138090598259
  0
LINE
  5
111
330
FF
100
AcDbEntity
  8
AM_9
100
AcDbLine
 10
-0.1510741298357571
 20
-0.9345772957113703
 30
0.0
 11
-0.1791093260592887
 21
-0.9411138090598259
 31
0.0
  0
LWPOLYLINE
  5
112
330
FF
100
AcDbEntity
  8
AM_9
100
AcDbPolyline
 90
        5
 70
     0
 43
0.0
 10
-0.1791093260592887
 20
-0.9411138090598259
 10
-0.1988355121406939
 20
-0.909688517736611
 10
-0.2156330920108725
 20
-0.8769977243283276
 10
-0.2290462109660021
 20
-0.8425061536907938
 10
-0.2389369657326277
 20
-0.8071690924072835
  0
LINE
  5
113
330
FF
100
AcDbEntity
  8
AM_9
100
AcDbLine
 10
-0.2099962668917054
 20
-0.8004214576563438
 30
0.0
 11
-0.2389369657326277
 21
-0.8071690924072835
 31
0.0
  0
LINE
  5
114
330
FF
100
AcDbEntity
  8
AM_9
100
AcDbLine
 10
-0.2389369657326277
 20
-0.8071690924072835
 30
0.0
 11
-0.2711532636537957
 21
-0.8116181234374058
 31
0.0
  0
LWPOLYLINE
  5
115
330
FF
100
AcDbEntity
  8
AM_9
100
AcDbPolyline
 90
        3
 70
     0
 43
0.0
 10
-0.2813919000363599
 20
-0.812753048956784
 10
-0.2911775952746243
 20
-0.8135555934942604
 10
-0.2987675689889718
 20
-0.8138500667254667
  0
LWPOLYLINE
  5
116
330
FF
100
AcDbEntity
  8
AM_9
100
AcDbPolyline
 90
        5
 70
     0
 43
0.0
 10
-0.2389369657326277
 20
-1.088419092407284
 10
-0.2295338871417796
 20
-1.08799806213629
 10
-0.2166871171046321
 20
-1.086802555641742
 10
-0.1996402057054678
 20
-1.084676787031713
 10
-0.1791093260592887
 20
-1.081738809059826
  0
LINE
  5
117
330
FF
100
AcDbEntity
  8
AM_9
100
AcDbLine
 10
-0.1510741298357571
 20
-1.07520229571137
 30
0.0
 11
-0.1791093260592887
 21
-1.081738809059826
 31
0.0
  0
ELLIPSE
  5
118
330
FF
100
AcDbEntity
  8
AM_9
100
AcDbEllipse
 10
-0.4687500000000002
 20
-1.000606438444094
 30
0.0
 11
-0.0234971640207461
 21
0.1007796617096759
 31
0.0
210
0.0
220
0.0
230
1.0
 40
0.3659981507706677
 41
2.957156468664755
 42
6.467621492104615
  0
LINE
  5
119
330
FF
100
AcDbEntity
  8
AM_9
100
AcDbLine
 10
-0.45135
 20
-1.101517472588915
 30
0.0
 11
-0.3774664534000949
 21
-1.119780662014441
 31
0.0
  0
LINE
  5
11A
330
FF
100
AcDbEntity
  8
AM_9
100
AcDbLine
 10
-0.4395859245204075
 20
-0.8533493905826324
 30
0.0
 11
-0.4513499999999998
 21
-0.8632672785607411
 31
0.0
  0
ELLIPSE
  5
11B
330
FF
100
AcDbEntity
  8
AM_9
100
AcDbEllipse
 10
-0.3994303217889761
 20
-0.9844442900387738
 30
0.0
 11
-0.0315956031114664
 21
0.135513979060426
 31
0.0
210
0.0
220
0.0
230
1.0
 40
0.3659981507706659
 41
1.492410664254423
 42
6.797952680040662
  0
LWPOLYLINE
  5
11C
330
FF
100
AcDbEntity
  8
AM_9
100
AcDbPolyline
 90
        3
 70
     0
 43
0.0
 10
-0.2689146070947222
 20
-0.8068897343505177
 10
-0.251275593729576
 20
-0.8042388430145476
 10
-0.2360765106845275
 20
-0.8021875924132664
  0
LWPOLYLINE
  5
11D
330
FF
100
AcDbEntity
  8
AM_9
100
AcDbPolyline
 90
       12
 70
     0
 43
0.0
 10
-0.3780637183204877
 20
-0.857959349130027
 10
-0.3793612071641405
 20
-0.8568467285423574
 10
-0.3857275254158343
 20
-0.8520762892169925
 10
-0.3920628412504234
 20
-0.8484131643726953
 10
-0.3983643152763667
 20
-0.8457814165919867
 10
-0.4046591050798805
 20
-0.8441147838379415
 10
-0.4109461939654018
 20
-0.8433872003686917
 10
-0.4178378549070429
 20
-0.843674274969659
 10
-0.4243696814252424
 20
-0.8450503810735349
 10
-0.4304494524970771
 20
-0.8474061232206611
 10
-0.4360091168100113
 20
-0.8506266471434714
 10
-0.439940966808877
 20
-0.8536518033019569
  0
LINE
  5
11E
330
FF
100
AcDbEntity
  8
AM_9
100
AcDbLine
 10
-0.325316859858291
 20
-1.090721644758338
 30
0.0
 11
-0.3248128522937532
 21
-1.08958323038998
 31
0.0
  0
LWPOLYLINE
  5
11F
330
FF
100
AcDbEntity
  8
AM_9
100
AcDbPolyline
 90
       11
 70
     0
 43
0.0
 10
-0.3778701113929456
 20
-1.119678943828739
 10
-0.3723810331098947
 20
-1.12073156260355
 10
-0.3661077119935946
 20
-1.121061909548322
 10
-0.3593471654124064
 20
-1.120349830754052
 10
-0.3529800003604929
 20
-1.118590004655473
 10
-0.3470924826581233
 20
-1.115894225258036
 10
-0.3417322546501701
 20
-1.112369027413439
 10
-0.3368847802330004
 20
-1.108071350938484
 10
-0.3325158691024254
 20
-1.102999555951115
 10
-0.3285887688399409
 20
-1.097085787310893
 10
-0.3255857813254858
 20
-1.091309280839682
  0
LWPOLYLINE
  5
120
330
FF
100
AcDbEntity
  8
AM_9
100
AcDbPolyline
 90
        4
 70
     0
 43
0.0
 10
-0.109375
 20
-0.6599999999999999
 10
-0.08203125
 20
-0.6460244179980004
 10
-0.0546875
 20
-0.6314595596074827
 10
-0.0000000000000001
 20
-0.6007787001516928
  0
LWPOLYLINE
  5
121
330
FF
100
AcDbEntity
  8
AM_9
100
AcDbPolyline
 90
        4
 70
     0
 43
0.0
 10
-0.0000000000000001
 20
-0.6007787001516928
 10
0.0544416102741495
 20
-0.6313260426622648
 10
0.081870001090765
 20
-0.6459402196382689
 10
0.1093749999999999
 20
-0.6599999999999999
  0
LWPOLYLINE
  5
122
330
FF
100
AcDbEntity
  8
AM_9
100
AcDbPolyline
 90
        7
 70
     0
 43
0.0
 10
-0.1510741298357571
 20
-1.07520229571137
 10
-0.1564222384464443
 20
-1.075146258798399
 10
-0.1639940363880805
 20
-1.075585121917566
 10
-0.1744063212866123
 20
-1.076646289109958
 10
-0.1876759562813858
 20
-1.078363121169831
 10
-0.1983617847082469
 20
-1.079902304957479
 10
-0.2099962668917054
 20
-1.081671457656344
  0
LWPOLYLINE
  5
123
330
FF
100
AcDbEntity
  8
AM_9
100
AcDbPolyline
 90
        4
 70
     0
 43
0.0
 10
-0.1510741298357571
 20
-0.9345772957113703
 10
-0.1458778226760521
 20
-0.958510622598914
 10
-0.1427138007556463
 20
-0.9833672121093315
 10
-0.141958509815605
 20
-1.002769408754154
  0
LINE
  5
124
330
FF
100
AcDbEntity
  8
AM_9
100
AcDbLine
 10
-0.1773797488800104
 20
-0.8525951949265429
 30
0.0
 11
-0.1765789831125442
 21
-0.8542058555423607
 31
0.0
  0
LINE
  5
125
330
FF
100
AcDbEntity
  8
AM_9
100
AcDbLine
 10
-0.1844757805603361
 20
-0.8393059905166396
 30
0.0
 11
-0.1838713919933573
 21
-0.840377544707834
 31
0.0
  0
LWPOLYLINE
  5
126
330
FF
100
AcDbEntity
  8
AM_9
100
AcDbPolyline
 90
        3
 70
     0
 43
0.0
 10
-0.2099962668917054
 20
-0.8004214576563438
 10
-0.1943573015029059
 20
-0.8229928542882339
 10
-0.1844757805603361
 20
-0.8393059905166396
  0
LWPOLYLINE
  5
127
330
FF
100
AcDbEntity
  8
AM_9
100
AcDbPolyline
 90
        4
 70
     0
 43
0.0
 10
-0.2258378743019627
 20
-0.8010526668938883
 10
-0.2189176876709015
 20
-0.8005103698475838
 10
-0.2138633349839128
 20
-0.8003309118621996
 10
-0.2099962668917054
 20
-0.8004214576563438
  0
LWPOLYLINE
  5
128
330
FF
100
AcDbEntity
  8
AM_9
100
AcDbPolyline
 90
        3
 70
     0
 43
0.0
 10
-0.1444372079402589
 20
-1.039052861971697
 10
-0.1470795994472237
 20
-1.05583829813727
 10
-0.1510741298357571
 20
-1.07520229571137
  0
LINE
  5
129
330
FF
100
AcDbEntity
  8
AM_9
100
AcDbLine
 10
-0.1440068229359174
 20
-1.035647473770739
 30
0.0
 11
-0.1444372079402589
 21
-1.039052861971697
 31
0.0
  0
LWPOLYLINE
  5
12A
330
FF
100
AcDbEntity
  8
AM_9
100
AcDbPolyline
 90
        3
 70
     0
 43
0.0
 10
-0.141958509815605
 20
-1.002769408754154
 10
-0.1420496512545706
 20
-1.009566312422038
 10
-0.1440068229359174
 20
-1.035647473770739
  0
LWPOLYLINE
  5
12B
330
FF
100
AcDbEntity
  8
AM_9
100
AcDbPolyline
 90
        4
 70
     0
 43
0.0
 10
-0.1674403858635055
 20
-0.8748392114608708
 10
-0.1598729403210871
 20
-0.8967686897126438
 10
-0.1549033058439656
 20
-0.9156071719614788
 10
-0.1510741298357571
 20
-0.9345772957113703
  0
LINE
  5
12C
330
FF
100
AcDbEntity
  8
AM_9
100
AcDbLine
 10
-0.1765789831125442
 20
-0.8542058555423607
 30
0.0
 11
-0.1705089398543296
 21
-0.8673765031192672
 31
0.0
  0
ELLIPSE
  5
12D
330
FF
100
AcDbEntity
  8
AM_9
100
AcDbEllipse
 10
-0.201389202821187
 20
-0.9382702448395734
 30
0.0
 11
-0.03193085011271259
 21
0.1369518580909626
 31
0.0
210
0.0
220
0.0
230
1.0
 40
0.3659981507661673
 41
2.150416404613399
 42
6.139946939693312
  0
LWPOLYLINE
  5
12E
330
FF
100
AcDbEntity
  8
AM_9
100
AcDbPolyline
 90
        3
 70
     0
 43
0.0
 10
-0.3055458577949631
 20
-0.902852494962034
 10
-0.3030753670497808
 20
-0.9289228551816321
 10
-0.2987675689889718
 20
-0.9544750667254667
  0
LWPOLYLINE
  5
12F
330
FF
100
AcDbEntity
  8
AM_9
100
AcDbPolyline
 90
        4
 70
     0
 43
0.0
 10
-0.2602304684431209
 20
-0.8580679499247962
 10
-0.2616913382589203
 20
-0.8434112730526003
 10
-0.2647402074337707
 20
-0.8249547701127596
 10
-0.2689146070947222
 20
-0.8068897343505177
  0
LINE
  5
130
330
FF
100
AcDbEntity
  8
AM_9
100
AcDbLine
 10
-0.2689146070947222
 20
-0.8068897343505177
 30
0.0
 11
-0.2987675689889718
 21
-0.8138500667254667
 31
0.0
  0
LWPOLYLINE
  5
131
330
FF
100
AcDbEntity
  8
AM_9
100
AcDbPolyline
 90
        3
 70
     0
 43
0.0
 10
-0.2987675689889718
 20
-0.8138500667254667
 10
-0.3030606061861223
 20
-0.8412941224080119
 10
-0.3055458577949631
 20
-0.8686334064683195
  0
LINE
  5
132
330
FF
100
AcDbEntity
  8
AM_9
100
AcDbLine
 10
-0.2711532636537957
 20
-0.8116181234374058
 30
0.0
 11
-0.2813919000363599
 21
-0.812753048956784
 31
0.0
  0
ELLIPSE
  5
133
330
FF
100
AcDbEntity
  8
AM_9
100
AcDbEllipse
 10
-0.2467045921760208
 20
-0.9488357013808583
 30
0.0
 11
-0.03193085011438259
 21
0.1369518580960946
 31
0.0
210
0.0
220
0.0
230
1.0
 40
0.3659981507706657
 41
2.150416404658201
 42
6.139946939636896
  0
ELLIPSE
  5
134
330
FF
100
AcDbEntity
  8
AM_9
100
AcDbEllipse
 10
-0.2467045921760185
 20
-0.9488357013808578
 30
0.0
 11
-0.03193085011438351
 21
0.1369518580960977
 31
0.0
210
0.0
220
0.0
230
1.0
 40
0.3659981507706734
 41
1.246757663431703
 42
1.951156734850493
  0
LWPOLYLINE
  5
135
330
FF
100
AcDbEntity
  8
AM_9
100
AcDbPolyline
 90
        3
 70
     0
 43
0.0
 10
-0.3055458577949631
 20
-0.8686334064683195
 10
-0.3064767622622302
 20
-0.8858698068452319
 10
-0.3055458577949631
 20
-0.902852494962034
  0
ELLIPSE
  5
136
330
FF
100
AcDbEntity
  8
AM_9
100
AcDbEllipse
 10
-0.2467045921760109
 20
-0.9488357013808643
 30
0.0
 11
-0.03193085011438951
 21
0.1369518580961044
 31
0.0
210
0.0
220
0.0
230
1.0
 40
0.3659981507706921
 41
0.056021302265072
 42
0.8626327579757533
  0
LWPOLYLINE
  5
137
330
FF
100
AcDbEntity
  8
AM_9
100
AcDbPolyline
 90
       20
 70
     0
 43
0.0
 10
-0.3250128953178238
 20
-1.090041038879578
 10
-0.3250082323333457
 20
-1.090030544867006
 10
-0.3246332366496833
 20
-1.089279364730252
 10
-0.323632201223383
 20
-1.087584969992935
 10
-0.3218606408158928
 20
-1.085073729352005
 10
-0.3191670867884194
 20
-1.081897570390048
 10
-0.315404730039502
 20
-1.078250504187001
 10
-0.3104651245838692
 20
-1.074391012068724
 10
-0.3043401246119879
 20
-1.07065299378815
 10
-0.2971903480759682
 20
-1.067414223384319
 10
-0.2893593174470434
 20
-1.065008473070045
 10
-0.2812982798441361
 20
-1.063629805075276
 10
-0.2734831479103834
 20
-1.063296612603161
 10
-0.2663332962415946
 20
-1.063865342332375
 10
-0.2601512142661742
 20
-1.06508173691936
 10
-0.2551093902271236
 20
-1.066644119880825
 10
-0.251240693789294
 20
-1.06826718778597
 10
-0.2484794489152443
 20
-1.069720800294167
 10
-0.2467197525286819
 20
-1.070831657861444
 10
-0.2458544822332945
 20
-1.071466278426266
  0
LWPOLYLINE
  5
138
330
FF
100
AcDbEntity
  8
AM_9
100
AcDbPolyline
 90
        4
 70
     0
 43
0.0
 10
-0.245724988250897
 20
-1.071571960916105
 10
-0.2457901897945795
 20
-1.07151403746774
 10
-0.2464448766129516
 20
-1.07087996498665
 10
-0.247112933806834
 20
-1.070179361438709
  0
LWPOLYLINE
  5
139
330
FF
100
AcDbEntity
  8
AM_9
100
AcDbPolyline
 90
        4
 70
     0
 43
0.0
 10
-0.3007380771800184
 20
-0.8401888114660069
 10
-0.3003689378674124
 20
-0.8390277372950479
 10
-0.3001126466104584
 20
-0.8383332273056091
 10
-0.3001080482840255
 20
-0.8383222637170429
  0
LWPOLYLINE
  5
13A
330
FF
100
AcDbEntity
  8
AM_9
100
AcDbPolyline
 90
       19
 70
     0
 43
0.0
 10
-0.3002868723758925
 20
-0.8386992704862054
 10
-0.3010311041744056
 20
-0.8400452979384968
 10
-0.3024901669274849
 20
-0.842260201203398
 10
-0.3048128385883894
 20
-0.8452020580971753
 10
-0.3081502101926083
 20
-0.8486954562092348
 10
-0.3126312355260091
 20
-0.8525090829059363
 10
-0.3183111747426615
 20
-0.8563372220624934
 10
-0.3251001880413298
 20
-0.8598112735576213
 10
-0.3327203948032308
 20
-0.8625679383945474
 10
-0.3407489282177399
 20
-0.8643513284792019
 10
-0.3487178439051987
 20
-0.8650759122334902
 10
-0.3561635475313101
 20
-0.8648265100127249
 10
-0.3627436920979906
 20
-0.8638231684443398
 10
-0.3682323891765196
 20
-0.8623571888990851
 10
-0.3725457392721683
 20
-0.860726762498994
 10
-0.3757188031996885
 20
-0.859185121235683
 10
-0.3778481796433719
 20
-0.8579257621314162
 10
-0.3790434188337473
 20
-0.8570951164626398
 10
-0.3793795293343023
 20
-0.8568313159755236
  0
LINE
  5
13B
330
FF
100
AcDbEntity
  8
AM_9
100
AcDbLine
 10
-0.1771207715546619
 20
-0.8196616924073272
 30
0.0
 11
-0.2263662233581052
 21
-0.8311434580599515
 31
0.0
  0
LINE
  5
13C
330
FF
100
AcDbEntity
  8
AM_9
100
AcDbLine
 10
-0.1764121822902709
 20
-1.04539703161473
 30
0.0
 11
-0.1343592486638226
 21
-1.035592229115782
 31
0.0
  0
LWPOLYLINE
  5
13D
330
FF
100
AcDbEntity
  8
AM_9
100
AcDbPolyline
 90
       20
 70
     0
 43
0.0
 10
-0.1343659249938088
 20
-1.03559378540361
 10
-0.1293028157827817
 20
-1.032990967168627
 10
-0.1247141396218193
 20
-1.027417196040507
 10
-0.1208880884981781
 20
-1.018797239076489
 10
-0.1181545989145989
 20
-1.007880991490922
 10
-0.1164278875396128
 20
-0.9943362126550239
 10
-0.1158549073091554
 20
-0.9793302713177414
 10
-0.1164156227038168
 20
-0.9624082867497737
 10
-0.1180609686233502
 20
-0.9450047030275385
 10
-0.1208367673933812
 20
-0.926607393511457
 10
-0.1245107513506023
 20
-0.9087474551200029
 10
-0.1291842652280563
 20
-0.8909224816066245
 10
-0.134472979061152
 20
-0.8745960564441003
 10
-0.1405186270901959
 20
-0.8593288727646309
 10
-0.1468270783017121
 20
-0.8463704784891934
 10
-0.1535654953592165
 20
-0.8353813720298789
 10
-0.1601799433259583
 20
-0.8272689428626643
 10
-0.1668493358980661
 20
-0.8218204774364152
 10
-0.1731116383367606
 20
-0.8194809397560726
 10
-0.1771125901748263
 20
-0.819659785344162
  0
LINE
  5
13E
330
FF
100
AcDbEntity
  8
AM_9
100
AcDbLine
 10
-0.1771125901748263
 20
-0.819659785344162
 30
0.0
 11
-0.1790373738502115
 21
-0.8203040540337613
 31
0.0
  0
LWPOLYLINE
  5
13F
330
FF
100
AcDbEntity
  8
AM_9
100
AcDbPolyline
 90
        3
 70
     0
 43
0.0
 10
-0.2689146070947222
 20
-0.9475147343505178
 10
-0.2634308483997528
 20
-0.9198909589556474
 10
-0.2602304684431305
 20
-0.8922870384185166
  0
LWPOLYLINE
  5
140
330
FF
100
AcDbEntity
  8
AM_9
100
AcDbPolyline
 90
        4
 70
     0
 43
0.0
 10
-0.1690619248830174
 20
-1.000227432419554
 10
-0.1670729780242511
 20
-1.00435797563067
 10
-0.1606047421316796
 20
-1.015955943415793
 10
-0.1545764278674709
 20
-1.02440989212446
  0
LWPOLYLINE
  5
141
330
FF
100
AcDbEntity
  8
AM_9
100
AcDbPolyline
 90
        3
 70
     0
 43
0.0
 10
-0.179037373850178
 20
-0.9746959459662461
 10
-0.1733931390117467
 20
-0.990209976006311
 10
-0.1690619248830174
 20
-1.000227432419554
  0
ARC
  5
142
330
FF
100
AcDbEntity
  8
AM_9
100
AcDbCircle
 10
-0.0000000000000292
 20
-0.8974999999999181
 30
0.0
 40
0.200000000000029
100
AcDbArc
 50
219.3552868318637
 51
0.0
  0
LWPOLYLINE
  5
143
330
FF
100
AcDbEntity
  8
AM_9
100
AcDbPolyline
 90
        6
 70
     0
 43
0.0
 10
-0.1545764278674709
 20
-1.02440989212446
 10
-0.1538031670974777
 20
-1.025334802540261
 10
-0.1472336073736393
 20
-1.031712011960484
 10
-0.1407130262602577
 20
-1.035261709638181
 10
-0.1347930597680667
 20
-1.035684256104104
 10
-0.1343659249938088
 20
-1.03559378540361
  0
LINE
  5
144
330
FF
100
AcDbEntity
  8
AM_9
100
AcDbLine
 10
-0.2360765106845275
 20
-0.8021875924132664
 30
0.0
 11
-0.2258378743019627
 21
-0.8010526668938883
 31
0.0
  0
ELLIPSE
  5
145
330
FF
100
AcDbEntity
  8
AM_9
100
AcDbEllipse
 10
-0.2013892028241868
 20
-0.9382702448373434
 30
0.0
 11
-0.03193085011438453
 21
0.1369518580960972
 31
0.0
210
0.0
220
0.0
230
1.0
 40
0.365998150770571
 41
0.056021302265008
 42
0.8626327579757262
  0
LINE
  5
146
330
FF
100
AcDbEntity
  8
AM_9
100
AcDbLine
 10
-0.2602304684431305
 20
-0.8922870384185166
 30
0.0
 11
-0.2602304684431209
 21
-0.8580679499247962
 31
0.0
  0
ELLIPSE
  5
147
330
FF
100
AcDbEntity
  8
AM_9
100
AcDbEllipse
 10
-0.2013892028247339
 20
-0.938270244837964
 30
0.0
 11
-0.03193085011414549
 21
0.1369518580947359
 31
0.0
210
0.0
220
0.0
230
1.0
 40
0.365998150769319
 41
1.144545279132169
 42
1.951156734850511
  0
LWPOLYLINE
  5
148
330
FF
100
AcDbEntity
  8
AM_9
100
AcDbPolyline
 90
        3
 70
     0
 43
0.0
 10
-0.2099962668917054
 20
-1.081671457656344
 10
-0.2163479371246913
 20
-1.052339189975666
 10
-0.2258378743019629
 20
-1.023057477599441
  0
LINE
  5
149
330
FF
100
AcDbEntity
  8
AM_9
100
AcDbLine
 10
-0.2258378743019629
 20
-1.023057477599441
 30
0.0
 11
-0.2360613137375731
 21
-1.0
 31
0.0
  0
LINE
  5
14A
330
FF
100
AcDbEntity
  8
AM_9
100
AcDbLine
 10
-0.2639098599945093
 20
-0.9543905843679192
 30
0.0
 11
-0.2689146070947222
 21
-0.9475147343505178
 31
0.0
  0
LWPOLYLINE
  5
14B
330
FF
100
AcDbEntity
  8
AM_9
100
AcDbPolyline
 90
        4
 70
     0
 43
0.0
 10
-0.2387403135931097
 20
-0.9947753466476811
 10
-0.2462091938631851
 20
-0.9814216112135015
 10
-0.2570505402207574
 20
-0.9642846905716822
 10
-0.2639098599945093
 20
-0.9543905843679192
  0
LINE
  5
14C
330
FF
100
AcDbEntity
  8
AM_9
100
AcDbLine
 10
-0.2360765106845277
 20
-0.9999657255010712
 30
0.0
 11
-0.2384093666575967
 21
-0.9954061915418292
 31
0.0
  0
LINE
  5
14D
330
FF
100
AcDbEntity
  8
AM_9
100
AcDbLine
 10
-0.2689146070947222
 20
-0.9475147343505178
 30
0.0
 11
-0.2987675689889718
 21
-0.9544750667254667
 31
0.0
  0
LINE
  5
14E
330
FF
100
AcDbEntity
  8
AM_9
100
AcDbLine
 10
-0.2853869497159469
 20
-1.00004872355445
 30
0.0
 11
-0.2813919000363599
 21
-1.010531182044589
 31
0.0
  0
LWPOLYLINE
  5
14F
330
FF
100
AcDbEntity
  8
AM_9
100
AcDbPolyline
 90
        3
 70
     0
 43
0.0
 10
-0.2987675689889718
 20
-0.9544750667254667
 10
-0.2912216284034025
 20
-0.9825761834951973
 10
-0.2853869497159469
 20
-1.00004872355445
  0
LINE
  5
150
330
FF
100
AcDbEntity
  8
AM_9
100
AcDbLine
 10
-0.2813919000363599
 20
-1.010531182044589
 30
0.0
 11
-0.2711532636537957
 21
-1.033622934142958
 31
0.0
  0
LWPOLYLINE
  5
151
330
FF
100
AcDbEntity
  8
AM_9
100
AcDbPolyline
 90
        3
 70
     0
 43
0.0
 10
-0.2711532636537957
 20
-1.033622934142958
 10
-0.2561815527589921
 20
-1.061327936735335
 10
-0.2389369657326277
 20
-1.088419092407284
  0
LINE
  5
152
330
FF
100
AcDbEntity
  8
AM_9
100
AcDbLine
 10
-0.2099962668917054
 20
-1.081671457656344
 30
0.0
 11
-0.2389369657326277
 21
-1.088419092407284
 31
0.0
  0
LWPOLYLINE
  5
153
330
FF
100
AcDbEntity
  8
AM_9
100
AcDbPolyline
 90
        4
 70
     0
 43
0.0
 10
-0.0000000000000001
 20
-0.5598462998483071
 10
-0.0544416102741497
 20
-0.5837405676118848
 10
-0.0818700010907651
 20
-0.5965547814524962
 10
-0.1093750000000001
 20
-0.6099999999999999
  0
LWPOLYLINE
  5
154
330
FF
100
AcDbEntity
  8
AM_9
100
AcDbPolyline
 90
        4
 70
     0
 43
0.0
 10
0.1093749999999999
 20
-0.6099999999999999
 10
0.0820312499999999
 20
-0.5966318320019995
 10
0.0546874999999999
 20
-0.5838529403925173
 10
-0.0000000000000001
 20
-0.5598462998483071
  0
LWPOLYLINE
  5
155
330
FF
100
AcDbEntity
  8
AM_9
100
AcDbPolyline
 90
        4
 70
     0
 43
0.0
 10
-0.2187500000000001
 20
-0.7101537001516927
 10
-0.1643083897258504
 20
-0.6862594323881152
 10
-0.1368799989092349
 20
-0.6734452185475037
 10
-0.109375
 20
-0.6599999999999999
  0
LWPOLYLINE
  5
156
330
FF
100
AcDbEntity
  8
AM_9
100
AcDbPolyline
 90
        4
 70
     0
 43
0.0
 10
0.1093749999999999
 20
-0.6599999999999999
 10
0.1367187499999999
 20
-0.6733681679980004
 10
0.1640624999999999
 20
-0.6861470596074826
 10
0.2187499999999999
 20
-0.7101537001516927
  0
LINE
  5
157
330
FF
100
AcDbEntity
  8
AM_9
100
AcDbLine
 10
-0.0000000000000001
 20
-0.6007787001516928
 30
0.0
 11
-0.0000000000000001
 21
-0.5598462998483071
 31
0.0
  0
LWPOLYLINE
  5
158
330
FF
100
AcDbEntity
  8
AM_9
100
AcDbPolyline
 90
        4
 70
     0
 43
0.0
 10
0.2187499999999999
 20
-0.6692212998483071
 10
0.1643083897258503
 20
-0.6386739573377351
 10
0.1368799989092348
 20
-0.624059780361731
 10
0.1093749999999999
 20
-0.6099999999999999
  0
LWPOLYLINE
  5
159
330
FF
100
AcDbEntity
  8
AM_9
100
AcDbPolyline
 90
        4
 70
     0
 43
0.0
 10
-0.1093750000000001
 20
-0.6099999999999999
 10
-0.13671875
 20
-0.6239755820019995
 10
-0.1640625
 20
-0.6385404403925172
 10
-0.2187500000000001
 20
-0.6692212998483071
  0
ELLIPSE
  5
15A
330
FF
100
AcDbEntity
  8
AM_9
100
AcDbEllipse
 10
-0.0000000000000002
 20
-0.8975000000000001
 30
0.0
 11
-0.2000000000000001
 21
2.449293598294708E-17
 31
0.0
210
0.0
220
0.0
230
1.0
 40
0.8660254037844388
 41
0.4619460205669652
 42
5.821239286612619
  0
LWPOLYLINE
  5
15B
330
FF
100
AcDbEntity
  8
AM_9
100
AcDbPolyline
 90
        7
 70
     0
 43
0.0
 10
-0.1790373738501784
 20
-0.9746959459662461
 10
-0.1842628795203941
 20
-0.958701216295605
 10
-0.1891729979031393
 20
-0.9426444582564122
 10
-0.1936098952159724
 20
-0.9258778251052954
 10
-0.1971856748420371
 20
-0.9084298087252539
 10
-0.1994144431868155
 20
-0.8909576332075927
 10
-0.1999999999699529
 20
-0.8772575590009699
  0
LINE
  5
15C
330
FF
100
AcDbEntity
  8
AM_9
100
AcDbLine
 10
-0.2
 20
-0.8240624999999999
 30
0.0
 11
-0.2
 21
-0.8773468854091477
 31
0.0
  0
LINE
  5
15D
330
FF
100
AcDbEntity
  8
AM_9
100
AcDbLine
 10
0.1999999999999999
 20
-0.8975
 30
0.0
 11
0.1999999999999999
 21
-0.8240624999999999
 31
0.0
  0
LWPOLYLINE
  5
15E
330
FF
100
AcDbEntity
  8
AM_9
100
AcDbPolyline
 90
        8
 70
     0
 43
0.0
 10
-0.1999999999699529
 20
-0.8772575590009699
 10
-0.1999786710855128
 20
-0.8747474927945716
 10
-0.1988321115509053
 20
-0.8594770462991154
 10
-0.1961649429984259
 20
-0.8465478285833823
 10
-0.1920694300574958
 20
-0.8354958498463314
 10
-0.1870948030566195
 20
-0.8272268040530578
 10
-0.181500594761393
 20
-0.8217034871441516
 10
-0.1790373738501785
 20
-0.8203040540337537
  0
LINE
  5
15F
330
FF
100
AcDbEntity
  8
AM_9
100
AcDbLine
 10
-0.2187500000000001
 20
-0.9289037001516928
 30
0.0
 11
-0.2187500000000001
 21
-0.6692212998483071
 31
0.0
  0
LWPOLYLINE
  5
160
330
FF
100
AcDbEntity
  8
AM_9
100
AcDbPolyline
 90
        4
 70
     0
 43
0.0
 10
-0.109375
 20
-0.988125
 10
-0.1367187500000001
 20
-0.9741494179980004
 10
-0.1640625
 20
-0.9595845596074827
 10
-0.2187500000000001
 20
-0.9289037001516928
  0
LINE
  5
161
330
FF
100
AcDbEntity
  8
AM_9
100
AcDbLine
 10
-0.0772159141574418
 20
-1.003785271722143
 30
0.0
 11
-0.109375
 21
-0.988125
 31
0.0
  0
LINE
  5
162
330
FF
100
AcDbEntity
  8
AM_9
100
AcDbLine
 10
-0.0360825861178644
 20
-1.022654342468351
 30
0.0
 11
-0.0772159141574418
 21
-1.003785271722143
 31
0.0
  0
LINE
  5
163
330
FF
100
AcDbEntity
  8
AM_9
100
AcDbLine
 10
-0.0000000000000001
 20
-1.038278700151693
 30
0.0
 11
-0.0360825861178644
 21
-1.022654342468351
 31
0.0
  0
LWPOLYLINE
  5
164
330
FF
100
AcDbEntity
  8
AM_9
100
AcDbPolyline
 90
        4
 70
     0
 43
0.0
 10
-0.2187500000000001
 20
-0.8879712998483072
 10
-0.1643083897258505
 20
-0.9118655676118848
 10
-0.136879998909235
 20
-0.9246797814524962
 10
-0.1093750000000001
 20
-0.938125
  0
LWPOLYLINE
  5
165
330
FF
100
AcDbEntity
  8
AM_9
100
AcDbPolyline
 90
        4
 70
     0
 43
0.0
 10
-0.1093750000000001
 20
-0.938125
 10
-0.0820312500000001
 20
-0.9521005820019995
 10
-0.0546875000000001
 20
-0.9666654403925172
 10
-0.0000000000000001
 20
-0.9973462998483071
  0
LINE
  5
166
330
FF
100
AcDbEntity
  8
AM_9
100
AcDbLine
 10
-0.0000000000000001
 20
-1.038278700151693
 30
0.0
 11
-0.0000000000000001
 21
-0.9973462998483071
 31
0.0
  0
LINE
  5
167
330
FF
100
AcDbEntity
  8
AM_9
100
AcDbLine
 10
0.0359947647424764
 20
-1.022693348479974
 30
0.0
 11
-0.0000000000000001
 21
-1.038278700151693
 31
0.0
  0
LWPOLYLINE
  5
168
330
FF
100
AcDbEntity
  8
AM_9
100
AcDbPolyline
 90
        4
 70
     0
 43
0.0
 10
0.0850836702784588
 20
-1.000030719977963
 10
0.0820312499999999
 20
-1.001493167998
 10
0.0546874999999999
 20
-1.014272059607483
 10
0.0359947647424764
 20
-1.022693348479974
  0
LINE
  5
169
330
FF
100
AcDbEntity
  8
AM_9
100
AcDbLine
 10
0.1093749999999999
 20
-0.988125
 30
0.0
 11
0.0850836702784588
 21
-1.000030719977963
 31
0.0
  0
LWPOLYLINE
  5
16A
330
FF
100
AcDbEntity
  8
AM_9
100
AcDbPolyline
 90
        4
 70
     0
 43
0.0
 10
0.2187499999999999
 20
-0.9289037001516928
 10
0.1643083897258503
 20
-0.9594510426622647
 10
0.1368799989092348
 20
-0.9740652196382688
 10
0.1093749999999999
 20
-0.988125
  0
LINE
  5
16B
330
FF
100
AcDbEntity
  8
AM_9
100
AcDbLine
 10
0.2187499999999999
 20
-0.9289037001516928
 30
0.0
 11
0.2187499999999999
 21
-0.6692212998483071
 31
0.0
  0
LWPOLYLINE
  5
16C
330
FF
100
AcDbEntity
  8
AM_9
100
AcDbPolyline
 90
        4
 70
     0
 43
0.0
 10
0.1093749999999999
 20
-0.938125
 10
0.1367187499999999
 20
-0.9247568320019995
 10
0.1640624999999999
 20
-0.9119779403925172
 10
0.2187499999999999
 20
-0.8879712998483071
  0
LWPOLYLINE
  5
16D
330
FF
100
AcDbEntity
  8
AM_9
100
AcDbPolyline
 90
        4
 70
     0
 43
0.0
 10
-0.0000000000000001
 20
-0.9973462998483071
 10
0.0544416102741495
 20
-0.9667989573377351
 10
0.081870001090765
 20
-0.952184780361731
 10
0.1093749999999999
 20
-0.938125
  0
LINE
  5
16E
330
FF
100
AcDbEntity
  8
AM_9
100
AcDbLine
 10
-0.2
 20
-0.735
 30
0.0
 11
-0.2
 21
-0.7740624999999999
 31
0.0
  0
LINE
  5
16F
330
FF
100
AcDbEntity
  8
AM_9
100
AcDbLine
 10
0.1999999999999999
 20
-0.7740625
 30
0.0
 11
0.1999999999999999
 21
-0.735
 31
0.0
  0
LINE
  5
170
330
FF
100
AcDbEntity
  8
AM_9
100
AcDbLine
 10
-0.1851454569549801
 20
-0.6288099125707269
 30
0.0
 11
-0.1912304659644924
 21
-0.726022462287446
 31
0.0
  0
LINE
  5
171
330
FF
100
AcDbEntity
  8
AM_9
100
AcDbLine
 10
0.1912304659644923
 20
-0.726022462287446
 30
0.0
 11
0.18514545695498
 21
-0.6288099125707269
 31
0.0
  0
ELLIPSE
  5
172
330
FF
100
AcDbEntity
  8
AM_9
100
AcDbEllipse
 10
-0.0000000000000001
 20
-0.625625
 30
0.0
 11
0.1616637258772237
 21
0.0
 31
0.0
210
0.0
220
0.0
230
1.0
 40
0.8660254037844384
 41
0.0
 42
6.283185307179586
  0
ELLIPSE
  5
173
330
FF
100
AcDbEntity
  8
AM_9
100
AcDbEllipse
 10
-0.3729962569746644
 20
-0.978281086609234
 30
0.0
 11
-0.03024351534849223
 21
0.1297148559307582
 31
0.0
210
0.0
220
0.0
230
1.0
 40
0.3659981507706664
 41
0.0
 42
6.283185307179586
  0
ELLIPSE
  5
174
330
FF
100
AcDbEntity
  8
AM_9
100
AcDbEllipse
 10
-0.2013892028241131
 20
-0.9382702448372549
 30
0.0
 11
-0.02497702053391008
 21
0.1071267867775152
 31
0.0
210
0.0
220
0.0
230
1.0
 40
0.36599815077109
 41
0.0
 42
6.283185307179586
  0
ELLIPSE
  5
175
330
FF
100
AcDbEntity
  8
AM_9
100
AcDbEllipse
 10
0.0000000000000001
 20
-0.8240624999999995
 30
0.0
 11
-0.2000000000000003
 21
2.449293598294710E-17
 31
0.0
210
0.0
220
0.0
230
1.0
 40
0.8660254037844395
 41
0.0
 42
6.283185307179586
  0
ELLIPSE
  5
176
330
FF
100
AcDbEntity
  8
AM_9
100
AcDbEllipse
 10
-0.0000000000000001
 20
-0.8240624999999993
 30
0.0
 11
-0.2187500000000004
 21
3.259629037943330E-9
 31
0.0
210
0.0
220
0.0
230
1.0
 40
0.8660254037844404
 41
0.0
 42
6.283185307179586
  0
ELLIPSE
  5
177
330
FF
100
AcDbEntity
  8
AM_9
100
AcDbEllipse
 10
-0.0000000000000001
 20
-0.7740624999999991
 30
0.0
 11
-0.2187500000000005
 21
2.678914873134842E-17
 31
0.0
210
0.0
220
0.0
230
1.0
 40
0.8660254037844405
 41
0.0
 42
6.283185307179586
  0
ELLIPSE
  5
178
330
FF
100
AcDbEntity
  8
AM_9
100
AcDbEllipse
 10
-0.0000000000000003
 20
-0.7740625000000002
 30
0.0
 11
-0.1999999999999996
 21
2.449293598294702E-17
 31
0.0
210
0.0
220
0.0
230
1.0
 40
0.8660254037844384
 41
0.0
 42
6.283185307179586
  0
ELLIPSE
  5
179
330
FF
100
AcDbEntity
  8
AM_9
100
AcDbEllipse
 10
-0.0000000000000001
 20
-0.735
 30
0.0
 11
-0.1999999999999999
 21
2.449293598294705E-17
 31
0.0
210
0.0
220
0.0
230
1.0
 40
0.8660254037844395
 41
0.0
 42
6.283185307179586
  0
ELLIPSE
  5
17A
330
FF
100
AcDbEntity
  8
AM_9
100
AcDbEllipse
 10
-0.0000000000000002
 20
-0.7350000000000001
 30
0.0
 11
-0.1915112338502294
 21
2.345336195354437E-17
 31
0.0
210
0.0
220
0.0
230
1.0
 40
0.8660254037844385
 41
0.0
 42
6.283185307179586
  0
ELLIPSE
  5
17B
330
FF
100
AcDbEntity
  8
AM_9
100
AcDbEllipse
 10
-0.0000000000000001
 20
-0.6375017824238809
 30
0.0
 11
-0.185417290724986
 21
2.270706915929283E-17
 31
0.0
210
0.0
220
0.0
230
1.0
 40
0.8660254037844406
 41
0.0
 42
6.283185307179586
  0
LINE
  5
17C
330
FF
100
AcDbEntity
  8
AM_4
100
AcDbLine
 10
-0.4524158089341449
 20
-1.101254016496842
 30
0.0
 11
-0.45135
 21
-1.101517472588915
 31
0.0
  0
LINE
  5
17D
330
FF
100
AcDbEntity
  8
AM_4
100
AcDbLine
 10
-0.4513499999999998
 20
-0.8632672785607411
 30
0.0
 11
-0.4986131040655763
 21
-0.9031131782604874
 31
0.0
  0
ELLIPSE
  5
17E
330
FF
100
AcDbEntity
  8
AM_4
100
AcDbEllipse
 10
-0.4687500000000001
 20
-1.000606438444094
 30
0.0
 11
-0.02349716402074598
 21
0.1007796617096759
 31
0.0
210
0.0
220
0.0
230
1.0
 40
0.3659981507706628
 41
0.1844361849250395
 42
2.957156468664753
  0
ELLIPSE
  5
17F
330
FF
100
AcDbEntity
  8
AM_4
100
AcDbEllipse
 10
-0.3994303217889759
 20
-0.9844442900387739
 30
0.0
 11
-0.03159560311146631
 21
0.1355139790604261
 31
0.0
210
0.0
220
0.0
230
1.0
 40
0.3659981507706666
 41
0.5147673728610789
 42
1.492410664254422
  0
ENDBLK
  5
102
330
FF
100
AcDbEntity
  8
0
100
AcDbBlockEnd
  0
BLOCK
  5
182
330
180
100
AcDbEntity
  8
0
100
AcDbBlockBegin
  2
4_125012H_0_in_125012_2
 70
     2
 10
0.0
 20
0.0
 30
0.0
  3
4_125012H_0_in_125012_2
  1

  0
ATTDEF
  5
184
330
180
100
AcDbEntity
  8
AM_6
100
AcDbText
 10
5.69
 20
1.815
 30
0.0
 40
0.5
  1
WSTU-SC -Inch - housing
100
AcDbAttributeDefinition
  3

  2
NN
 70
     8
280
     0
  0
ATTDEF
  5
185
330
180
100
AcDbEntity
  8
AM_6
100
AcDbText
 10
5.69
 20
1.315
 30
0.0
 40
0.5
  1
SC Take-Up Bearings -Wide Slot -(Normal Duty)
100
AcDbAttributeDefinition
  3

  2
NT
 70
     8
280
     0
  0
ATTDEF
  5
186
330
180
100
AcDbEntity
  8
AM_6
100
AcDbText
 10
5.69
 20
0.815
 30
0.0
 40
0.5
  1
125012H
100
AcDbAttributeDefinition
  3

  2
NB
 70
     8
280
     0
  0
ATTDEF
  5
187
330
180
100
AcDbEntity
  8
AM_6
100
AcDbText
 10
5.69
 20
0.3149999999999999
 30
0.0
 40
0.5
  1
$PN.H
100
AcDbAttributeDefinition
  3

  2
NBSYN
 70
     8
280
     0
  0
ATTDEF
  5
188
330
180
100
AcDbEntity
  8
AM_6
100
AcDbText
 10
5.69
 20
-0.1850000000000001
 30
0.0
 40
0.5
  1
125012
100
AcDbAttributeDefinition
  3

  2
LINA
 70
     8
280
     0
  0
ATTDEF
  5
189
330
180
100
AcDbEntity
  8
AM_6
100
AcDbText
 10
5.69
 20
-0.685
 30
0.0
 40
0.5
  1
205
100
AcDbAttributeDefinition
  3

  2
SERIES
 70
     8
280
     0
  0
ATTDEF
  5
18A
330
180
100
AcDbEntity
  8
AM_6
100
AcDbText
 10
5.69
 20
-1.185
 30
0.0
 40
0.5
  1
1
100
AcDbAttributeDefinition
  3

  2
SS
 70
     8
280
     0
  0
ATTDEF
  5
18B
330
180
100
AcDbEntity
  8
AM_6
100
AcDbText
 10
5.69
 20
-1.685
 30
0.0
 40
0.5
  1
125012
100
AcDbAttributeDefinition
  3

  2
PN
 70
     8
280
     0
  0
ATTDEF
  5
18C
330
180
100
AcDbEntity
  8
AM_6
100
AcDbText
 10
5.69
 20
-2.185
 30
0.0
 40
0.5
  1
WSTU-SC-100
100
AcDbAttributeDefinition
  3

  2
DESCRIPTION
 70
     8
280
     0
  0
ATTDEF
  5
18D
330
180
100
AcDbEntity
  8
AM_6
100
AcDbText
 10
5.69
 20
-2.685
 30
0.0
 40
0.5
  1
2.0
100
AcDbAttributeDefinition
  3

  2
W
 70
     8
280
     0
  0
ATTDEF
  5
18E
330
180
100
AcDbEntity
  8
AM_6
100
AcDbText
 10
5.69
 20
-3.185
 30
0.0
 40
0.5
  1
WS300
100
AcDbAttributeDefinition
  3

  2
FS
 70
     8
280
     0
  0
ATTDEF
  5
18F
330
180
100
AcDbEntity
  8
AM_6
100
AcDbText
 10
5.69
 20
-3.685
 30
0.0
 40
0.5
  1
RE-LUBE
100
AcDbAttributeDefinition
  3

  2
LF
 70
     8
280
     0
  0
ATTDEF
  5
190
330
180
100
AcDbEntity
  8
AM_6
100
AcDbText
 10
5.69
 20
-4.185
 30
0.0
 40
0.5
  1
1.34
100
AcDbAttributeDefinition
  3

  2
A
 70
     8
280
     0
  0
ATTDEF
  5
191
330
180
100
AcDbEntity
  8
AM_6
100
AcDbText
 10
5.69
 20
-4.685
 30
0.0
 40
0.5
  1
3.81
100
AcDbAttributeDefinition
  3

  2
B
 70
     8
280
     0
  0
ATTDEF
  5
192
330
180
100
AcDbEntity
  8
AM_6
100
AcDbText
 10
5.69
 20
-5.185
 30
0.0
 40
0.5
  1
0.531
100
AcDbAttributeDefinition
  3

  2
C
 70
     8
280
     0
  0
ATTDEF
  5
193
330
180
100
AcDbEntity
  8
AM_6
100
AcDbText
 10
5.69
 20
-5.685
 30
0.0
 40
0.5
  1
2
100
AcDbAttributeDefinition
  3

  2
D
 70
     8
280
     0
  0
ATTDEF
  5
194
330
180
100
AcDbEntity
  8
AM_6
100
AcDbText
 10
5.69
 20
-6.185
 30
0.0
 40
0.5
  1
2.44
100
AcDbAttributeDefinition
  3

  2
E
 70
     8
280
     0
  0
ATTDEF
  5
195
330
180
100
AcDbEntity
  8
AM_6
100
AcDbText
 10
5.69
 20
-6.685
 30
0.0
 40
0.5
  1
5/8
100
AcDbAttributeDefinition
  3

  2
F
 70
     8
280
     0
  0
ATTDEF
  5
196
330
180
100
AcDbEntity
  8
AM_6
100
AcDbText
 10
5.69
 20
-7.185
 30
0.0
 40
0.5
  1
0.38
100
AcDbAttributeDefinition
  3

  2
G
 70
     8
280
     0
  0
ATTDEF
  5
197
330
180
100
AcDbEntity
  8
AM_6
100
AcDbText
 10
5.69
 20
-7.685
 30
0.0
 40
0.5
  1
0.63
100
AcDbAttributeDefinition
  3

  2
H
 70
     8
280
     0
  0
ATTDEF
  5
198
330
180
100
AcDbEntity
  8
AM_6
100
AcDbText
 10
5.69
 20
-8.185
 30
0.0
 40
0.5
  1
2
100
AcDbAttributeDefinition
  3

  2
J
 70
     8
280
     0
  0
ATTDEF
  5
199
330
180
100
AcDbEntity
  8
AM_6
100
AcDbText
 10
5.69
 20
-8.685
 30
0.0
 40
0.5
  1
1.31
100
AcDbAttributeDefinition
  3

  2
K
 70
     8
280
     0
  0
ATTDEF
  5
19A
330
180
100
AcDbEntity
  8
AM_6
100
AcDbText
 10
5.69
 20
-9.185
 30
0.0
 40
0.5
  1
1.32
100
AcDbAttributeDefinition
  3

  2
L
 70
     8
280
     0
  0
ATTDEF
  5
19B
330
180
100
AcDbEntity
  8
AM_6
100
AcDbText
 10
5.69
 20
-9.685
 30
0.0
 40
0.5
  1
2.985 / 3.015
100
AcDbAttributeDefinition
  3

  2
M
 70
     8
280
     0
  0
ATTDEF
  5
19C
330
180
100
AcDbEntity
  8
AM_6
100
AcDbText
 10
5.69
 20
-10.185
 30
0.0
 40
0.5
  1
3.63
100
AcDbAttributeDefinition
  3

  2
N
 70
     8
280
     0
  0
ATTDEF
  5
19D
330
180
100
AcDbEntity
  8
AM_6
100
AcDbText
 10
5.69
 20
-10.685
 30
0.0
 40
0.5
  1
0.56
100
AcDbAttributeDefinition
  3

  2
R
 70
     8
280
     0
  0
ATTDEF
  5
19E
330
180
100
AcDbEntity
  8
AM_6
100
AcDbText
 10
5.69
 20
-11.185
 30
0.0
 40
0.5
  1
0.78
100
AcDbAttributeDefinition
  3

  2
S
 70
     8
280
     0
  0
ATTDEF
  5
19F
330
180
100
AcDbEntity
  8
AM_6
100
AcDbText
 10
5.69
 20
-11.685
 30
0.0
 40
0.5
  1
1.38
100
AcDbAttributeDefinition
  3

  2
T
 70
     8
280
     0
  0
ATTDEF
  5
1A0
330
180
100
AcDbEntity
  8
AM_6
100
AcDbText
 10
5.69
 20
-12.185
 30
0.0
 40
0.5
  1
1565
100
AcDbAttributeDefinition
  3

  2
CAPS
 70
     8
280
     0
  0
ATTDEF
  5
1A1
330
180
100
AcDbEntity
  8
AM_6
100
AcDbText
 10
5.69
 20
-12.685
 30
0.0
 40
0.5
  1
3146
100
AcDbAttributeDefinition
  3

  2
CAPD
 70
     8
280
     0
  0
ATTDEF
  5
1A2
330
180
100
AcDbEntity
  8
AM_6
100
AcDbText
 10
5.69
 20
-13.185
 30
0.0
 40
0.5
  1
baldor
100
AcDbAttributeDefinition
  3

  2
COMPANY
 70
     8
280
     0
  0
LWPOLYLINE
  5
1A3
330
180
100
AcDbEntity
  8
AM_9
100
AcDbPolyline
 90
       39
 70
     0
 43
0.0
 10
-0.4200000000000001
 20
-0.6849999999999996
 10
-0.418434306869155
 20
-0.6533828987979847
 10
-0.4137016759215276
 20
-0.6212861114362268
 10
-0.406638406698291
 20
-0.5919733103200705
 10
-0.3970281360094559
 20
-0.5629220537097674
 10
-0.3845672890270204
 20
-0.5335603065481765
 10
-0.3695931353432971
 20
-0.5049246318969989
 10
-0.3522853791888371
 20
-0.4773493112129767
 10
-0.3327130894122677
 20
-0.4509206744101977
 10
-0.310383160299895
 20
-0.4251893457515135
 10
-0.2859430440038088
 20
-0.4010912957009776
 10
-0.2592599107118877
 20
-0.3786188679415755
 10
-0.2307448658943999
 20
-0.3582244541260188
 10
-0.1996649987959852
 20
-0.3396172667428318
 10
-0.167042412091859
 20
-0.3236183667424845
 10
-0.1342294404558645
 20
-0.3108097468937632
 10
-0.1004101174239936
 20
-0.3007629587271655
 10
-0.064713655380924
 20
-0.2934354193374171
 10
-0.0284861705043099
 20
-0.289278551262223
 10
0.0053420146461799
 20
-0.2883234570981676
 10
0.0391320904484232
 20
-0.2901611486569204
 10
0.0736405665749655
 20
-0.2949622047206633
 10
0.107598492480914
 20
-0.3026399005120287
 10
0.1393833384441439
 20
-0.312615698990625
 10
0.1702380868054955
 20
-0.3250366457125884
 10
0.2007580244469936
 20
-0.340212777300341
 10
0.2299128939754958
 20
-0.3576795783685733
 10
0.2577937810543848
 20
-0.3774843623699205
 10
0.2839405392342931
 20
-0.3992760550371112
 10
0.3088264762655945
 20
-0.4235389745247437
 10
0.3315607819680782
 20
-0.4494891282346998
 10
0.352043915648201
 20
-0.4769966351537698
 10
0.3700678259605011
 20
-0.5057531530195367
 10
0.3859141334083983
 20
-0.5364387359727103
 10
0.3988739777072374
 20
-0.5679294641380878
 10
0.4079468391556844
 20
-0.5966711812959326
 10
0.4145263352667941
 20
-0.6256344175299933
 10
0.4186259123907701
 20
-0.655419336856046
 10
0.42
 20
-0.6849999999999996
  0
LWPOLYLINE
  5
1A4
330
180
100
AcDbEntity
  8
AM_9
100
AcDbPolyline
 90
       11
 70
     0
 43
0.0
 10
-0.0000000000000001
 20
-0.5509779706543021
 10
-0.0247409936125343
 20
-0.5528695504196258
 10
-0.0494819872250685
 20
-0.5586989635229004
 10
-0.0721424418242399
 20
-0.5679436513217226
 10
-0.0933830177559681
 20
-0.5808210692398929
 10
-0.1115036757510766
 20
-0.596268625292752
 10
-0.1269427281433027
 20
-0.6146300205690624
 10
-0.1384335551947582
 20
-0.6343698160835128
 10
-0.1462603672130417
 20
-0.655971963172504
 10
-0.1497499473109022
 20
-0.6774886586023346
 10
-0.1499999993825387
 20
-0.6849882131594431
  0
ELLIPSE
  5
1A5
330
180
100
AcDbEntity
  8
AM_9
100
AcDbEllipse
 10
-0.0000000000000001
 20
-0.7350000000000001
 30
0.0
 11
0.15
 21
0.0
 31
0.0
210
0.0
220
0.0
230
1.0
 40
0.8660254037844397
 41
1.570796326794897
 42
3.141592653589793
  0
LINE
  5
1A6
330
180
100
AcDbEntity
  8
AM_9
100
AcDbLine
 10
0.1499999999999999
 20
-0.735
 30
0.0
 11
0.1499999999999999
 21
-0.6849990812963928
 31
0.0
  0
LINE
  5
1A7
330
180
100
AcDbEntity
  8
AM_9
100
AcDbLine
 10
-0.1500000000000001
 20
-0.6849732623959571
 30
0.0
 11
-0.1500000000000001
 21
-0.735
 31
0.0
  0
ELLIPSE
  5
1A8
330
180
100
AcDbEntity
  8
AM_9
100
AcDbEllipse
 10
-0.0000000000000001
 20
-0.7349999999999999
 30
0.0
 11
0.1500000000000001
 21
0.0
 31
0.0
210
0.0
220
0.0
230
1.0
 40
0.8660254037844387
 41
3.141592653589793
 42
6.283185307179586
  0
ELLIPSE
  5
1A9
330
180
100
AcDbEntity
  8
AM_9
100
AcDbEllipse
 10
-0.0000000000000001
 20
-0.7350000000000001
 30
0.0
 11
0.15
 21
0.0
 31
0.0
210
0.0
220
0.0
230
1.0
 40
0.8660254037844397
 41
0.0
 42
1.570796326794897
  0
LWPOLYLINE
  5
1AA
330
180
100
AcDbEntity
  8
AM_9
100
AcDbPolyline
 90
       20
 70
     0
 43
0.0
 10
-0.1499999993825387
 20
-0.6849882131594431
 10
-0.1490407634793315
 20
-0.6996152402226223
 10
-0.1442217407390015
 20
-0.7203977764553307
 10
-0.1351653197003307
 20
-0.7405547947158847
 10
-0.1226009105726552
 20
-0.7584806053924714
 10
-0.1061872606114788
 20
-0.7746994502385977
 10
-0.0871817904228277
 20
-0.7879852409065117
 10
-0.0651110601473643
 20
-0.7986870384831884
 10
-0.041818920937993
 20
-0.8059560539858354
 10
-0.0166304995802854
 20
-0.8100354970968549
 10
0.0081900864960073
 20
-0.8106041254899768
 10
0.0334920332917537
 20
-0.8077119786451171
 10
0.0570881076403044
 20
-0.8016077274034535
 10
0.0797246199537963
 20
-0.7920839614652564
 10
0.0996000420796314
 20
-0.7798338289182059
 10
0.1171910227912755
 20
-0.7644829567950134
 10
0.1310874157895037
 20
-0.7471724494062058
 10
0.1416041557265206
 20
-0.7274039638058659
 10
0.1478406868688838
 20
-0.7068450635889837
 10
0.149999999993206
 20
-0.6849987634278537
  0
LWPOLYLINE
  5
1AB
330
180
100
AcDbEntity
  8
AM_9
100
AcDbPolyline
 90
       12
 70
     0
 43
0.0
 10
0.149999999993206
 20
-0.6849987634278537
 10
0.1499998667726639
 20
-0.6848268565252034
 10
0.1479178823319958
 20
-0.6633177206127087
 10
0.1415600519194035
 20
-0.6415907851213167
 10
0.1314649511366853
 20
-0.6214955580452064
 10
0.117347832123506
 20
-0.6024909284846028
 10
0.1002880803363886
 20
-0.5861248740366193
 10
0.079857655016003
 20
-0.572087614534968
 10
0.0577027243894152
 20
-0.561585323508592
 10
0.0332251992641256
 20
-0.55440740464768
 10
0.0167175703074083
 20
-0.5518414886837724
 10
-0.0000000000000001
 20
-0.5509779706543021
  0
LINE
  5
1AC
330
180
100
AcDbEntity
  8
AM_9
100
AcDbLine
 10
-0.45135
 20
0.8955656089868574
 30
0.0
 11
-0.4237499999999998
 21
0.9364293886887577
 31
0.0
  0
LINE
  5
1AD
330
180
100
AcDbEntity
  8
AM_9
100
AcDbLine
 10
-0.4237499999999998
 20
-0.9364293886887577
 30
0.0
 11
-0.4237499999999998
 21
0.9364293886887577
 31
0.0
  0
LINE
  5
1AE
330
180
100
AcDbEntity
  8
AM_9
100
AcDbLine
 10
-0.4237499999999998
 20
-0.9364293886887577
 30
0.0
 11
-0.45135
 21
-0.8955656089868571
 31
0.0
  0
LINE
  5
1AF
330
180
100
AcDbEntity
  8
AM_9
100
AcDbLine
 10
0.4513500000000001
 20
-0.895565608986857
 30
0.0
 11
0.42375
 21
-0.9364293886887577
 31
0.0
  0
LINE
  5
1B0
330
180
100
AcDbEntity
  8
AM_9
100
AcDbLine
 10
-0.2823059323762006
 20
-0.9364293886887577
 30
0.0
 11
-0.4237499999999998
 21
-0.9364293886887577
 31
0.0
  0
LINE
  5
1B1
330
180
100
AcDbEntity
  8
AM_9
100
AcDbLine
 10
0.42375
 20
-0.9364293886887577
 30
0.0
 11
0.2823059323762001
 21
-0.936429388688758
 31
0.0
  0
ELLIPSE
  5
1B2
330
180
100
AcDbEntity
  8
AM_9
100
AcDbEllipse
 10
-0.0000000000000001
 20
-0.735
 30
0.0
 11
-0.3199999999999998
 21
3.918869757271528E-17
 31
0.0
210
0.0
220
0.0
230
1.0
 40
0.8660254037844387
 41
0.0
 42
6.283185307179586
  0
LWPOLYLINE
  5
1B3
330
180
100
AcDbEntity
  8
AM_9
100
AcDbPolyline
 90
       14
 70
     0
 43
0.0
 10
-0.1932315333413444
 20
-1.007949192431123
 10
-0.182832502956662
 20
-1.013904999397533
 10
-0.1563304297317845
 20
-1.026915836441338
 10
-0.1288075270753939
 20
-1.037612245533106
 10
-0.0996996598828744
 20
-1.046260351860872
 10
-0.0699978716366308
 20
-1.052587387593211
 10
-0.0352565714545388
 20
-1.057064172136346
 10
-0.0000000000000001
 20
-1.058565380252616
 10
0.0336179070211064
 20
-1.057200571379407
 10
0.0670105359406691
 20
-1.053093066817089
 10
0.1009087710696371
 20
-1.045950782780424
 10
0.1340210718813382
 20
-1.035784926909239
 10
0.1641656495960792
 20
-1.023369236372453
 10
0.1932315333413439
 20
-1.007949192431123
  0
ELLIPSE
  5
1B4
330
180
100
AcDbEntity
  8
AM_9
100
AcDbEllipse
 10
-0.0000000000000001
 20
-0.6849999999999999
 30
0.0
 11
0.4199999999999999
 21
0.0
 31
0.0
210
0.0
220
0.0
230
1.0
 40
0.8660254037844388
 41
0.0
 42
3.141592653589793
  0
LINE
  5
1B5
330
180
100
AcDbEntity
  8
AM_9
100
AcDbLine
 10
0.4199345657334945
 20
-0.6916702155268956
 30
0.0
 11
0.41999986603166
 21
-0.6846981747915583
 31
0.0
  0
LWPOLYLINE
  5
1B6
330
180
100
AcDbEntity
  8
AM_9
100
AcDbPolyline
 90
       20
 70
     0
 43
0.0
 10
0.2400969555916716
 20
-0.9946242615333901
 10
0.2487278993070991
 20
-0.9890887349022089
 10
0.2656218161370174
 20
-0.9773545715864825
 10
0.2818276065314348
 20
-0.964862036227721
 10
0.2973017730188662
 20
-0.95164441890479
 10
0.3120029280210637
 20
-0.937737324695084
 10
0.3258920142234782
 20
-0.923178535241921
 10
0.338932508243723
 20
-0.9080078365220976
 10
0.3510905987610736
 20
-0.8922668163323535
 10
0.3623353312629633
 20
-0.8759986373812196
 10
0.3726387133924703
 20
-0.8592477938251014
 10
0.3819757773686374
 20
-0.8420598603661266
 10
0.3903245988161741
 20
-0.8244812434726663
 10
0.3976662742440046
 20
-0.8065589438588335
 10
0.4039848620241147
 20
-0.7883403381636674
 10
0.4092672937822884
 20
-0.7698729860038608
 10
0.4135032644676063
 20
-0.7512044664881596
 10
0.4166851099821995
 20
-0.7323822461289249
 10
0.4188076811915426
 20
-0.7134535780715134
 10
0.4197261652636678
 20
-0.6986435284569344
  0
LINE
  5
1B7
330
180
100
AcDbEntity
  8
AM_9
100
AcDbLine
 10
0.231246019006442
 20
-1.000001285144223
 30
0.0
 11
0.2400969555916716
 21
-0.9946242615333901
 31
0.0
  0
LWPOLYLINE
  5
1B8
330
180
100
AcDbEntity
  8
AM_9
100
AcDbPolyline
 90
       25
 70
     0
 43
0.0
 10
-0.2312378354338445
 20
-1.000006121196141
 10
-0.2134823223242163
 20
-1.009937358932875
 10
-0.1949130101168189
 20
-1.019194750337807
 10
-0.1758391057853329
 20
-1.027599396494419
 10
-0.1563098786061559
 20
-1.03512925548418
 10
-0.1363757270909189
 20
-1.041764669223179
 10
-0.1160880010945796
 20
-1.047488380034794
 10
-0.0954988369068085
 20
-1.052285531793298
 10
-0.0746610067874425
 20
-1.056143659924816
 10
-0.0536277832051497
 20
-1.059052674444591
 10
-0.0324528170592665
 20
-1.061004839865896
 10
-0.0111900284157533
 20
-1.061994755325936
 10
0.0101064922534437
 20
-1.062019337711236
 10
0.0313825747146017
 20
-1.061077809980327
 10
0.0525836388219976
 20
-1.059171743190137
 10
0.0736555879386365
 20
-1.056305026781643
 10
0.0945444968965314
 20
-1.052483871536648
 10
0.1151966898901728
 20
-1.047716832501466
 10
0.1355588369113511
 20
-1.042014838465335
 10
0.1555780608038347
 20
-1.035391226501789
 10
0.1752020577328723
 20
-1.027861779078412
 10
0.1943792334979406
 20
-1.019444760428844
 10
0.2130588575024717
 20
-1.010160948077218
 10
0.2311912352865583
 20
-1.000033654689166
 10
0.231246019006442
 20
-1.000001285144223
  0
LINE
  5
1B9
330
180
100
AcDbEntity
  8
AM_9
100
AcDbLine
 10
-0.2400711455779427
 20
-0.9946403746266546
 30
0.0
 11
-0.2312378354338445
 21
-1.000006121196141
 31
0.0
  0
LWPOLYLINE
  5
1BA
330
180
100
AcDbEntity
  8
AM_9
100
AcDbPolyline
 90
       21
 70
     0
 43
0.0
 10
-0.4199852943421207
 20
-0.6881622253658758
 10
-0.4198052753342576
 20
-0.6965057179979839
 10
-0.4186326867112447
 20
-0.7154669248196608
 10
-0.4164040183626229
 20
-0.7343418701898169
 10
-0.4131257508135375
 20
-0.753085135159613
 10
-0.4088063916784221
 20
-0.7716517221037327
 10
-0.4034564731163326
 20
-0.7899970377828535
 10
-0.3970885759822966
 20
-0.808076882740977
 10
-0.389717377415798
 20
-0.8258474530205204
 10
-0.3813597168271147
 20
-0.8432653600889086
 10
-0.3720346736477769
 20
-0.8602876738488737
 10
-0.3617636489390794
 20
-0.8768719921488171
 10
-0.3505704421717128
 20
-0.8929765383587762
 10
-0.3384813143525934
 20
-0.9085602864437217
 10
-0.3255250292813932
 20
-0.9235831107302778
 10
-0.3117328660816115
 20
-0.9380059554582891
 10
-0.2971385981759793
 20
-0.9517910174826301
 10
-0.2817784363654293
 20
-0.9649019343621443
 10
-0.265690936347645
 20
-0.9773039696875149
 10
-0.2489168735645381
 20
-0.9889641879000199
 10
-0.2400711455779427
 20
-0.9946403746266546
  0
LINE
  5
1BB
330
180
100
AcDbEntity
  8
AM_9
100
AcDbLine
 10
-0.4199998958416941
 20
-0.6852661346258786
 30
0.0
 11
-0.4199922499096549
 21
-0.687295650663813
 31
0.0
  0
LINE
  5
1BC
330
180
100
AcDbEntity
  8
AM_9
100
AcDbLine
 10
-0.4237499999999998
 20
0.9364293886887577
 30
0.0
 11
0.42375
 21
0.9364293886887577
 31
0.0
  0
LINE
  5
1BD
330
180
100
AcDbEntity
  8
AM_9
100
AcDbLine
 10
0.42375
 20
-0.9364293886887577
 30
0.0
 11
0.42375
 21
0.9364293886887577
 31
0.0
  0
LINE
  5
1BE
330
180
100
AcDbEntity
  8
AM_9
100
AcDbLine
 10
0.42375
 20
0.9364293886887577
 30
0.0
 11
0.45135
 21
0.8955656089868567
 31
0.0
  0
LWPOLYLINE
  5
1BF
330
180
100
AcDbEntity
  8
AM_9
100
AcDbPolyline
 90
       12
 70
     0
 43
0.0
 10
0.42
 20
-0.6849999999999996
 10
0.4199229064538783
 20
-0.6919570054674594
 10
0.4179303819968102
 20
-0.7207255610187391
 10
0.4132675475738994
 20
-0.7488403873737403
 10
0.4057132932405063
 20
-0.7768961668687347
 10
0.3954395150418329
 20
-0.8038944632162901
 10
0.3828998616765317
 20
-0.8290062002405844
 10
0.3679578107692248
 20
-0.8528474900299708
 10
0.3502158579472625
 20
-0.8758947696457594
 10
0.3301746690652604
 20
-0.8973988609319055
 10
0.3073938973558189
 20
-0.9177406520491457
 10
0.2823059323761999
 20
-0.9364293886887581
  0
LWPOLYLINE
  5
1C0
330
180
100
AcDbEntity
  8
AM_9
100
AcDbPolyline
 90
        4
 70
     0
 43
0.0
 10
0.2823059323762003
 20
-0.936429388688758
 10
0.2541287088628778
 20
-0.9634739097189025
 10
0.2240174124279991
 20
-0.9875797966967904
 10
0.193231533341344
 20
-1.007949192431123
  0
ELLIPSE
  5
1C1
330
180
100
AcDbEntity
  8
AM_9
100
AcDbEllipse
 10
-0.0000000000000007
 20
-0.6849999999999995
 30
0.0
 11
0.4200000000000007
 21
0.0
 31
0.0
210
0.0
220
0.0
230
1.0
 40
0.8660254037844389
 41
5.23598775598299
 42
6.283185307179586
  0
ELLIPSE
  5
1C2
330
180
100
AcDbEntity
  8
AM_9
100
AcDbEllipse
 10
-0.0000000000000341
 20
-0.6850000000020501
 30
0.0
 11
0.4200000000000653
 21
6.258487701416991E-9
 31
0.0
210
0.0
220
0.0
230
1.0
 40
0.8660254037800862
 41
-1.092716583661384
 42
-1.04719756517607
  0
ELLIPSE
  5
1C3
330
180
100
AcDbEntity
  8
AM_9
100
AcDbEllipse
 10
-0.0000000000000399
 20
-0.6850000000003527
 30
0.0
 11
0.4199999999999096
 21
0.0
 31
0.0
210
0.0
220
0.0
230
1.0
 40
0.8660254037838462
 41
4.206410251942007
 42
4.234309223436405
  0
ELLIPSE
  5
1C4
330
180
100
AcDbEntity
  8
AM_9
100
AcDbEllipse
 10
0.0000000000008711
 20
-0.6849999999990961
 30
0.0
 11
0.4200000000017777
 21
0.0
 31
0.0
210
0.0
220
0.0
230
1.0
 40
0.8660254037835279
 41
4.10718654099208
 42
4.206410251941941
  0
ELLIPSE
  5
1C5
330
180
100
AcDbEntity
  8
AM_9
100
AcDbEllipse
 10
0.0000000000000002
 20
-0.6849999999999997
 30
0.0
 11
0.4200000000000003
 21
0.0
 31
0.0
210
0.0
220
0.0
230
1.0
 40
0.866025403784439
 41
3.141592653589793
 42
4.107186540991879
  0
LWPOLYLINE
  5
1C6
330
180
100
AcDbEntity
  8
AM_9
100
AcDbPolyline
 90
        4
 70
     0
 43
0.0
 10
-0.1932315333413444
 20
-1.007949192431123
 10
-0.2249974427396443
 20
-0.9868640471599083
 10
-0.255050985741525
 20
-0.9626622547671597
 10
-0.2823059323762007
 20
-0.9364293886887577
  0
LWPOLYLINE
  5
1C7
330
180
100
AcDbEntity
  8
AM_9
100
AcDbPolyline
 90
       11
 70
     0
 43
0.0
 10
-0.2823059323762002
 20
-0.936429388688758
 10
-0.3070050888992977
 20
-0.9180572394181054
 10
-0.3297630141973567
 20
-0.8978010792536114
 10
-0.3506681455875307
 20
-0.8753638995787852
 10
-0.3691884612197763
 20
-0.8510641886581191
 10
-0.3845215599461685
 20
-0.8260840395260176
 10
-0.3973102442096376
 20
-0.7995415497850427
 10
-0.4075254561075287
 20
-0.7711037105076904
 10
-0.4147925525094179
 20
-0.7413057744746467
 10
-0.4186865164527832
 20
-0.7135426556582535
 10
-0.4200000000000001
 20
-0.6849999999999996
  0
LINE
  5
1C8
330
180
100
AcDbEntity
  8
AM_9
100
AcDbLine
 10
-0.2389499999999999
 20
-1.020541938819218
 30
0.0
 11
0.45135
 21
-1.020541938819218
 31
0.0
  0
LINE
  5
1C9
330
180
100
AcDbEntity
  8
AM_9
100
AcDbLine
 10
-0.2389499999999999
 20
-1.0736
 30
0.0
 11
0.45135
 21
-1.0736
 31
0.0
  0
LINE
  5
1CA
330
180
100
AcDbEntity
  8
AM_9
100
AcDbLine
 10
-0.2389499999999999
 20
-1.0736
 30
0.0
 11
-0.2389499999999999
 21
-0.9678046543021424
 31
0.0
  0
LINE
  5
1CB
330
180
100
AcDbEntity
  8
AM_9
100
AcDbLine
 10
-0.2389499999999999
 20
1.020541938819218
 30
0.0
 11
0.45135
 21
1.020541938819218
 31
0.0
  0
LINE
  5
1CC
330
180
100
AcDbEntity
  8
AM_9
100
AcDbLine
 10
-0.2389499999999999
 20
0.9678046543021424
 30
0.0
 11
-0.2389499999999999
 21
1.0736
 31
0.0
  0
LINE
  5
1CD
330
180
100
AcDbEntity
  8
AM_9
100
AcDbLine
 10
0.1303030303030275
 20
1.0736
 30
0.0
 11
-0.2389499999999999
 21
1.0736
 31
0.0
  0
LINE
  5
1CE
330
180
100
AcDbEntity
  8
AM_9
100
AcDbLine
 10
0.45135
 20
1.0736
 30
0.0
 11
0.1896969696969725
 21
1.0736
 31
0.0
  0
LINE
  5
1CF
330
180
100
AcDbEntity
  8
AM_9
100
AcDbLine
 10
-0.2389499999999999
 20
0.9678046543021424
 30
0.0
 11
0.4513499999999998
 21
0.9678046543021424
 31
0.0
  0
LINE
  5
1D0
330
180
100
AcDbEntity
  8
AM_9
100
AcDbLine
 10
0.4513499999999998
 20
-0.9678046543021424
 30
0.0
 11
-0.2389499999999999
 21
-0.9678046543021424
 31
0.0
  0
LINE
  5
1D1
330
180
100
AcDbEntity
  8
AM_9
100
AcDbLine
 10
-0.4513500000000001
 20
-1.0236
 30
0.0
 11
-0.2389499999999999
 21
-1.0236
 31
0.0
  0
LINE
  5
1D2
330
180
100
AcDbEntity
  8
AM_9
100
AcDbLine
 10
-0.2389499999999999
 20
1.0236
 30
0.0
 11
-0.45135
 21
1.0236
 31
0.0
  0
LINE
  5
1D3
330
180
100
AcDbEntity
  8
AM_9
100
AcDbLine
 10
0.45135
 20
-0.5219034177891537
 30
0.0
 11
0.4513500000000001
 21
0.5219034177891533
 31
0.0
  0
LINE
  5
1D4
330
180
100
AcDbEntity
  8
AM_9
100
AcDbLine
 10
-0.45135
 20
0.5219034177891534
 30
0.0
 11
-0.45135
 21
-0.5219034177891534
 31
0.0
  0
LINE
  5
1D5
330
180
100
AcDbEntity
  8
AM_9
100
AcDbLine
 10
-0.45135
 20
-0.6019000000000007
 30
0.0
 11
0.4513500000000001
 21
-0.6019000000000007
 31
0.0
  0
LINE
  5
1D6
330
180
100
AcDbEntity
  8
AM_9
100
AcDbLine
 10
-0.45135
 20
-0.655
 30
0.0
 11
0.4513500000000001
 21
-0.655
 31
0.0
  0
LINE
  5
1D7
330
180
100
AcDbEntity
  8
AM_9
100
AcDbLine
 10
-0.45135
 20
0.6019
 30
0.0
 11
0.4513500000000003
 21
0.6019
 31
0.0
  0
LINE
  5
1D8
330
180
100
AcDbEntity
  8
AM_9
100
AcDbLine
 10
-0.45135
 20
0.6550000000000001
 30
0.0
 11
0.4513500000000001
 21
0.6550000000000001
 31
0.0
  0
LINE
  5
1D9
330
180
100
AcDbEntity
  8
AM_7
100
AcDbLine
 10
0.0000000000000001
 20
-0.328125
 30
0.0
 11
0.0000000000000001
 21
0.328125
 31
0.0
  0
LINE
  5
1DA
330
180
100
AcDbEntity
  8
AM_4
100
AcDbLine
 10
0.2654999999999997
 20
-1.815
 30
0.0
 11
0.2654999999999999
 21
-1.4925
 31
0.0
  0
LWPOLYLINE
  5
1DB
330
180
100
AcDbEntity
  8
AM_4
100
AcDbPolyline
 90
       19
 70
     0
 43
0.0
 10
0.5309999999999997
 20
-1.7619
 10
0.5307979384686714
 20
-1.766527969939901
 10
0.5301932916849479
 20
-1.771120718234114
 10
0.5291906613759492
 20
-1.775643291294944
 10
0.5277976781637315
 20
-1.780061269610593
 10
0.5260249434916459
 20
-1.784341029698431
 10
0.5238859489409534
 20
-1.78845
 10
0.5213969735517452
 20
-1.79235690877024
 10
0.5185769599296175
 20
-1.796032022074355
 10
0.5154473700810054
 20
-1.799447370081006
 10
0.512032022074355
 20
-1.802576959929618
 10
0.5083569087702404
 20
-1.805396973551745
 10
0.5044499999999998
 20
-1.807885948940954
 10
0.500341029698431
 20
-1.810024943491646
 10
0.4960612696105929
 20
-1.811797678163731
 10
0.4916432912949438
 20
-1.813190661375949
 10
0.487120718234114
 20
-1.814193291684948
 10
0.4825279699399006
 20
-1.814797938468672
 10
0.4779
 20
-1.815
  0
LINE
  5
1DC
330
180
100
AcDbEntity
  8
AM_4
100
AcDbLine
 10
0.2654999999999997
 20
-1.815
 30
0.0
 11
0.4778999999999999
 21
-1.815
 31
0.0
  0
LINE
  5
1DD
330
180
100
AcDbEntity
  8
AM_4
100
AcDbLine
 10
0.45135
 20
-1.331249999999999
 30
0.0
 11
0.4513500000000001
 21
-0.5219034177891536
 31
0.0
  0
LINE
  5
1DE
330
180
100
AcDbEntity
  8
AM_4
100
AcDbLine
 10
-0.4513499999999999
 20
-0.5219034177891528
 30
0.0
 11
-0.4513500000000001
 21
-1.331249999999999
 31
0.0
  0
LINE
  5
1DF
330
180
100
AcDbEntity
  8
AM_4
100
AcDbLine
 10
-0.2655000000000001
 20
-1.4925
 30
0.0
 11
-0.2655000000000001
 21
-1.815
 31
0.0
  0
LINE
  5
1E0
330
180
100
AcDbEntity
  8
AM_4
100
AcDbLine
 10
0.5309999999999997
 20
-1.7619
 30
0.0
 11
0.5309999999999999
 21
-1.4109
 31
0.0
  0
LINE
  5
1E1
330
180
100
AcDbEntity
  8
AM_4
100
AcDbLine
 10
0.5309999999999999
 20
-1.4109
 30
0.0
 11
0.45135
 21
-1.331249999999999
 31
0.0
  0
LINE
  5
1E2
330
180
100
AcDbEntity
  8
AM_4
100
AcDbLine
 10
-0.4513500000000001
 20
-1.331249999999999
 30
0.0
 11
-0.5310000000000001
 21
-1.4109
 31
0.0
  0
LINE
  5
1E3
330
180
100
AcDbEntity
  8
AM_4
100
AcDbLine
 10
-0.5310000000000001
 20
-1.4109
 30
0.0
 11
-0.5310000000000001
 21
-1.7619
 31
0.0
  0
LINE
  5
1E4
330
180
100
AcDbEntity
  8
AM_4
100
AcDbLine
 10
0.2654999999999999
 20
-1.4925
 30
0.0
 11
-0.2655000000000001
 21
-1.4925
 31
0.0
  0
LINE
  5
1E5
330
180
100
AcDbEntity
  8
AM_4
100
AcDbLine
 10
0.5309999999999997
 20
-1.7619
 30
0.0
 11
0.2654999999999998
 21
-1.7619
 31
0.0
  0
LINE
  5
1E6
330
180
100
AcDbEntity
  8
AM_4
100
AcDbLine
 10
0.2655000000000001
 20
1.4925
 30
0.0
 11
0.2655
 21
1.815
 31
0.0
  0
LWPOLYLINE
  5
1E7
330
180
100
AcDbEntity
  8
AM_4
100
AcDbPolyline
 90
       19
 70
     0
 43
0.0
 10
0.4778999999999999
 20
1.815
 10
0.4825279699399005
 20
1.814797938468672
 10
0.487120718234114
 20
1.814193291684948
 10
0.4916432912949438
 20
1.813190661375949
 10
0.4960612696105929
 20
1.811797678163731
 10
0.5003410296984311
 20
1.810024943491646
 10
0.50445
 20
1.807885948940954
 10
0.5083569087702405
 20
1.805396973551745
 10
0.5120320220743553
 20
1.802576959929618
 10
0.5154473700810057
 20
1.799447370081005
 10
0.5185769599296178
 20
1.796032022074355
 10
0.5213969735517455
 20
1.79235690877024
 10
0.5238859489409537
 20
1.78845
 10
0.5260249434916462
 20
1.784341029698431
 10
0.5277976781637318
 20
1.780061269610593
 10
0.5291906613759496
 20
1.775643291294944
 10
0.5301932916849483
 20
1.771120718234114
 10
0.5307979384686717
 20
1.7665279699399
 10
0.5310000000000001
 20
1.7619
  0
LINE
  5
1E8
330
180
100
AcDbEntity
  8
AM_4
100
AcDbLine
 10
0.2655
 20
1.815
 30
0.0
 11
0.4778999999999999
 21
1.815
 31
0.0
  0
LINE
  5
1E9
330
180
100
AcDbEntity
  8
AM_4
100
AcDbLine
 10
-0.2654999999999998
 20
1.815
 30
0.0
 11
-0.2655
 21
1.4925
 31
0.0
  0
LINE
  5
1EA
330
180
100
AcDbEntity
  8
AM_4
100
AcDbLine
 10
-0.4779
 20
1.815
 30
0.0
 11
-0.2654999999999998
 21
1.815
 31
0.0
  0
LWPOLYLINE
  5
1EB
330
180
100
AcDbEntity
  8
AM_4
100
AcDbPolyline
 90
       19
 70
     0
 43
0.0
 10
-0.5309999999999999
 20
1.7619
 10
-0.5307979384686716
 20
1.766527969939901
 10
-0.5301932916849482
 20
1.771120718234114
 10
-0.5291906613759495
 20
1.775643291294944
 10
-0.5277976781637317
 20
1.780061269610593
 10
-0.5260249434916461
 20
1.784341029698431
 10
-0.5238859489409536
 20
1.78845
 10
-0.5213969735517454
 20
1.79235690877024
 10
-0.5185769599296177
 20
1.796032022074355
 10
-0.5154473700810056
 20
1.799447370081005
 10
-0.5120320220743553
 20
1.802576959929618
 10
-0.5083569087702405
 20
1.805396973551745
 10
-0.50445
 20
1.807885948940954
 10
-0.5003410296984312
 20
1.810024943491646
 10
-0.496061269610593
 20
1.811797678163731
 10
-0.4916432912949439
 20
1.813190661375949
 10
-0.4871207182341141
 20
1.814193291684948
 10
-0.4825279699399007
 20
1.814797938468672
 10
-0.4779000000000001
 20
1.815
  0
LINE
  5
1EC
330
180
100
AcDbEntity
  8
AM_4
100
AcDbLine
 10
-0.2655000000000001
 20
-1.7619
 30
0.0
 11
-0.5310000000000001
 21
-1.7619
 31
0.0
  0
LWPOLYLINE
  5
1ED
330
180
100
AcDbEntity
  8
AM_4
100
AcDbPolyline
 90
       19
 70
     0
 43
0.0
 10
-0.4778999999999998
 20
-1.815
 10
-0.4825279699399004
 20
-1.814797938468672
 10
-0.4871207182341137
 20
-1.814193291684948
 10
-0.4916432912949436
 20
-1.813190661375949
 10
-0.4960612696105928
 20
-1.811797678163731
 10
-0.5003410296984309
 20
-1.810024943491646
 10
-0.5044499999999998
 20
-1.807885948940954
 10
-0.5083569087702403
 20
-1.805396973551745
 10
-0.512032022074355
 20
-1.802576959929618
 10
-0.5154473700810055
 20
-1.799447370081006
 10
-0.5185769599296175
 20
-1.796032022074355
 10
-0.5213969735517453
 20
-1.792356908770241
 10
-0.5238859489409535
 20
-1.78845
 10
-0.526024943491646
 20
-1.784341029698431
 10
-0.5277976781637316
 20
-1.780061269610593
 10
-0.5291906613759494
 20
-1.775643291294944
 10
-0.5301932916849481
 20
-1.771120718234114
 10
-0.5307979384686715
 20
-1.766527969939901
 10
-0.5309999999999999
 20
-1.761900000791252
  0
LINE
  5
1EE
330
180
100
AcDbEntity
  8
AM_4
100
AcDbLine
 10
-0.4778999999999999
 20
-1.815
 30
0.0
 11
-0.2655000000000001
 21
-1.815
 31
0.0
  0
LINE
  5
1EF
330
180
100
AcDbEntity
  8
AM_4
100
AcDbLine
 10
0.4513500000000001
 20
0.5219034177891537
 30
0.0
 11
0.4513500000000001
 21
1.331249999999999
 31
0.0
  0
LINE
  5
1F0
330
180
100
AcDbEntity
  8
AM_4
100
AcDbLine
 10
-0.45135
 20
1.331249999999999
 30
0.0
 11
-0.45135
 21
0.5219034177891535
 31
0.0
  0
LINE
  5
1F1
330
180
100
AcDbEntity
  8
AM_4
100
AcDbLine
 10
0.4513500000000001
 20
1.331249999999999
 30
0.0
 11
0.5310000000000001
 21
1.4109
 31
0.0
  0
LINE
  5
1F2
330
180
100
AcDbEntity
  8
AM_4
100
AcDbLine
 10
0.5310000000000001
 20
1.4109
 30
0.0
 11
0.5310000000000002
 21
1.7619
 31
0.0
  0
LINE
  5
1F3
330
180
100
AcDbEntity
  8
AM_4
100
AcDbLine
 10
0.5310000000000002
 20
1.7619
 30
0.0
 11
0.2655
 21
1.7619
 31
0.0
  0
LINE
  5
1F4
330
180
100
AcDbEntity
  8
AM_4
100
AcDbLine
 10
-0.2655
 20
1.4925
 30
0.0
 11
0.2655000000000001
 21
1.4925
 31
0.0
  0
LINE
  5
1F5
330
180
100
AcDbEntity
  8
AM_4
100
AcDbLine
 10
-0.2655
 20
1.7619
 30
0.0
 11
-0.5309999999999997
 21
1.7619
 31
0.0
  0
LINE
  5
1F6
330
180
100
AcDbEntity
  8
AM_4
100
AcDbLine
 10
-0.5309999999999997
 20
1.7619
 30
0.0
 11
-0.5309999999999999
 21
1.4109
 31
0.0
  0
LINE
  5
1F7
330
180
100
AcDbEntity
  8
AM_4
100
AcDbLine
 10
-0.5309999999999999
 20
1.4109
 30
0.0
 11
-0.45135
 21
1.331249999999999
 31
0.0
  0
LINE
  5
1F8
330
180
100
AcDbEntity
  8
AM_4
100
AcDbLine
 10
-0.3982499999999999
 20
-1.0
 30
0.0
 11
0.3982500000000002
 21
-1.0
 31
0.0
  0
LWPOLYLINE
  5
1F9
330
180
100
AcDbEntity
  8
AM_4
100
AcDbPolyline
 90
       19
 70
     0
 43
0.0
 10
0.4513499999999998
 20
-0.9469000000000005
 10
0.4511479384686715
 20
-0.9515279699399012
 10
0.450543291684948
 20
-0.9561207182341144
 10
0.4495406613759493
 20
-0.9606432912949442
 10
0.4481476781637315
 20
-0.9650612696105934
 10
0.446374943491646
 20
-0.9693410296984314
 10
0.4442359489409535
 20
-0.9734500000000003
 10
0.4417469735517453
 20
-0.9773569087702407
 10
0.4389269599296176
 20
-0.9810320220743554
 10
0.4357973700810056
 20
-0.9844473700810059
 10
0.4323820220743552
 20
-0.9875769599296179
 10
0.4287069087702405
 20
-0.9903969735517456
 10
0.4248
 20
-0.9928859489409537
 10
0.4206910296984312
 20
-0.9950249434916462
 10
0.4164112696105932
 20
-0.9967976781637318
 10
0.4119932912949441
 20
-0.9981906613759496
 10
0.4074707182341142
 20
-0.9991932916849483
 10
0.4028779699399009
 20
-0.9997979384686717
 10
0.3982500000000003
 20
-1.0
  0
LWPOLYLINE
  5
1FA
330
180
100
AcDbEntity
  8
AM_4
100
AcDbPolyline
 90
       19
 70
     0
 43
0.0
 10
-0.3982499999999999
 20
-1.0
 10
-0.4028779699399005
 20
-0.9997979384686717
 10
-0.4074707182341138
 20
-0.9991932916849482
 10
-0.4119932912949436
 20
-0.9981906613759495
 10
-0.4164112696105927
 20
-0.9967976781637317
 10
-0.4206910296984309
 20
-0.9950249434916462
 10
-0.4247999999999997
 20
-0.9928859489409537
 10
-0.4287069087702402
 20
-0.9903969735517455
 10
-0.4323820220743548
 20
-0.9875769599296178
 10
-0.4357973700810052
 20
-0.9844473700810057
 10
-0.4389269599296173
 20
-0.9810320220743554
 10
-0.441746973551745
 20
-0.9773569087702407
 10
-0.4442359489409532
 20
-0.9734500000000003
 10
-0.4463749434916456
 20
-0.9693410296984314
 10
-0.4481476781637312
 20
-0.9650612696105934
 10
-0.449540661375949
 20
-0.9606432912949442
 10
-0.4505432916849478
 20
-0.9561207182341144
 10
-0.4511479384686712
 20
-0.951527969939901
 10
-0.4513499999999995
 20
-0.9469000000000005
  0
CIRCLE
  5
1FB
330
180
100
AcDbEntity
  8
AM_4
100
AcDbCircle
 10
0.0000000000000001
 20
0.0
 30
0.0
 40
0.3125
  0
ARC
  5
1FC
330
180
100
AcDbEntity
  8
AM_4
100
AcDbCircle
 10
0.0
 20
0.0000000000000002
 30
0.0
 40
0.6900000000000001
100
AcDbArc
 50
310.8537477580518
 51
49.14625224194816
  0
ARC
  5
1FD
330
180
100
AcDbEntity
  8
AM_4
100
AcDbCircle
 10
-0.0000000000000007
 20
0.0000000000000004
 30
0.0
 40
0.6899999999999991
100
AcDbArc
 50
130.8537477580518
 51
229.1462522419482
  0
LINE
  5
1FE
330
180
100
AcDbEntity
  8
AM_4
100
AcDbLine
 10
0.4513500000000001
 20
-0.9469000000000001
 30
0.0
 11
-0.4513499999999999
 21
-0.9469
 31
0.0
  0
LINE
  5
1FF
330
180
100
AcDbEntity
  8
AM_4
100
AcDbLine
 10
-0.3982499999999991
 20
1.0
 30
0.0
 11
0.3982500000000003
 21
1.0
 31
0.0
  0
LWPOLYLINE
  5
200
330
180
100
AcDbEntity
  8
AM_4
100
AcDbPolyline
 90
       19
 70
     0
 43
0.0
 10
-0.4513499999999995
 20
0.9468999953862499
 10
-0.451147938870786
 20
0.9515279653437072
 10
-0.4505432924861171
 20
0.956120713690457
 10
-0.4495406625700755
 20
0.9606432868384033
 10
-0.4481476797417268
 20
0.965061265275086
 10
-0.4463749454415008
 20
0.9693410255169532
 10
-0.4442359512478284
 20
0.9734499960043749
 10
-0.4417469761980835
 20
0.9773569049908775
 10
-0.4389269628952789
 20
0.9810320185400173
 10
-0.4357973733434195
 20
0.9844473668185914
 10
-0.4323820256086927
 20
0.987576956963956
 10
-0.4287069125496033
 20
0.9903969709054068
 10
-0.4248000039956248
 20
0.9928859466340784
 10
-0.4206910338799088
 20
0.9950249415417907
 10
-0.4164112739460999
 20
0.9967976765857359
 10
-0.4119932957514844
 20
0.9981906601818228
 10
-0.407470722777771
 20
0.9991932908837787
 10
-0.4028779745360943
 20
0.9997979380665566
 10
-0.3982500046137504
 20
0.9999999999999997
  0
LINE
  5
201
330
180
100
AcDbEntity
  8
AM_4
100
AcDbLine
 10
0.4513500000000001
 20
0.9469000000000004
 30
0.0
 11
-0.4513499999999998
 21
0.9469000000000001
 31
0.0
  0
LWPOLYLINE
  5
202
330
180
100
AcDbEntity
  8
AM_4
100
AcDbPolyline
 90
       19
 70
     0
 43
0.0
 10
0.3982499999999999
 20
1.0
 10
0.4028779699399005
 20
0.9997979384686717
 10
0.4074707182341139
 20
0.9991932916849482
 10
0.4119932912949437
 20
0.9981906613759496
 10
0.4164112696105929
 20
0.9967976781637318
 10
0.420691029698431
 20
0.9950249434916463
 10
0.4247999999999998
 20
0.9928859489409539
 10
0.4287069087702403
 20
0.9903969735517457
 10
0.432382022074355
 20
0.987576959929618
 10
0.4357973700810055
 20
0.984447370081006
 10
0.4389269599296176
 20
0.9810320220743557
 10
0.4417469735517453
 20
0.9773569087702411
 10
0.4442359489409535
 20
0.9734500000000005
 10
0.446374943491646
 20
0.9693410296984316
 10
0.4481476781637316
 20
0.9650612696105936
 10
0.4495406613759494
 20
0.9606432912949445
 10
0.4505432916849482
 20
0.9561207182341147
 10
0.4511479384686717
 20
0.9515279699399013
 10
0.45135
 20
0.9469000033569966
  0
ENDBLK
  5
183
330
180
100
AcDbEntity
  8
0
100
AcDbBlockEnd
  0
ENDSEC
  0
SECTION
  2
ENTITIES
  0
INSERT
  5
6F
330
1F
100
AcDbEntity
  8
0
100
AcDbBlockReference
  2
1_125012_2
 10
0.0
 20
0.0
 30
0.0
  0
POINT
  5
204
330
1F
100
AcDbEntity
  8
ConnectionPoints
100
AcDbPoint
 10
-0.0000000000000001
 20
-0.735
 30
-1.273057343563125
  0
POINT
  5
205
330
1F
100
AcDbEntity
  8
ConnectionPoints
100
AcDbPoint
 10
-0.0000000000000001
 20
-0.735
 30
-1.273057343563125
  0
POINT
  5
206
330
1F
100
AcDbEntity
  8
ConnectionPoints
100
AcDbPoint
 10
-0.78
 20
0.0
 30
0.0
  0
ENDSEC
  0
SECTION
  2
OBJECTS
  0
DICTIONARY
  5
C
330
0
100
AcDbDictionary
281
     1
  3
ACAD_DETAILVIEWSTYLE
350
20E
  3
ACAD_GROUP
350
D
  3
ACAD_LAYOUT
350
1A
  3
ACAD_MATERIAL
350
43
  3
ACAD_MLEADERSTYLE
350
6B
  3
ACAD_MLINESTYLE
350
17
  3
ACAD_PLOTSETTINGS
350
19
  3
ACAD_PLOTSTYLENAME
350
E
  3
ACAD_SCALELIST
350
47
  3
ACAD_SECTIONVIEWSTYLE
350
20F
  3
ACAD_TABLESTYLE
350
69
  3
ACAD_VISUALSTYLE
350
2A
  3
ACDB_RECOMPOSE_DATA
350
20B
  3
AcDbVariableDictionary
350
207
  0
SUN
  5
6D
330
29
100
AcDbSun
 90
        1
290
     0
 63
     7
421
 16777215
 40
1.0
291
     1
 91
  2455826
 92
 54000000
292
     0
 70
     2
 71
   256
280
     1
  0
DICTIONARY
  5
20E
102
{ACAD_REACTORS
330
C
102
}
330
C
100
AcDbDictionary
281
     1
  0
DICTIONARY
  5
D
102
{ACAD_REACTORS
330
C
102
}
330
C
100
AcDbDictionary
281
     1
  0
DICTIONARY
  5
1A
102
{ACAD_REACTORS
330
C
102
}
330
C
100
AcDbDictionary
281
     1
  3
Layout1
350
1E
  3
Layout2
350
26
  3
Model
350
22
  0
DICTIONARY
  5
43
102
{ACAD_REACTORS
330
C
102
}
330
C
100
AcDbDictionary
281
     1
  3
ByBlock
350
45
  3
ByLayer
350
44
  3
Global
350
46
  0
DICTIONARY
  5
6B
102
{ACAD_REACTORS
330
C
102
}
330
C
100
AcDbDictionary
281
     1
  3
Standard
350
6C
  0
DICTIONARY
  5
17
102
{ACAD_REACTORS
330
C
102
}
330
C
100
AcDbDictionary
281
     1
  3
Standard
350
18
  0
DICTIONARY
  5
19
102
{ACAD_REACTORS
330
C
102
}
330
C
100
AcDbDictionary
281
     1
  0
ACDBDICTIONARYWDFLT
  5
E
102
{ACAD_REACTORS
330
C
102
}
330
C
100
AcDbDictionary
281
     1
  3
Normal
350
F
100
AcDbDictionaryWithDefault
340
F
  0
DICTIONARY
  5
47
102
{ACAD_REACTORS
330
C
102
}
330
C
100
AcDbDictionary
281
     1
  3
A0
350
48
  3
A1
350
49
  3
A2
350
4A
  3
A3
350
4B
  3
A4
350
4C
  3
A5
350
4D
  3
A6
350
4E
  3
A7
350
4F
  3
A8
350
50
  3
A9
350
51
  3
B0
350
52
  3
B1
350
53
  3
B2
350
54
  3
B3
350
55
  3
B4
350
56
  3
B5
350
57
  3
B6
350
58
  3
B7
350
59
  3
B8
350
5A
  3
B9
350
5B
  3
C0
350
5C
  3
C1
350
5D
  3
C2
350
5E
  3
C3
350
5F
  3
C4
350
60
  3
C5
350
61
  3
C6
350
62
  3
C7
350
63
  3
C8
350
64
  3
C9
350
65
  3
D0
350
66
  3
D1
350
67
  3
D2
350
68
  0
DICTIONARY
  5
20F
102
{ACAD_REACTORS
330
C
102
}
330
C
100
AcDbDictionary
281
     1
  0
DICTIONARY
  5
69
102
{ACAD_REACTORS
330
C
102
}
330
C
100
AcDbDictionary
281
     1
  3
Standard
350
6A
  0
DICTIONARY
  5
2A
102
{ACAD_REACTORS
330
C
102
}
330
C
100
AcDbDictionary
281
     1
  3
2dWireframe
350
2F
  3
Basic
350
32
  3
Brighten
350
36
  3
ColorChange
350
3A
  3
Conceptual
350
34
  3
Dim
350
35
  3
EdgeColorOff
350
3D
  3
Facepattern
350
39
  3
Flat
350
2B
  3
FlatWithEdges
350
2C
  3
Gouraud
350
2D
  3
GouraudWithEdges
350
2E
  3
Hidden
350
31
  3
JitterOff
350
3B
  3
Linepattern
350
38
  3
OverhangOff
350
3C
  3
Realistic
350
33
  3
Shaded
350
42
  3
Shaded with edges
350
41
  3
Shades of Gray
350
3E
  3
Sketchy
350
3F
  3
Thicken
350
37
  3
Wireframe
350
30
  3
X-Ray
350
40
  0
XRECORD
  5
20B
102
{ACAD_REACTORS
330
C
102
}
330
C
100
AcDbXrecord
280
     1
 90
        1
330
6A
  0
DICTIONARY
  5
207
102
{ACAD_REACTORS
330
C
102
}
330
C
100
AcDbDictionary
281
     1
  3
CANNOSCALE
350
208
  3
CMLEADERSTYLE
350
20D
  3
CTABLESTYLE
350
20C
  0
LAYOUT
  5
1E
102
{ACAD_REACTORS
330
1A
102
}
330
1A
100
AcDbPlotSettings
  1

  2
none_device
  4

  6

 40
0.0
 41
0.0
 42
0.0
 43
0.0
 44
0.0
 45
0.0
 46
0.0
 47
0.0
 48
0.0
 49
0.0
140
0.0
141
0.0
142
1.0
143
1.0
 70
   688
 72
     0
 73
     0
 74
     5
  7

 75
    16
 76
     0
 77
     2
 78
   300
147
1.0
148
0.0
149
0.0
100
AcDbLayout
  1
Layout1
 70
     1
 71
     1
 10
0.0
 20
0.0
 11
12.0
 21
9.0
 12
0.0
 22
0.0
 32
0.0
 14
1.000000000000000E+20
 24
1.000000000000000E+20
 34
1.000000000000000E+20
 15
-1.000000000000000E+20
 25
-1.000000000000000E+20
 35
-1.000000000000000E+20
146
0.0
 13
0.0
 23
0.0
 33
0.0
 16
1.0
 26
0.0
 36
0.0
 17
0.0
 27
1.0
 37
0.0
 76
     0
330
1B
  0
LAYOUT
  5
26
102
{ACAD_REACTORS
330
1A
102
}
330
1A
100
AcDbPlotSettings
  1

  2
none_device
  4

  6

 40
0.0
 41
0.0
 42
0.0
 43
0.0
 44
0.0
 45
0.0
 46
0.0
 47
0.0
 48
0.0
 49
0.0
140
0.0
141
0.0
142
1.0
143
1.0
 70
   688
 72
     0
 73
     0
 74
     5
  7

 75
    16
 76
     0
 77
     2
 78
   300
147
1.0
148
0.0
149
0.0
100
AcDbLayout
  1
Layout2
 70
     1
 71
     2
 10
0.0
 20
0.0
 11
0.0
 21
0.0
 12
0.0
 22
0.0
 32
0.0
 14
0.0
 24
0.0
 34
0.0
 15
0.0
 25
0.0
 35
0.0
146
0.0
 13
0.0
 23
0.0
 33
0.0
 16
1.0
 26
0.0
 36
0.0
 17
0.0
 27
1.0
 37
0.0
 76
     0
330
23
  0
LAYOUT
  5
22
102
{ACAD_REACTORS
330
1A
102
}
330
1A
100
AcDbPlotSettings
  1

  2
none_device
  4
Letter_(8.50_x_11.00_Inches)
  6

 40
6.35
 41
6.35
 42
6.35000508
 43
6.35000508
 44
215.9
 45
279.4
 46
0.0
 47
0.0
 48
0.0
 49
0.0
140
0.0
141
0.0
142
1.0
143
1.0
 70
  1712
 72
     0
 73
     0
 74
     0
  7

 75
     0
 76
     0
 77
     2
 78
   300
147
1.0
148
0.0
149
0.0
100
AcDbLayout
  1
Model
 70
     1
 71
     0
 10
0.0
 20
0.0
 11
12.0
 21
9.0
 12
0.0
 22
0.0
 32
0.0
 14
1.000000000000000E+20
 24
1.000000000000000E+20
 34
1.000000000000000E+20
 15
-1.000000000000000E+20
 25
-1.000000000000000E+20
 35
-1.000000000000000E+20
146
0.0
 13
0.0
 23
0.0
 33
0.0
 16
1.0
 26
0.0
 36
0.0
 17
0.0
 27
1.0
 37
0.0
 76
     0
330
1F
331
29
  0
MATERIAL
  5
45
102
{ACAD_REACTORS
330
43
102
}
330
43
100
AcDbMaterial
  1
ByBlock
 72
     1
 94
      127
  0
MATERIAL
  5
44
102
{ACAD_REACTORS
330
43
102
}
330
43
100
AcDbMaterial
  1
ByLayer
 72
     1
 94
      127
  0
MATERIAL
  5
46
102
{ACAD_REACTORS
330
43
102
}
330
43
100
AcDbMaterial
  1
Global
 72
     1
 94
      127
  0
MLEADERSTYLE
  5
6C
102
{ACAD_REACTORS
330
6B
102
}
330
6B
100
AcDbMLeaderStyle
179
     2
170
     2
171
     1
172
     0
 90
        2
 40
0.0
 41
0.0
173
     1
 91
-1056964608
340
14
 92
       -2
290
     1
 42
0.09
291
     1
 43
0.36
  3
Standard
341
0
 44
0.18
300

342
11
174
     1
178
     6
175
     1
176
     0
 93
-1056964608
 45
0.18
292
     0
297
     0
 46
0.18
343
0
 94
-1056964608
 47
1.0
 49
1.0
140
1.0
293
     1
141
0.0
294
     1
177
     0
142
1.0
295
     0
296
     0
143
0.125
271
     0
272
     9
273
     9
298
     0
  0
MLINESTYLE
  5
18
102
{ACAD_REACTORS
330
17
102
}
330
17
100
AcDbMlineStyle
  2
Standard
 70
     0
  3

 62
   256
 51
90.0
 52
90.0
 71
     2
 49
0.5
 62
   256
  6
BYLAYER
 49
-0.5
 62
   256
  6
BYLAYER
  0
ACDBPLACEHOLDER
  5
F
102
{ACAD_REACTORS
330
E
102
}
330
E
  0
SCALE
  5
48
102
{ACAD_REACTORS
330
47
102
}
330
47
100
AcDbScale
 70
     0
300
1:1
140
1.0
141
1.0
290
     1
  0
SCALE
  5
49
102
{ACAD_REACTORS
330
47
102
}
330
47
100
AcDbScale
 70
     0
300
1:2
140
1.0
141
2.0
290
     0
  0
SCALE
  5
4A
102
{ACAD_REACTORS
330
47
102
}
330
47
100
AcDbScale
 70
     0
300
1:4
140
1.0
141
4.0
290
     0
  0
SCALE
  5
4B
102
{ACAD_REACTORS
330
47
102
}
330
47
100
AcDbScale
 70
     0
300
1:5
140
1.0
141
5.0
290
     0
  0
SCALE
  5
4C
102
{ACAD_REACTORS
330
47
102
}
330
47
100
AcDbScale
 70
     0
300
1:8
140
1.0
141
8.0
290
     0
  0
SCALE
  5
4D
102
{ACAD_REACTORS
330
47
102
}
330
47
100
AcDbScale
 70
     0
300
1:10
140
1.0
141
10.0
290
     0
  0
SCALE
  5
4E
102
{ACAD_REACTORS
330
47
102
}
330
47
100
AcDbScale
 70
     0
300
1:16
140
1.0
141
16.0
290
     0
  0
SCALE
  5
4F
102
{ACAD_REACTORS
330
47
102
}
330
47
100
AcDbScale
 70
     0
300
1:20
140
1.0
141
20.0
290
     0
  0
SCALE
  5
50
102
{ACAD_REACTORS
330
47
102
}
330
47
100
AcDbScale
 70
     0
300
1:30
140
1.0
141
30.0
290
     0
  0
SCALE
  5
51
102
{ACAD_REACTORS
330
47
102
}
330
47
100
AcDbScale
 70
     0
300
1:40
140
1.0
141
40.0
290
     0
  0
SCALE
  5
52
102
{ACAD_REACTORS
330
47
102
}
330
47
100
AcDbScale
 70
     0
300
1:50
140
1.0
141
50.0
290
     0
  0
SCALE
  5
53
102
{ACAD_REACTORS
330
47
102
}
330
47
100
AcDbScale
 70
     0
300
1:100
140
1.0
141
100.0
290
     0
  0
SCALE
  5
54
102
{ACAD_REACTORS
330
47
102
}
330
47
100
AcDbScale
 70
     0
300
2:1
140
2.0
141
1.0
290
     0
  0
SCALE
  5
55
102
{ACAD_REACTORS
330
47
102
}
330
47
100
AcDbScale
 70
     0
300
4:1
140
4.0
141
1.0
290
     0
  0
SCALE
  5
56
102
{ACAD_REACTORS
330
47
102
}
330
47
100
AcDbScale
 70
     0
300
8:1
140
8.0
141
1.0
290
     0
  0
SCALE
  5
57
102
{ACAD_REACTORS
330
47
102
}
330
47
100
AcDbScale
 70
     0
300
10:1
140
10.0
141
1.0
290
     0
  0
SCALE
  5
58
102
{ACAD_REACTORS
330
47
102
}
330
47
100
AcDbScale
 70
     0
300
100:1
140
100.0
141
1.0
290
     0
  0
SCALE
  5
59
102
{ACAD_REACTORS
330
47
102
}
330
47
100
AcDbScale
 70
     0
300
1/128" = 1'-0"
140
0.0078125
141
12.0
290
     0
  0
SCALE
  5
5A
102
{ACAD_REACTORS
330
47
102
}
330
47
100
AcDbScale
 70
     0
300
1/64" = 1'-0"
140
0.015625
141
12.0
290
     0
  0
SCALE
  5
5B
102
{ACAD_REACTORS
330
47
102
}
330
47
100
AcDbScale
 70
     0
300
1/32" = 1'-0"
140
0.03125
141
12.0
290
     0
  0
SCALE
  5
5C
102
{ACAD_REACTORS
330
47
102
}
330
47
100
AcDbScale
 70
     0
300
1/16" = 1'-0"
140
0.0625
141
12.0
290
     0
  0
SCALE
  5
5D
102
{ACAD_REACTORS
330
47
102
}
330
47
100
AcDbScale
 70
     0
300
3/32" = 1'-0"
140
0.09375
141
12.0
290
     0
  0
SCALE
  5
5E
102
{ACAD_REACTORS
330
47
102
}
330
47
100
AcDbScale
 70
     0
300
1/8" = 1'-0"
140
0.125
141
12.0
290
     0
  0
SCALE
  5
5F
102
{ACAD_REACTORS
330
47
102
}
330
47
100
AcDbScale
 70
     0
300
3/16" = 1'-0"
140
0.1875
141
12.0
290
     0
  0
SCALE
  5
60
102
{ACAD_REACTORS
330
47
102
}
330
47
100
AcDbScale
 70
     0
300
1/4" = 1'-0"
140
0.25
141
12.0
290
     0
  0
SCALE
  5
61
102
{ACAD_REACTORS
330
47
102
}
330
47
100
AcDbScale
 70
     0
300
3/8" = 1'-0"
140
0.375
141
12.0
290
     0
  0
SCALE
  5
62
102
{ACAD_REACTORS
330
47
102
}
330
47
100
AcDbScale
 70
     0
300
1/2" = 1'-0"
140
0.5
141
12.0
290
     0
  0
SCALE
  5
63
102
{ACAD_REACTORS
330
47
102
}
330
47
100
AcDbScale
 70
     0
300
3/4" = 1'-0"
140
0.75
141
12.0
290
     0
  0
SCALE
  5
64
102
{ACAD_REACTORS
330
47
102
}
330
47
100
AcDbScale
 70
     0
300
1" = 1'-0"
140
1.0
141
12.0
290
     0
  0
SCALE
  5
65
102
{ACAD_REACTORS
330
47
102
}
330
47
100
AcDbScale
 70
     0
300
1-1/2" = 1'-0"
140
1.5
141
12.0
290
     0
  0
SCALE
  5
66
102
{ACAD_REACTORS
330
47
102
}
330
47
100
AcDbScale
 70
     0
300
3" = 1'-0"
140
3.0
141
12.0
290
     0
  0
SCALE
  5
67
102
{ACAD_REACTORS
330
47
102
}
330
47
100
AcDbScale
 70
     0
300
6" = 1'-0"
140
6.0
141
12.0
290
     0
  0
SCALE
  5
68
102
{ACAD_REACTORS
330
47
102
}
330
47
100
AcDbScale
 70
     0
300
1'-0" = 1'-0"
140
12.0
141
12.0
290
     0
  0
TABLESTYLE
  5
6A
102
{ACAD_REACTORS
330
69
102
}
102
{ACAD_XDICTIONARY
360
209
102
}
330
69
100
AcDbTableStyle
  3
Standard
 70
     0
 71
     0
 40
0.06
 41
0.06
280
     0
281
     0
  7
Standard
140
0.18
170
     2
 62
     0
 63
   257
283
     0
 90
        4
 91
        0
  1

274
    -2
284
     1
 64
     0
275
    -2
285
     1
 65
     0
276
    -2
286
     1
 66
     0
277
    -2
287
     1
 67
     0
278
    -2
288
     1
 68
     0
279
    -2
289
     1
 69
     0
  7
Standard
140
0.25
170
     5
 62
     0
 63
   257
283
     0
 90
        4
 91
        0
  1

274
    -2
284
     1
 64
     0
275
    -2
285
     1
 65
     0
276
    -2
286
     1
 66
     0
277
    -2
287
     1
 67
     0
278
    -2
288
     1
 68
     0
279
    -2
289
     1
 69
     0
  7
Standard
140
0.18
170
     5
 62
     0
 63
   257
283
     0
 90
        4
 91
        0
  1

274
    -2
284
     1
 64
     0
275
    -2
285
     1
 65
     0
276
    -2
286
     1
 66
     0
277
    -2
287
     1
 67
     0
278
    -2
288
     1
 68
     0
279
    -2
289
     1
 69
     0
  0
VISUALSTYLE
  5
2F
102
{ACAD_REACTORS
330
2A
102
}
330
2A
100
AcDbVisualStyle
  2
2dWireframe
 70
     4
177
     3
291
     0
 70
    58
 90
        0
176
     1
 90
        2
176
     1
 90
        0
176
     1
 90
        0
176
     1
 40
0.6
176
     1
 40
30.0
176
     1
 62
     7
420
 16777215
176
     1
 90
        1
176
     1
 90
        4
176
     1
 62
     7
176
     1
 62
   257
176
     1
 90
        1
176
     1
 90
        1
176
     1
 40
1.0
176
     1
 90
        0
176
     1
 62
   257
176
     1
 40
1.0
176
     1
 90
        1
176
     1
 90
        6
176
     1
 90
        2
176
     1
 62
     7
176
     1
 90
        5
176
     1
 90
        0
176
     1
 90
        0
176
     1
290
     0
176
     1
 90
        1
176
     1
 40
0.0
176
     1
 90
        0
176
     1
290
     1
176
     1
290
     1
176
     1
290
     0
176
     1
290
     0
176
     1
290
     0
176
     1
290
     0
176
     1
290
     0
176
     1
290
     0
176
     1
290
     0
176
     1
 90
       50
176
     1
 40
0.0
176
     1
 40
1.0
176
     1
 90
        0
176
     1
 62
    18
420
        0
176
     1
 90
       50
176
     1
 90
        3
176
     1
 62
     5
420
      255
176
     1
290
     0
176
     1
 90
       50
176
     1
 90
       50
176
     1
 90
       50
176
     1
290
     0
176
     1
 90
       50
176
     1
 62
   256
176
     0
 40
1.0
176
     0
 90
        2
176
     1
  1
strokes_ogs.tif
176
     1
290
     0
176
     1
 40
1.0
176
     1
 40
1.0
176
     1
  0
VISUALSTYLE
  5
32
102
{ACAD_REACTORS
330
2A
102
}
330
2A
100
AcDbVisualStyle
  2
Basic
 70
     7
177
     3
291
     1
 70
    58
 90
        1
176
     1
 90
        0
176
     1
 90
        1
176
     1
 90
        0
176
     1
 40
0.6
176
     1
 40
30.0
176
     1
 62
     7
420
 16777215
176
     1
 90
        0
176
     1
 90
        4
176
     1
 62
     7
176
     1
 62
   257
176
     1
 90
        1
176
     1
 90
        1
176
     1
 40
1.0
176
     1
 90
        8
176
     1
 62
     7
176
     1
 40
1.0
176
     1
 90
        1
176
     1
 90
        6
176
     1
 90
        2
176
     1
 62
     7
176
     1
 90
        5
176
     1
 90
        0
176
     1
 90
        0
176
     1
290
     0
176
     1
 90
        1
176
     1
 40
0.0
176
     1
 90
        0
176
     1
290
     0
176
     1
290
     1
176
     1
290
     1
176
     1
290
     0
176
     1
290
     0
176
     1
290
     0
176
     1
290
     0
176
     1
290
     0
176
     1
290
     0
176
     1
 90
       50
176
     1
 40
0.0
176
     1
 40
1.0
176
     1
 90
        0
176
     1
 62
    18
420
        0
176
     1
 90
       50
176
     1
 90
        3
176
     1
 62
     5
420
      255
176
     1
290
     0
176
     1
 90
       50
176
     1
 90
       50
176
     1
 90
       50
176
     1
290
     0
176
     1
 90
       50
176
     1
 62
   256
176
     0
 40
1.0
176
     0
 90
        2
176
     1
  1
strokes_ogs.tif
176
     1
290
     0
176
     1
 40
1.0
176
     1
 40
1.0
176
     1
  0
VISUALSTYLE
  5
36
102
{ACAD_REACTORS
330
2A
102
}
330
2A
100
AcDbVisualStyle
  2
Brighten
 70
    12
177
     3
291
     1
 70
    58
 90
        2
176
     1
 90
        2
176
     1
 90
        0
176
     1
 90
        0
176
     1
 40
0.6
176
     1
 40
30.0
176
     1
 62
     7
420
 16777215
176
     1
 90
        1
176
     1
 90
        4
176
     1
 62
     7
176
     1
 62
   257
176
     1
 90
        1
176
     1
 90
        1
176
     1
 40
1.0
176
     1
 90
        8
176
     1
 62
     7
176
     1
 40
1.0
176
     1
 90
        1
176
     1
 90
        6
176
     1
 90
        2
176
     1
 62
     7
176
     1
 90
        5
176
     1
 90
        0
176
     1
 90
        0
176
     1
290
     0
176
     1
 90
        1
176
     1
 40
50.0
176
     1
 90
        0
176
     1
290
     0
176
     1
290
     1
176
     1
290
     1
176
     1
290
     0
176
     1
290
     0
176
     1
290
     0
176
     1
290
     0
176
     1
290
     0
176
     1
290
     0
176
     1
 90
       50
176
     1
 40
0.0
176
     1
 40
1.0
176
     1
 90
        0
176
     1
 62
    18
420
        0
176
     1
 90
       50
176
     1
 90
        3
176
     1
 62
     5
420
      255
176
     1
290
     0
176
     1
 90
       50
176
     1
 90
       50
176
     1
 90
       50
176
     1
290
     0
176
     1
 90
       50
176
     1
 62
   256
176
     0
 40
1.0
176
     0
 90
        2
176
     1
  1
strokes_ogs.tif
176
     1
290
     0
176
     1
 40
1.0
176
     1
 40
1.0
176
     1
  0
VISUALSTYLE
  5
3A
102
{ACAD_REACTORS
330
2A
102
}
330
2A
100
AcDbVisualStyle
  2
ColorChange
 70
    16
177
     3
291
     1
 70
    58
 90
        2
176
     1
 90
        2
176
     1
 90
        3
176
     1
 90
        0
176
     1
 40
0.6
176
     1
 40
30.0
176
     1
 62
     8
420
  8421504
176
     1
 90
        1
176
     1
 90
        4
176
     1
 62
     7
176
     1
 62
   257
176
     1
 90
        1
176
     1
 90
        1
176
     1
 40
1.0
176
     1
 90
        8
176
     1
 62
     8
420
  8421504
176
     1
 40
1.0
176
     1
 90
        1
176
     1
 90
        6
176
     1
 90
        2
176
     1
 62
     7
176
     1
 90
        5
176
     1
 90
        0
176
     1
 90
        0
176
     1
290
     0
176
     1
 90
        1
176
     1
 40
0.0
176
     1
 90
        0
176
     1
290
     0
176
     1
290
     1
176
     1
290
     1
176
     1
290
     0
176
     1
290
     0
176
     1
290
     0
176
     1
290
     0
176
     1
290
     0
176
     1
290
     0
176
     1
 90
       50
176
     1
 40
0.0
176
     1
 40
1.0
176
     1
 90
        0
176
     1
 62
    18
420
        0
176
     1
 90
       50
176
     1
 90
        3
176
     1
 62
     5
420
      255
176
     1
290
     0
176
     1
 90
       50
176
     1
 90
       50
176
     1
 90
       50
176
     1
290
     0
176
     1
 90
       50
176
     1
 62
   256
176
     0
 40
1.0
176
     0
 90
        2
176
     1
  1
strokes_ogs.tif
176
     1
290
     0
176
     1
 40
1.0
176
     1
 40
1.0
176
     1
  0
VISUALSTYLE
  5
34
102
{ACAD_REACTORS
330
2A
102
}
330
2A
100
AcDbVisualStyle
  2
Conceptual
 70
     9
177
     3
291
     0
 70
    58
 90
        3
176
     1
 90
        2
176
     1
 90
        0
176
     1
 90
        0
176
     1
 40
0.6
176
     1
 40
30.0
176
     1
 62
     7
420
 16777215
176
     1
 90
        2
176
     1
 90
        2
176
     1
 62
     7
176
     1
 62
   257
176
     1
 90
        1
176
     1
 90
        1
176
     1
 40
179.0
176
     1
 90
        8
176
     1
 62
     7
176
     1
 40
1.0
176
     1
 90
        1
176
     1
 90
        6
176
     1
 90
        2
176
     1
 62
     7
176
     1
 90
        3
176
     1
 90
        0
176
     1
 90
        0
176
     1
290
     0
176
     1
 90
        1
176
     1
 40
0.0
176
     1
 90
        0
176
     1
290
     0
176
     1
290
     1
176
     1
290
     1
176
     1
290
     0
176
     1
290
     0
176
     1
290
     0
176
     1
290
     0
176
     1
290
     0
176
     1
290
     0
176
     1
 90
       50
176
     1
 40
0.0
176
     1
 40
1.0
176
     1
 90
        0
176
     1
 62
    18
420
        0
176
     1
 90
       50
176
     1
 90
        3
176
     1
 62
     5
420
      255
176
     1
290
     0
176
     1
 90
       50
176
     1
 90
       50
176
     1
 90
       50
176
     1
290
     0
176
     1
 90
       50
176
     1
 62
   256
176
     0
 40
1.0
176
     0
 90
        2
176
     1
  1
strokes_ogs.tif
176
     1
290
     0
176
     1
 40
1.0
176
     1
 40
1.0
176
     1
  0
VISUALSTYLE
  5
35
102
{ACAD_REACTORS
330
2A
102
}
330
2A
100
AcDbVisualStyle
  2
Dim
 70
    11
177
     3
291
     1
 70
    58
 90
        2
176
     1
 90
        2
176
     1
 90
        0
176
     1
 90
        0
176
     1
 40
0.6
176
     1
 40
30.0
176
     1
 62
     7
420
 16777215
176
     1
 90
        1
176
     1
 90
        4
176
     1
 62
     7
176
     1
 62
   257
176
     1
 90
        1
176
     1
 90
        1
176
     1
 40
1.0
176
     1
 90
        8
176
     1
 62
     7
176
     1
 40
1.0
176
     1
 90
        1
176
     1
 90
        6
176
     1
 90
        2
176
     1
 62
     7
176
     1
 90
        5
176
     1
 90
        0
176
     1
 90
        0
176
     1
290
     0
176
     1
 90
        1
176
     1
 40
-50.0
176
     1
 90
        0
176
     1
290
     0
176
     1
290
     1
176
     1
290
     1
176
     1
290
     0
176
     1
290
     0
176
     1
290
     0
176
     1
290
     0
176
     1
290
     0
176
     1
290
     0
176
     1
 90
       50
176
     1
 40
0.0
176
     1
 40
1.0
176
     1
 90
        0
176
     1
 62
    18
420
        0
176
     1
 90
       50
176
     1
 90
        3
176
     1
 62
     5
420
      255
176
     1
290
     0
176
     1
 90
       50
176
     1
 90
       50
176
     1
 90
       50
176
     1
290
     0
176
     1
 90
       50
176
     1
 62
   256
176
     0
 40
1.0
176
     0
 90
        2
176
     1
  1
strokes_ogs.tif
176
     1
290
     0
176
     1
 40
1.0
176
     1
 40
1.0
176
     1
  0
VISUALSTYLE
  5
3D
102
{ACAD_REACTORS
330
2A
102
}
330
2A
100
AcDbVisualStyle
  2
EdgeColorOff
 70
    22
177
     3
291
     1
 70
    58
 90
        2
176
     0
 90
        2
176
     0
 90
        0
176
     0
 90
        0
176
     0
 40
0.6
176
     0
 40
30.0
176
     0
 62
     7
420
 16777215
176
     0
 90
        1
176
     0
 90
        4
176
     0
 62
     7
176
     0
 62
   257
176
     0
 90
        1
176
     0
 90
        1
176
     0
 40
1.0
176
     0
 90
        8
176
     2
 62
     7
176
     0
 40
1.0
176
     0
 90
        1
176
     0
 90
        6
176
     0
 90
        2
176
     0
 62
     7
176
     0
 90
        5
176
     0
 90
        0
176
     0
 90
        0
176
     0
290
     0
176
     0
 90
        1
176
     0
 40
0.0
176
     0
 90
        0
176
     0
290
     0
176
     0
290
     1
176
     0
290
     1
176
     0
290
     0
176
     0
290
     0
176
     0
290
     0
176
     0
290
     0
176
     0
290
     0
176
     0
290
     0
176
     0
 90
       50
176
     0
 40
0.0
176
     0
 40
1.0
176
     0
 90
        0
176
     0
 62
    18
420
        0
176
     0
 90
       50
176
     0
 90
        3
176
     0
 62
     5
420
      255
176
     0
290
     0
176
     0
 90
       50
176
     0
 90
       50
176
     0
 90
       50
176
     0
290
     0
176
     0
 90
       50
176
     0
 62
   256
176
     0
 40
1.0
176
     0
 90
        2
176
     0
  1
strokes_ogs.tif
176
     0
290
     0
176
     0
 40
1.0
176
     0
 40
1.0
176
     0
  0
VISUALSTYLE
  5
39
102
{ACAD_REACTORS
330
2A
102
}
330
2A
100
AcDbVisualStyle
  2
Facepattern
 70
    15
177
     3
291
     1
 70
    58
 90
        2
176
     1
 90
        2
176
     1
 90
        0
176
     1
 90
        0
176
     1
 40
0.6
176
     1
 40
30.0
176
     1
 62
     7
420
 16777215
176
     1
 90
        1
176
     1
 90
        4
176
     1
 62
     7
176
     1
 62
   257
176
     1
 90
        1
176
     1
 90
        1
176
     1
 40
1.0
176
     1
 90
        8
176
     1
 62
     7
176
     1
 40
1.0
176
     1
 90
        1
176
     1
 90
        6
176
     1
 90
        2
176
     1
 62
     7
176
     1
 90
        5
176
     1
 90
        0
176
     1
 90
        0
176
     1
290
     0
176
     1
 90
        1
176
     1
 40
0.0
176
     1
 90
        0
176
     1
290
     0
176
     1
290
     1
176
     1
290
     1
176
     1
290
     0
176
     1
290
     0
176
     1
290
     0
176
     1
290
     0
176
     1
290
     0
176
     1
290
     0
176
     1
 90
       50
176
     1
 40
0.0
176
     1
 40
1.0
176
     1
 90
        0
176
     1
 62
    18
420
        0
176
     1
 90
       50
176
     1
 90
        3
176
     1
 62
     5
420
      255
176
     1
290
     0
176
     1
 90
       50
176
     1
 90
       50
176
     1
 90
       50
176
     1
290
     0
176
     1
 90
       50
176
     1
 62
   256
176
     0
 40
1.0
176
     0
 90
        2
176
     1
  1
strokes_ogs.tif
176
     1
290
     0
176
     1
 40
1.0
176
     1
 40
1.0
176
     1
  0
VISUALSTYLE
  5
2B
102
{ACAD_REACTORS
330
2A
102
}
330
2A
100
AcDbVisualStyle
  2
Flat
 70
     0
177
     3
291
     1
 70
    58
 90
        2
176
     1
 90
        1
176
     1
 90
        1
176
     1
 90
        2
176
     1
 40
0.6
176
     1
 40
30.0
176
     1
 62
     7
420
 16777215
176
     1
 90
        0
176
     1
 90
        0
176
     1
 62
     7
176
     1
 62
   257
176
     1
 90
        1
176
     1
 90
        1
176
     1
 40
1.0
176
     1
 90
        8
176
     1
 62
     7
176
     1
 40
1.0
176
     1
 90
        1
176
     1
 90
        6
176
     1
 90
        2
176
     1
 62
     7
176
     1
 90
        5
176
     1
 90
        0
176
     1
 90
        0
176
     1
290
     0
176
     1
 90
       13
176
     1
 40
0.0
176
     1
 90
        0
176
     1
290
     0
176
     1
290
     1
176
     1
290
     1
176
     1
290
     0
176
     1
290
     0
176
     1
290
     0
176
     1
290
     0
176
     1
290
     0
176
     1
290
     0
176
     1
 90
       50
176
     1
 40
0.0
176
     1
 40
1.0
176
     1
 90
        0
176
     1
 62
    18
420
        0
176
     1
 90
       50
176
     1
 90
        3
176
     1
 62
     5
420
      255
176
     1
290
     0
176
     1
 90
       50
176
     1
 90
       50
176
     1
 90
       50
176
     1
290
     0
176
     1
 90
       50
176
     1
 62
   256
176
     0
 40
1.0
176
     0
 90
        2
176
     1
  1
strokes_ogs.tif
176
     1
290
     0
176
     1
 40
1.0
176
     1
 40
1.0
176
     1
  0
VISUALSTYLE
  5
2C
102
{ACAD_REACTORS
330
2A
102
}
330
2A
100
AcDbVisualStyle
  2
FlatWithEdges
 70
     1
177
     3
291
     1
 70
    58
 90
        2
176
     1
 90
        1
176
     1
 90
        1
176
     1
 90
        2
176
     1
 40
0.6
176
     1
 40
30.0
176
     1
 62
     7
420
 16777215
176
     1
 90
        1
176
     1
 90
        0
176
     1
 62
     7
176
     1
 62
   257
176
     1
 90
        1
176
     1
 90
        1
176
     1
 40
1.0
176
     1
 90
        0
176
     1
 62
   257
176
     1
 40
1.0
176
     1
 90
        1
176
     1
 90
        6
176
     1
 90
        2
176
     1
 62
     7
176
     1
 90
        5
176
     1
 90
        0
176
     1
 90
        0
176
     1
290
     0
176
     1
 90
       13
176
     1
 40
0.0
176
     1
 90
        0
176
     1
290
     0
176
     1
290
     1
176
     1
290
     1
176
     1
290
     0
176
     1
290
     0
176
     1
290
     0
176
     1
290
     0
176
     1
290
     0
176
     1
290
     0
176
     1
 90
       50
176
     1
 40
0.0
176
     1
 40
1.0
176
     1
 90
        0
176
     1
 62
    18
420
        0
176
     1
 90
       50
176
     1
 90
        3
176
     1
 62
     5
420
      255
176
     1
290
     0
176
     1
 90
       50
176
     1
 90
       50
176
     1
 90
       50
176
     1
290
     0
176
     1
 90
       50
176
     1
 62
   256
176
     0
 40
1.0
176
     0
 90
        2
176
     1
  1
strokes_ogs.tif
176
     1
290
     0
176
     1
 40
1.0
176
     1
 40
1.0
176
     1
  0
VISUALSTYLE
  5
2D
102
{ACAD_REACTORS
330
2A
102
}
330
2A
100
AcDbVisualStyle
  2
Gouraud
 70
     2
177
     3
291
     1
 70
    58
 90
        2
176
     1
 90
        2
176
     1
 90
        1
176
     1
 90
        2
176
     1
 40
0.6
176
     1
 40
30.0
176
     1
 62
     7
420
 16777215
176
     1
 90
        0
176
     1
 90
        0
176
     1
 62
     7
176
     1
 62
   257
176
     1
 90
        1
176
     1
 90
        1
176
     1
 40
1.0
176
     1
 90
        0
176
     1
 62
     7
176
     1
 40
1.0
176
     1
 90
        1
176
     1
 90
        6
176
     1
 90
        2
176
     1
 62
     7
176
     1
 90
        5
176
     1
 90
        0
176
     1
 90
        0
176
     1
290
     0
176
     1
 90
       13
176
     1
 40
0.0
176
     1
 90
        0
176
     1
290
     0
176
     1
290
     1
176
     1
290
     1
176
     1
290
     0
176
     1
290
     0
176
     1
290
     0
176
     1
290
     0
176
     1
290
     0
176
     1
290
     0
176
     1
 90
       50
176
     1
 40
0.0
176
     1
 40
1.0
176
     1
 90
        0
176
     1
 62
    18
420
        0
176
     1
 90
       50
176
     1
 90
        3
176
     1
 62
     5
420
      255
176
     1
290
     0
176
     1
 90
       50
176
     1
 90
       50
176
     1
 90
       50
176
     1
290
     0
176
     1
 90
       50
176
     1
 62
   256
176
     0
 40
1.0
176
     0
 90
        2
176
     1
  1
strokes_ogs.tif
176
     1
290
     0
176
     1
 40
1.0
176
     1
 40
1.0
176
     1
  0
VISUALSTYLE
  5
2E
102
{ACAD_REACTORS
330
2A
102
}
330
2A
100
AcDbVisualStyle
  2
GouraudWithEdges
 70
     3
177
     3
291
     1
 70
    58
 90
        2
176
     1
 90
        2
176
     1
 90
        1
176
     1
 90
        2
176
     1
 40
0.6
176
     1
 40
30.0
176
     1
 62
     7
420
 16777215
176
     1
 90
        1
176
     1
 90
        0
176
     1
 62
     7
176
     1
 62
   257
176
     1
 90
        1
176
     1
 90
        1
176
     1
 40
1.0
176
     1
 90
        0
176
     1
 62
   257
176
     1
 40
1.0
176
     1
 90
        1
176
     1
 90
        6
176
     1
 90
        2
176
     1
 62
     7
176
     1
 90
        5
176
     1
 90
        0
176
     1
 90
        0
176
     1
290
     0
176
     1
 90
       13
176
     1
 40
0.0
176
     1
 90
        0
176
     1
290
     0
176
     1
290
     1
176
     1
290
     1
176
     1
290
     0
176
     1
290
     0
176
     1
290
     0
176
     1
290
     0
176
     1
290
     0
176
     1
290
     0
176
     1
 90
       50
176
     1
 40
0.0
176
     1
 40
1.0
176
     1
 90
        0
176
     1
 62
    18
420
        0
176
     1
 90
       50
176
     1
 90
        3
176
     1
 62
     5
420
      255
176
     1
290
     0
176
     1
 90
       50
176
     1
 90
       50
176
     1
 90
       50
176
     1
290
     0
176
     1
 90
       50
176
     1
 62
   256
176
     0
 40
1.0
176
     0
 90
        2
176
     1
  1
strokes_ogs.tif
176
     1
290
     0
176
     1
 40
1.0
176
     1
 40
1.0
176
     1
  0
VISUALSTYLE
  5
31
102
{ACAD_REACTORS
330
2A
102
}
330
2A
100
AcDbVisualStyle
  2
Hidden
 70
     6
177
     3
291
     0
 70
    58
 90
        1
176
     1
 90
        2
176
     1
 90
        2
176
     1
 90
        0
176
     1
 40
0.6
176
     1
 40
30.0
176
     1
 62
     7
420
 16777215
176
     1
 90
        2
176
     1
 90
        2
176
     1
 62
     7
176
     1
 62
   257
176
     1
 90
        2
176
     1
 90
        1
176
     1
 40
40.0
176
     1
 90
        0
176
     1
 62
   257
176
     1
 40
1.0
176
     1
 90
        1
176
     1
 90
        6
176
     1
 90
        2
176
     1
 62
     7
176
     1
 90
        3
176
     1
 90
        0
176
     1
 90
        0
176
     1
290
     0
176
     1
 90
        1
176
     1
 40
0.0
176
     1
 90
        0
176
     1
290
     0
176
     1
290
     1
176
     1
290
     1
176
     1
290
     0
176
     1
290
     0
176
     1
290
     0
176
     1
290
     0
176
     1
290
     0
176
     1
290
     0
176
     1
 90
       50
176
     1
 40
0.0
176
     1
 40
1.0
176
     1
 90
        0
176
     1
 62
    18
420
        0
176
     1
 90
       50
176
     1
 90
        3
176
     1
 62
     5
420
      255
176
     1
290
     0
176
     1
 90
       50
176
     1
 90
       50
176
     1
 90
       50
176
     1
290
     0
176
     1
 90
       50
176
     1
 62
   256
176
     0
 40
1.0
176
     0
 90
        2
176
     1
  1
strokes_ogs.tif
176
     1
290
     0
176
     1
 40
1.0
176
     1
 40
1.0
176
     1
  0
VISUALSTYLE
  5
3B
102
{ACAD_REACTORS
330
2A
102
}
330
2A
100
AcDbVisualStyle
  2
JitterOff
 70
    20
177
     3
291
     1
 70
    58
 90
        2
176
     0
 90
        2
176
     0
 90
        0
176
     0
 90
        0
176
     0
 40
0.6
176
     0
 40
30.0
176
     0
 62
     7
420
 16777215
176
     0
 90
        1
176
     0
 90
        4
176
     0
 62
     7
176
     0
 62
   257
176
     0
 90
        1
176
     0
 90
        1
176
     0
 40
1.0
176
     0
 90
       10
176
     2
 62
     7
176
     0
 40
1.0
176
     0
 90
        1
176
     0
 90
        6
176
     0
 90
        2
176
     0
 62
     7
176
     0
 90
        5
176
     0
 90
        0
176
     0
 90
        0
176
     0
290
     0
176
     0
 90
        1
176
     0
 40
0.0
176
     0
 90
        0
176
     0
290
     0
176
     0
290
     1
176
     0
290
     1
176
     0
290
     0
176
     0
290
     0
176
     0
290
     0
176
     0
290
     0
176
     0
290
     0
176
     0
290
     0
176
     0
 90
       50
176
     0
 40
0.0
176
     0
 40
1.0
176
     0
 90
        0
176
     0
 62
    18
420
        0
176
     0
 90
       50
176
     0
 90
        3
176
     0
 62
     5
420
      255
176
     0
290
     0
176
     0
 90
       50
176
     0
 90
       50
176
     0
 90
       50
176
     0
290
     0
176
     0
 90
       50
176
     0
 62
   256
176
     0
 40
1.0
176
     0
 90
        2
176
     0
  1
strokes_ogs.tif
176
     0
290
     0
176
     0
 40
1.0
176
     0
 40
1.0
176
     0
  0
VISUALSTYLE
  5
38
102
{ACAD_REACTORS
330
2A
102
}
330
2A
100
AcDbVisualStyle
  2
Linepattern
 70
    14
177
     3
291
     1
 70
    58
 90
        2
176
     1
 90
        2
176
     1
 90
        0
176
     1
 90
        0
176
     1
 40
0.6
176
     1
 40
30.0
176
     1
 62
     7
420
 16777215
176
     1
 90
        1
176
     1
 90
        4
176
     1
 62
     7
176
     1
 62
   257
176
     1
 90
        7
176
     1
 90
        7
176
     1
 40
1.0
176
     1
 90
        8
176
     1
 62
     7
176
     1
 40
1.0
176
     1
 90
        1
176
     1
 90
        6
176
     1
 90
        2
176
     1
 62
     7
176
     1
 90
        5
176
     1
 90
        0
176
     1
 90
        0
176
     1
290
     0
176
     1
 90
        1
176
     1
 40
0.0
176
     1
 90
        0
176
     1
290
     0
176
     1
290
     1
176
     1
290
     1
176
     1
290
     0
176
     1
290
     0
176
     1
290
     0
176
     1
290
     0
176
     1
290
     0
176
     1
290
     0
176
     1
 90
       50
176
     1
 40
0.0
176
     1
 40
1.0
176
     1
 90
        0
176
     1
 62
    18
420
        0
176
     1
 90
       50
176
     1
 90
        3
176
     1
 62
     5
420
      255
176
     1
290
     0
176
     1
 90
       50
176
     1
 90
       50
176
     1
 90
       50
176
     1
290
     0
176
     1
 90
       50
176
     1
 62
   256
176
     0
 40
1.0
176
     0
 90
        2
176
     1
  1
strokes_ogs.tif
176
     1
290
     0
176
     1
 40
1.0
176
     1
 40
1.0
176
     1
  0
VISUALSTYLE
  5
3C
102
{ACAD_REACTORS
330
2A
102
}
330
2A
100
AcDbVisualStyle
  2
OverhangOff
 70
    21
177
     3
291
     1
 70
    58
 90
        2
176
     0
 90
        2
176
     0
 90
        0
176
     0
 90
        0
176
     0
 40
0.6
176
     0
 40
30.0
176
     0
 62
     7
420
 16777215
176
     0
 90
        1
176
     0
 90
        4
176
     0
 62
     7
176
     0
 62
   257
176
     0
 90
        1
176
     0
 90
        1
176
     0
 40
1.0
176
     0
 90
        9
176
     2
 62
     7
176
     0
 40
1.0
176
     0
 90
        1
176
     0
 90
        6
176
     0
 90
        2
176
     0
 62
     7
176
     0
 90
        5
176
     0
 90
        0
176
     0
 90
        0
176
     0
290
     0
176
     0
 90
        1
176
     0
 40
0.0
176
     0
 90
        0
176
     0
290
     0
176
     0
290
     1
176
     0
290
     1
176
     0
290
     0
176
     0
290
     0
176
     0
290
     0
176
     0
290
     0
176
     0
290
     0
176
     0
290
     0
176
     0
 90
       50
176
     0
 40
0.0
176
     0
 40
1.0
176
     0
 90
        0
176
     0
 62
    18
420
        0
176
     0
 90
       50
176
     0
 90
        3
176
     0
 62
     5
420
      255
176
     0
290
     0
176
     0
 90
       50
176
     0
 90
       50
176
     0
 90
       50
176
     0
290
     0
176
     0
 90
       50
176
     0
 62
   256
176
     0
 40
1.0
176
     0
 90
        2
176
     0
  1
strokes_ogs.tif
176
     0
290
     0
176
     0
 40
1.0
176
     0
 40
1.0
176
     0
  0
VISUALSTYLE
  5
33
102
{ACAD_REACTORS
330
2A
102
}
330
2A
100
AcDbVisualStyle
  2
Realistic
 70
     8
177
     3
291
     0
 70
    58
 90
        2
176
     1
 90
        3
176
     1
 90
        0
176
     1
 90
        2
176
     1
 40
0.6
176
     1
 40
30.0
176
     1
 62
     7
420
 16777215
176
     1
 90
        0
176
     1
 90
        0
176
     1
 62
     7
176
     1
 62
   257
176
     1
 90
        1
176
     1
 90
        1
176
     1
 40
1.0
176
     1
 90
        8
176
     1
 62
   257
176
     1
 40
1.0
176
     1
 90
        1
176
     1
 90
        6
176
     1
 90
        2
176
     1
 62
     7
176
     1
 90
        3
176
     1
 90
        0
176
     1
 90
        0
176
     1
290
     0
176
     1
 90
       13
176
     1
 40
0.0
176
     1
 90
        0
176
     1
290
     0
176
     1
290
     1
176
     1
290
     1
176
     1
290
     0
176
     1
290
     0
176
     1
290
     0
176
     1
290
     0
176
     1
290
     0
176
     1
290
     0
176
     1
 90
       50
176
     1
 40
0.0
176
     1
 40
1.0
176
     1
 90
        0
176
     1
 62
    18
420
        0
176
     1
 90
       50
176
     1
 90
        3
176
     1
 62
     5
420
      255
176
     1
290
     0
176
     1
 90
       50
176
     1
 90
       50
176
     1
 90
       50
176
     1
290
     0
176
     1
 90
       50
176
     1
 62
   256
176
     0
 40
1.0
176
     0
 90
        2
176
     1
  1
strokes_ogs.tif
176
     1
290
     0
176
     1
 40
1.0
176
     1
 40
1.0
176
     1
  0
VISUALSTYLE
  5
42
102
{ACAD_REACTORS
330
2A
102
}
330
2A
100
AcDbVisualStyle
  2
Shaded
 70
    27
177
     3
291
     0
 70
    58
 90
        2
176
     1
 90
        2
176
     1
 90
        1
176
     1
 90
        2
176
     1
 40
0.6
176
     1
 40
30.0
176
     1
 62
     7
420
 16777215
176
     1
 90
        0
176
     1
 90
        4
176
     1
 62
     7
176
     1
 62
   257
176
     1
 90
        1
176
     1
 90
        1
176
     1
 40
1.0
176
     1
 90
        8
176
     1
 62
   257
176
     1
 40
1.0
176
     1
 90
        1
176
     1
 90
        6
176
     1
 90
        2
176
     1
 62
     8
420
  7895160
176
     1
 90
        3
176
     1
 90
        0
176
     1
 90
        0
176
     1
290
     0
176
     1
 90
        5
176
     1
 40
0.0
176
     1
 90
        0
176
     1
290
     0
176
     1
290
     1
176
     1
290
     1
176
     1
290
     0
176
     1
290
     0
176
     1
290
     0
176
     1
290
     0
176
     1
290
     0
176
     1
290
     0
176
     1
 90
       50
176
     1
 40
0.0
176
     1
 40
1.0
176
     1
 90
        0
176
     1
 62
    18
420
        0
176
     1
 90
       50
176
     1
 90
        3
176
     1
 62
     5
420
      255
176
     1
290
     0
176
     1
 90
       50
176
     1
 90
       50
176
     1
 90
       50
176
     1
290
     0
176
     1
 90
       50
176
     1
 62
   256
176
     0
 40
1.0
176
     0
 90
        2
176
     1
  1
strokes_ogs.tif
176
     1
290
     0
176
     1
 40
1.0
176
     1
 40
1.0
176
     1
  0
VISUALSTYLE
  5
41
102
{ACAD_REACTORS
330
2A
102
}
330
2A
100
AcDbVisualStyle
  2
Shaded with edges
 70
    26
177
     3
291
     0
 70
    58
 90
        2
176
     1
 90
        2
176
     1
 90
        1
176
     1
 90
        2
176
     1
 40
0.6
176
     1
 40
30.0
176
     1
 62
     7
420
 16777215
176
     1
 90
        1
176
     1
 90
       10
176
     1
 62
     7
176
     1
 62
   257
176
     1
 90
        2
176
     1
 90
        1
176
     1
 40
1.0
176
     1
 90
        8
176
     1
 62
   257
176
     1
 40
1.0
176
     1
 90
        1
176
     1
 90
        6
176
     1
 90
        2
176
     1
 62
     7
176
     1
 90
        3
176
     1
 90
        0
176
     1
 90
        0
176
     1
290
     0
176
     1
 90
        5
176
     1
 40
0.0
176
     1
 90
        0
176
     1
290
     0
176
     1
290
     1
176
     1
290
     1
176
     1
290
     0
176
     1
290
     0
176
     1
290
     0
176
     1
290
     0
176
     1
290
     0
176
     1
290
     0
176
     1
 90
       50
176
     1
 40
0.0
176
     1
 40
1.0
176
     1
 90
        0
176
     1
 62
    18
420
        0
176
     1
 90
       50
176
     1
 90
        3
176
     1
 62
     5
420
      255
176
     1
290
     0
176
     1
 90
       50
176
     1
 90
       50
176
     1
 90
       50
176
     1
290
     0
176
     1
 90
       50
176
     1
 62
   256
176
     0
 40
1.0
176
     0
 90
        2
176
     1
  1
strokes_ogs.tif
176
     1
290
     0
176
     1
 40
1.0
176
     1
 40
1.0
176
     1
  0
VISUALSTYLE
  5
3E
102
{ACAD_REACTORS
330
2A
102
}
330
2A
100
AcDbVisualStyle
  2
Shades of Gray
 70
    23
177
     3
291
     0
 70
    58
 90
        2
176
     1
 90
        2
176
     1
 90
        3
176
     1
 90
        0
176
     1
 40
0.6
176
     1
 40
30.0
176
     1
 62
     7
420
 16777215
176
     1
 90
        2
176
     1
 90
        2
176
     1
 62
     7
176
     1
 62
     7
176
     1
 90
        1
176
     1
 90
        1
176
     1
 40
40.0
176
     1
 90
        8
176
     1
 62
     7
176
     1
 40
1.0
176
     1
 90
        1
176
     1
 90
        6
176
     1
 90
        2
176
     1
 62
     7
176
     1
 90
        3
176
     1
 90
        0
176
     1
 90
        0
176
     1
290
     0
176
     1
 90
        1
176
     1
 40
0.0
176
     1
 90
        0
176
     1
290
     0
176
     1
290
     1
176
     1
290
     1
176
     1
290
     0
176
     1
290
     0
176
     1
290
     0
176
     1
290
     0
176
     1
290
     0
176
     1
290
     0
176
     1
 90
       50
176
     1
 40
0.0
176
     1
 40
1.0
176
     1
 90
        0
176
     1
 62
    18
420
        0
176
     1
 90
       50
176
     1
 90
        3
176
     1
 62
     5
420
      255
176
     1
290
     0
176
     1
 90
       50
176
     1
 90
       50
176
     1
 90
       50
176
     1
290
     0
176
     1
 90
       50
176
     1
 62
   256
176
     0
 40
1.0
176
     0
 90
        2
176
     1
  1
strokes_ogs.tif
176
     1
290
     0
176
     1
 40
1.0
176
     1
 40
1.0
176
     1
  0
VISUALSTYLE
  5
3F
102
{ACAD_REACTORS
330
2A
102
}
330
2A
100
AcDbVisualStyle
  2
Sketchy
 70
    24
177
     3
291
     0
 70
    58
 90
        1
176
     1
 90
        2
176
     1
 90
        2
176
     1
 90
        0
176
     1
 40
0.6
176
     1
 40
30.0
176
     1
 62
     7
420
 16777215
176
     1
 90
        2
176
     1
 90
        2
176
     1
 62
     7
176
     1
 62
     7
176
     1
 90
        1
176
     1
 90
        1
176
     1
 40
40.0
176
     1
 90
       11
176
     1
 62
     7
176
     1
 40
1.0
176
     1
 90
        1
176
     1
 90
        6
176
     1
 90
        2
176
     1
 62
     7
176
     1
 90
        6
176
     1
 90
        0
176
     1
 90
        0
176
     1
290
     0
176
     1
 90
        1
176
     1
 40
0.0
176
     1
 90
        0
176
     1
290
     0
176
     1
290
     1
176
     1
290
     1
176
     1
290
     0
176
     1
290
     0
176
     1
290
     0
176
     1
290
     0
176
     1
290
     0
176
     1
290
     0
176
     1
 90
       50
176
     1
 40
0.0
176
     1
 40
1.0
176
     1
 90
        0
176
     1
 62
    18
420
        0
176
     1
 90
       50
176
     1
 90
        3
176
     1
 62
     5
420
      255
176
     1
290
     0
176
     1
 90
       50
176
     1
 90
       50
176
     1
 90
       50
176
     1
290
     0
176
     1
 90
       50
176
     1
 62
   256
176
     0
 40
1.0
176
     0
 90
        2
176
     1
  1
strokes_ogs.tif
176
     1
290
     0
176
     1
 40
1.0
176
     1
 40
1.0
176
     1
  0
VISUALSTYLE
  5
37
102
{ACAD_REACTORS
330
2A
102
}
330
2A
100
AcDbVisualStyle
  2
Thicken
 70
    13
177
     3
291
     1
 70
    58
 90
        2
176
     1
 90
        2
176
     1
 90
        0
176
     1
 90
        0
176
     1
 40
0.6
176
     1
 40
30.0
176
     1
 62
     7
420
 16777215
176
     1
 90
        1
176
     1
 90
        4
176
     1
 62
     7
176
     1
 62
   257
176
     1
 90
        1
176
     1
 90
        1
176
     1
 40
1.0
176
     1
 90
       12
176
     1
 62
     7
176
     1
 40
1.0
176
     1
 90
        1
176
     1
 90
        6
176
     1
 90
        2
176
     1
 62
     7
176
     1
 90
        5
176
     1
 90
        0
176
     1
 90
        0
176
     1
290
     0
176
     1
 90
        1
176
     1
 40
0.0
176
     1
 90
        0
176
     1
290
     0
176
     1
290
     1
176
     1
290
     1
176
     1
290
     0
176
     1
290
     0
176
     1
290
     0
176
     1
290
     0
176
     1
290
     0
176
     1
290
     0
176
     1
 90
       50
176
     1
 40
0.0
176
     1
 40
1.0
176
     1
 90
        0
176
     1
 62
    18
420
        0
176
     1
 90
       50
176
     1
 90
        3
176
     1
 62
     5
420
      255
176
     1
290
     0
176
     1
 90
       50
176
     1
 90
       50
176
     1
 90
       50
176
     1
290
     0
176
     1
 90
       50
176
     1
 62
   256
176
     0
 40
1.0
176
     0
 90
        2
176
     1
  1
strokes_ogs.tif
176
     1
290
     0
176
     1
 40
1.0
176
     1
 40
1.0
176
     1
  0
VISUALSTYLE
  5
30
102
{ACAD_REACTORS
330
2A
102
}
330
2A
100
AcDbVisualStyle
  2
Wireframe
 70
     5
177
     3
291
     0
 70
    58
 90
        0
176
     1
 90
        2
176
     1
 90
        0
176
     1
 90
        0
176
     1
 40
0.6
176
     1
 40
30.0
176
     1
 62
     7
420
 16777215
176
     1
 90
        1
176
     1
 90
        4
176
     1
 62
     7
176
     1
 62
   257
176
     1
 90
        1
176
     1
 90
        1
176
     1
 40
1.0
176
     1
 90
        0
176
     1
 62
   257
176
     1
 40
1.0
176
     1
 90
        1
176
     1
 90
        6
176
     1
 90
        2
176
     1
 62
     7
176
     1
 90
        3
176
     1
 90
        0
176
     1
 90
        0
176
     1
290
     0
176
     1
 90
        1
176
     1
 40
0.0
176
     1
 90
        0
176
     1
290
     0
176
     1
290
     1
176
     1
290
     1
176
     1
290
     0
176
     1
290
     0
176
     1
290
     0
176
     1
290
     0
176
     1
290
     0
176
     1
290
     0
176
     1
 90
       50
176
     1
 40
0.0
176
     1
 40
1.0
176
     1
 90
        0
176
     1
 62
    18
420
        0
176
     1
 90
       50
176
     1
 90
        3
176
     1
 62
     5
420
      255
176
     1
290
     0
176
     1
 90
       50
176
     1
 90
       50
176
     1
 90
       50
176
     1
290
     0
176
     1
 90
       50
176
     1
 62
   256
176
     0
 40
1.0
176
     0
 90
        2
176
     1
  1
strokes_ogs.tif
176
     1
290
     0
176
     1
 40
1.0
176
     1
 40
1.0
176
     1
  0
VISUALSTYLE
  5
40
102
{ACAD_REACTORS
330
2A
102
}
330
2A
100
AcDbVisualStyle
  2
X-Ray
 70
    25
177
     3
291
     0
 70
    58
 90
        2
176
     1
 90
        2
176
     1
 90
        1
176
     1
 90
        1
176
     1
 40
0.5
176
     1
 40
30.0
176
     1
 62
     7
420
 16777215
176
     1
 90
        1
176
     1
 90
        0
176
     1
 62
     7
176
     1
 62
   257
176
     1
 90
        1
176
     1
 90
        1
176
     1
 40
1.0
176
     1
 90
        8
176
     1
 62
     7
176
     1
 40
1.0
176
     1
 90
        1
176
     1
 90
        6
176
     1
 90
        2
176
     1
 62
     7
176
     1
 90
        3
176
     1
 90
        0
176
     1
 90
        0
176
     1
290
     0
176
     1
 90
       13
176
     1
 40
0.0
176
     1
 90
        0
176
     1
290
     0
176
     1
290
     1
176
     1
290
     1
176
     1
290
     0
176
     1
290
     0
176
     1
290
     0
176
     1
290
     0
176
     1
290
     0
176
     1
290
     0
176
     1
 90
       50
176
     1
 40
0.0
176
     1
 40
1.0
176
     1
 90
        0
176
     1
 62
    18
420
        0
176
     1
 90
       50
176
     1
 90
        3
176
     1
 62
     5
420
      255
176
     1
290
     0
176
     1
 90
       50
176
     1
 90
       50
176
     1
 90
       50
176
     1
290
     0
176
     1
 90
       50
176
     1
 62
   256
176
     0
 40
1.0
176
     0
 90
        2
176
     1
  1
strokes_ogs.tif
176
     1
290
     0
176
     1
 40
1.0
176
     1
 40
1.0
176
     1
  0
DICTIONARYVAR
  5
208
102
{ACAD_REACTORS
330
207
102
}
330
207
100
DictionaryVariables
280
     0
  1
1:1
  0
DICTIONARYVAR
  5
20D
102
{ACAD_REACTORS
330
207
102
}
330
207
100
DictionaryVariables
280
     0
  1
Standard
  0
DICTIONARYVAR
  5
20C
102
{ACAD_REACTORS
330
207
102
}
330
207
100
DictionaryVariables
280
     0
  1
Standard
  0
DICTIONARY
  5
209
330
6A
100
AcDbDictionary
280
     1
281
     1
  3
ACAD_ROUNDTRIP_2008_TABLESTYLE_CELLSTYLEMAP
360
20A
  0
CELLSTYLEMAP
  5
20A
102
{ACAD_REACTORS
330
209
102
}
330
209
100
AcDbCellStyleMap
 90
        3
300
CELLSTYLE
  1
TABLEFORMAT_BEGIN
 90
        5
170
     1
 91
        0
 92
    32768
 62
   257
 93
        1
300
CONTENTFORMAT
  1
CONTENTFORMAT_BEGIN
 90
        0
 91
        0
 92
        4
 93
        0
300

 40
0.0
140
1.0
 94
        5
 62
     0
340
11
144
0.25
309
CONTENTFORMAT_END
171
     1
301
MARGIN
  1
CELLMARGIN_BEGIN
 40
0.06
 40
0.06
 40
0.06
 40
0.06
 40
0.06
 40
0.06
309
CELLMARGIN_END
 94
        6
 95
        1
302
GRIDFORMAT
  1
GRIDFORMAT_BEGIN
 90
        0
 91
        1
 62
     0
 92
       -2
340
14
 93
        0
 40
0.045
309
GRIDFORMAT_END
 95
        2
302
GRIDFORMAT
  1
GRIDFORMAT_BEGIN
 90
        0
 91
        1
 62
     0
 92
       -2
340
14
 93
        0
 40
0.045
309
GRIDFORMAT_END
 95
        4
302
GRIDFORMAT
  1
GRIDFORMAT_BEGIN
 90
        0
 91
        1
 62
     0
 92
       -2
340
14
 93
        0
 40
0.045
309
GRIDFORMAT_END
 95
        8
302
GRIDFORMAT
  1
GRIDFORMAT_BEGIN
 90
        0
 91
        1
 62
     0
 92
       -2
340
14
 93
        0
 40
0.045
309
GRIDFORMAT_END
 95
       16
302
GRIDFORMAT
  1
GRIDFORMAT_BEGIN
 90
        0
 91
        1
 62
     0
 92
       -2
340
14
 93
        0
 40
0.045
309
GRIDFORMAT_END
 95
       32
302
GRIDFORMAT
  1
GRIDFORMAT_BEGIN
 90
        0
 91
        1
 62
     0
 92
       -2
340
14
 93
        0
 40
0.045
309
GRIDFORMAT_END
309
TABLEFORMAT_END
  1
CELLSTYLE_BEGIN
 90
        1
 91
        1
300
_TITLE
309
CELLSTYLE_END
300
CELLSTYLE
  1
TABLEFORMAT_BEGIN
 90
        5
170
     1
 91
        0
 92
        0
 62
   257
 93
        1
300
CONTENTFORMAT
  1
CONTENTFORMAT_BEGIN
 90
        0
 91
        0
 92
        4
 93
        0
300

 40
0.0
140
1.0
 94
        5
 62
     0
340
11
144
0.18
309
CONTENTFORMAT_END
171
     1
301
MARGIN
  1
CELLMARGIN_BEGIN
 40
0.06
 40
0.06
 40
0.06
 40
0.06
 40
0.06
 40
0.06
309
CELLMARGIN_END
 94
        6
 95
        1
302
GRIDFORMAT
  1
GRIDFORMAT_BEGIN
 90
        0
 91
        1
 62
     0
 92
       -2
340
14
 93
        0
 40
0.045
309
GRIDFORMAT_END
 95
        2
302
GRIDFORMAT
  1
GRIDFORMAT_BEGIN
 90
        0
 91
        1
 62
     0
 92
       -2
340
14
 93
        0
 40
0.045
309
GRIDFORMAT_END
 95
        4
302
GRIDFORMAT
  1
GRIDFORMAT_BEGIN
 90
        0
 91
        1
 62
     0
 92
       -2
340
14
 93
        0
 40
0.045
309
GRIDFORMAT_END
 95
        8
302
GRIDFORMAT
  1
GRIDFORMAT_BEGIN
 90
        0
 91
        1
 62
     0
 92
       -2
340
14
 93
        0
 40
0.045
309
GRIDFORMAT_END
 95
       16
302
GRIDFORMAT
  1
GRIDFORMAT_BEGIN
 90
        0
 91
        1
 62
     0
 92
       -2
340
14
 93
        0
 40
0.045
309
GRIDFORMAT_END
 95
       32
302
GRIDFORMAT
  1
GRIDFORMAT_BEGIN
 90
        0
 91
        1
 62
     0
 92
       -2
340
14
 93
        0
 40
0.045
309
GRIDFORMAT_END
309
TABLEFORMAT_END
  1
CELLSTYLE_BEGIN
 90
        2
 91
        1
300
_HEADER
309
CELLSTYLE_END
300
CELLSTYLE
  1
TABLEFORMAT_BEGIN
 90
        5
170
     1
 91
        0
 92
        0
 62
   257
 93
        1
300
CONTENTFORMAT
  1
CONTENTFORMAT_BEGIN
 90
        0
 91
        0
 92
        4
 93
        0
300

 40
0.0
140
1.0
 94
        2
 62
     0
340
11
144
0.18
309
CONTENTFORMAT_END
171
     1
301
MARGIN
  1
CELLMARGIN_BEGIN
 40
0.06
 40
0.06
 40
0.06
 40
0.06
 40
0.06
 40
0.06
309
CELLMARGIN_END
 94
        6
 95
        1
302
GRIDFORMAT
  1
GRIDFORMAT_BEGIN
 90
        0
 91
        1
 62
     0
 92
       -2
340
14
 93
        0
 40
0.045
309
GRIDFORMAT_END
 95
        2
302
GRIDFORMAT
  1
GRIDFORMAT_BEGIN
 90
        0
 91
        1
 62
     0
 92
       -2
340
14
 93
        0
 40
0.045
309
GRIDFORMAT_END
 95
        4
302
GRIDFORMAT
  1
GRIDFORMAT_BEGIN
 90
        0
 91
        1
 62
     0
 92
       -2
340
14
 93
        0
 40
0.045
309
GRIDFORMAT_END
 95
        8
302
GRIDFORMAT
  1
GRIDFORMAT_BEGIN
 90
        0
 91
        1
 62
     0
 92
       -2
340
14
 93
        0
 40
0.045
309
GRIDFORMAT_END
 95
       16
302
GRIDFORMAT
  1
GRIDFORMAT_BEGIN
 90
        0
 91
        1
 62
     0
 92
       -2
340
14
 93
        0
 40
0.045
309
GRIDFORMAT_END
 95
       32
302
GRIDFORMAT
  1
GRIDFORMAT_BEGIN
 90
        0
 91
        1
 62
     0
 92
       -2
340
14
 93
        0
 40
0.045
309
GRIDFORMAT_END
309
TABLEFORMAT_END
  1
CELLSTYLE_BEGIN
 90
        3
 91
        2
300
_DATA
309
CELLSTYLE_END
  0
ENDSEC
  0
EOF