999
DXF file: _cgs_temp_output.dxf
999
Pro/ENGINEER 2015110 by Parametric Technology Corporation
  0
SECTION
  2
HEADER
  9
$ACADVER
  1
AC1021
  9
$DWGCODEPAGE
  3
ANSI_1252
  9
$EXTMAX
 10
22.0
 20
17.0
 30
0.0
  9
$EXTMIN
 10
0.0
 20
0.0
 30
0.0
  9
$LIMMIN
 10
0.0
 20
0.0
  9
$LIMMAX
 10
22.0
 20
17.0
  9
$VIEWCTR
 10
11.0
 20
8.5
  9
$VIEWSIZE
 40
17.0
  9
$CLAYER
  8
0
  9
$LTSCALE
 40
1.21
  9
$CELTYPE
  6
BYLAYER
  9
$DIMSCALE
 40
1.0
  9
$DIMASZ
 40
0.1875
  9
$DIMEXO
 40
0.0625
  9
$DIMDLI
 40
0.836
  9
$DIMEXE
 40
0.125
  9
$DIMCEN
 40
0.198
  9
$DIMLFAC
 40
1.0
  9
$DIMBLK
  1
_CLOSED
  9
$DIMALT
 70
0
  9
$DIMALTF
 40
25.4
  9
$DIMTXT
 40
0.15625
  9
$DIMTOL
 70
0
  9
$DIMLIM
 70
0
  9
$DIMTFAC
 40
1.0
  9
$DIMGAP
 40
0.09
  9
$DIMDSEP
 70
46
  9
$AUNITS
 70
0
  9
$PDMODE
 70
3
  9
$PDSIZE
 40
0.3125
  9
$HANDSEED
  5
2AE
  9
$TILEMODE
 70
1
  9
$MEASUREMENT
 70
0
  9
$INSUNITS
 70
1
  0
ENDSEC
  0
SECTION
  2
CLASSES
  0
CLASS
  1
ACDBDICTIONARYWDFLT
  2
AcDbDictionaryWithDefault
  3
AutoCAD 2000
 90
0
 91
1
280
0
281
0
  0
CLASS
  1
ACDBPLACEHOLDER
  2
AcDbPlaceHolder
  3
AutoCAD 2000
 90
0
 91
1
280
0
281
0
  0
CLASS
  1
LAYOUT
  2
AcDbLayout
  3
AutoCAD 2000
 90
0
 91
0
280
0
281
0
  0
ENDSEC
  0
SECTION
  2
TABLES
  0
TABLE
  2
VPORT
  5
8
100
AcDbSymbolTable
 70
2
  0
VPORT
  5
1F4
100
AcDbSymbolTableRecord
100
AcDbViewportTableRecord
  2
*ACTIVE
 70
0
 10
0.0
 20
0.0
 11
1.0
 21
1.0
 12
11.0
 22
8.5
 13
0.0
 23
0.0
 14
1.0
 24
1.0
 15
0.0
 25
0.0
 16
0.0
 26
0.0
 36
1.0
 17
0.0
 27
0.0
 37
0.0
 40
17.0
 41
1.2941176471
 42
50.0
 43
0.0
 44
0.0
 50
0.0
 51
0.0
 71
0
 72
100
 73
1
 74
1
 75
0
 76
0
 77
0
 78
0
  0
ENDTAB
  0
TABLE
  2
LTYPE
  5
5
100
AcDbSymbolTable
 70
6
  0
LTYPE
  5
14
100
AcDbSymbolTableRecord
100
AcDbLinetypeTableRecord
  2
BYBLOCK
 70
0
  3

 72
65
 73
0
 40
0.0
  0
LTYPE
  5
15
100
AcDbSymbolTableRecord
100
AcDbLinetypeTableRecord
  2
BYLAYER
 70
0
  3

 72
65
 73
0
 40
0.0
  0
LTYPE
  5
16
100
AcDbSymbolTableRecord
100
AcDbLinetypeTableRecord
  2
CONTINUOUS
 70
64
  3
Solid line
 72
65
 73
0
 40
0.0
  0
LTYPE
  5
1F5
100
AcDbSymbolTableRecord
100
AcDbLinetypeTableRecord
  2
CENTER
 70
64
  3
____ _ ____ _ ____ _ ____ _ ____ _ ____ _ ____
 72
65
 73
4
 40
0.6
 49
0.375
 74
0
 49
-0.075
 74
0
 49
0.075
 74
0
 49
-0.075
 74
0
  0
LTYPE
  5
1F6
100
AcDbSymbolTableRecord
100
AcDbLinetypeTableRecord
  2
HIDDEN
 70
64
  3
- - - - - - - - - - - - - - - - - - - -
 72
65
 73
2
 40
0.2
 49
0.1
 74
0
 49
-0.1
 74
0
  0
LTYPE
  5
1F7
100
AcDbSymbolTableRecord
100
AcDbLinetypeTableRecord
  2
PHANTOM
 70
64
  3
_____ _ _ _____ _ _ _____ _ _ _____
 72
65
 73
6
 40
0.8
 49
0.45
 74
0
 49
-0.05
 74
0
 49
0.1
 74
0
 49
-0.05
 74
0
 49
0.1
 74
0
 49
-0.05
 74
0
  0
LTYPE
  5
1F8
100
AcDbSymbolTableRecord
100
AcDbLinetypeTableRecord
  2
DOT
 70
64
  3
. . . . . . . . . . . . . . . . . . . .
 72
65
 73
2
 40
0.2
 49
0.1
 74
0
 49
-0.1
 74
0
  0
LTYPE
  5
1F9
100
AcDbSymbolTableRecord
100
AcDbLinetypeTableRecord
  2
DASHED
 70
64
  3
- - - - - - - - - - - - - - - - - - - -
 72
65
 73
2
 40
0.2
 49
0.1
 74
0
 49
-0.1
 74
0
  0
ENDTAB
  0
TABLE
  2
LAYER
  5
2
100
AcDbSymbolTable
 70
36
  0
LAYER
  5
10
100
AcDbSymbolTableRecord
100
AcDbLayerTableRecord
  2
0
 70
0
 62
7
  6
CONTINUOUS
370
-3
390
F
  0
LAYER
  5
1FA
100
AcDbSymbolTableRecord
100
AcDbLayerTableRecord
  2
DEFAULT_1
 70
0
 62
7
  6
CENTER
370
-3
390
F
  0
LAYER
  5
1FB
100
AcDbSymbolTableRecord
100
AcDbLayerTableRecord
  2
DEFAULT_2
 70
0
 62
8
  6
HIDDEN
370
-3
390
F
  0
LAYER
  5
1FC
100
AcDbSymbolTableRecord
100
AcDbLayerTableRecord
  2
DEFAULT_3
 70
0
 62
7
  6
PHANTOM
370
-3
390
F
  0
LAYER
  5
1FD
100
AcDbSymbolTableRecord
100
AcDbLayerTableRecord
  2
01_ALL_DTM_PLN
 70
0
 62
7
  6
CONTINUOUS
370
-3
390
F
  0
LAYER
  5
1FE
100
AcDbSymbolTableRecord
100
AcDbLayerTableRecord
  2
01__ASM_ALL_DTM_PLN
 70
0
 62
7
  6
CONTINUOUS
370
-3
390
F
  0
LAYER
  5
1FF
100
AcDbSymbolTableRecord
100
AcDbLayerTableRecord
  2
01__ASM_DEF_DTM_PLN
 70
0
 62
7
  6
CONTINUOUS
370
-3
390
F
  0
LAYER
  5
200
100
AcDbSymbolTableRecord
100
AcDbLayerTableRecord
  2
01___PRT_ALL_DTM_PLN
 70
0
 62
7
  6
CONTINUOUS
370
-3
390
F
  0
LAYER
  5
201
100
AcDbSymbolTableRecord
100
AcDbLayerTableRecord
  2
01___PRT_DEF_DTM_PLN
 70
0
 62
7
  6
CONTINUOUS
370
-3
390
F
  0
LAYER
  5
202
100
AcDbSymbolTableRecord
100
AcDbLayerTableRecord
  2
02_ALL_AXES
 70
0
 62
7
  6
CONTINUOUS
370
-3
390
F
  0
LAYER
  5
203
100
AcDbSymbolTableRecord
100
AcDbLayerTableRecord
  2
02__ASM_ALL_AXES
 70
0
 62
7
  6
CONTINUOUS
370
-3
390
F
  0
LAYER
  5
204
100
AcDbSymbolTableRecord
100
AcDbLayerTableRecord
  2
02___PRT_ALL_AXES
 70
0
 62
7
  6
CONTINUOUS
370
-3
390
F
  0
LAYER
  5
205
100
AcDbSymbolTableRecord
100
AcDbLayerTableRecord
  2
03_ALL_CURVES
 70
0
 62
7
  6
CONTINUOUS
370
-3
390
F
  0
LAYER
  5
206
100
AcDbSymbolTableRecord
100
AcDbLayerTableRecord
  2
03__ASM_ALL_CURVES
 70
0
 62
7
  6
CONTINUOUS
370
-3
390
F
  0
LAYER
  5
207
100
AcDbSymbolTableRecord
100
AcDbLayerTableRecord
  2
03___PRT_ALL_CURVES
 70
0
 62
7
  6
CONTINUOUS
370
-3
390
F
  0
LAYER
  5
208
100
AcDbSymbolTableRecord
100
AcDbLayerTableRecord
  2
04_ALL_DTM_PNT
 70
0
 62
7
  6
CONTINUOUS
370
-3
390
F
  0
LAYER
  5
209
100
AcDbSymbolTableRecord
100
AcDbLayerTableRecord
  2
04__ASM_ALL_DTM_PNT
 70
0
 62
7
  6
CONTINUOUS
370
-3
390
F
  0
LAYER
  5
20A
100
AcDbSymbolTableRecord
100
AcDbLayerTableRecord
  2
04___PRT_ALL_DTM_PNT
 70
0
 62
7
  6
CONTINUOUS
370
-3
390
F
  0
LAYER
  5
20B
100
AcDbSymbolTableRecord
100
AcDbLayerTableRecord
  2
05_ALL_DTM_CSYS
 70
0
 62
7
  6
CONTINUOUS
370
-3
390
F
  0
LAYER
  5
20C
100
AcDbSymbolTableRecord
100
AcDbLayerTableRecord
  2
05__ASM_ALL_DTM_CSYS
 70
0
 62
7
  6
CONTINUOUS
370
-3
390
F
  0
LAYER
  5
20D
100
AcDbSymbolTableRecord
100
AcDbLayerTableRecord
  2
05__ASM_DEF_DTM_CSYS
 70
0
 62
7
  6
CONTINUOUS
370
-3
390
F
  0
LAYER
  5
20E
100
AcDbSymbolTableRecord
100
AcDbLayerTableRecord
  2
05___PRT_ALL_DTM_CSYS
 70
0
 62
7
  6
CONTINUOUS
370
-3
390
F
  0
LAYER
  5
20F
100
AcDbSymbolTableRecord
100
AcDbLayerTableRecord
  2
05___PRT_DEF_DTM_CSYS
 70
0
 62
7
  6
CONTINUOUS
370
-3
390
F
  0
LAYER
  5
210
100
AcDbSymbolTableRecord
100
AcDbLayerTableRecord
  2
06_ALL_SURFS
 70
0
 62
7
  6
CONTINUOUS
370
-3
390
F
  0
LAYER
  5
211
100
AcDbSymbolTableRecord
100
AcDbLayerTableRecord
  2
06__ASM_ALL_SURFS
 70
0
 62
7
  6
CONTINUOUS
370
-3
390
F
  0
LAYER
  5
212
100
AcDbSymbolTableRecord
100
AcDbLayerTableRecord
  2
06___PRT_ALL_SURFS
 70
0
 62
7
  6
CONTINUOUS
370
-3
390
F
  0
LAYER
  5
213
100
AcDbSymbolTableRecord
100
AcDbLayerTableRecord
  2
07__ASM_ALL_SKELETONS
 70
0
 62
7
  6
CONTINUOUS
370
-3
390
F
  0
ENDTAB
  0
TABLE
  2
STYLE
  5
3
100
AcDbSymbolTable
 70
1
  0
STYLE
  5
11
100
AcDbSymbolTableRecord
100
AcDbTextStyleTableRecord
  2
STANDARD
 70
0
 40
0.0
 41
0.8
 50
0.0
 71
0
 42
0.2
  3
txt
  4

  0
STYLE
  5
214
100
AcDbSymbolTableRecord
100
AcDbTextStyleTableRecord
  2
TEXTSTYLE_1
 70
0
 40
0.0
 41
0.8
 50
0.0
 71
0
 42
0.2
  3
gdt
  4

  0
ENDTAB
  0
TABLE
  2
VIEW
  5
6
100
AcDbSymbolTable
 70
0
  0
ENDTAB
  0
TABLE
  2
UCS
  5
7
100
AcDbSymbolTable
 70
0
  0
ENDTAB
  0
TABLE
  2
APPID
  5
9
100
AcDbSymbolTable
 70
1
  0
APPID
  5
215
100
AcDbSymbolTableRecord
100
AcDbRegAppTableRecord
  2
ACAD
 70
0
  0
ENDTAB
  0
TABLE
  2
BLOCK_RECORD
  5
1
100
AcDbSymbolTable
 70
0
  0
BLOCK_RECORD
  5
216
100
AcDbSymbolTableRecord
100
AcDbBlockTableRecord
  2
*Model_Space
  0
BLOCK_RECORD
  5
217
100
AcDbSymbolTableRecord
100
AcDbBlockTableRecord
  2
*Paper_Space
  0
ENDTAB
  0
TABLE
  2
DIMSTYLE
  5
A
100
AcDbSymbolTable
 70
1
100
AcDbDimStyleTable
 71
0
  0
DIMSTYLE
105
218
100
AcDbSymbolTableRecord
100
AcDbDimStyleTableRecord
  2
STANDARD
 70
0
  3

  4

 40
1.0
 41
0.1875
 42
0.0625
 43
0.38
 44
0.125
 45
0.0
 46
0.0
 47
0.0001
 48
0.0001
140
0.15625
141
0.09
142
0.0
143
25.4
144
1.0
145
0.0
146
1.0
147
0.09
 71
0.0
 72
0.0
 73
1
 74
1
 75
0
 76
0
 77
0
 78
4
170
0
171
2
172
0
173
0
174
0
175
0
176
0
177
0
178
0
270
2
271
4
272
4
273
2
274
2
275
0
280
0
281
0
282
0
283
1
284
4
285
0
286
0
287
3
288
0
340
11
278
46
  0
ENDTAB
  0
ENDSEC
  0
SECTION
  2
BLOCKS
  0
BLOCK
  5
20
100
AcDbEntity
  8
0
100
AcDbBlockBegin
  2
*Model_Space
 70
0
 10
0.0
 20
0.0
 30
0.0
  3
*Model_Space
  1

  0
ENDBLK
  5
21
100
AcDbEntity
  8
0
100
AcDbBlockEnd
  0
BLOCK
  5
1C
100
AcDbEntity
  8
0
100
AcDbBlockBegin
  2
*Paper_Space
 70
0
 10
0.0
 20
0.0
 30
0.0
  3
*Paper_Space
  1

  0
ENDBLK
  5
1D
100
AcDbEntity
  8
0
100
AcDbBlockEnd
  0
ENDSEC
  0
SECTION
  2
ENTITIES
  0
MTEXT
  5
219
100
AcDbEntity
  8
0
100
AcDbMText
 62
7
  6
CONTINUOUS
  7
STANDARD
 71
1
 72
1
 10
15.9560215477
 20
0.9479130325
 30
0.0
 11
1.0
 21
0.0
 31
0.0
 44
0.9
  1
SCALE: 1:1.000
 40
0.3
 41
3.36
  0
LINE
  5
21A
100
AcDbEntity
  8
0
100
AcDbLine
 62
7
  6
CONTINUOUS
 10
0.0
 20
0.0
 11
0.0
 21
17.0
  0
LINE
  5
21B
100
AcDbEntity
  8
0
100
AcDbLine
 62
7
  6
CONTINUOUS
 10
0.0
 20
0.0
 11
22.0
 21
0.0
  0
LINE
  5
21C
100
AcDbEntity
  8
0
100
AcDbLine
 62
7
  6
CONTINUOUS
 10
0.0
 20
17.0
 11
22.0
 21
17.0
  0
LINE
  5
21D
100
AcDbEntity
  8
0
100
AcDbLine
 62
7
  6
CONTINUOUS
 10
22.0
 20
0.0
 11
22.0
 21
17.0
  0
LINE
  5
21E
100
AcDbEntity
  8
0
100
AcDbLine
 62
7
  6
CONTINUOUS
 10
5.0053672762
 20
5.5901198968
 11
5.0053672762
 21
5.5251198968
  0
LINE
  5
21F
100
AcDbEntity
  8
0
100
AcDbLine
 62
7
  6
CONTINUOUS
 10
5.0810068781
 20
5.5122591349
 11
5.0987551404
 21
5.4694110395
  0
LINE
  5
220
100
AcDbEntity
  8
0
100
AcDbLine
 62
7
  6
CONTINUOUS
 10
5.2869794119
 20
5.4694110395
 11
5.3047276742
 21
5.5122591349
  0
LINE
  5
221
100
AcDbEntity
  8
0
100
AcDbLine
 62
7
  6
CONTINUOUS
 10
5.4560068781
 20
5.5122591349
 11
5.4737551404
 21
5.4694110395
  0
LINE
  5
222
100
AcDbEntity
  8
0
100
AcDbLine
 62
7
  6
CONTINUOUS
 10
5.6619794119
 20
5.4694110395
 11
5.6797276742
 21
5.5122591349
  0
LINE
  5
223
100
AcDbEntity
  8
0
100
AcDbLine
 62
7
  6
CONTINUOUS
 10
5.8310068781
 20
5.5122591349
 11
5.8487551404
 21
5.4694110395
  0
LINE
  5
224
100
AcDbEntity
  8
0
100
AcDbLine
 62
7
  6
CONTINUOUS
 10
6.0369794119
 20
5.4694110395
 11
6.0547276742
 21
5.5122591349
  0
LINE
  5
225
100
AcDbEntity
  8
0
100
AcDbLine
 62
7
  6
CONTINUOUS
 10
5.1276263758
 20
5.4501198968
 11
5.2581081766
 21
5.4501198968
  0
LINE
  5
226
100
AcDbEntity
  8
0
100
AcDbLine
 62
7
  6
CONTINUOUS
 10
5.5026263758
 20
5.4501198968
 11
5.6331081766
 21
5.4501198968
  0
LINE
  5
227
100
AcDbEntity
  8
0
100
AcDbLine
 62
7
  6
CONTINUOUS
 10
5.8776263758
 20
5.4501198968
 11
6.0081081766
 21
5.4501198968
  0
LINE
  5
228
100
AcDbEntity
  8
0
100
AcDbLine
 62
7
  6
CONTINUOUS
 10
6.2526263758
 20
5.4501198968
 11
6.3831081766
 21
5.4501198968
  0
LINE
  5
229
100
AcDbEntity
  8
0
100
AcDbLine
 62
7
  6
CONTINUOUS
 10
6.6276263758
 20
5.4501198968
 11
6.7581081766
 21
5.4501198968
  0
LINE
  5
22A
100
AcDbEntity
  8
0
100
AcDbLine
 62
7
  6
CONTINUOUS
 10
7.0026263758
 20
5.4501198968
 11
7.1331081766
 21
5.4501198968
  0
LINE
  5
22B
100
AcDbEntity
  8
0
100
AcDbLine
 62
7
  6
CONTINUOUS
 10
5.0053672762
 20
5.5251198968
 11
5.0617593879
 21
5.5251198968
  0
LINE
  5
22C
100
AcDbEntity
  8
0
100
AcDbLine
 62
7
  6
CONTINUOUS
 10
5.3239751645
 20
5.5251198968
 11
5.4367593879
 21
5.5251198968
  0
LINE
  5
22D
100
AcDbEntity
  8
0
100
AcDbLine
 62
7
  6
CONTINUOUS
 10
5.6989751645
 20
5.5251198968
 11
5.8117593879
 21
5.5251198968
  0
LINE
  5
22E
100
AcDbEntity
  8
0
100
AcDbLine
 62
7
  6
CONTINUOUS
 10
6.0739751645
 20
5.5251198968
 11
6.1867593879
 21
5.5251198968
  0
LINE
  5
22F
100
AcDbEntity
  8
0
100
AcDbLine
 62
7
  6
CONTINUOUS
 10
6.4489751645
 20
5.5251198968
 11
6.5617593879
 21
5.5251198968
  0
LINE
  5
230
100
AcDbEntity
  8
0
100
AcDbLine
 62
7
  6
CONTINUOUS
 10
6.8239751645
 20
5.5251198968
 11
6.9367593879
 21
5.5251198968
  0
LINE
  5
231
100
AcDbEntity
  8
0
100
AcDbLine
 62
7
  6
CONTINUOUS
 10
7.1989751645
 20
5.5251198968
 11
7.2553672762
 21
5.5251198968
  0
LINE
  5
232
100
AcDbEntity
  8
0
100
AcDbLine
 62
7
  6
CONTINUOUS
 10
7.2553672762
 20
5.5901198968
 11
5.0053672762
 21
5.5901198968
  0
LINE
  5
233
100
AcDbEntity
  8
0
100
AcDbLine
 62
7
  6
CONTINUOUS
 10
6.2060068781
 20
5.5122591349
 11
6.2237551404
 21
5.4694110395
  0
LINE
  5
234
100
AcDbEntity
  8
0
100
AcDbLine
 62
7
  6
CONTINUOUS
 10
6.4119794119
 20
5.4694110395
 11
6.4297276742
 21
5.5122591349
  0
LINE
  5
235
100
AcDbEntity
  8
0
100
AcDbLine
 62
7
  6
CONTINUOUS
 10
6.5810068781
 20
5.5122591349
 11
6.5987551404
 21
5.4694110395
  0
LINE
  5
236
100
AcDbEntity
  8
0
100
AcDbLine
 62
7
  6
CONTINUOUS
 10
6.7869794119
 20
5.4694110395
 11
6.8047276742
 21
5.5122591349
  0
LINE
  5
237
100
AcDbEntity
  8
0
100
AcDbLine
 62
7
  6
CONTINUOUS
 10
6.9560068781
 20
5.5122591349
 11
6.9737551404
 21
5.4694110395
  0
LINE
  5
238
100
AcDbEntity
  8
0
100
AcDbLine
 62
7
  6
CONTINUOUS
 10
7.1619794119
 20
5.4694110395
 11
7.1797276742
 21
5.5122591349
  0
LINE
  5
239
100
AcDbEntity
  8
0
100
AcDbLine
 62
7
  6
CONTINUOUS
 10
7.2553672762
 20
5.5251198968
 11
7.2553672762
 21
5.5901198968
  0
LINE
  5
23A
100
AcDbEntity
  8
0
100
AcDbLine
 62
7
  6
CONTINUOUS
 10
4.9458720839
 20
12.9750477814
 11
4.9458720839
 21
12.2250477814
  0
LINE
  5
23B
100
AcDbEntity
  8
0
100
AcDbLine
 62
7
  6
CONTINUOUS
 10
7.1958720839
 20
12.2250477814
 11
4.9458720839
 21
12.2250477814
  0
LINE
  5
23C
100
AcDbEntity
  8
0
100
AcDbLine
 62
7
  6
CONTINUOUS
 10
4.9458720839
 20
12.9750477814
 11
7.1958720839
 21
12.9750477814
  0
LINE
  5
23D
100
AcDbEntity
  8
0
100
AcDbLine
 62
7
  6
CONTINUOUS
 10
7.1958720839
 20
12.9750477814
 11
7.1958720839
 21
12.2250477814
  0
LINE
  5
23E
100
AcDbEntity
  8
0
100
AcDbLine
 62
7
  6
CONTINUOUS
 10
15.1853552569
 20
5.3906247044
 11
15.1853552569
 21
5.5306247044
  0
LINE
  5
23F
100
AcDbEntity
  8
0
100
AcDbLine
 62
7
  6
CONTINUOUS
 10
15.1853552569
 20
5.3906247044
 11
15.9353552569
 21
5.3906247044
  0
LINE
  5
240
100
AcDbEntity
  8
0
100
AcDbLine
 62
7
  6
CONTINUOUS
 10
15.9353552569
 20
5.4656247044
 11
15.1853552569
 21
5.4656247044
  0
LINE
  5
241
100
AcDbEntity
  8
0
100
AcDbLine
 62
7
  6
CONTINUOUS
 10
15.9353552569
 20
5.5306247044
 11
15.1853552569
 21
5.5306247044
  0
LINE
  5
242
100
AcDbEntity
  8
0
100
AcDbLine
 62
7
  6
CONTINUOUS
 10
15.9353552569
 20
5.3906247044
 11
15.9353552569
 21
5.5306247044
  0
LINE
  5
243
100
AcDbEntity
  8
0
100
AcDbLine
 62
7
  6
CONTINUOUS
 10
14.3342301183
 20
12.2605700996
 11
14.3540578396
 21
12.2201654516
  0
LINE
  5
244
100
AcDbEntity
  8
0
100
AcDbLine
 62
7
  6
CONTINUOUS
 10
14.5157798608
 20
12.8480652818
 11
14.3342301183
 21
12.2605700996
  0
LINE
  5
245
100
AcDbEntity
  8
0
100
AcDbLine
 62
7
  6
CONTINUOUS
 10
14.4276495974
 20
12.2121710739
 11
14.4570672925
 21
12.1855362706
  0
LINE
  5
246
100
AcDbEntity
  8
0
100
AcDbLine
 62
7
  6
CONTINUOUS
 10
14.6304333271
 20
12.1855362706
 11
14.6337100962
 21
12.2121710739
  0
LINE
  5
247
100
AcDbEntity
  8
0
100
AcDbLine
 62
7
  6
CONTINUOUS
 10
14.6300527907
 20
12.183742707
 11
14.6304333271
 21
12.1855362706
  0
LINE
  5
248
100
AcDbEntity
  8
0
100
AcDbLine
 62
7
  6
CONTINUOUS
 10
14.6337100962
 20
12.2121710739
 11
14.6339682331
 21
12.2133654111
  0
LINE
  5
249
100
AcDbEntity
  8
0
100
AcDbLine
 62
7
  6
CONTINUOUS
 10
14.6305892179
 20
12.1854880967
 11
14.6409888802
 21
12.2191414162
  0
LINE
  5
24A
100
AcDbEntity
  8
0
100
AcDbLine
 62
7
  6
CONTINUOUS
 10
14.7730474701
 20
12.2121710739
 11
14.8024651652
 21
12.1855362706
  0
LINE
  5
24B
100
AcDbEntity
  8
0
100
AcDbLine
 62
7
  6
CONTINUOUS
 10
14.9758311999
 20
12.1855362706
 11
14.9791079689
 21
12.2121710739
  0
LINE
  5
24C
100
AcDbEntity
  8
0
100
AcDbLine
 62
7
  6
CONTINUOUS
 10
14.9754506635
 20
12.183742707
 11
14.9758311999
 21
12.1855362706
  0
LINE
  5
24D
100
AcDbEntity
  8
0
100
AcDbLine
 62
7
  6
CONTINUOUS
 10
14.9791079689
 20
12.2121710739
 11
14.9793661059
 21
12.2133654111
  0
LINE
  5
24E
100
AcDbEntity
  8
0
100
AcDbLine
 62
7
  6
CONTINUOUS
 10
15.1184453429
 20
12.2121710739
 11
15.147863038
 21
12.1855362706
  0
LINE
  5
24F
100
AcDbEntity
  8
0
100
AcDbLine
 62
7
  6
CONTINUOUS
 10
14.9759870906
 20
12.1854880967
 11
14.9863867529
 21
12.2191414162
  0
LINE
  5
250
100
AcDbEntity
  8
0
100
AcDbLine
 62
7
  6
CONTINUOUS
 10
14.4895440674
 20
12.173544704
 11
14.6097257645
 21
12.173544704
  0
LINE
  5
251
100
AcDbEntity
  8
0
100
AcDbLine
 62
7
  6
CONTINUOUS
 10
14.8349419402
 20
12.173544704
 11
14.9551236373
 21
12.173544704
  0
LINE
  5
252
100
AcDbEntity
  8
0
100
AcDbLine
 62
7
  6
CONTINUOUS
 10
15.1803398129
 20
12.173544704
 11
15.30052151
 21
12.173544704
  0
LINE
  5
253
100
AcDbEntity
  8
0
100
AcDbLine
 62
7
  6
CONTINUOUS
 10
15.5257376857
 20
12.173544704
 11
15.6459193828
 21
12.173544704
  0
LINE
  5
254
100
AcDbEntity
  8
0
100
AcDbLine
 62
7
  6
CONTINUOUS
 10
15.8711355584
 20
12.173544704
 11
15.9913172555
 21
12.173544704
  0
LINE
  5
255
100
AcDbEntity
  8
0
100
AcDbLine
 62
7
  6
CONTINUOUS
 10
16.2165334312
 20
12.173544704
 11
16.3367151283
 21
12.173544704
  0
LINE
  5
256
100
AcDbEntity
  8
0
100
AcDbLine
 62
7
  6
CONTINUOUS
 10
14.3540578396
 20
12.2201654516
 11
14.4059984141
 21
12.2201654516
  0
LINE
  5
257
100
AcDbEntity
  8
0
100
AcDbLine
 62
7
  6
CONTINUOUS
 10
14.6475151379
 20
12.2201654516
 11
14.7513962868
 21
12.2201654516
  0
LINE
  5
258
100
AcDbEntity
  8
0
100
AcDbLine
 62
7
  6
CONTINUOUS
 10
14.9929130106
 20
12.2201654516
 11
15.0967941596
 21
12.2201654516
  0
LINE
  5
259
100
AcDbEntity
  8
0
100
AcDbLine
 62
7
  6
CONTINUOUS
 10
15.3383108834
 20
12.2201654516
 11
15.4421920323
 21
12.2201654516
  0
LINE
  5
25A
100
AcDbEntity
  8
0
100
AcDbLine
 62
7
  6
CONTINUOUS
 10
15.6837087561
 20
12.2201654516
 11
15.7875899051
 21
12.2201654516
  0
LINE
  5
25B
100
AcDbEntity
  8
0
100
AcDbLine
 62
7
  6
CONTINUOUS
 10
16.0291066289
 20
12.2201654516
 11
16.1329877778
 21
12.2201654516
  0
LINE
  5
25C
100
AcDbEntity
  8
0
100
AcDbLine
 62
7
  6
CONTINUOUS
 10
16.3745045016
 20
12.2201654516
 11
16.4264450761
 21
12.2201654516
  0
LINE
  5
25D
100
AcDbEntity
  8
0
100
AcDbLine
 62
7
  6
CONTINUOUS
 10
16.4066173548
 20
12.2605700996
 11
14.3342301183
 21
12.2605700996
  0
LINE
  5
25E
100
AcDbEntity
  8
0
100
AcDbLine
 62
7
  6
CONTINUOUS
 10
15.4638432156
 20
12.2121710739
 11
15.4932609107
 21
12.1855362706
  0
LINE
  5
25F
100
AcDbEntity
  8
0
100
AcDbLine
 62
7
  6
CONTINUOUS
 10
15.3212290726
 20
12.1855362706
 11
15.3245058417
 21
12.2121710739
  0
LINE
  5
260
100
AcDbEntity
  8
0
100
AcDbLine
 62
7
  6
CONTINUOUS
 10
15.3208485362
 20
12.183742707
 11
15.3212290726
 21
12.1855362706
  0
LINE
  5
261
100
AcDbEntity
  8
0
100
AcDbLine
 62
7
  6
CONTINUOUS
 10
15.3245058417
 20
12.2121710739
 11
15.3247639786
 21
12.2133654111
  0
LINE
  5
262
100
AcDbEntity
  8
0
100
AcDbLine
 62
7
  6
CONTINUOUS
 10
15.3213849634
 20
12.1854880967
 11
15.3317846257
 21
12.2191414162
  0
LINE
  5
263
100
AcDbEntity
  8
0
100
AcDbLine
 62
7
  6
CONTINUOUS
 10
15.8092410884
 20
12.2121710739
 11
15.8386587835
 21
12.1855362706
  0
LINE
  5
264
100
AcDbEntity
  8
0
100
AcDbLine
 62
7
  6
CONTINUOUS
 10
15.6666269454
 20
12.1855362706
 11
15.6699037144
 21
12.2121710739
  0
LINE
  5
265
100
AcDbEntity
  8
0
100
AcDbLine
 62
7
  6
CONTINUOUS
 10
16.1546389611
 20
12.2121710739
 11
16.1840566562
 21
12.1855362706
  0
LINE
  5
266
100
AcDbEntity
  8
0
100
AcDbLine
 62
7
  6
CONTINUOUS
 10
15.666246409
 20
12.183742707
 11
15.6666269454
 21
12.1855362706
  0
LINE
  5
267
100
AcDbEntity
  8
0
100
AcDbLine
 62
7
  6
CONTINUOUS
 10
15.6699037144
 20
12.2121710739
 11
15.6701618514
 21
12.2133654111
  0
LINE
  5
268
100
AcDbEntity
  8
0
100
AcDbLine
 62
7
  6
CONTINUOUS
 10
15.6667828361
 20
12.1854880967
 11
15.6771824984
 21
12.2191414162
  0
LINE
  5
269
100
AcDbEntity
  8
0
100
AcDbLine
 62
7
  6
CONTINUOUS
 10
14.5157798608
 20
12.8480652818
 11
16.5881670973
 21
12.8480652818
  0
LINE
  5
26A
100
AcDbEntity
  8
0
100
AcDbLine
 62
7
  6
CONTINUOUS
 10
16.0120248181
 20
12.1855362706
 11
16.0153015872
 21
12.2121710739
  0
LINE
  5
26B
100
AcDbEntity
  8
0
100
AcDbLine
 62
7
  6
CONTINUOUS
 10
16.0116442817
 20
12.183742707
 11
16.0120248181
 21
12.1855362706
  0
LINE
  5
26C
100
AcDbEntity
  8
0
100
AcDbLine
 62
7
  6
CONTINUOUS
 10
16.0153015872
 20
12.2121710739
 11
16.0155597242
 21
12.2133654111
  0
LINE
  5
26D
100
AcDbEntity
  8
0
100
AcDbLine
 62
7
  6
CONTINUOUS
 10
16.0121807089
 20
12.1854880967
 11
16.0225803712
 21
12.2191414162
  0
LINE
  5
26E
100
AcDbEntity
  8
0
100
AcDbLine
 62
7
  6
CONTINUOUS
 10
16.4264450761
 20
12.2201654516
 11
16.4066173548
 21
12.2605700996
  0
LINE
  5
26F
100
AcDbEntity
  8
0
100
AcDbLine
 62
7
  6
CONTINUOUS
 10
16.3574226909
 20
12.1855362706
 11
16.3606994599
 21
12.2121710739
  0
LINE
  5
270
100
AcDbEntity
  8
0
100
AcDbLine
 62
7
  6
CONTINUOUS
 10
16.3570421545
 20
12.183742707
 11
16.3574226909
 21
12.1855362706
  0
LINE
  5
271
100
AcDbEntity
  8
0
100
AcDbLine
 62
7
  6
CONTINUOUS
 10
16.3606994599
 20
12.2121710739
 11
16.3609575969
 21
12.2133654111
  0
LINE
  5
272
100
AcDbEntity
  8
0
100
AcDbLine
 62
7
  6
CONTINUOUS
 10
16.3575785817
 20
12.1854880967
 11
16.3679782439
 21
12.2191414162
  0
LINE
  5
273
100
AcDbEntity
  8
0
100
AcDbLine
 62
7
  6
CONTINUOUS
 10
16.5881670973
 20
12.8480652818
 11
16.4066173548
 21
12.2605700996
  0
LINE
  5
274
100
AcDbEntity
  8
0
100
AcDbLine
 62
7
  6
CONTINUOUS
 10
16.6079948187
 20
12.8076606339
 11
16.4264450761
 21
12.2201654516
  0
LINE
  5
275
100
AcDbEntity
  8
0
100
AcDbLine
 62
7
  6
CONTINUOUS
 10
16.6079948187
 20
12.8076606339
 11
16.5881670973
 21
12.8480652818
  0
ARC
  5
276
100
AcDbEntity
  8
0
100
AcDbCircle
 62
7
  6
CONTINUOUS
 10
5.5026263758
 20
5.4813698968
 40
0.03125
100
AcDbArc
 50
202.5
 51
270.0
  0
ARC
  5
277
100
AcDbEntity
  8
0
100
AcDbCircle
 62
7
  6
CONTINUOUS
 10
5.6331081766
 20
5.4813698968
 40
0.03125
100
AcDbArc
 50
270.0
 51
337.5
  0
ARC
  5
278
100
AcDbEntity
  8
0
100
AcDbCircle
 62
7
  6
CONTINUOUS
 10
5.8776263758
 20
5.4813698968
 40
0.03125
100
AcDbArc
 50
202.5
 51
270.0
  0
ARC
  5
279
100
AcDbEntity
  8
0
100
AcDbCircle
 62
7
  6
CONTINUOUS
 10
6.0081081766
 20
5.4813698968
 40
0.03125
100
AcDbArc
 50
270.0
 51
337.5
  0
ARC
  5
27A
100
AcDbEntity
  8
0
100
AcDbCircle
 62
7
  6
CONTINUOUS
 10
6.2526263758
 20
5.4813698968
 40
0.03125
100
AcDbArc
 50
202.5
 51
270.0
  0
ARC
  5
27B
100
AcDbEntity
  8
0
100
AcDbCircle
 62
7
  6
CONTINUOUS
 10
6.3831081766
 20
5.4813698968
 40
0.03125
100
AcDbArc
 50
270.0
 51
337.5
  0
ARC
  5
27C
100
AcDbEntity
  8
0
100
AcDbCircle
 62
7
  6
CONTINUOUS
 10
5.2581081766
 20
5.4813698968
 40
0.03125
100
AcDbArc
 50
270.0
 51
337.5
  0
ARC
  5
27D
100
AcDbEntity
  8
0
100
AcDbCircle
 62
7
  6
CONTINUOUS
 10
5.1276263758
 20
5.4813698968
 40
0.03125
100
AcDbArc
 50
202.5
 51
270.0
  0
ARC
  5
27E
100
AcDbEntity
  8
0
100
AcDbCircle
 62
7
  6
CONTINUOUS
 10
7.1331081766
 20
5.4813698968
 40
0.03125
100
AcDbArc
 50
270.0
 51
337.5
  0
ARC
  5
27F
100
AcDbEntity
  8
0
100
AcDbCircle
 62
7
  6
CONTINUOUS
 10
7.0026263758
 20
5.4813698968
 40
0.03125
100
AcDbArc
 50
202.5
 51
270.0
  0
ARC
  5
280
100
AcDbEntity
  8
0
100
AcDbCircle
 62
7
  6
CONTINUOUS
 10
6.7581081766
 20
5.4813698968
 40
0.03125
100
AcDbArc
 50
270.0
 51
337.5
  0
ARC
  5
281
100
AcDbEntity
  8
0
100
AcDbCircle
 62
7
  6
CONTINUOUS
 10
6.6276263758
 20
5.4813698968
 40
0.03125
100
AcDbArc
 50
202.5
 51
270.0
  0
ARC
  5
282
100
AcDbEntity
  8
0
100
AcDbCircle
 62
7
  6
CONTINUOUS
 10
5.3239751645
 20
5.5042865634
 40
0.0208333333
100
AcDbArc
 50
90.0
 51
157.5
  0
ARC
  5
283
100
AcDbEntity
  8
0
100
AcDbCircle
 62
7
  6
CONTINUOUS
 10
5.0617593879
 20
5.5042865634
 40
0.0208333333
100
AcDbArc
 50
22.5
 51
90.0
  0
ARC
  5
284
100
AcDbEntity
  8
0
100
AcDbCircle
 62
7
  6
CONTINUOUS
 10
5.6989751645
 20
5.5042865634
 40
0.0208333333
100
AcDbArc
 50
90.0
 51
157.5
  0
ARC
  5
285
100
AcDbEntity
  8
0
100
AcDbCircle
 62
7
  6
CONTINUOUS
 10
5.4367593879
 20
5.5042865634
 40
0.0208333333
100
AcDbArc
 50
22.5
 51
90.0
  0
ARC
  5
286
100
AcDbEntity
  8
0
100
AcDbCircle
 62
7
  6
CONTINUOUS
 10
6.0739751645
 20
5.5042865634
 40
0.0208333333
100
AcDbArc
 50
90.0
 51
157.5
  0
ARC
  5
287
100
AcDbEntity
  8
0
100
AcDbCircle
 62
7
  6
CONTINUOUS
 10
5.8117593879
 20
5.5042865634
 40
0.0208333333
100
AcDbArc
 50
22.5
 51
90.0
  0
ARC
  5
288
100
AcDbEntity
  8
0
100
AcDbCircle
 62
7
  6
CONTINUOUS
 10
6.4489751645
 20
5.5042865634
 40
0.0208333333
100
AcDbArc
 50
90.0
 51
157.5
  0
ARC
  5
289
100
AcDbEntity
  8
0
100
AcDbCircle
 62
7
  6
CONTINUOUS
 10
6.1867593879
 20
5.5042865634
 40
0.0208333333
100
AcDbArc
 50
22.5
 51
90.0
  0
ARC
  5
28A
100
AcDbEntity
  8
0
100
AcDbCircle
 62
7
  6
CONTINUOUS
 10
6.8239751645
 20
5.5042865634
 40
0.0208333333
100
AcDbArc
 50
90.0
 51
157.5
  0
ARC
  5
28B
100
AcDbEntity
  8
0
100
AcDbCircle
 62
7
  6
CONTINUOUS
 10
6.5617593879
 20
5.5042865634
 40
0.0208333333
100
AcDbArc
 50
22.5
 51
90.0
  0
ARC
  5
28C
100
AcDbEntity
  8
0
100
AcDbCircle
 62
7
  6
CONTINUOUS
 10
7.1989751645
 20
5.5042865634
 40
0.0208333333
100
AcDbArc
 50
90.0
 51
157.5
  0
ARC
  5
28D
100
AcDbEntity
  8
0
100
AcDbCircle
 62
7
  6
CONTINUOUS
 10
6.9367593879
 20
5.5042865634
 40
0.0208333333
100
AcDbArc
 50
22.5
 51
90.0
  0
LINE
  5
28E
100
AcDbEntity
  8
0
100
AcDbLine
 62
7
  6
CONTINUOUS
 10
14.6339662293
 20
12.2133660307
 11
14.6349996207
 21
12.2154227034
  0
SPLINE
  5
28F
100
AcDbEntity
  8
0
100
AcDbSpline
 62
7
  6
CONTINUOUS
 70
0
 71
3
 72
14
 73
10
 74
0
 42
0.0000001
 43
0.0000001
 44
0.0000000001
 40
0.0
 40
0.0
 40
0.0
 40
0.0
 40
0.1008724368
 40
0.2072988294
 40
0.3205387729
 40
0.4413702279
 40
0.7063114493
 40
0.8500860218
 40
1.0
 40
1.0
 40
1.0
 40
1.0
 10
14.6349996207
 20
12.2154227034
 30
0.0
 10
14.6352723785
 20
12.2158000874
 30
0.0
 10
14.6359061771
 20
12.2165245949
 30
0.0
 10
14.6370529009
 20
12.2174682048
 30
0.0
 10
14.6384022952
 20
12.2182839447
 30
0.0
 10
14.6405136784
 20
12.2192170362
 30
0.0
 10
14.6429042282
 20
12.2198148069
 30
0.0
 10
14.6454664648
 20
12.2201153756
 30
0.0
 10
14.6468231241
 20
12.2201654516
 30
0.0
 10
14.6475151379
 20
12.2201654516
 30
0.0
  0
LINE
  5
290
100
AcDbEntity
  8
0
100
AcDbLine
 62
7
  6
CONTINUOUS
 10
14.979364102
 20
12.2133660307
 11
14.9803974934
 21
12.2154227034
  0
SPLINE
  5
291
100
AcDbEntity
  8
0
100
AcDbSpline
 62
7
  6
CONTINUOUS
 70
0
 71
3
 72
14
 73
10
 74
0
 42
0.0000001
 43
0.0000001
 44
0.0000000001
 40
0.0
 40
0.0
 40
0.0
 40
0.0
 40
0.1008724368
 40
0.2072988294
 40
0.3205387729
 40
0.4413702279
 40
0.7063114493
 40
0.8500860218
 40
1.0
 40
1.0
 40
1.0
 40
1.0
 10
14.9803974934
 20
12.2154227034
 30
0.0
 10
14.9806702512
 20
12.2158000874
 30
0.0
 10
14.9813040498
 20
12.2165245949
 30
0.0
 10
14.9824507736
 20
12.2174682048
 30
0.0
 10
14.9838001679
 20
12.2182839447
 30
0.0
 10
14.9859115511
 20
12.2192170362
 30
0.0
 10
14.9883021009
 20
12.2198148069
 30
0.0
 10
14.9908643375
 20
12.2201153756
 30
0.0
 10
14.9922209968
 20
12.2201654516
 30
0.0
 10
14.9929130106
 20
12.2201654516
 30
0.0
  0
LINE
  5
292
100
AcDbEntity
  8
0
100
AcDbLine
 62
7
  6
CONTINUOUS
 10
15.3247619748
 20
12.2133660307
 11
15.3257953662
 21
12.2154227034
  0
SPLINE
  5
293
100
AcDbEntity
  8
0
100
AcDbSpline
 62
7
  6
CONTINUOUS
 70
0
 71
3
 72
14
 73
10
 74
0
 42
0.0000001
 43
0.0000001
 44
0.0000000001
 40
0.0
 40
0.0
 40
0.0
 40
0.0
 40
0.1008724368
 40
0.2072988294
 40
0.3205387729
 40
0.4413702279
 40
0.7063114493
 40
0.8500860218
 40
1.0
 40
1.0
 40
1.0
 40
1.0
 10
15.3257953662
 20
12.2154227034
 30
0.0
 10
15.326068124
 20
12.2158000874
 30
0.0
 10
15.3267019226
 20
12.2165245949
 30
0.0
 10
15.3278486464
 20
12.2174682048
 30
0.0
 10
15.3291980407
 20
12.2182839447
 30
0.0
 10
15.3313094239
 20
12.2192170362
 30
0.0
 10
15.3336999737
 20
12.2198148069
 30
0.0
 10
15.3362622103
 20
12.2201153756
 30
0.0
 10
15.3376188696
 20
12.2201654516
 30
0.0
 10
15.3383108834
 20
12.2201654516
 30
0.0
  0
LINE
  5
294
100
AcDbEntity
  8
0
100
AcDbLine
 62
7
  6
CONTINUOUS
 10
15.6701598475
 20
12.2133660307
 11
15.671193239
 21
12.2154227034
  0
SPLINE
  5
295
100
AcDbEntity
  8
0
100
AcDbSpline
 62
7
  6
CONTINUOUS
 70
0
 71
3
 72
14
 73
10
 74
0
 42
0.0000001
 43
0.0000001
 44
0.0000000001
 40
0.0
 40
0.0
 40
0.0
 40
0.0
 40
0.1008724368
 40
0.2072988294
 40
0.3205387729
 40
0.4413702279
 40
0.7063114493
 40
0.8500860218
 40
1.0
 40
1.0
 40
1.0
 40
1.0
 10
15.671193239
 20
12.2154227034
 30
0.0
 10
15.6714659967
 20
12.2158000874
 30
0.0
 10
15.6720997953
 20
12.2165245949
 30
0.0
 10
15.6732465191
 20
12.2174682048
 30
0.0
 10
15.6745959134
 20
12.2182839447
 30
0.0
 10
15.6767072966
 20
12.2192170362
 30
0.0
 10
15.6790978464
 20
12.2198148069
 30
0.0
 10
15.681660083
 20
12.2201153756
 30
0.0
 10
15.6830167423
 20
12.2201654516
 30
0.0
 10
15.6837087561
 20
12.2201654516
 30
0.0
  0
LINE
  5
296
100
AcDbEntity
  8
0
100
AcDbLine
 62
7
  6
CONTINUOUS
 10
16.0155577203
 20
12.2133660307
 11
16.0165911117
 21
12.2154227034
  0
SPLINE
  5
297
100
AcDbEntity
  8
0
100
AcDbSpline
 62
7
  6
CONTINUOUS
 70
0
 71
3
 72
14
 73
10
 74
0
 42
0.0000001
 43
0.0000001
 44
0.0000000001
 40
0.0
 40
0.0
 40
0.0
 40
0.0
 40
0.1008724368
 40
0.2072988294
 40
0.3205387729
 40
0.4413702279
 40
0.7063114493
 40
0.8500860218
 40
1.0
 40
1.0
 40
1.0
 40
1.0
 10
16.0165911117
 20
12.2154227034
 30
0.0
 10
16.0168638695
 20
12.2158000874
 30
0.0
 10
16.0174976681
 20
12.2165245949
 30
0.0
 10
16.0186443919
 20
12.2174682048
 30
0.0
 10
16.0199937862
 20
12.2182839447
 30
0.0
 10
16.0221051694
 20
12.2192170362
 30
0.0
 10
16.0244957192
 20
12.2198148069
 30
0.0
 10
16.0270579558
 20
12.2201153756
 30
0.0
 10
16.0284146151
 20
12.2201654516
 30
0.0
 10
16.0291066289
 20
12.2201654516
 30
0.0
  0
LINE
  5
298
100
AcDbEntity
  8
0
100
AcDbLine
 62
7
  6
CONTINUOUS
 10
16.360955593
 20
12.2133660307
 11
16.3619889845
 21
12.2154227034
  0
SPLINE
  5
299
100
AcDbEntity
  8
0
100
AcDbSpline
 62
7
  6
CONTINUOUS
 70
0
 71
3
 72
14
 73
10
 74
0
 42
0.0000001
 43
0.0000001
 44
0.0000000001
 40
0.0
 40
0.0
 40
0.0
 40
0.0
 40
0.1008724368
 40
0.2072988294
 40
0.3205387729
 40
0.4413702279
 40
0.7063114493
 40
0.8500860218
 40
1.0
 40
1.0
 40
1.0
 40
1.0
 10
16.3619889845
 20
12.2154227034
 30
0.0
 10
16.3622617422
 20
12.2158000874
 30
0.0
 10
16.3628955408
 20
12.2165245949
 30
0.0
 10
16.3640422646
 20
12.2174682048
 30
0.0
 10
16.3653916589
 20
12.2182839447
 30
0.0
 10
16.3675030421
 20
12.2192170362
 30
0.0
 10
16.3698935919
 20
12.2198148069
 30
0.0
 10
16.3724558285
 20
12.2201153756
 30
0.0
 10
16.3738124878
 20
12.2201654516
 30
0.0
 10
16.3745045016
 20
12.2201654516
 30
0.0
  0
SPLINE
  5
29A
100
AcDbEntity
  8
0
100
AcDbSpline
 62
7
  6
CONTINUOUS
 70
0
 71
3
 72
15
 73
11
 74
0
 42
0.0000001
 43
0.0000001
 44
0.0000000001
 40
0.0
 40
0.0
 40
0.0
 40
0.0
 40
0.1557507029
 40
0.3032142046
 40
0.4410979796
 40
0.5690411891
 40
0.6873379176
 40
0.7970482561
 40
0.9002754475
 40
1.0
 40
1.0
 40
1.0
 40
1.0
 10
14.6097257645
 20
12.173544704
 30
0.0
 10
14.610983921
 20
12.173544704
 30
0.0
 10
14.6134351408
 20
12.1736533398
 30
0.0
 10
14.6169680401
 20
12.1741635907
 30
0.0
 10
14.620205402
 20
12.1750122117
 30
0.0
 10
14.6230890701
 20
12.1761850377
 30
0.0
 10
14.6255695815
 20
12.1776645308
 30
0.0
 10
14.6276005968
 20
12.1794319654
 30
0.0
 10
14.6291384311
 20
12.1814597518
 30
0.0
 10
14.6298116439
 20
12.1829740633
 30
0.0
 10
14.6300496183
 20
12.1837436876
 30
0.0
  0
SPLINE
  5
29B
100
AcDbEntity
  8
0
100
AcDbSpline
 62
7
  6
CONTINUOUS
 70
0
 71
3
 72
15
 73
11
 74
0
 42
0.0000001
 43
0.0000001
 44
0.0000000001
 40
0.0
 40
0.0
 40
0.0
 40
0.0
 40
0.1148729552
 40
0.2360780202
 40
0.3619573591
 40
0.4908828356
 40
0.6210130773
 40
0.7504589692
 40
0.8774378041
 40
1.0
 40
1.0
 40
1.0
 40
1.0
 10
14.4570672925
 20
12.1855362706
 30
0.0
 10
14.4580700149
 20
12.184628405
 30
0.0
 10
14.4602424637
 20
12.1828836631
 30
0.0
 10
14.4638229611
 20
12.1805603154
 30
0.0
 10
14.4677499835
 20
12.1785021387
 30
0.0
 10
14.4719377399
 20
12.1767535405
 30
0.0
 10
14.4762973895
 20
12.1753499495
 30
0.0
 10
14.4807374031
 20
12.1743224469
 30
0.0
 10
14.4851610008
 20
12.1736938263
 30
0.0
 10
14.4881008712
 20
12.173544704
 30
0.0
 10
14.4895440674
 20
12.173544704
 30
0.0
  0
SPLINE
  5
29C
100
AcDbEntity
  8
0
100
AcDbSpline
 62
7
  6
CONTINUOUS
 70
0
 71
3
 72
15
 73
11
 74
0
 42
0.0000001
 43
0.0000001
 44
0.0000000001
 40
0.0
 40
0.0
 40
0.0
 40
0.0
 40
0.1557507029
 40
0.3032142046
 40
0.4410979796
 40
0.5690411891
 40
0.6873379176
 40
0.7970482561
 40
0.9002754475
 40
1.0
 40
1.0
 40
1.0
 40
1.0
 10
16.3367151283
 20
12.173544704
 30
0.0
 10
16.3379732847
 20
12.173544704
 30
0.0
 10
16.3404245045
 20
12.1736533398
 30
0.0
 10
16.3439574038
 20
12.1741635907
 30
0.0
 10
16.3471947657
 20
12.1750122117
 30
0.0
 10
16.3500784339
 20
12.1761850377
 30
0.0
 10
16.3525589453
 20
12.1776645308
 30
0.0
 10
16.3545899606
 20
12.1794319654
 30
0.0
 10
16.3561277949
 20
12.1814597518
 30
0.0
 10
16.3568010076
 20
12.1829740633
 30
0.0
 10
16.357038982
 20
12.1837436876
 30
0.0
  0
SPLINE
  5
29D
100
AcDbEntity
  8
0
100
AcDbSpline
 62
7
  6
CONTINUOUS
 70
0
 71
3
 72
15
 73
11
 74
0
 42
0.0000001
 43
0.0000001
 44
0.0000000001
 40
0.0
 40
0.0
 40
0.0
 40
0.0
 40
0.1148729552
 40
0.2360780202
 40
0.3619573591
 40
0.4908828356
 40
0.6210130773
 40
0.7504589692
 40
0.8774378041
 40
1.0
 40
1.0
 40
1.0
 40
1.0
 10
16.1840566562
 20
12.1855362706
 30
0.0
 10
16.1850593786
 20
12.184628405
 30
0.0
 10
16.1872318274
 20
12.1828836631
 30
0.0
 10
16.1908123248
 20
12.1805603154
 30
0.0
 10
16.1947393473
 20
12.1785021387
 30
0.0
 10
16.1989271036
 20
12.1767535405
 30
0.0
 10
16.2032867533
 20
12.1753499495
 30
0.0
 10
16.2077267669
 20
12.1743224469
 30
0.0
 10
16.2121503646
 20
12.1736938263
 30
0.0
 10
16.2150902349
 20
12.173544704
 30
0.0
 10
16.2165334312
 20
12.173544704
 30
0.0
  0
SPLINE
  5
29E
100
AcDbEntity
  8
0
100
AcDbSpline
 62
7
  6
CONTINUOUS
 70
0
 71
3
 72
15
 73
11
 74
0
 42
0.0000001
 43
0.0000001
 44
0.0000000001
 40
0.0
 40
0.0
 40
0.0
 40
0.0
 40
0.1557507029
 40
0.3032142046
 40
0.4410979796
 40
0.5690411891
 40
0.6873379176
 40
0.7970482561
 40
0.9002754475
 40
1.0
 40
1.0
 40
1.0
 40
1.0
 10
15.9913172555
 20
12.173544704
 30
0.0
 10
15.992575412
 20
12.173544704
 30
0.0
 10
15.9950266318
 20
12.1736533398
 30
0.0
 10
15.9985595311
 20
12.1741635907
 30
0.0
 10
16.001796893
 20
12.1750122117
 30
0.0
 10
16.0046805611
 20
12.1761850377
 30
0.0
 10
16.0071610725
 20
12.1776645308
 30
0.0
 10
16.0091920878
 20
12.1794319654
 30
0.0
 10
16.0107299221
 20
12.1814597518
 30
0.0
 10
16.0114031349
 20
12.1829740633
 30
0.0
 10
16.0116411093
 20
12.1837436876
 30
0.0
  0
SPLINE
  5
29F
100
AcDbEntity
  8
0
100
AcDbSpline
 62
7
  6
CONTINUOUS
 70
0
 71
3
 72
15
 73
11
 74
0
 42
0.0000001
 43
0.0000001
 44
0.0000000001
 40
0.0
 40
0.0
 40
0.0
 40
0.0
 40
0.1148729552
 40
0.2360780202
 40
0.3619573591
 40
0.4908828356
 40
0.6210130773
 40
0.7504589692
 40
0.8774378041
 40
1.0
 40
1.0
 40
1.0
 40
1.0
 10
15.8386587835
 20
12.1855362706
 30
0.0
 10
15.8396615059
 20
12.184628405
 30
0.0
 10
15.8418339547
 20
12.1828836631
 30
0.0
 10
15.8454144521
 20
12.1805603154
 30
0.0
 10
15.8493414745
 20
12.1785021387
 30
0.0
 10
15.8535292309
 20
12.1767535405
 30
0.0
 10
15.8578888805
 20
12.1753499495
 30
0.0
 10
15.8623288941
 20
12.1743224469
 30
0.0
 10
15.8667524918
 20
12.1736938263
 30
0.0
 10
15.8696923622
 20
12.173544704
 30
0.0
 10
15.8711355584
 20
12.173544704
 30
0.0
  0
SPLINE
  5
2A0
100
AcDbEntity
  8
0
100
AcDbSpline
 62
7
  6
CONTINUOUS
 70
0
 71
3
 72
15
 73
11
 74
0
 42
0.0000001
 43
0.0000001
 44
0.0000000001
 40
0.0
 40
0.0
 40
0.0
 40
0.0
 40
0.1557507029
 40
0.3032142046
 40
0.4410979796
 40
0.5690411891
 40
0.6873379176
 40
0.7970482561
 40
0.9002754475
 40
1.0
 40
1.0
 40
1.0
 40
1.0
 10
15.6459193828
 20
12.173544704
 30
0.0
 10
15.6471775392
 20
12.173544704
 30
0.0
 10
15.649628759
 20
12.1736533398
 30
0.0
 10
15.6531616583
 20
12.1741635907
 30
0.0
 10
15.6563990202
 20
12.1750122117
 30
0.0
 10
15.6592826884
 20
12.1761850377
 30
0.0
 10
15.6617631998
 20
12.1776645308
 30
0.0
 10
15.6637942151
 20
12.1794319654
 30
0.0
 10
15.6653320494
 20
12.1814597518
 30
0.0
 10
15.6660052621
 20
12.1829740633
 30
0.0
 10
15.6662432365
 20
12.1837436876
 30
0.0
  0
SPLINE
  5
2A1
100
AcDbEntity
  8
0
100
AcDbSpline
 62
7
  6
CONTINUOUS
 70
0
 71
3
 72
15
 73
11
 74
0
 42
0.0000001
 43
0.0000001
 44
0.0000000001
 40
0.0
 40
0.0
 40
0.0
 40
0.0
 40
0.1148729552
 40
0.2360780202
 40
0.3619573591
 40
0.4908828356
 40
0.6210130773
 40
0.7504589692
 40
0.8774378041
 40
1.0
 40
1.0
 40
1.0
 40
1.0
 10
15.4932609107
 20
12.1855362706
 30
0.0
 10
15.4942636331
 20
12.184628405
 30
0.0
 10
15.4964360819
 20
12.1828836631
 30
0.0
 10
15.5000165793
 20
12.1805603154
 30
0.0
 10
15.5039436018
 20
12.1785021387
 30
0.0
 10
15.5081313581
 20
12.1767535405
 30
0.0
 10
15.5124910078
 20
12.1753499495
 30
0.0
 10
15.5169310214
 20
12.1743224469
 30
0.0
 10
15.5213546191
 20
12.1736938263
 30
0.0
 10
15.5242944894
 20
12.173544704
 30
0.0
 10
15.5257376857
 20
12.173544704
 30
0.0
  0
SPLINE
  5
2A2
100
AcDbEntity
  8
0
100
AcDbSpline
 62
7
  6
CONTINUOUS
 70
0
 71
3
 72
15
 73
11
 74
0
 42
0.0000001
 43
0.0000001
 44
0.0000000001
 40
0.0
 40
0.0
 40
0.0
 40
0.0
 40
0.1557507029
 40
0.3032142046
 40
0.4410979796
 40
0.5690411891
 40
0.6873379176
 40
0.7970482561
 40
0.9002754475
 40
1.0
 40
1.0
 40
1.0
 40
1.0
 10
15.30052151
 20
12.173544704
 30
0.0
 10
15.3017796665
 20
12.173544704
 30
0.0
 10
15.3042308863
 20
12.1736533398
 30
0.0
 10
15.3077637856
 20
12.1741635907
 30
0.0
 10
15.3110011475
 20
12.1750122117
 30
0.0
 10
15.3138848156
 20
12.1761850377
 30
0.0
 10
15.316365327
 20
12.1776645308
 30
0.0
 10
15.3183963423
 20
12.1794319654
 30
0.0
 10
15.3199341766
 20
12.1814597518
 30
0.0
 10
15.3206073894
 20
12.1829740633
 30
0.0
 10
15.3208453638
 20
12.1837436876
 30
0.0
  0
SPLINE
  5
2A3
100
AcDbEntity
  8
0
100
AcDbSpline
 62
7
  6
CONTINUOUS
 70
0
 71
3
 72
15
 73
11
 74
0
 42
0.0000001
 43
0.0000001
 44
0.0000000001
 40
0.0
 40
0.0
 40
0.0
 40
0.0
 40
0.1148729552
 40
0.2360780202
 40
0.3619573591
 40
0.4908828356
 40
0.6210130773
 40
0.7504589692
 40
0.8774378041
 40
1.0
 40
1.0
 40
1.0
 40
1.0
 10
15.147863038
 20
12.1855362706
 30
0.0
 10
15.1488657604
 20
12.184628405
 30
0.0
 10
15.1510382092
 20
12.1828836631
 30
0.0
 10
15.1546187066
 20
12.1805603154
 30
0.0
 10
15.158545729
 20
12.1785021387
 30
0.0
 10
15.1627334854
 20
12.1767535405
 30
0.0
 10
15.167093135
 20
12.1753499495
 30
0.0
 10
15.1715331486
 20
12.1743224469
 30
0.0
 10
15.1759567463
 20
12.1736938263
 30
0.0
 10
15.1788966167
 20
12.173544704
 30
0.0
 10
15.1803398129
 20
12.173544704
 30
0.0
  0
SPLINE
  5
2A4
100
AcDbEntity
  8
0
100
AcDbSpline
 62
7
  6
CONTINUOUS
 70
0
 71
3
 72
15
 73
11
 74
0
 42
0.0000001
 43
0.0000001
 44
0.0000000001
 40
0.0
 40
0.0
 40
0.0
 40
0.0
 40
0.1557507029
 40
0.3032142046
 40
0.4410979796
 40
0.5690411891
 40
0.6873379176
 40
0.7970482561
 40
0.9002754475
 40
1.0
 40
1.0
 40
1.0
 40
1.0
 10
14.9551236373
 20
12.173544704
 30
0.0
 10
14.9563817937
 20
12.173544704
 30
0.0
 10
14.9588330135
 20
12.1736533398
 30
0.0
 10
14.9623659128
 20
12.1741635907
 30
0.0
 10
14.9656032747
 20
12.1750122117
 30
0.0
 10
14.9684869429
 20
12.1761850377
 30
0.0
 10
14.9709674543
 20
12.1776645308
 30
0.0
 10
14.9729984696
 20
12.1794319654
 30
0.0
 10
14.9745363039
 20
12.1814597518
 30
0.0
 10
14.9752095166
 20
12.1829740633
 30
0.0
 10
14.975447491
 20
12.1837436876
 30
0.0
  0
SPLINE
  5
2A5
100
AcDbEntity
  8
0
100
AcDbSpline
 62
7
  6
CONTINUOUS
 70
0
 71
3
 72
15
 73
11
 74
0
 42
0.0000001
 43
0.0000001
 44
0.0000000001
 40
0.0
 40
0.0
 40
0.0
 40
0.0
 40
0.1148729552
 40
0.2360780202
 40
0.3619573591
 40
0.4908828356
 40
0.6210130773
 40
0.7504589692
 40
0.8774378041
 40
1.0
 40
1.0
 40
1.0
 40
1.0
 10
14.8024651652
 20
12.1855362706
 30
0.0
 10
14.8034678876
 20
12.184628405
 30
0.0
 10
14.8056403364
 20
12.1828836631
 30
0.0
 10
14.8092208338
 20
12.1805603154
 30
0.0
 10
14.8131478563
 20
12.1785021387
 30
0.0
 10
14.8173356126
 20
12.1767535405
 30
0.0
 10
14.8216952623
 20
12.1753499495
 30
0.0
 10
14.8261352759
 20
12.1743224469
 30
0.0
 10
14.8305588736
 20
12.1736938263
 30
0.0
 10
14.8334987439
 20
12.173544704
 30
0.0
 10
14.8349419402
 20
12.173544704
 30
0.0
  0
SPLINE
  5
2A6
100
AcDbEntity
  8
0
100
AcDbSpline
 62
7
  6
CONTINUOUS
 70
0
 71
3
 72
15
 73
11
 74
0
 42
0.0000001
 43
0.0000001
 44
0.0000000001
 40
0.0
 40
0.0
 40
0.0
 40
0.0
 40
0.1224855019
 40
0.2495249695
 40
0.3790233442
 40
0.5091197653
 40
0.6380077835
 40
0.763936819
 40
0.8851964119
 40
1.0
 40
1.0
 40
1.0
 40
1.0
 10
14.4059984141
 20
12.2201654516
 30
0.0
 10
14.4069599399
 20
12.2201654516
 30
0.0
 10
14.4089196753
 20
12.2200655075
 30
0.0
 10
14.4118691425
 20
12.2196472865
 30
0.0
 10
14.4148296224
 20
12.2189615731
 30
0.0
 10
14.4177361306
 20
12.2180265867
 30
0.0
 10
14.4205275198
 20
12.2168602531
 30
0.0
 10
14.423146277
 20
12.2154884166
 30
0.0
 10
14.4255329736
 20
12.213938574
 30
0.0
 10
14.4269815215
 20
12.2127759503
 30
0.0
 10
14.4276495974
 20
12.2121710739
 30
0.0
  0
SPLINE
  5
2A7
100
AcDbEntity
  8
0
100
AcDbSpline
 62
7
  6
CONTINUOUS
 70
0
 71
3
 72
15
 73
11
 74
0
 42
0.0000001
 43
0.0000001
 44
0.0000000001
 40
0.0
 40
0.0
 40
0.0
 40
0.0
 40
0.1224855019
 40
0.2495249695
 40
0.3790233442
 40
0.5091197653
 40
0.6380077835
 40
0.763936819
 40
0.8851964119
 40
1.0
 40
1.0
 40
1.0
 40
1.0
 10
14.7513962868
 20
12.2201654516
 30
0.0
 10
14.7523578126
 20
12.2201654516
 30
0.0
 10
14.7543175481
 20
12.2200655075
 30
0.0
 10
14.7572670153
 20
12.2196472865
 30
0.0
 10
14.7602274952
 20
12.2189615731
 30
0.0
 10
14.7631340033
 20
12.2180265867
 30
0.0
 10
14.7659253926
 20
12.2168602531
 30
0.0
 10
14.7685441498
 20
12.2154884166
 30
0.0
 10
14.7709308464
 20
12.213938574
 30
0.0
 10
14.7723793943
 20
12.2127759503
 30
0.0
 10
14.7730474701
 20
12.2121710739
 30
0.0
  0
SPLINE
  5
2A8
100
AcDbEntity
  8
0
100
AcDbSpline
 62
7
  6
CONTINUOUS
 70
0
 71
3
 72
15
 73
11
 74
0
 42
0.0000001
 43
0.0000001
 44
0.0000000001
 40
0.0
 40
0.0
 40
0.0
 40
0.0
 40
0.1224855019
 40
0.2495249695
 40
0.3790233442
 40
0.5091197653
 40
0.6380077835
 40
0.763936819
 40
0.8851964119
 40
1.0
 40
1.0
 40
1.0
 40
1.0
 10
15.0967941596
 20
12.2201654516
 30
0.0
 10
15.0977556854
 20
12.2201654516
 30
0.0
 10
15.0997154208
 20
12.2200655075
 30
0.0
 10
15.102664888
 20
12.2196472865
 30
0.0
 10
15.1056253679
 20
12.2189615731
 30
0.0
 10
15.1085318761
 20
12.2180265867
 30
0.0
 10
15.1113232653
 20
12.2168602531
 30
0.0
 10
15.1139420225
 20
12.2154884166
 30
0.0
 10
15.1163287191
 20
12.213938574
 30
0.0
 10
15.117777267
 20
12.2127759503
 30
0.0
 10
15.1184453429
 20
12.2121710739
 30
0.0
  0
SPLINE
  5
2A9
100
AcDbEntity
  8
0
100
AcDbSpline
 62
7
  6
CONTINUOUS
 70
0
 71
3
 72
15
 73
11
 74
0
 42
0.0000001
 43
0.0000001
 44
0.0000000001
 40
0.0
 40
0.0
 40
0.0
 40
0.0
 40
0.1224855019
 40
0.2495249695
 40
0.3790233442
 40
0.5091197653
 40
0.6380077835
 40
0.763936819
 40
0.8851964119
 40
1.0
 40
1.0
 40
1.0
 40
1.0
 10
15.4421920323
 20
12.2201654516
 30
0.0
 10
15.4431535581
 20
12.2201654516
 30
0.0
 10
15.4451132936
 20
12.2200655075
 30
0.0
 10
15.4480627608
 20
12.2196472865
 30
0.0
 10
15.4510232407
 20
12.2189615731
 30
0.0
 10
15.4539297488
 20
12.2180265867
 30
0.0
 10
15.4567211381
 20
12.2168602531
 30
0.0
 10
15.4593398953
 20
12.2154884166
 30
0.0
 10
15.4617265919
 20
12.213938574
 30
0.0
 10
15.4631751398
 20
12.2127759503
 30
0.0
 10
15.4638432156
 20
12.2121710739
 30
0.0
  0
SPLINE
  5
2AA
100
AcDbEntity
  8
0
100
AcDbSpline
 62
7
  6
CONTINUOUS
 70
0
 71
3
 72
15
 73
11
 74
0
 42
0.0000001
 43
0.0000001
 44
0.0000000001
 40
0.0
 40
0.0
 40
0.0
 40
0.0
 40
0.1224855019
 40
0.2495249695
 40
0.3790233442
 40
0.5091197653
 40
0.6380077835
 40
0.763936819
 40
0.8851964119
 40
1.0
 40
1.0
 40
1.0
 40
1.0
 10
15.7875899051
 20
12.2201654516
 30
0.0
 10
15.7885514309
 20
12.2201654516
 30
0.0
 10
15.7905111663
 20
12.2200655075
 30
0.0
 10
15.7934606335
 20
12.2196472865
 30
0.0
 10
15.7964211134
 20
12.2189615731
 30
0.0
 10
15.7993276216
 20
12.2180265867
 30
0.0
 10
15.8021190108
 20
12.2168602531
 30
0.0
 10
15.804737768
 20
12.2154884166
 30
0.0
 10
15.8071244646
 20
12.213938574
 30
0.0
 10
15.8085730125
 20
12.2127759503
 30
0.0
 10
15.8092410884
 20
12.2121710739
 30
0.0
  0
SPLINE
  5
2AB
100
AcDbEntity
  8
0
100
AcDbSpline
 62
7
  6
CONTINUOUS
 70
0
 71
3
 72
15
 73
11
 74
0
 42
0.0000001
 43
0.0000001
 44
0.0000000001
 40
0.0
 40
0.0
 40
0.0
 40
0.0
 40
0.1224855019
 40
0.2495249695
 40
0.3790233442
 40
0.5091197653
 40
0.6380077835
 40
0.763936819
 40
0.8851964119
 40
1.0
 40
1.0
 40
1.0
 40
1.0
 10
16.1329877778
 20
12.2201654516
 30
0.0
 10
16.1339493036
 20
12.2201654516
 30
0.0
 10
16.1359090391
 20
12.2200655075
 30
0.0
 10
16.1388585063
 20
12.2196472865
 30
0.0
 10
16.1418189862
 20
12.2189615731
 30
0.0
 10
16.1447254943
 20
12.2180265867
 30
0.0
 10
16.1475168836
 20
12.2168602531
 30
0.0
 10
16.1501356408
 20
12.2154884166
 30
0.0
 10
16.1525223374
 20
12.213938574
 30
0.0
 10
16.1539708853
 20
12.2127759503
 30
0.0
 10
16.1546389611
 20
12.2121710739
 30
0.0
  0
ENDSEC
  0
SECTION
  2
OBJECTS
  0
DICTIONARY
  5
C
100
AcDbDictionary
280
0
281
1
  3
ACAD_GROUP
350
D
  3
ACAD_MLINESTYLE
350
17
  3
ACAD_LAYOUT
350
1A
  3
ACAD_PLOTSETTINGS
350
19
  3
ACAD_PLOTSTYLENAME
350
E
  0
DICTIONARY
  5
D
102
{ACAD_REACTORS
330
C
102
}
100
AcDbDictionary
280
0
281
1
  0
ACDBDICTIONARYWDFLT
  5
E
102
{ACAD_REACTORS
330
C
102
}
100
AcDbDictionary
281
1
  3
Normal
350
F
100
AcDbDictionaryWithDefault
340
F
  0
DICTIONARY
  5
17
102
{ACAD_REACTORS
330
C
102
}
100
AcDbDictionary
280
0
281
1
  3
Standard
350
18
  0
DICTIONARY
  5
19
102
{ACAD_REACTORS
330
C
102
}
100
AcDbDictionary
281
1
  0
DICTIONARY
  5
1A
102
{ACAD_REACTORS
330
C
102
}
100
AcDbDictionary
281
1
  3
Model
350
2AC
  3
Layout1
350
2AD
  0
ACDBPLACEHOLDER
  5
F
102
{ACAD_REACTORS
330
E
102
}
  0
MLINESTYLE
  5
18
102
{ACAD_REACTORS
330
17
102
}
100
AcDbMlineStyle
  2
STANDARD
 70
0
  3

 62
256
 51
90.0
 52
90.0
 71
2
 49
0.5
 62
256
  6
BYLAYER
 49
-0.5
 62
256
  6
BYLAYER
  0
LAYOUT
  5
2AC
102
{ACAD_REACTORS
330
1A
102
}
100
AcDbPlotSettings
  1

  2
none_device
  4
ANSI_C_(22.00_x_17.00_Inches)
  6

 40
0.0
 41
0.0
 42
0.0
 43
0.0
 44
558.8
 45
431.8
 46
0.0
 47
0.0
 48
0.0
 49
0.0
140
0.0
141
0.0
142
1.0
143
1.0
 70
1024
 72
0
 73
0
 74
0
  7

 75
0
147
1.0
148
0.0
149
0.0
100
AcDbLayout
  1
Model
 70
0
 71
0
 10
0.0
 20
0.0
 11
22.0
 21
17.0
 12
0.0
 22
0.0
 32
0.0
 14
0.0
 24
0.0
 34
0.0
 15
0.0
 25
0.0
 35
0.0
146
0.0
 13
0.0
 23
0.0
 33
0.0
 16
1.0
 26
0.0
 36
0.0
 17
0.0
 27
1.0
 37
0.0
 76
0
330
216
345
0
346
0
  0
LAYOUT
  5
2AD
102
{ACAD_REACTORS
330
1A
102
}
100
AcDbPlotSettings
  1

  2
none_device
  4
ANSI_C_(22.00_x_17.00_Inches)
  6

 40
0.0
 41
0.0
 42
0.0
 43
0.0
 44
558.8
 45
431.8
 46
0.0
 47
0.0
 48
0.0
 49
0.0
140
0.0
141
0.0
142
1.0
143
1.0
 70
0
 72
0
 73
0
 74
0
  7

 75
0
147
1.0
148
0.0
149
0.0
100
AcDbLayout
  1
Layout1
 70
0
 71
1
 10
0.0
 20
0.0
 11
22.0
 21
17.0
 12
0.0
 22
0.0
 32
0.0
 14
0.0
 24
0.0
 34
0.0
 15
0.0
 25
0.0
 35
0.0
146
0.0
 13
0.0
 23
0.0
 33
0.0
 16
1.0
 26
0.0
 36
0.0
 17
0.0
 27
1.0
 37
0.0
 76
0
330
217
345
0
346
0
  0
ENDSEC
  0
EOF