0
SECTION
  2
HEADER
  9
$ACADVER
  1
AC1027
  9
$ACADMAINTVER
 70
     8
  9
$DWGCODEPAGE
  3
ANSI_1252
  9
$REQUIREDVERSIONS
160
                 0
  9
$COMMENTS
  1
File was created by Cadenas
  9
$CUSTOMPROPERTYTAG
  1
NN
  9
$CUSTOMPROPERTY
  1
Set Screw Screw Conveyor Hanger Bearing Inch Bore
  9
$CUSTOMPROPERTYTAG
  1
NT
  9
$CUSTOMPROPERTY
  1
SC Screw Conveyor Hanger Bearings -(Normal Duty)
  9
$CUSTOMPROPERTYTAG
  1
NB
  9
$CUSTOMPROPERTY
  1
124996
  9
$CUSTOMPROPERTYTAG
  1
NBSYN
  9
$CUSTOMPROPERTY
  1
$PN.
  9
$CUSTOMPROPERTYTAG
  1
LINA
  9
$CUSTOMPROPERTY
  1
124996
  9
$CUSTOMPROPERTYTAG
  1
SERIES
  9
$CUSTOMPROPERTY
  1
207
  9
$CUSTOMPROPERTYTAG
  1
SS
  9
$CUSTOMPROPERTY
  1
1-1/4
  9
$CUSTOMPROPERTYTAG
  1
PN
  9
$CUSTOMPROPERTY
  1
124996
  9
$CUSTOMPROPERTYTAG
  1
DESCRIPTION
  9
$CUSTOMPROPERTY
  1
SCHB-SC-104
  9
$CUSTOMPROPERTYTAG
  1
W
  9
$CUSTOMPROPERTY
  1
3.5
  9
$CUSTOMPROPERTYTAG
  1
A
  9
$CUSTOMPROPERTY
  1
1.71
  9
$CUSTOMPROPERTYTAG
  1
B
  9
$CUSTOMPROPERTY
  1
3.88
  9
$CUSTOMPROPERTYTAG
  1
C
  9
$CUSTOMPROPERTY
  1
0.82
  9
$CUSTOMPROPERTYTAG
  1
D
  9
$CUSTOMPROPERTY
  1
0.82
  9
$CUSTOMPROPERTYTAG
  1
F
  9
$CUSTOMPROPERTY
  1
3/4- 14
  9
$CUSTOMPROPERTYTAG
  1
G
  9
$CUSTOMPROPERTY
  1
0.63
  9
$CUSTOMPROPERTYTAG
  1
H
  9
$CUSTOMPROPERTY
  1
0.94
  9
$CUSTOMPROPERTYTAG
  1
J
  9
$CUSTOMPROPERTY
  1
4.69
  9
$CUSTOMPROPERTYTAG
  1
K
  9
$CUSTOMPROPERTY
  1
0.98
  9
$CUSTOMPROPERTYTAG
  1
L
  9
$CUSTOMPROPERTY
  1
1.84
  9
$CUSTOMPROPERTYTAG
  1
M
  9
$CUSTOMPROPERTY
  1
2.75
  9
$CUSTOMPROPERTYTAG
  1
COMPANY
  9
$CUSTOMPROPERTY
  1
baldor
  9
$INSBASE
 10
0.0
 20
0.0
 30
0.0
  9
$EXTMIN
 10
1.000000000000000E+20
 20
1.000000000000000E+20
 30
1.000000000000000E+20
  9
$EXTMAX
 10
-1.000000000000000E+20
 20
-1.000000000000000E+20
 30
-1.000000000000000E+20
  9
$LIMMIN
 10
0.0
 20
0.0
  9
$LIMMAX
 10
12.0
 20
9.0
  9
$ORTHOMODE
 70
     0
  9
$REGENMODE
 70
     1
  9
$FILLMODE
 70
     1
  9
$QTEXTMODE
 70
     0
  9
$MIRRTEXT
 70
     1
  9
$LTSCALE
 40
1.0
  9
$ATTMODE
 70
     1
  9
$TEXTSIZE
 40
0.2
  9
$TRACEWID
 40
0.05
  9
$TEXTSTYLE
  7
Standard
  9
$CLAYER
  8
0
  9
$CELTYPE
  6
ByLayer
  9
$CECOLOR
 62
   256
  9
$CELTSCALE
 40
1.0
  9
$DISPSILH
 70
     0
  9
$DIMSCALE
 40
1.0
  9
$DIMASZ
 40
0.18
  9
$DIMEXO
 40
0.0625
  9
$DIMDLI
 40
0.38
  9
$DIMRND
 40
0.0
  9
$DIMDLE
 40
0.0
  9
$DIMEXE
 40
0.18
  9
$DIMTP
 40
0.0
  9
$DIMTM
 40
0.0
  9
$DIMTXT
 40
0.18
  9
$DIMCEN
 40
0.09
  9
$DIMTSZ
 40
0.0
  9
$DIMTOL
 70
     0
  9
$DIMLIM
 70
     0
  9
$DIMTIH
 70
     1
  9
$DIMTOH
 70
     1
  9
$DIMSE1
 70
     0
  9
$DIMSE2
 70
     0
  9
$DIMTAD
 70
     0
  9
$DIMZIN
 70
     0
  9
$DIMBLK
  1

  9
$DIMASO
 70
     1
  9
$DIMSHO
 70
     1
  9
$DIMPOST
  1

  9
$DIMAPOST
  1

  9
$DIMALT
 70
     0
  9
$DIMALTD
 70
     2
  9
$DIMALTF
 40
25.4
  9
$DIMLFAC
 40
1.0
  9
$DIMTOFL
 70
     0
  9
$DIMTVP
 40
0.0
  9
$DIMTIX
 70
     0
  9
$DIMSOXD
 70
     0
  9
$DIMSAH
 70
     0
  9
$DIMBLK1
  1

  9
$DIMBLK2
  1

  9
$DIMSTYLE
  2
Standard
  9
$DIMCLRD
 70
     0
  9
$DIMCLRE
 70
     0
  9
$DIMCLRT
 70
     0
  9
$DIMTFAC
 40
1.0
  9
$DIMGAP
 40
0.09
  9
$DIMJUST
 70
     0
  9
$DIMSD1
 70
     0
  9
$DIMSD2
 70
     0
  9
$DIMTOLJ
 70
     1
  9
$DIMTZIN
 70
     0
  9
$DIMALTZ
 70
     0
  9
$DIMALTTZ
 70
     0
  9
$DIMUPT
 70
     0
  9
$DIMDEC
 70
     4
  9
$DIMTDEC
 70
     4
  9
$DIMALTU
 70
     2
  9
$DIMALTTD
 70
     2
  9
$DIMTXSTY
  7
Standard
  9
$DIMAUNIT
 70
     0
  9
$DIMADEC
 70
     0
  9
$DIMALTRND
 40
0.0
  9
$DIMAZIN
 70
     0
  9
$DIMDSEP
 70
    46
  9
$DIMATFIT
 70
     3
  9
$DIMFRAC
 70
     0
  9
$DIMLDRBLK
  1

  9
$DIMLUNIT
 70
     2
  9
$DIMLWD
 70
    -2
  9
$DIMLWE
 70
    -2
  9
$DIMTMOVE
 70
     0
  9
$DIMFXL
 40
1.0
  9
$DIMFXLON
 70
     0
  9
$DIMJOGANG
 40
0.7853981633974483
  9
$DIMTFILL
 70
     0
  9
$DIMTFILLCLR
 70
     0
  9
$DIMARCSYM
 70
     0
  9
$DIMLTYPE
  6

  9
$DIMLTEX1
  6

  9
$DIMLTEX2
  6

  9
$DIMTXTDIRECTION
 70
     0
  9
$LUNITS
 70
     2
  9
$LUPREC
 70
     4
  9
$SKETCHINC
 40
0.1
  9
$FILLETRAD
 40
0.5
  9
$AUNITS
 70
     0
  9
$AUPREC
 70
     0
  9
$MENU
  1
.
  9
$ELEVATION
 40
0.0
  9
$PELEVATION
 40
0.0
  9
$THICKNESS
 40
0.0
  9
$LIMCHECK
 70
     0
  9
$CHAMFERA
 40
0.0
  9
$CHAMFERB
 40
0.0
  9
$CHAMFERC
 40
0.0
  9
$CHAMFERD
 40
0.0
  9
$SKPOLY
 70
     0
  9
$TDCREATE
 40
2458169.010630209
  9
$TDUCREATE
 40
2458168.968963542
  9
$TDUPDATE
 40
2458169.010630393
  9
$TDUUPDATE
 40
2458168.968963727
  9
$TDINDWG
 40
0.0000000116
  9
$TDUSRTIMER
 40
0.0000000116
  9
$USRTIMER
 70
     1
  9
$ANGBASE
 50
0.0
  9
$ANGDIR
 70
     0
  9
$PDMODE
 70
     0
  9
$PDSIZE
 40
0.0
  9
$PLINEWID
 40
0.0
  9
$SPLFRAME
 70
     0
  9
$SPLINETYPE
 70
     6
  9
$SPLINESEGS
 70
     8
  9
$HANDSEED
  5
1B5
  9
$SURFTAB1
 70
     6
  9
$SURFTAB2
 70
     6
  9
$SURFTYPE
 70
     6
  9
$SURFU
 70
     6
  9
$SURFV
 70
     6
  9
$UCSBASE
  2

  9
$UCSNAME
  2

  9
$UCSORG
 10
0.0
 20
0.0
 30
0.0
  9
$UCSXDIR
 10
1.0
 20
0.0
 30
0.0
  9
$UCSYDIR
 10
0.0
 20
1.0
 30
0.0
  9
$UCSORTHOREF
  2

  9
$UCSORTHOVIEW
 70
     0
  9
$UCSORGTOP
 10
0.0
 20
0.0
 30
0.0
  9
$UCSORGBOTTOM
 10
0.0
 20
0.0
 30
0.0
  9
$UCSORGLEFT
 10
0.0
 20
0.0
 30
0.0
  9
$UCSORGRIGHT
 10
0.0
 20
0.0
 30
0.0
  9
$UCSORGFRONT
 10
0.0
 20
0.0
 30
0.0
  9
$UCSORGBACK
 10
0.0
 20
0.0
 30
0.0
  9
$PUCSBASE
  2

  9
$PUCSNAME
  2

  9
$PUCSORG
 10
0.0
 20
0.0
 30
0.0
  9
$PUCSXDIR
 10
1.0
 20
0.0
 30
0.0
  9
$PUCSYDIR
 10
0.0
 20
1.0
 30
0.0
  9
$PUCSORTHOREF
  2

  9
$PUCSORTHOVIEW
 70
     0
  9
$PUCSORGTOP
 10
0.0
 20
0.0
 30
0.0
  9
$PUCSORGBOTTOM
 10
0.0
 20
0.0
 30
0.0
  9
$PUCSORGLEFT
 10
0.0
 20
0.0
 30
0.0
  9
$PUCSORGRIGHT
 10
0.0
 20
0.0
 30
0.0
  9
$PUCSORGFRONT
 10
0.0
 20
0.0
 30
0.0
  9
$PUCSORGBACK
 10
0.0
 20
0.0
 30
0.0
  9
$USERI1
 70
     0
  9
$USERI2
 70
     0
  9
$USERI3
 70
     0
  9
$USERI4
 70
     0
  9
$USERI5
 70
     0
  9
$USERR1
 40
0.0
  9
$USERR2
 40
0.0
  9
$USERR3
 40
0.0
  9
$USERR4
 40
0.0
  9
$USERR5
 40
0.0
  9
$WORLDVIEW
 70
     1
  9
$SHADEDGE
 70
     3
  9
$SHADEDIF
 70
    70
  9
$TILEMODE
 70
     1
  9
$MAXACTVP
 70
    64
  9
$PINSBASE
 10
0.0
 20
0.0
 30
0.0
  9
$PLIMCHECK
 70
     0
  9
$PEXTMIN
 10
1.000000000000000E+20
 20
1.000000000000000E+20
 30
1.000000000000000E+20
  9
$PEXTMAX
 10
-1.000000000000000E+20
 20
-1.000000000000000E+20
 30
-1.000000000000000E+20
  9
$PLIMMIN
 10
0.0
 20
0.0
  9
$PLIMMAX
 10
12.0
 20
9.0
  9
$UNITMODE
 70
     0
  9
$VISRETAIN
 70
     1
  9
$PLINEGEN
 70
     0
  9
$PSLTSCALE
 70
     1
  9
$TREEDEPTH
 70
  3020
  9
$CMLSTYLE
  2
Standard
  9
$CMLJUST
 70
     0
  9
$CMLSCALE
 40
1.0
  9
$PROXYGRAPHICS
 70
     1
  9
$MEASUREMENT
 70
     0
  9
$CELWEIGHT
370
    -1
  9
$ENDCAPS
280
     0
  9
$JOINSTYLE
280
     0
  9
$LWDISPLAY
290
     0
  9
$INSUNITS
 70
     1
  9
$HYPERLINKBASE
  1

  9
$STYLESHEET
  1

  9
$XEDIT
290
     1
  9
$CEPSNTYPE
380
     0
  9
$PSTYLEMODE
290
     1
  9
$FINGERPRINTGUID
  2
{E5B925C5-FBAD-4487-8738-1587A5FE108C}
  9
$VERSIONGUID
  2
{FAEB1C32-E019-11D5-929B-00C0DF256EC4}
  9
$EXTNAMES
290
     1
  9
$PSVPSCALE
 40
0.0
  9
$OLESTARTUP
290
     0
  9
$SORTENTS
280
   127
  9
$INDEXCTL
280
     0
  9
$HIDETEXT
280
     1
  9
$XCLIPFRAME
280
     2
  9
$HALOGAP
280
     0
  9
$OBSCOLOR
 70
   257
  9
$OBSLTYPE
280
     0
  9
$INTERSECTIONDISPLAY
280
     0
  9
$INTERSECTIONCOLOR
 70
   257
  9
$DIMASSOC
280
     2
  9
$PROJECTNAME
  1

  9
$CAMERADISPLAY
290
     0
  9
$LENSLENGTH
 40
50.0
  9
$CAMERAHEIGHT
 40
0.0
  9
$STEPSPERSEC
 40
2.0
  9
$STEPSIZE
 40
6.0
  9
$3DDWFPREC
 40
2.0
  9
$PSOLWIDTH
 40
0.25
  9
$PSOLHEIGHT
 40
4.0
  9
$LOFTANG1
 40
1.570796326794897
  9
$LOFTANG2
 40
1.570796326794897
  9
$LOFTMAG1
 40
0.0
  9
$LOFTMAG2
 40
0.0
  9
$LOFTPARAM
 70
     7
  9
$LOFTNORMALS
280
     1
  9
$LATITUDE
 40
37.795
  9
$LONGITUDE
 40
-122.394
  9
$NORTHDIRECTION
 40
0.0
  9
$TIMEZONE
 70
 -8000
  9
$LIGHTGLYPHDISPLAY
280
     1
  9
$TILEMODELIGHTSYNCH
280
     1
  9
$CMATERIAL
347
44
  9
$SOLIDHIST
280
     0
  9
$SHOWHIST
280
     1
  9
$DWFFRAME
280
     2
  9
$DGNFRAME
280
     2
  9
$REALWORLDSCALE
290
     1
  9
$INTERFERECOLOR
 62
   256
  9
$CSHADOW
280
     0
  9
$SHADOWPLANELOCATION
 40
0.0
  0
ENDSEC
  0
SECTION
  2
CLASSES
  0
CLASS
  1
ACDBDICTIONARYWDFLT
  2
AcDbDictionaryWithDefault
  3
ObjectDBX Classes
 90
        0
 91
        4
280
     0
281
     0
  0
CLASS
  1
VISUALSTYLE
  2
AcDbVisualStyle
  3
ObjectDBX Classes
 90
     4095
 91
        4
280
     0
281
     0
  0
CLASS
  1
MATERIAL
  2
AcDbMaterial
  3
ObjectDBX Classes
 90
     1153
 91
        4
280
     0
281
     0
  0
CLASS
  1
SCALE
  2
AcDbScale
  3
ObjectDBX Classes
 90
     1153
 91
        4
280
     0
281
     0
  0
CLASS
  1
TABLESTYLE
  2
AcDbTableStyle
  3
ObjectDBX Classes
 90
     4095
 91
        4
280
     0
281
     0
  0
CLASS
  1
MLEADERSTYLE
  2
AcDbMLeaderStyle
  3
ACDB_MLEADERSTYLE_CLASS
 90
     4095
 91
        4
280
     0
281
     0
  0
CLASS
  1
SUN
  2
AcDbSun
  3
SCENEOE
 90
     1153
 91
        4
280
     0
281
     0
  0
CLASS
  1
DICTIONARYVAR
  2
AcDbDictionaryVar
  3
ObjectDBX Classes
 90
        0
 91
        4
280
     0
281
     0
  0
CLASS
  1
CELLSTYLEMAP
  2
AcDbCellStyleMap
  3
ObjectDBX Classes
 90
     1152
 91
        4
280
     0
281
     0
  0
ENDSEC
  0
SECTION
  2
TABLES
  0
TABLE
  2
VPORT
  5
8
330
0
100
AcDbSymbolTable
 70
     1
  0
VPORT
  5
29
330
8
100
AcDbSymbolTableRecord
100
AcDbViewportTableRecord
  2
*Active
 70
     0
 10
0.0
 20
0.0
 11
1.0
 21
1.0
 12
-0.4100000000000001
 22
0.4737499999999999
 13
0.0
 23
0.0
 14
0.5
 24
0.5
 15
0.5
 25
0.5
 16
0.0
 26
0.0
 36
1.0
 17
0.0
 27
0.0
 37
0.0
 40
4.924049999999998
 41
0.5605385810460902
 42
50.0
 43
0.0
 44
0.0
 50
0.0
 51
0.0
 71
     0
 72
   100
 73
     1
 74
     3
 75
     0
 76
     0
 77
     0
 78
     0
281
     0
 65
     1
110
0.0
120
0.0
130
0.0
111
1.0
121
0.0
131
0.0
112
0.0
122
1.0
132
0.0
 79
     0
146
0.0
348
2F
 60
     3
 61
     5
292
     1
282
     1
141
0.0
142
0.0
 63
   250
361
6D
  0
ENDTAB
  0
TABLE
  2
LTYPE
  5
5
330
0
100
AcDbSymbolTable
 70
     3
  0
LTYPE
  5
14
330
5
100
AcDbSymbolTableRecord
100
AcDbLinetypeTableRecord
  2
ByBlock
 70
     0
  3

 72
    65
 73
     0
 40
0.0
  0
LTYPE
  5
15
330
5
100
AcDbSymbolTableRecord
100
AcDbLinetypeTableRecord
  2
ByLayer
 70
     0
  3

 72
    65
 73
     0
 40
0.0
  0
LTYPE
  5
16
330
5
100
AcDbSymbolTableRecord
100
AcDbLinetypeTableRecord
  2
Continuous
 70
     0
  3
Solid line
 72
    65
 73
     0
 40
0.0
  0
LTYPE
  5
95
330
5
100
AcDbSymbolTableRecord
100
AcDbLinetypeTableRecord
  2
Dashed
 70
     0
  3

 72
    65
 73
     2
 40
2.0
 49
1.0
 74
     0
 49
-1.0
 74
     0
  0
LTYPE
  5
12E
330
5
100
AcDbSymbolTableRecord
100
AcDbLinetypeTableRecord
  2
Center
 70
     0
  3

 72
    65
 73
     4
 40
1.5
 49
0.45
 74
     0
 49
-0.5
 74
     0
 49
0.05
 74
     0
 49
-0.5
 74
     0
  0
ENDTAB
  0
TABLE
  2
LAYER
  5
2
330
0
100
AcDbSymbolTable
 70
     7
  0
LAYER
  5
10
330
2
100
AcDbSymbolTableRecord
100
AcDbLayerTableRecord
  2
0
 70
     0
 62
     7
  6
Continuous
370
    -3
390
F
347
46
348
0
  0
LAYER
  5
72
330
2
100
AcDbSymbolTableRecord
100
AcDbLayerTableRecord
  2
AM_6
 70
     0
 62
    -2
  6
Continuous
370
    35
390
F
347
46
348
0
  0
LAYER
  5
96
330
2
100
AcDbSymbolTableRecord
100
AcDbLayerTableRecord
  2
AM_9
 70
     0
 62
     6
  6
Dashed
370
    25
390
F
347
46
348
0
  0
LAYER
  5
12B
330
2
100
AcDbSymbolTableRecord
100
AcDbLayerTableRecord
  2
AM_5
 70
     0
 62
     3
  6
Continuous
370
    25
390
F
347
46
348
0
  0
LAYER
  5
12F
330
2
100
AcDbSymbolTableRecord
100
AcDbLayerTableRecord
  2
AM_7
 70
     0
 62
     7
  6
Center
370
    25
390
F
347
46
348
0
  0
LAYER
  5
132
330
2
100
AcDbSymbolTableRecord
100
AcDbLayerTableRecord
  2
AM_4
 70
     0
 62
     7
  6
Continuous
370
    50
390
F
347
46
348
0
  0
LAYER
  5
1A6
330
2
100
AcDbSymbolTableRecord
100
AcDbLayerTableRecord
  2
ConnectionPoints
 70
     0
 62
     7
  6
Continuous
370
    50
390
F
347
46
348
0
  0
ENDTAB
  0
TABLE
  2
STYLE
  5
3
330
0
100
AcDbSymbolTable
 70
     1
  0
STYLE
  5
11
330
3
100
AcDbSymbolTableRecord
100
AcDbTextStyleTableRecord
  2
Standard
 70
     0
 40
0.0
 41
1.0
 50
0.0
 71
     0
 42
0.2
  3
txt
  4

  0
ENDTAB
  0
TABLE
  2
VIEW
  5
6
330
0
100
AcDbSymbolTable
 70
     0
  0
ENDTAB
  0
TABLE
  2
UCS
  5
7
330
0
100
AcDbSymbolTable
 70
     0
  0
ENDTAB
  0
TABLE
  2
APPID
  5
9
330
0
100
AcDbSymbolTable
 70
     1
  0
APPID
  5
12
330
9
100
AcDbSymbolTableRecord
100
AcDbRegAppTableRecord
  2
ACAD
 70
     0
  0
ENDTAB
  0
TABLE
  2
DIMSTYLE
  5
A
330
0
100
AcDbSymbolTable
 70
     1
100
AcDbDimStyleTable
  0
DIMSTYLE
105
27
330
A
100
AcDbSymbolTableRecord
100
AcDbDimStyleTableRecord
  2
Standard
 70
     0
178
     0
340
11
  0
ENDTAB
  0
TABLE
  2
BLOCK_RECORD
  5
1
330
0
100
AcDbSymbolTable
 70
     5
  0
BLOCK_RECORD
  5
1F
330
1
100
AcDbSymbolTableRecord
100
AcDbBlockTableRecord
  2
*Model_Space
340
22
 70
     0
280
     1
281
     0
  0
BLOCK_RECORD
  5
1B
330
1
100
AcDbSymbolTableRecord
100
AcDbBlockTableRecord
  2
*Paper_Space
340
1E
 70
     0
280
     1
281
     0
  0
BLOCK_RECORD
  5
23
330
1
100
AcDbSymbolTableRecord
100
AcDbBlockTableRecord
  2
*Paper_Space0
340
26
 70
     0
280
     1
281
     0
  0
BLOCK_RECORD
  5
6E
330
1
100
AcDbSymbolTableRecord
100
AcDbBlockTableRecord
  2
1_124996_2
340
0
102
{BLKREFS
331
6F
102
}
 70
     0
280
     1
281
     0
  0
BLOCK_RECORD
  5
89
330
1
100
AcDbSymbolTableRecord
100
AcDbBlockTableRecord
  2
2_405015E_Inch_0_in_124996_2
340
0
102
{BLKREFS
331
8A
102
}
 70
     0
280
     1
281
     0
  0
BLOCK_RECORD
  5
DD
330
1
100
AcDbSymbolTableRecord
100
AcDbBlockTableRecord
  2
3_123339_0_in_124996_2
340
0
102
{BLKREFS
331
DE
102
}
 70
     0
280
     1
281
     0
  0
BLOCK_RECORD
  5
13F
330
1
100
AcDbSymbolTableRecord
100
AcDbBlockTableRecord
  2
4_124996H_0_in_124996_2
340
0
102
{BLKREFS
331
140
102
}
 70
     0
280
     1
281
     0
  0
ENDTAB
  0
ENDSEC
  0
SECTION
  2
BLOCKS
  0
BLOCK
  5
20
330
1F
100
AcDbEntity
  8
0
100
AcDbBlockBegin
  2
*Model_Space
 70
     0
 10
0.0
 20
0.0
 30
0.0
  3
*Model_Space
  1

  0
ENDBLK
  5
21
330
1F
100
AcDbEntity
  8
0
100
AcDbBlockEnd
  0
BLOCK
  5
1C
330
1B
100
AcDbEntity
 67
     1
  8
0
100
AcDbBlockBegin
  2
*Paper_Space
 70
     0
 10
0.0
 20
0.0
 30
0.0
  3
*Paper_Space
  1

  0
ENDBLK
  5
1D
330
1B
100
AcDbEntity
 67
     1
  8
0
100
AcDbBlockEnd
  0
BLOCK
  5
24
330
23
100
AcDbEntity
  8
0
100
AcDbBlockBegin
  2
*Paper_Space0
 70
     0
 10
0.0
 20
0.0
 30
0.0
  3
*Paper_Space0
  1

  0
ENDBLK
  5
25
330
23
100
AcDbEntity
  8
0
100
AcDbBlockEnd
  0
BLOCK
  5
70
330
6E
100
AcDbEntity
  8
0
100
AcDbBlockBegin
  2
1_124996_2
 70
     2
 10
0.0
 20
0.0
 30
0.0
  3
1_124996_2
  1

  0
ATTDEF
  5
73
330
6E
100
AcDbEntity
  8
AM_6
100
AcDbText
 10
5.943
 20
2.8875
 30
0.0
 40
0.5
  1
Set Screw Screw Conveyor Hanger Bearing Inch Bore
100
AcDbAttributeDefinition
  3

  2
NN
 70
     8
280
     0
  0
ATTDEF
  5
74
330
6E
100
AcDbEntity
  8
AM_6
100
AcDbText
 10
5.943
 20
2.3875
 30
0.0
 40
0.5
  1
SC Screw Conveyor Hanger Bearings -(Normal Duty)
100
AcDbAttributeDefinition
  3

  2
NT
 70
     8
280
     0
  0
ATTDEF
  5
75
330
6E
100
AcDbEntity
  8
AM_6
100
AcDbText
 10
5.943
 20
1.8875
 30
0.0
 40
0.5
  1
124996
100
AcDbAttributeDefinition
  3

  2
NB
 70
     8
280
     0
  0
ATTDEF
  5
76
330
6E
100
AcDbEntity
  8
AM_6
100
AcDbText
 10
5.943
 20
1.3875
 30
0.0
 40
0.5
  1
$PN.
100
AcDbAttributeDefinition
  3

  2
NBSYN
 70
     8
280
     0
  0
ATTDEF
  5
77
330
6E
100
AcDbEntity
  8
AM_6
100
AcDbText
 10
5.943
 20
0.8875000000000002
 30
0.0
 40
0.5
  1
124996
100
AcDbAttributeDefinition
  3

  2
LINA
 70
     8
280
     0
  0
ATTDEF
  5
78
330
6E
100
AcDbEntity
  8
AM_6
100
AcDbText
 10
5.943
 20
0.3875000000000002
 30
0.0
 40
0.5
  1
207
100
AcDbAttributeDefinition
  3

  2
SERIES
 70
     8
280
     0
  0
ATTDEF
  5
79
330
6E
100
AcDbEntity
  8
AM_6
100
AcDbText
 10
5.943
 20
-0.1124999999999998
 30
0.0
 40
0.5
  1
1-1/4
100
AcDbAttributeDefinition
  3

  2
SS
 70
     8
280
     0
  0
ATTDEF
  5
7A
330
6E
100
AcDbEntity
  8
AM_6
100
AcDbText
 10
5.943
 20
-0.6124999999999998
 30
0.0
 40
0.5
  1
124996
100
AcDbAttributeDefinition
  3

  2
PN
 70
     8
280
     0
  0
ATTDEF
  5
7B
330
6E
100
AcDbEntity
  8
AM_6
100
AcDbText
 10
5.943
 20
-1.1125
 30
0.0
 40
0.5
  1
SCHB-SC-104
100
AcDbAttributeDefinition
  3

  2
DESCRIPTION
 70
     8
280
     0
  0
ATTDEF
  5
7C
330
6E
100
AcDbEntity
  8
AM_6
100
AcDbText
 10
5.943
 20
-1.6125
 30
0.0
 40
0.5
  1
3.5
100
AcDbAttributeDefinition
  3

  2
W
 70
     8
280
     0
  0
ATTDEF
  5
7D
330
6E
100
AcDbEntity
  8
AM_6
100
AcDbText
 10
5.943
 20
-2.1125
 30
0.0
 40
0.5
  1
1.71
100
AcDbAttributeDefinition
  3

  2
A
 70
     8
280
     0
  0
ATTDEF
  5
7E
330
6E
100
AcDbEntity
  8
AM_6
100
AcDbText
 10
5.943
 20
-2.6125
 30
0.0
 40
0.5
  1
3.88
100
AcDbAttributeDefinition
  3

  2
B
 70
     8
280
     0
  0
ATTDEF
  5
7F
330
6E
100
AcDbEntity
  8
AM_6
100
AcDbText
 10
5.943
 20
-3.1125
 30
0.0
 40
0.5
  1
0.82
100
AcDbAttributeDefinition
  3

  2
C
 70
     8
280
     0
  0
ATTDEF
  5
80
330
6E
100
AcDbEntity
  8
AM_6
100
AcDbText
 10
5.943
 20
-3.6125
 30
0.0
 40
0.5
  1
0.82
100
AcDbAttributeDefinition
  3

  2
D
 70
     8
280
     0
  0
ATTDEF
  5
81
330
6E
100
AcDbEntity
  8
AM_6
100
AcDbText
 10
5.943
 20
-4.1125
 30
0.0
 40
0.5
  1
3/4- 14
100
AcDbAttributeDefinition
  3

  2
F
 70
     8
280
     0
  0
ATTDEF
  5
82
330
6E
100
AcDbEntity
  8
AM_6
100
AcDbText
 10
5.943
 20
-4.6125
 30
0.0
 40
0.5
  1
0.63
100
AcDbAttributeDefinition
  3

  2
G
 70
     8
280
     0
  0
ATTDEF
  5
83
330
6E
100
AcDbEntity
  8
AM_6
100
AcDbText
 10
5.943
 20
-5.1125
 30
0.0
 40
0.5
  1
0.94
100
AcDbAttributeDefinition
  3

  2
H
 70
     8
280
     0
  0
ATTDEF
  5
84
330
6E
100
AcDbEntity
  8
AM_6
100
AcDbText
 10
5.943
 20
-5.6125
 30
0.0
 40
0.5
  1
4.69
100
AcDbAttributeDefinition
  3

  2
J
 70
     8
280
     0
  0
ATTDEF
  5
85
330
6E
100
AcDbEntity
  8
AM_6
100
AcDbText
 10
5.943
 20
-6.1125
 30
0.0
 40
0.5
  1
0.98
100
AcDbAttributeDefinition
  3

  2
K
 70
     8
280
     0
  0
ATTDEF
  5
86
330
6E
100
AcDbEntity
  8
AM_6
100
AcDbText
 10
5.943
 20
-6.6125
 30
0.0
 40
0.5
  1
1.84
100
AcDbAttributeDefinition
  3

  2
L
 70
     8
280
     0
  0
ATTDEF
  5
87
330
6E
100
AcDbEntity
  8
AM_6
100
AcDbText
 10
5.943
 20
-7.1125
 30
0.0
 40
0.5
  1
2.75
100
AcDbAttributeDefinition
  3

  2
M
 70
     8
280
     0
  0
ATTDEF
  5
88
330
6E
100
AcDbEntity
  8
AM_6
100
AcDbText
 10
5.943
 20
-7.6125
 30
0.0
 40
0.5
  1
baldor
100
AcDbAttributeDefinition
  3

  2
COMPANY
 70
     8
280
     0
  0
INSERT
  5
8A
330
6E
100
AcDbEntity
  8
0
100
AcDbBlockReference
  2
2_405015E_Inch_0_in_124996_2
 10
0.0
 20
0.0
 30
0.0
  0
INSERT
  5
DE
330
6E
100
AcDbEntity
  8
0
100
AcDbBlockReference
  2
3_123339_0_in_124996_2
 10
0.0
 20
0.0
 30
0.0
  0
INSERT
  5
140
330
6E
100
AcDbEntity
  8
0
100
AcDbBlockReference
  2
4_124996H_0_in_124996_2
 10
0.0
 20
0.0
 30
0.0
  0
ENDBLK
  5
71
330
6E
100
AcDbEntity
  8
0
100
AcDbBlockEnd
  0
BLOCK
  5
8B
330
89
100
AcDbEntity
  8
0
100
AcDbBlockBegin
  2
2_405015E_Inch_0_in_124996_2
 70
     2
 10
0.0
 20
0.0
 30
0.0
  3
2_405015E_Inch_0_in_124996_2
  1

  0
ATTDEF
  5
8D
330
89
100
AcDbEntity
  8
AM_6
100
AcDbText
 10
5.21875
 20
1.957043812597113
 30
0.0
 40
0.5
  1
405015E -Inch
100
AcDbAttributeDefinition
  3

  2
NN
 70
     8
280
     0
  0
ATTDEF
  5
8E
330
89
100
AcDbEntity
  8
AM_6
100
AcDbText
 10
5.21875
 20
1.457043812597113
 30
0.0
 40
0.5
  1
Grease Fitting
100
AcDbAttributeDefinition
  3

  2
NT
 70
     8
280
     0
  0
ATTDEF
  5
8F
330
89
100
AcDbEntity
  8
AM_6
100
AcDbText
 10
5.21875
 20
0.9570438125971132
 30
0.0
 40
0.5
  1
405015E-Inch
100
AcDbAttributeDefinition
  3

  2
NB
 70
     8
280
     0
  0
ATTDEF
  5
90
330
89
100
AcDbEntity
  8
AM_6
100
AcDbText
 10
5.21875
 20
0.4570438125971132
 30
0.0
 40
0.5
  1
$MN.-Inch
100
AcDbAttributeDefinition
  3

  2
NBSYN
 70
     8
280
     0
  0
ATTDEF
  5
91
330
89
100
AcDbEntity
  8
AM_6
100
AcDbText
 10
5.21875
 20
-0.0429561874028868
 30
0.0
 40
0.5
  1
405015E
100
AcDbAttributeDefinition
  3

  2
LINA
 70
     8
280
     0
  0
ATTDEF
  5
92
330
89
100
AcDbEntity
  8
AM_6
100
AcDbText
 10
5.21875
 20
-0.5429561874028868
 30
0.0
 40
0.5
  1
405015E
100
AcDbAttributeDefinition
  3

  2
MN
 70
     8
280
     0
  0
ATTDEF
  5
93
330
89
100
AcDbEntity
  8
AM_6
100
AcDbText
 10
5.21875
 20
-1.042956187402887
 30
0.0
 40
0.5
  1
1/8 x 27PTF
100
AcDbAttributeDefinition
  3

  2
T
 70
     8
280
     0
  0
ATTDEF
  5
94
330
89
100
AcDbEntity
  8
AM_6
100
AcDbText
 10
5.21875
 20
-1.542956187402887
 30
0.0
 40
0.5
  1
baldor
100
AcDbAttributeDefinition
  3

  2
COMPANY
 70
     8
280
     0
  0
LWPOLYLINE
  5
97
330
89
100
AcDbEntity
  8
AM_9
100
AcDbPolyline
 90
        4
 70
     0
 43
0.0
 10
-0.0000000000000001
 20
1.504964818723347
 10
-0.0544692324180691
 20
1.531907906644127
 10
-0.0818700010907652
 20
1.544365307117189
 10
-0.1093750000000001
 20
1.556028736727394
  0
LWPOLYLINE
  5
98
330
89
100
AcDbEntity
  8
AM_9
100
AcDbPolyline
 90
        4
 70
     0
 43
0.0
 10
0.1093749999999998
 20
1.556028736727394
 10
0.0820312499999998
 20
1.544436190973807
 10
0.0546545855167827
 20
1.531994847520424
 10
-0.0000000000000001
 20
1.504964818723347
  0
LWPOLYLINE
  5
99
330
89
100
AcDbEntity
  8
AM_9
100
AcDbPolyline
 90
        4
 70
     0
 43
0.0
 10
-0.1093750000000001
 20
1.485318058608739
 10
-0.0820312500000001
 20
1.474584525977583
 10
-0.0546545855167829
 20
1.464672916483213
 10
-0.0000000000000001
 20
1.447077663073815
  0
LWPOLYLINE
  5
9A
330
89
100
AcDbEntity
  8
AM_9
100
AcDbPolyline
 90
        4
 70
     0
 43
0.0
 10
-0.0000000000000001
 20
1.447077663073815
 10
0.0544692324180688
 20
1.464608517188146
 10
0.0818700010907649
 20
1.474523750651132
 10
0.1093749999999999
 20
1.485318058608739
  0
LINE
  5
9B
330
89
100
AcDbEntity
  8
AM_9
100
AcDbLine
 10
-0.0939243440009288
 20
1.913773589225924
 30
0.0
 11
-0.1234908992236336
 21
1.866439136716034
 31
0.0
  0
LINE
  5
9C
330
89
100
AcDbEntity
  8
AM_9
100
AcDbLine
 10
0.1234908992236333
 20
1.866439136716034
 30
0.0
 11
0.0939243440009286
 21
1.913773589225924
 31
0.0
  0
ELLIPSE
  5
9D
330
89
100
AcDbEntity
  8
AM_9
100
AcDbEllipse
 10
-0.0000000000000003
 20
1.827871029367226
 30
0.0
 11
0.1349999999999995
 21
0.0
 31
0.0
210
0.0
220
0.0
230
1.0
 40
0.7071067811865474
 41
1.570796326794897
 42
6.699099359282126
  0
LWPOLYLINE
  5
9E
330
89
100
AcDbEntity
  8
AM_9
100
AcDbPolyline
 90
        4
 70
     0
 43
0.0
 10
0.2187499999999999
 20
1.594269132262317
 10
0.1642807675819309
 20
1.576738278147986
 10
0.1368799989092347
 20
1.566823044685
 10
0.1093749999999998
 20
1.556028736727394
  0
LINE
  5
9F
330
89
100
AcDbEntity
  8
AM_9
100
AcDbLine
 10
-0.0000000000000001
 20
1.504964818723347
 30
0.0
 11
-0.0000000000000001
 21
1.447077663073815
 31
0.0
  0
LWPOLYLINE
  5
A0
330
89
100
AcDbEntity
  8
AM_9
100
AcDbPolyline
 90
        4
 70
     0
 43
0.0
 10
-0.1093750000000001
 20
1.556028736727394
 10
-0.1367187500000001
 20
1.566762269358549
 10
-0.1640954144832172
 20
1.576673878852919
 10
-0.2187500000000001
 20
1.594269132262317
  0
ELLIPSE
  5
A1
330
89
100
AcDbEntity
  8
AM_9
100
AcDbEllipse
 10
0.0000000000000001
 20
1.827871029367226
 30
0.0
 11
0.1349999999999992
 21
0.0
 31
0.0
210
0.0
220
0.0
230
1.0
 40
0.7071067811865471
 41
0.4159140521025408
 42
1.570796326794897
  0
LINE
  5
A2
330
89
100
AcDbEntity
  8
AM_9
100
AcDbLine
 10
0.0909326673973659
 20
1.748321516483738
 30
0.0
 11
0.1169134295108991
 21
1.780141321637133
 31
0.0
  0
LINE
  5
A3
330
89
100
AcDbEntity
  8
AM_9
100
AcDbLine
 10
-0.1169134295108993
 20
1.780141321637133
 30
0.0
 11
-0.0909326673973662
 21
1.748321516483738
 31
0.0
  0
ELLIPSE
  5
A4
330
89
100
AcDbEntity
  8
AM_9
100
AcDbEllipse
 10
-0.0000000000000001
 20
1.785444622496032
 30
0.0
 11
0.105
 21
0.0
 31
0.0
210
0.0
220
0.0
230
1.0
 40
0.7071067811865476
 41
3.141592653589793
 42
5.759586531581287
  0
ELLIPSE
  5
A5
330
89
100
AcDbEntity
  8
AM_9
100
AcDbEllipse
 10
-0.0000000000000001
 20
1.785444622496032
 30
0.0
 11
0.105
 21
0.0
 31
0.0
210
0.0
220
0.0
230
1.0
 40
0.7071067811865495
 41
5.759586531581291
 42
9.42477796076938
  0
LINE
  5
A6
330
89
100
AcDbEntity
  8
AM_9
100
AcDbLine
 10
0.1049999999999999
 20
1.764231419060436
 30
0.0
 11
0.1049999999999999
 21
1.785444622496032
 31
0.0
  0
LINE
  5
A7
330
89
100
AcDbEntity
  8
AM_9
100
AcDbLine
 10
-0.1050000000000001
 20
1.785444622496032
 30
0.0
 11
-0.1050000000000001
 21
1.764231419060436
 31
0.0
  0
ELLIPSE
  5
A8
330
89
100
AcDbEntity
  8
AM_9
100
AcDbEllipse
 10
-0.0000000000000003
 20
1.689985207035848
 30
0.0
 11
0.2187500000000001
 21
3.259629011154178E-9
 31
0.0
210
0.0
220
0.0
230
1.0
 40
0.7071067811865446
 41
5.235987742812099
 42
7.330382845205299
  0
ELLIPSE
  5
A9
330
89
100
AcDbEntity
  8
AM_9
100
AcDbEllipse
 10
-0.0000000000000004
 20
1.764231419060436
 30
0.0
 11
0.1050000000000004
 21
0.0
 31
0.0
210
0.0
220
0.0
230
1.0
 40
0.7071067811865466
 41
2.698681609516152
 42
7.853981633974483
  0
LINE
  5
AA
330
89
100
AcDbEntity
  8
AM_9
100
AcDbLine
 10
-0.0948683298050515
 20
1.79605122421383
 30
0.0
 11
-0.1073548910028991
 21
1.777437357784765
 31
0.0
  0
LINE
  5
AB
330
89
100
AcDbEntity
  8
AM_9
100
AcDbLine
 10
0.1073548910028989
 20
1.777437357784765
 30
0.0
 11
0.0948683298050513
 21
1.796051224213831
 31
0.0
  0
ELLIPSE
  5
AC
330
89
100
AcDbEntity
  8
AM_9
100
AcDbEllipse
 10
0.0000000000000004
 20
1.764231419060436
 30
0.0
 11
0.1050000000000008
 21
0.0
 31
0.0
210
0.0
220
0.0
230
1.0
 40
0.7071067811865465
 41
1.570796326794897
 42
2.698681609516153
  0
LWPOLYLINE
  5
AD
330
89
100
AcDbEntity
  8
AM_9
100
AcDbPolyline
 90
        3
 70
     0
 43
0.0
 10
-0.1640003648191857
 20
1.509307377900211
 10
-0.136879998909235
 20
1.496981488218943
 10
-0.1093750000000001
 20
1.485318058608739
  0
LWPOLYLINE
  5
AE
330
89
100
AcDbEntity
  8
AM_9
100
AcDbPolyline
 90
        3
 70
     0
 43
0.0
 10
-0.2018561497308916
 20
1.527748281456719
 10
-0.1642807675819312
 20
1.509438888692005
 10
-0.1640003648191857
 20
1.509307377900211
  0
LINE
  5
AF
330
89
100
AcDbEntity
  8
AM_9
100
AcDbLine
 10
-0.2187500000000001
 20
1.536381976612785
 30
0.0
 11
-0.2018561497308916
 21
1.527748281456719
 31
0.0
  0
LINE
  5
B0
330
89
100
AcDbEntity
  8
AM_9
100
AcDbLine
 10
0.2018564248733259
 20
1.527748420190454
 30
0.0
 11
0.2187499999999999
 21
1.536381976612785
 31
0.0
  0
LWPOLYLINE
  5
B1
330
89
100
AcDbEntity
  8
AM_9
100
AcDbPolyline
 90
        3
 70
     0
 43
0.0
 10
0.1640001247656343
 20
1.509307265347967
 10
0.164095414483217
 20
1.509351947815708
 10
0.2018564248733259
 20
1.527748420190454
  0
LWPOLYLINE
  5
B2
330
89
100
AcDbEntity
  8
AM_9
100
AcDbPolyline
 90
        3
 70
     0
 43
0.0
 10
0.1093749999999999
 20
1.485318058608739
 10
0.1367187499999999
 20
1.496910604362325
 10
0.1640001247656343
 20
1.509307265347967
  0
ELLIPSE
  5
B3
330
89
100
AcDbEntity
  8
AM_9
100
AcDbEllipse
 10
-0.0000000000000031
 20
1.70293812944323
 30
0.0
 11
0.1725340532830358
 21
2.570957739398417E-9
 31
0.0
210
0.0
220
0.0
230
1.0
 40
0.707106781186451
 41
1.73373058490852
 42
7.853981623437752
  0
ELLIPSE
  5
B4
330
89
100
AcDbEntity
  8
AM_9
100
AcDbEllipse
 10
0.000000000000004
 20
1.741429432684878
 30
0.0
 11
0.118820090734854
 21
0.0
 31
0.0
210
0.0
220
0.0
230
1.0
 40
0.7071067811864074
 41
1.733730595722619
 42
7.853981633974483
  0
LINE
  5
B5
330
89
100
AcDbEntity
  8
AM_9
100
AcDbLine
 10
-0.0192743186691524
 20
1.824335146004509
 30
0.0
 11
-0.0279874918769158
 21
1.823322305813517
 31
0.0
  0
LINE
  5
B6
330
89
100
AcDbEntity
  8
AM_9
100
AcDbLine
 10
0.0279874918769156
 20
1.823322305813517
 30
0.0
 11
0.0192743186691521
 21
1.824335146004509
 31
0.0
  0
ELLIPSE
  5
B7
330
89
100
AcDbEntity
  8
AM_9
100
AcDbEllipse
 10
-0.0000000000000042
 20
1.741429432684878
 30
0.0
 11
0.1188200907348545
 21
0.0
 31
0.0
210
0.0
220
0.0
230
1.0
 40
0.7071067811864064
 41
1.570796326794897
 42
1.73373059572255
  0
ELLIPSE
  5
B8
330
89
100
AcDbEntity
  8
AM_9
100
AcDbEllipse
 10
0.0000000000000029
 20
1.70293812944323
 30
0.0
 11
0.1725340532830361
 21
0.0
 31
0.0
210
0.0
220
0.0
230
1.0
 40
0.707106781186451
 41
1.570796326794897
 42
1.733730595722524
  0
ELLIPSE
  5
B9
330
89
100
AcDbEntity
  8
AM_9
100
AcDbEllipse
 10
0.0000000000000001
 20
1.689985207035848
 30
0.0
 11
0.2187500000000002
 21
0.0
 31
0.0
210
0.0
220
0.0
230
1.0
 40
0.7071067811865506
 41
1.0471975511966
 42
5.235987755982993
  0
ELLIPSE
  5
BA
330
89
100
AcDbEntity
  8
AM_9
100
AcDbEllipse
 10
-0.0000000000000001
 20
1.689985207035848
 30
0.0
 11
-0.21375
 21
3.185123231361761E-9
 31
0.0
210
0.0
220
0.0
230
1.0
 40
0.7071067811865476
 41
0.0
 42
6.283185307179586
  0
ELLIPSE
  5
BB
330
89
100
AcDbEntity
  8
AM_9
100
AcDbEllipse
 10
0.0000000000000011
 20
1.619274528917201
 30
0.0
 11
0.2187500000000022
 21
0.0
 31
0.0
210
0.0
220
0.0
230
1.0
 40
0.7071067811865176
 41
2.094395102393205
 42
2.418426552099444
  0
ELLIPSE
  5
BC
330
89
100
AcDbEntity
  8
AM_9
100
AcDbEllipse
 10
-0.000000000000001
 20
1.619274528917195
 30
0.0
 11
0.2187499999999991
 21
0.0
 31
0.0
210
0.0
220
0.0
230
1.0
 40
0.707106781186547
 41
2.418426552099429
 42
3.519311015667876
  0
ELLIPSE
  5
BD
330
89
100
AcDbEntity
  8
AM_9
100
AcDbEllipse
 10
0.0000000000000002
 20
1.619274528917194
 30
0.0
 11
0.2187500000000004
 21
0.0
 31
0.0
210
0.0
220
0.0
230
1.0
 40
0.707106781186548
 41
3.519311015667869
 42
3.864758755080159
  0
ELLIPSE
  5
BE
330
89
100
AcDbEntity
  8
AM_9
100
AcDbEllipse
 10
0.0000000000000007
 20
1.619274528917203
 30
0.0
 11
0.2187500000000014
 21
0.0
 31
0.0
210
0.0
220
0.0
230
1.0
 40
0.7071067811865781
 41
3.86475875508018
 42
4.188790204786399
  0
ELLIPSE
  5
BF
330
89
100
AcDbEntity
  8
AM_9
100
AcDbEllipse
 10
0.0000000000000059
 20
1.619274528917203
 30
0.0
 11
0.2187499999999908
 21
0.0
 31
0.0
210
0.0
220
0.0
230
1.0
 40
0.7071067811865341
 41
4.188790204786404
 42
8.377580409572825
  0
LINE
  5
C0
330
89
100
AcDbEntity
  8
AM_9
100
AcDbLine
 10
0.2187499999999999
 20
1.772877759340258
 30
0.0
 11
0.2187499999999999
 21
1.536381976612785
 31
0.0
  0
LWPOLYLINE
  5
C1
330
89
100
AcDbEntity
  8
AM_9
100
AcDbPolyline
 90
        3
 70
     0
 43
0.0
 10
0.1640001247656344
 20
1.799952470605075
 10
0.164095414483217
 20
1.799907788137334
 10
0.2187499999999999
 20
1.772877759340258
  0
LWPOLYLINE
  5
C2
330
89
100
AcDbEntity
  8
AM_9
100
AcDbPolyline
 90
        3
 70
     0
 43
0.0
 10
0.1093749999999998
 20
1.823941677344304
 10
0.1367187499999999
 20
1.812349131590717
 10
0.1640001247656344
 20
1.799952470605075
  0
LWPOLYLINE
  5
C3
330
89
100
AcDbEntity
  8
AM_9
100
AcDbPolyline
 90
        4
 70
     0
 43
0.0
 10
-0.0000000000000001
 20
1.862182072879228
 10
0.0408050906197749
 20
1.849303789393323
 10
0.081870001090765
 20
1.834735985301911
 10
0.1093749999999998
 20
1.823941677344304
  0
LWPOLYLINE
  5
C4
330
89
100
AcDbEntity
  8
AM_9
100
AcDbPolyline
 90
        3
 70
     0
 43
0.0
 10
0.1640178034706311
 20
1.732612832808502
 10
0.1368799989092348
 20
1.742436691268042
 10
0.1093749999999999
 20
1.753230999225649
  0
LWPOLYLINE
  5
C5
330
89
100
AcDbEntity
  8
AM_9
100
AcDbPolyline
 90
        3
 70
     0
 43
0.0
 10
0.2187499999999999
 20
1.714990603690725
 10
0.1779449093802248
 20
1.727868887176629
 10
0.1640178034706311
 20
1.732612832808502
  0
LINE
  5
C6
330
89
100
AcDbEntity
  8
AM_9
100
AcDbLine
 10
-0.0000000000000001
 20
1.862182072879228
 30
0.0
 11
-0.0000000000000001
 21
1.804294917229695
 31
0.0
  0
LWPOLYLINE
  5
C7
330
89
100
AcDbEntity
  8
AM_9
100
AcDbPolyline
 90
        4
 70
     0
 43
0.0
 10
-0.1093750000000001
 20
1.823941677344304
 10
-0.0820312500000001
 20
1.834675209975459
 10
-0.0546545855167829
 20
1.844586819469829
 10
-0.0000000000000001
 20
1.862182072879228
  0
LWPOLYLINE
  5
C8
330
89
100
AcDbEntity
  8
AM_9
100
AcDbPolyline
 90
        3
 70
     0
 43
0.0
 10
-0.1640178034706309
 20
1.799944181555375
 10
-0.136879998909235
 20
1.8122782477341
 10
-0.1093750000000001
 20
1.823941677344304
  0
LWPOLYLINE
  5
C9
330
89
100
AcDbEntity
  8
AM_9
100
AcDbPolyline
 90
        3
 70
     0
 43
0.0
 10
-0.2187500000000001
 20
1.772877759340258
 10
-0.177944909380225
 20
1.793316692829845
 10
-0.1640178034706309
 20
1.799944181555375
  0
LINE
  5
CA
330
89
100
AcDbEntity
  8
AM_9
100
AcDbLine
 10
-0.2187500000000001
 20
1.772877759340258
 30
0.0
 11
-0.2187500000000001
 21
1.536381976612785
 31
0.0
  0
LWPOLYLINE
  5
CB
330
89
100
AcDbEntity
  8
AM_9
100
AcDbPolyline
 90
        3
 70
     0
 43
0.0
 10
-0.1640001247656342
 20
1.732618978360986
 10
-0.1640954144832172
 20
1.732585857100124
 10
-0.2187500000000001
 20
1.714990603690725
  0
LWPOLYLINE
  5
CC
330
89
100
AcDbEntity
  8
AM_9
100
AcDbPolyline
 90
        3
 70
     0
 43
0.0
 10
-0.1093750000000001
 20
1.753230999225649
 10
-0.1367187500000001
 20
1.742497466594493
 10
-0.1640001247656342
 20
1.732618978360986
  0
LWPOLYLINE
  5
CD
330
89
100
AcDbEntity
  8
AM_9
100
AcDbPolyline
 90
        4
 70
     0
 43
0.0
 10
0.1093749999999999
 20
1.753230999225649
 10
0.0820312499999999
 20
1.764823544979236
 10
0.0546545855167827
 20
1.777264888432619
 10
-0.0000000000000001
 20
1.804294917229695
  0
LWPOLYLINE
  5
CE
330
89
100
AcDbEntity
  8
AM_9
100
AcDbPolyline
 90
        4
 70
     0
 43
0.0
 10
-0.0000000000000001
 20
1.804294917229695
 10
-0.054469232418069
 20
1.777351829308915
 10
-0.0818700010907651
 20
1.764894428835853
 10
-0.1093750000000001
 20
1.753230999225649
  0
ELLIPSE
  5
CF
330
89
100
AcDbEntity
  8
AM_9
100
AcDbEllipse
 10
0.0000000000000014
 20
1.619274528917195
 30
0.0
 11
0.2057518972230681
 21
0.0
 31
0.0
210
0.0
220
0.0
230
1.0
 40
0.7071067811865472
 41
3.172849304556566
 42
7.853981633974483
  0
LINE
  5
D0
330
89
100
AcDbEntity
  8
AM_9
100
AcDbLine
 10
0.1985206121313387
 20
1.453463393351186
 30
0.0
 11
0.2056513978434624
 21
1.614727784151844
 31
0.0
  0
LINE
  5
D1
330
89
100
AcDbEntity
  8
AM_9
100
AcDbLine
 10
-0.2056513978434626
 20
1.614727784151844
 30
0.0
 11
-0.1985206121313389
 21
1.453463393351186
 31
0.0
  0
ELLIPSE
  5
D2
330
89
100
AcDbEntity
  8
AM_9
100
AcDbEllipse
 10
-0.0000000000000008
 20
1.619274528917195
 30
0.0
 11
0.2057518972230681
 21
0.0
 31
0.0
210
0.0
220
0.0
230
1.0
 40
0.7071067811865448
 41
1.570796326794897
 42
3.172849304556566
  0
ELLIPSE
  5
D3
330
89
100
AcDbEntity
  8
AM_9
100
AcDbEllipse
 10
-0.0000000000000004
 20
1.457852483644211
 30
0.0
 11
0.1986176267812151
 21
0.0
 31
0.0
210
0.0
220
0.0
230
1.0
 40
0.7071067811865467
 41
3.172849304556541
 42
3.740934287549131
  0
ELLIPSE
  5
D4
330
89
100
AcDbEntity
  8
AM_9
100
AcDbEllipse
 10
0.0000000000000006
 20
1.457852483644213
 30
0.0
 11
0.1986176267812165
 21
0.0
 31
0.0
210
0.0
220
0.0
230
1.0
 40
0.7071067811865471
 41
3.740934287549141
 42
4.184767179820001
  0
ELLIPSE
  5
D5
330
89
100
AcDbEntity
  8
AM_9
100
AcDbEllipse
 10
0.0000000000000019
 20
1.457852483644208
 30
0.0
 11
0.1986176267812134
 21
0.0
 31
0.0
210
0.0
220
0.0
230
1.0
 40
0.7071067811865447
 41
4.184767179819977
 42
9.456034611736106
  0
ELLIPSE
  5
D6
330
89
100
AcDbEntity
  8
AM_9
100
AcDbEllipse
 10
-0.0000000000000003
 20
1.431891231902758
 30
0.0
 11
0.1619028724722689
 21
0.0
 31
0.0
210
0.0
220
0.0
230
1.0
 40
0.7071067811865497
 41
1.570796326794897
 42
3.168276327364336
  0
ELLIPSE
  5
D7
330
89
100
AcDbEntity
  8
AM_9
100
AcDbEllipse
 10
0.0000000000000002
 20
1.431891231902759
 30
0.0
 11
0.1619028724722692
 21
0.0
 31
0.0
210
0.0
220
0.0
230
1.0
 40
0.707106781186548
 41
3.168276327364341
 42
3.930783774693071
  0
ELLIPSE
  5
D8
330
89
100
AcDbEntity
  8
AM_9
100
AcDbEllipse
 10
-0.0000000000000301
 20
1.431891231902801
 30
0.0
 11
0.1619028724722242
 21
2.412540800455573E-9
 31
0.0
210
0.0
220
0.0
230
1.0
 40
0.7071067811868544
 41
3.930783758928147
 42
4.046632455384525
  0
ELLIPSE
  5
D9
330
89
100
AcDbEntity
  8
AM_9
100
AcDbEllipse
 10
0.0000000000000001
 20
1.431891231902758
 30
0.0
 11
0.1619028724722688
 21
0.0
 31
0.0
210
0.0
220
0.0
230
1.0
 40
0.7071067811865471
 41
4.046632469940791
 42
6.124294301368563
  0
ELLIPSE
  5
DA
330
89
100
AcDbEntity
  8
AM_9
100
AcDbEllipse
 10
-0.0000000000000038
 20
1.431891231902759
 30
0.0
 11
0.1619028724722727
 21
0.0
 31
0.0
210
0.0
220
0.0
230
1.0
 40
0.707106781186548
 41
6.124294301368564
 42
6.280689747242191
  0
ELLIPSE
  5
DB
330
89
100
AcDbEntity
  8
AM_9
100
AcDbEllipse
 10
0.0000000000000002
 20
1.431891231902759
 30
0.0
 11
0.1619028724722686
 21
0.0
 31
0.0
210
0.0
220
0.0
230
1.0
 40
0.7071067811865481
 41
6.280689747242279
 42
7.853981633974483
  0
ELLIPSE
  5
DC
330
89
100
AcDbEntity
  8
AM_9
100
AcDbEllipse
 10
-0.0000000000000001
 20
1.884439571862149
 30
0.0
 11
0.1026779019331875
 21
0.0
 31
0.0
210
0.0
220
0.0
230
1.0
 40
0.7071067811865488
 41
0.0
 42
6.283185307179586
  0
ENDBLK
  5
8C
330
89
100
AcDbEntity
  8
0
100
AcDbBlockEnd
  0
BLOCK
  5
DF
330
DD
100
AcDbEntity
  8
0
100
AcDbBlockBegin
  2
3_123339_0_in_124996_2
 70
     2
 10
0.0
 20
0.0
 30
0.0
  3
3_123339_0_in_124996_2
  1

  0
ATTDEF
  5
E1
330
DD
100
AcDbEntity
  8
AM_6
100
AcDbText
 10
5.73
 20
1.416645210840088
 30
0.0
 40
0.5
  1
Set Screw Insert Inch Bore
100
AcDbAttributeDefinition
  3

  2
NN
 70
     8
280
     0
  0
ATTDEF
  5
E2
330
DD
100
AcDbEntity
  8
AM_6
100
AcDbText
 10
5.73
 20
0.9166452108400875
 30
0.0
 40
0.5
  1
SC Normal Duty Bearing Inserts
100
AcDbAttributeDefinition
  3

  2
NT
 70
     8
280
     0
  0
ATTDEF
  5
E3
330
DD
100
AcDbEntity
  8
AM_6
100
AcDbText
 10
5.73
 20
0.4166452108400875
 30
0.0
 40
0.5
  1
123339
100
AcDbAttributeDefinition
  3

  2
NB
 70
     8
280
     0
  0
ATTDEF
  5
E4
330
DD
100
AcDbEntity
  8
AM_6
100
AcDbText
 10
5.73
 20
-0.0833547891599125
 30
0.0
 40
0.5
  1
$PN.
100
AcDbAttributeDefinition
  3

  2
NBSYN
 70
     8
280
     0
  0
ATTDEF
  5
E5
330
DD
100
AcDbEntity
  8
AM_6
100
AcDbText
 10
5.73
 20
-0.5833547891599125
 30
0.0
 40
0.5
  1
123339
100
AcDbAttributeDefinition
  3

  2
LINA
 70
     8
280
     0
  0
ATTDEF
  5
E6
330
DD
100
AcDbEntity
  8
AM_6
100
AcDbText
 10
5.73
 20
-1.083354789159912
 30
0.0
 40
0.5
  1
207
100
AcDbAttributeDefinition
  3

  2
SERIES
 70
     8
280
     0
  0
ATTDEF
  5
E7
330
DD
100
AcDbEntity
  8
AM_6
100
AcDbText
 10
5.73
 20
-1.583354789159912
 30
0.0
 40
0.5
  1
1-1/4
100
AcDbAttributeDefinition
  3

  2
SS
 70
     8
280
     0
  0
ATTDEF
  5
E8
330
DD
100
AcDbEntity
  8
AM_6
100
AcDbText
 10
5.73
 20
-2.083354789159912
 30
0.0
 40
0.5
  1
123339
100
AcDbAttributeDefinition
  3

  2
PN
 70
     8
280
     0
  0
ATTDEF
  5
E9
330
DD
100
AcDbEntity
  8
AM_6
100
AcDbText
 10
5.73
 20
-2.583354789159912
 30
0.0
 40
0.5
  1
INS-SC-104
100
AcDbAttributeDefinition
  3

  2
DESCRIPTION
 70
     8
280
     0
  0
ATTDEF
  5
EA
330
DD
100
AcDbEntity
  8
AM_6
100
AcDbText
 10
5.73
 20
-3.083354789159912
 30
0.0
 40
0.5
  1
1.71
100
AcDbAttributeDefinition
  3

  2
A
 70
     8
280
     0
  0
ATTDEF
  5
EB
330
DD
100
AcDbEntity
  8
AM_6
100
AcDbText
 10
5.73
 20
-3.583354789159912
 30
0.0
 40
0.5
  1
0.75
100
AcDbAttributeDefinition
  3

  2
C
 70
     8
280
     0
  0
ATTDEF
  5
EC
330
DD
100
AcDbEntity
  8
AM_6
100
AcDbText
 10
5.73
 20
-4.083354789159912
 30
0.0
 40
0.5
  1
2.8346
100
AcDbAttributeDefinition
  3

  2
D
 70
     8
280
     0
  0
ATTDEF
  5
ED
330
DD
100
AcDbEntity
  8
AM_6
100
AcDbText
 10
5.73
 20
-4.583354789159912
 30
0.0
 40
0.5
  1
0.2
100
AcDbAttributeDefinition
  3

  2
J
 70
     8
280
     0
  0
ATTDEF
  5
EE
330
DD
100
AcDbEntity
  8
AM_6
100
AcDbText
 10
5.73
 20
-5.083354789159912
 30
0.0
 40
0.5
  1
1.84
100
AcDbAttributeDefinition
  3

  2
L
 70
     8
280
     0
  0
ATTDEF
  5
EF
330
DD
100
AcDbEntity
  8
AM_6
100
AcDbText
 10
5.73
 20
-5.583354789159912
 30
0.0
 40
0.5
  1
5/16 - 24
100
AcDbAttributeDefinition
  3

  2
N
 70
     8
280
     0
  0
ATTDEF
  5
F0
330
DD
100
AcDbEntity
  8
AM_6
100
AcDbText
 10
5.73
 20
-6.083354789159912
 30
0.0
 40
0.5
  1
0.67
100
AcDbAttributeDefinition
  3

  2
W
 70
     8
280
     0
  0
ATTDEF
  5
F1
330
DD
100
AcDbEntity
  8
AM_6
100
AcDbText
 10
5.73
 20
-6.583354789159912
 30
0.0
 40
0.5
  1
1.04
100
AcDbAttributeDefinition
  3

  2
Y
 70
     8
280
     0
  0
ATTDEF
  5
F2
330
DD
100
AcDbEntity
  8
AM_6
100
AcDbText
 10
5.73
 20
-7.083354789159912
 30
0.0
 40
0.5
  1
baldor
100
AcDbAttributeDefinition
  3

  2
COMPANY
 70
     8
280
     0
  0
ARC
  5
F3
330
DD
100
AcDbEntity
  8
AM_9
100
AcDbCircle
 10
0.2599999999999958
 20
0.0000000000000002
 30
0.0
 40
0.1041666666666661
100
AcDbArc
 50
348.6965788259253
 51
0.5645449269355742
  0
CIRCLE
  5
F4
330
DD
100
AcDbEntity
  8
AM_9
100
AcDbCircle
 10
0.26
 20
-0.0000000000000001
 30
0.0
 40
0.0359848484848541
  0
LWPOLYLINE
  5
F5
330
DD
100
AcDbEntity
  8
AM_9
100
AcDbPolyline
 90
        3
 70
     0
 43
0.0
 10
0.1642937178897841
 20
0.0410931359523083
 10
0.1648451830296364
 20
0.0423578369960911
 10
0.1730567607896901
 20
0.0573721848988015
  0
LWPOLYLINE
  5
F6
330
DD
100
AcDbEntity
  8
AM_9
100
AcDbPolyline
 90
        6
 70
     0
 43
0.0
 10
0.164858264993152
 20
-0.0423872904990535
 10
0.159131948441127
 20
-0.0258916831503881
 10
0.1562625760501628
 20
-0.0089768005992646
 10
0.1562374199901176
 20
0.0086796943424884
 10
0.1590689076597639
 20
0.0256437838139879
 10
0.1642937178897841
 20
0.0410931359523083
  0
LINE
  5
F7
330
DD
100
AcDbEntity
  8
AM_9
100
AcDbLine
 10
-0.6729151965893085
 20
0.6126536478449086
 30
0.0
 11
-0.6220848034106915
 21
0.6126536478449086
 31
0.0
  0
LINE
  5
F8
330
DD
100
AcDbEntity
  8
AM_9
100
AcDbLine
 10
-0.5213
 20
0.625
 30
0.0
 11
-0.5213
 21
0.8991344012334843
 31
0.0
  0
LINE
  5
F9
330
DD
100
AcDbEntity
  8
AM_9
100
AcDbLine
 10
-0.7737
 20
0.8991344012334843
 30
0.0
 11
-0.7737
 21
0.625
 31
0.0
  0
LINE
  5
FA
330
DD
100
AcDbEntity
  8
AM_9
100
AcDbLine
 10
-0.7737
 20
0.8991344012334843
 30
0.0
 11
-0.5213
 21
0.8991344012334843
 31
0.0
  0
LINE
  5
FB
330
DD
100
AcDbEntity
  8
AM_9
100
AcDbLine
 10
-0.5213
 20
0.8991344012334843
 30
0.0
 11
-0.5004344012334843
 21
0.92
 31
0.0
  0
LINE
  5
FC
330
DD
100
AcDbEntity
  8
AM_9
100
AcDbLine
 10
-0.7945655987665157
 20
0.92
 30
0.0
 11
-0.7737
 21
0.8991344012334843
 31
0.0
  0
LWPOLYLINE
  5
FD
330
DD
100
AcDbEntity
  8
AM_9
100
AcDbPolyline
 90
        4
 70
     0
 43
0.0
 10
-0.6729151965893085
 20
0.6126536478449086
 10
-0.6560379875331827
 20
0.6120639405846138
 10
-0.6383681535052116
 20
0.6120747521575212
 10
-0.6220848034106915
 20
0.6126536478449086
  0
LWPOLYLINE
  5
FE
330
DD
100
AcDbEntity
  8
AM_9
100
AcDbPolyline
 90
       10
 70
     0
 43
0.0
 10
-0.6220848034106915
 20
0.6126536478449086
 10
-0.6020307475057175
 20
0.6138126855339411
 10
-0.5827253300447578
 20
0.6155439203402228
 10
-0.5657890608220902
 20
0.6175558578633483
 10
-0.5507045241987703
 20
0.6197321390210342
 10
-0.5385915300904748
 20
0.6217391855255981
 10
-0.5292791247001609
 20
0.6234378360002384
 10
-0.5235962314344943
 20
0.6245403941017222
 10
-0.5213237316359914
 20
0.6249952085402465
 10
-0.5213000000007934
 20
0.6249999999998398
  0
LWPOLYLINE
  5
FF
330
DD
100
AcDbEntity
  8
AM_9
100
AcDbPolyline
 90
        5
 70
     0
 43
0.0
 10
-0.6729151965893095
 20
0.1468859707668957
 10
-0.6642849788341043
 20
0.1450578494666401
 10
-0.6468789650441734
 20
0.1436609753757866
 10
-0.6289225829019894
 20
0.1453743779094747
 10
-0.6220848034106906
 20
0.1468859707668957
  0
LWPOLYLINE
  5
100
330
DD
100
AcDbEntity
  8
AM_9
100
AcDbPolyline
 90
        4
 70
     0
 43
0.0
 10
-0.6220848034106917
 20
0.3709512686357322
 10
-0.6438377502943887
 20
0.3735616244833173
 10
-0.6583357105273538
 20
0.3731371533645921
 10
-0.6729151965893082
 20
0.3709512686357322
  0
LINE
  5
101
330
DD
100
AcDbEntity
  8
AM_9
100
AcDbLine
 10
-0.9431999999999999
 20
-0.625
 30
0.0
 11
0.6932
 21
-0.625
 31
0.0
  0
LINE
  5
102
330
DD
100
AcDbEntity
  8
AM_9
100
AcDbLine
 10
0.6932
 20
0.625
 30
0.0
 11
-0.5213000000000001
 21
0.625
 31
0.0
  0
LINE
  5
103
330
DD
100
AcDbEntity
  8
AM_9
100
AcDbLine
 10
-0.7737
 20
0.625
 30
0.0
 11
-0.9431999999999999
 21
0.625
 31
0.0
  0
LWPOLYLINE
  5
104
330
DD
100
AcDbEntity
  8
AM_9
100
AcDbPolyline
 90
       10
 70
     0
 43
0.0
 10
-0.7736999999992066
 20
0.6249999999998398
 10
-0.7723870740621925
 20
0.624736217349223
 10
-0.7675773561359294
 20
0.623792538795227
 10
-0.7596793532437345
 20
0.6223204699302303
 10
-0.7484776435541937
 20
0.6203991009807782
 10
-0.7346396881102436
 20
0.6182975701423632
 10
-0.7179301315904255
 20
0.6161647210250232
 10
-0.6995172486791603
 20
0.6143324459607759
 10
-0.6790096937774568
 20
0.6129367184318044
 10
-0.6729151965893084
 20
0.6126536478449084
  0
LINE
  5
105
330
DD
100
AcDbEntity
  8
AM_9
100
AcDbLine
 10
0.6932
 20
-0.625
 30
0.0
 11
0.7300000000000001
 21
-0.6617999999999999
 31
0.0
  0
LINE
  5
106
330
DD
100
AcDbEntity
  8
AM_9
100
AcDbLine
 10
0.7300000000000001
 20
0.6617999999999999
 30
0.0
 11
0.6932
 21
0.625
 31
0.0
  0
LINE
  5
107
330
DD
100
AcDbEntity
  8
AM_9
100
AcDbLine
 10
-0.9431999999999999
 20
0.6250000000000001
 30
0.0
 11
-0.98
 21
0.6618000000000002
 31
0.0
  0
LINE
  5
108
330
DD
100
AcDbEntity
  8
AM_9
100
AcDbLine
 10
-0.98
 20
-0.6618000000000002
 30
0.0
 11
-0.9431999999999999
 21
-0.6250000000000001
 31
0.0
  0
ELLIPSE
  5
109
330
DD
100
AcDbEntity
  8
AM_9
100
AcDbEllipse
 10
-0.6475
 20
0.2589186197013157
 30
0.0
 11
0.1262000000000021
 21
0.0
 31
0.0
210
0.0
220
0.0
230
1.0
 40
0.9063077870366506
 41
4.509613981979754
 42
4.915163978789622
  0
LWPOLYLINE
  5
10A
330
DD
100
AcDbEntity
  8
AM_9
100
AcDbPolyline
 90
        6
 70
     0
 43
0.0
 10
-0.7556829134958237
 20
0.3216001397636059
 10
-0.7564084699095251
 20
0.3205448565170436
 10
-0.765720875299839
 20
0.3035003984411027
 10
-0.7714037685655057
 20
0.2856613674317907
 10
-0.7736762683640086
 20
0.2663524002028703
 10
-0.7736999995171794
 20
0.2641464184595732
  0
LWPOLYLINE
  5
10B
330
DD
100
AcDbEntity
  8
AM_9
100
AcDbPolyline
 90
       10
 70
     0
 43
0.0
 10
-0.6220848034106905
 20
0.1468859707668957
 10
-0.6020307475057167
 20
0.1527140917358613
 10
-0.582725330044757
 20
0.1619794698667933
 10
-0.5657890608220895
 20
0.1738256107813289
 10
-0.5507045241987696
 20
0.188521145418691
 10
-0.5385915300904742
 20
0.2049718111687703
 10
-0.5292791247001605
 20
0.2234520306665065
 10
-0.523596231434494
 20
0.2422229840524528
 10
-0.5213237316359913
 20
0.2619163770562208
 10
-0.5213000004828205
 20
0.2641264086338982
  0
LINE
  5
10C
330
DD
100
AcDbEntity
  8
AM_9
100
AcDbLine
 10
-0.5212999999999999
 20
0.2641214462775162
 30
0.0
 11
-0.5212999999999999
 21
0.3799906177205598
 31
0.0
  0
LINE
  5
10D
330
DD
100
AcDbEntity
  8
AM_9
100
AcDbLine
 10
-0.7737
 20
0.3799906177205598
 30
0.0
 11
-0.7737
 21
0.2641214462775162
 31
0.0
  0
LWPOLYLINE
  5
10E
330
DD
100
AcDbEntity
  8
AM_9
100
AcDbPolyline
 90
       10
 70
     0
 43
0.0
 10
-0.7736999995171794
 20
0.2641464184595732
 10
-0.7723870740621925
 20
0.2475695508989224
 10
-0.7675773561359296
 20
0.228433024222498
 10
-0.7596793532437346
 20
0.2106084874353245
 10
-0.7484776435541939
 20
0.1935876898381916
 10
-0.7346396881102438
 20
0.17857072620113
 10
-0.717930131590426
 20
0.1654949583868579
 10
-0.6995172486791608
 20
0.1554198737776087
 10
-0.6790096937774571
 20
0.148284697792826
 10
-0.6729151965893093
 20
0.1468859707668949
  0
LWPOLYLINE
  5
10F
330
DD
100
AcDbEntity
  8
AM_9
100
AcDbPolyline
 90
        5
 70
     0
 43
0.0
 10
-0.5213000004828205
 20
0.2641264086338982
 10
-0.5226129259378075
 20
0.2804803175462555
 10
-0.5274226438640708
 20
0.2988192126424165
 10
-0.5353206467562659
 20
0.3153995030598147
 10
-0.5394640158763663
 20
0.3218104602143267
  0
LINE
  5
110
330
DD
100
AcDbEntity
  8
AM_9
100
AcDbLine
 10
-0.4099999999999999
 20
-0.92
 30
0.0
 11
-0.3149999999999999
 21
-0.92
 31
0.0
  0
LINE
  5
111
330
DD
100
AcDbEntity
  8
AM_9
100
AcDbLine
 10
-0.3149999999999999
 20
0.92
 30
0.0
 11
-0.5004344012334843
 21
0.92
 31
0.0
  0
LWPOLYLINE
  5
112
330
DD
100
AcDbEntity
  8
AM_9
100
AcDbPolyline
 90
       10
 70
     0
 43
0.0
 10
-0.500434401233617
 20
0.9199999999999817
 10
-0.5021328563835756
 20
0.9197672156824251
 10
-0.5072088849426021
 20
0.9190870475333615
 10
-0.5157374011364824
 20
0.9179968743670353
 10
-0.5273018245452199
 20
0.9166246334032568
 10
-0.5419193796601766
 20
0.9150660433539636
 10
-0.5596251309267813
 20
0.9134435749968242
 10
-0.5798973282902161
 20
0.9119461854092924
 10
-0.6027210234400402
 20
0.9107244668690447
 10
-0.60332078908356
 20
0.9106990235596635
  0
LINE
  5
113
330
DD
100
AcDbEntity
  8
AM_9
100
AcDbLine
 10
0.7300000000000001
 20
0.8832000000000002
 30
0.0
 11
0.6932
 21
0.9200000000000002
 31
0.0
  0
LINE
  5
114
330
DD
100
AcDbEntity
  8
AM_9
100
AcDbLine
 10
0.6932
 20
-0.9200000000000002
 30
0.0
 11
0.7300000000000001
 21
-0.8832000000000002
 31
0.0
  0
LINE
  5
115
330
DD
100
AcDbEntity
  8
AM_9
100
AcDbLine
 10
0.7300000000000001
 20
0.8832000000000002
 30
0.0
 11
0.7300000000000001
 21
-0.8832000000000002
 31
0.0
  0
LINE
  5
116
330
DD
100
AcDbEntity
  8
AM_9
100
AcDbLine
 10
0.435
 20
-0.9199999999999997
 30
0.0
 11
0.6932
 21
-0.9199999999999997
 31
0.0
  0
LINE
  5
117
330
DD
100
AcDbEntity
  8
AM_9
100
AcDbLine
 10
0.6932
 20
0.9199999999999997
 30
0.0
 11
0.435
 21
0.9199999999999997
 31
0.0
  0
LINE
  5
118
330
DD
100
AcDbEntity
  8
AM_9
100
AcDbLine
 10
0.6932
 20
0.9199999999999997
 30
0.0
 11
0.6932
 21
-0.9199999999999997
 31
0.0
  0
LINE
  5
119
330
DD
100
AcDbEntity
  8
AM_9
100
AcDbLine
 10
-0.1799999999999999
 20
-1.350633333333333
 30
0.0
 11
-0.0999999999999999
 21
-1.350633333333333
 31
0.0
  0
LINE
  5
11A
330
DD
100
AcDbEntity
  8
AM_9
100
AcDbLine
 10
-0.0999999999999999
 20
1.350633333333333
 30
0.0
 11
-0.1799999999999999
 21
1.350633333333333
 31
0.0
  0
LINE
  5
11B
330
DD
100
AcDbEntity
  8
AM_9
100
AcDbLine
 10
0.435
 20
1.335937981344943
 30
0.0
 11
0.435
 21
-1.335937981344943
 31
0.0
  0
ARC
  5
11C
330
DD
100
AcDbEntity
  8
AM_9
100
AcDbCircle
 10
0.3950000000000001
 20
-1.335937981344943
 30
0.0
 40
0.0399999999999997
100
AcDbArc
 50
284.0772302633403
 51
0.0
  0
ARC
  5
11D
330
DD
100
AcDbEntity
  8
AM_9
100
AcDbCircle
 10
0.3950000000000001
 20
1.335937981344943
 30
0.0
 40
0.0399999999999999
100
AcDbArc
 50
0.0
 51
75.92276973665967
  0
LINE
  5
11E
330
DD
100
AcDbEntity
  8
AM_9
100
AcDbLine
 10
-0.3149999999999999
 20
1.335937981344943
 30
0.0
 11
-0.3149999999999999
 21
-1.335937981344943
 31
0.0
  0
ARC
  5
11F
330
DD
100
AcDbEntity
  8
AM_9
100
AcDbCircle
 10
-0.2749999999999994
 20
-1.335937981344942
 30
0.0
 40
0.0400000000000005
100
AcDbArc
 50
180.0
 51
255.9227727932858
  0
ARC
  5
120
330
DD
100
AcDbEntity
  8
AM_9
100
AcDbCircle
 10
-0.2749999999999995
 20
1.335937981344942
 30
0.0
 40
0.0400000000000003
100
AcDbArc
 50
104.0772272067141
 51
179.9999991462263
  0
ARC
  5
121
330
DD
100
AcDbEntity
  8
AM_9
100
AcDbCircle
 10
0.060000000000027
 20
-0.0000000000001479
 30
0.0
 40
1.41730000000015
100
AcDbArc
 50
99.74921852491408
 51
104.0772272067128
  0
ARC
  5
122
330
DD
100
AcDbEntity
  8
AM_9
100
AcDbCircle
 10
0.0600000000177424
 20
0.0000000000841802
 30
0.0
 40
1.417300000085907
100
AcDbArc
 50
255.9227727934181
 51
260.2507814749548
  0
LINE
  5
123
330
DD
100
AcDbEntity
  8
AM_9
100
AcDbLine
 10
-0.2847291802802586
 20
1.374736731983001
 30
0.0
 11
-0.2847291802802586
 21
-1.374736731982938
 31
0.0
  0
LINE
  5
124
330
DD
100
AcDbEntity
  8
AM_9
100
AcDbLine
 10
-0.18
 20
1.396831876068126
 30
0.0
 11
-0.18
 21
-1.396831876068063
 31
0.0
  0
LWPOLYLINE
  5
125
330
DD
100
AcDbEntity
  8
AM_9
100
AcDbPolyline
 90
        3
 70
     0
 43
0.0
 10
0.1730567607897125
 20
-0.0573721848988362
 10
0.1648845088857724
 20
-0.0424463033875235
 10
0.164858264993152
 20
-0.0423872904990535
  0
LWPOLYLINE
  5
126
330
DD
100
AcDbEntity
  8
AM_9
100
AcDbPolyline
 90
       32
 70
     0
 43
0.0
 10
0.1730567607897127
 20
-0.0573721848988359
 10
0.1837496586884601
 20
-0.0709688656688068
 10
0.1969217584851232
 20
-0.0828965010831841
 10
0.211500266154353
 20
-0.0921871480269613
 10
0.2278627751752888
 20
-0.0990852825853034
 10
0.244769782721899
 20
-0.1030472460869542
 10
0.2625899909953504
 20
-0.1041344630325978
 10
0.2799464301796625
 20
-0.102239103906144
 10
0.2972277550053577
 20
-0.0972871456139224
 10
0.3129763640868901
 20
-0.0896894603204676
 10
0.3276453870923443
 20
-0.0792136102546171
 10
0.3399055457658439
 20
-0.0668266279285892
 10
0.3502040965239214
 20
-0.0520952532842152
 10
0.3575864510270632
 20
-0.0364359577942731
 10
0.3623731838101533
 20
-0.0192464459320681
 10
0.3641445195238155
 20
-0.0021479053976029
 10
0.3630056292834159
 20
0.0155091837428968
 10
0.3590748757602782
 20
0.0321692933949271
 10
0.3522478220011282
 20
0.0483842307006283
 10
0.3430731537770078
 20
0.0628454100629876
 10
0.3313171888186786
 20
0.0759246535944972
 10
0.3178425757425677
 20
0.0866310041261716
 10
0.3023657679946538
 20
0.0951621571144045
 10
0.2859996119295445
 20
0.1008697904427114
 10
0.2684321175092803
 20
0.1038248228447953
 10
0.2509913670812825
 20
0.1037763893059459
 10
0.2333081049880454
 20
0.1006888136046613
 10
0.2168408905486845
 20
0.0948049878213842
 10
0.2011459042512686
 20
0.0859470177379215
 10
0.1876241816059731
 20
0.0749161888795624
 10
0.1758099499279325
 20
0.0613410948166578
 10
0.1730567607896901
 20
0.0573721848988015
  0
ARC
  5
127
330
DD
100
AcDbEntity
  8
AM_9
100
AcDbCircle
 10
0.0599999999999993
 20
-0.0000000000000155
 30
0.0
 40
1.417300000000015
100
AcDbArc
 50
75.9227727070207
 51
96.4819792005179
  0
ARC
  5
128
330
DD
100
AcDbEntity
  8
AM_9
100
AcDbCircle
 10
0.0600000000000003
 20
0.0000000000000115
 30
0.0
 40
1.41730000000001
100
AcDbArc
 50
263.518020799482
 51
284.0772272929794
  0
LINE
  5
129
330
DD
100
AcDbEntity
  8
AM_9
100
AcDbLine
 10
-0.0999999999999999
 20
1.40823978426971
 30
0.0
 11
-0.0999999999999999
 21
-1.408239784269709
 31
0.0
  0
LINE
  5
12A
330
DD
100
AcDbEntity
  8
AM_9
100
AcDbLine
 10
0.4047291823501022
 20
1.374736731463966
 30
0.0
 11
0.4047291823501022
 21
-1.374736731463966
 31
0.0
  0
LINE
  5
12C
330
DD
100
AcDbEntity
  8
AM_5
100
AcDbLine
 10
-0.49125
 20
0.625
 30
0.0
 11
-0.49125
 21
0.92
 31
0.0
  0
LINE
  5
12D
330
DD
100
AcDbEntity
  8
AM_5
100
AcDbLine
 10
-0.80375
 20
0.625
 30
0.0
 11
-0.80375
 21
0.92
 31
0.0
  0
LINE
  5
130
330
DD
100
AcDbEntity
  8
AM_7
100
AcDbLine
 10
0.26
 20
-0.0377840909090969
 30
0.0
 11
0.26
 21
0.0377840909090967
 31
0.0
  0
LINE
  5
131
330
DD
100
AcDbEntity
  8
AM_7
100
AcDbLine
 10
-0.6475
 20
0.9465134389029138
 30
0.0
 11
-0.6475
 21
0.5652746101754798
 31
0.0
  0
LWPOLYLINE
  5
133
330
DD
100
AcDbEntity
  8
AM_4
100
AcDbPolyline
 90
        6
 70
     0
 43
0.0
 10
-0.6729151965893082
 20
0.3709512686357322
 10
-0.6929692524942821
 20
0.3661028086536286
 10
-0.7122746699552419
 20
0.3583007334116883
 10
-0.7292109391779096
 20
0.3481551555746613
 10
-0.7442954758012296
 20
0.3352990932571397
 10
-0.7556829134958237
 20
0.3216001397636059
  0
ELLIPSE
  5
134
330
DD
100
AcDbEntity
  8
AM_4
100
AcDbEllipse
 10
-0.6475
 20
0.2589186197013107
 30
0.0
 11
0.1262000000000036
 21
0.0
 31
0.0
210
0.0
220
0.0
230
1.0
 40
0.9063077870366485
 41
1.368021328389975
 42
1.773571325199818
  0
LWPOLYLINE
  5
135
330
DD
100
AcDbEntity
  8
AM_4
100
AcDbPolyline
 90
        7
 70
     0
 43
0.0
 10
-0.5394640158763663
 20
0.3218104602143267
 10
-0.5465223564458068
 20
0.3307962894457876
 10
-0.560360311889757
 20
0.3440369624629982
 10
-0.5770698684095751
 20
0.3553099683042193
 10
-0.5954827513208404
 20
0.3638363471081023
 10
-0.615990306222544
 20
0.3697918032085697
 10
-0.6220848034106919
 20
0.3709512686357329
  0
LWPOLYLINE
  5
136
330
DD
100
AcDbEntity
  8
AM_4
100
AcDbPolyline
 90
       39
 70
     0
 43
0.0
 10
-0.5005879082788798
 20
0.3831468696165903
 10
-0.5035680356699397
 20
0.3632781926959329
 10
-0.5101729415079196
 20
0.3439609398142159
 10
-0.519923739369652
 20
0.3261664671045509
 10
-0.5325453381619383
 20
0.3098848853577551
 10
-0.5486345461053659
 20
0.2947371385201887
 10
-0.5670200470031391
 20
0.2820561800758902
 10
-0.5887519557526241
 20
0.2715409242079174
 10
-0.6119593141783387
 20
0.2644166700217198
 10
-0.6373312168221054
 20
0.2608037887576972
 10
-0.6629788291470502
 20
0.2612115006936286
 10
-0.688722166329964
 20
0.2658199659526827
 10
-0.7132870748661603
 20
0.2744889513719074
 10
-0.7357514884101559
 20
0.2869406238376951
 10
-0.7555921006122824
 20
0.3028337006592151
 10
-0.7714358019562612
 20
0.320929310637152
 10
-0.7835713129913822
 20
0.3412258141340099
 10
-0.7909628016037893
 20
0.3614455537922164
 10
-0.7943649951509523
 20
0.3823351054802132
 10
-0.7937283405896984
 20
0.4018250662339457
 10
-0.789496834881177
 20
0.4207350632430682
 10
-0.7819214843032235
 20
0.43829961330239
 10
-0.7712955586635274
 20
0.4544069053250742
 10
-0.7572836347978098
 20
0.46931470387109
 10
-0.7407671272814006
 20
0.4820388056805551
 10
-0.7207722420046173
 20
0.4930258231171737
 10
-0.6989882783813788
 20
0.501153724514045
 10
-0.6745136270465196
 20
0.506516399014524
 10
-0.6493232214294109
 20
0.508488236195261
 10
-0.623299974210065
 20
0.5069073389414688
 10
-0.597957872439703
 20
0.5017163786486232
 10
-0.5739984893613344
 20
0.4929165459099835
 10
-0.5521991277220692
 20
0.4806806880771297
 10
-0.5338345460575524
 20
0.4656486804273735
 10
-0.518887730866234
 20
0.4478496842383146
 10
-0.5086260742809273
 20
0.4290304935181857
 10
-0.5023590487133961
 20
0.4086554104226282
 10
-0.5006862680881515
 20
0.3959919728227245
 10
-0.5005878957403024
 20
0.3831468582600498
  0
LINE
  5
137
330
DD
100
AcDbEntity
  8
AM_4
100
AcDbLine
 10
-0.9431999999999999
 20
-0.92
 30
0.0
 11
-0.4099999999999999
 21
-0.92
 31
0.0
  0
LINE
  5
138
330
DD
100
AcDbEntity
  8
AM_4
100
AcDbLine
 10
-0.7945655987665157
 20
0.92
 30
0.0
 11
-0.9431999999999999
 21
0.92
 31
0.0
  0
LWPOLYLINE
  5
139
330
DD
100
AcDbEntity
  8
AM_4
100
AcDbPolyline
 90
       12
 70
     0
 43
0.0
 10
-0.60332078908356
 20
0.9106990235596635
 10
-0.6273231601094075
 20
0.9099618570187382
 10
-0.6528309335755905
 20
0.9097809805555592
 10
-0.6789057595955513
 20
0.9102383946655802
 10
-0.7036679264524183
 20
0.9112724224166411
 10
-0.7275085961069854
 20
0.9128166953186599
 10
-0.7479506951618037
 20
0.9145659356338822
 10
-0.765973913522221
 20
0.9164305360844839
 10
-0.7791180018042161
 20
0.9179789615843863
 10
-0.7887247671862879
 20
0.9192104035587126
 10
-0.793492592610008
 20
0.9198526347972742
 10
-0.7945655987661261
 20
0.9199999999999463
  0
LINE
  5
13A
330
DD
100
AcDbEntity
  8
AM_4
100
AcDbLine
 10
-0.98
 20
-0.8832
 30
0.0
 11
-0.9431999999999999
 21
-0.92
 31
0.0
  0
LINE
  5
13B
330
DD
100
AcDbEntity
  8
AM_4
100
AcDbLine
 10
-0.9431999999999999
 20
0.92
 30
0.0
 11
-0.98
 21
0.8832
 31
0.0
  0
LINE
  5
13C
330
DD
100
AcDbEntity
  8
AM_4
100
AcDbLine
 10
-0.98
 20
0.8832
 30
0.0
 11
-0.98
 21
-0.8832
 31
0.0
  0
LINE
  5
13D
330
DD
100
AcDbEntity
  8
AM_4
100
AcDbLine
 10
-0.9431999999999999
 20
0.92
 30
0.0
 11
-0.9431999999999999
 21
-0.92
 31
0.0
  0
ELLIPSE
  5
13E
330
DD
100
AcDbEntity
  8
AM_4
100
AcDbEllipse
 10
-0.6475
 20
0.3799906177205598
 30
0.0
 11
0.1262000000000001
 21
0.0
 31
0.0
210
0.0
220
0.0
230
1.0
 40
0.9063077870366498
 41
0.0
 42
6.283185307179586
  0
ENDBLK
  5
E0
330
DD
100
AcDbEntity
  8
0
100
AcDbBlockEnd
  0
BLOCK
  5
141
330
13F
100
AcDbEntity
  8
0
100
AcDbBlockBegin
  2
4_124996H_0_in_124996_2
 70
     2
 10
0.0
 20
0.0
 30
0.0
  3
4_124996H_0_in_124996_2
  1

  0
ATTDEF
  5
143
330
13F
100
AcDbEntity
  8
AM_6
100
AcDbText
 10
5.943
 20
2.8875
 30
0.0
 40
0.5
  1
SCHB-SC -Housing -Inch
100
AcDbAttributeDefinition
  3

  2
NN
 70
     8
280
     0
  0
ATTDEF
  5
144
330
13F
100
AcDbEntity
  8
AM_6
100
AcDbText
 10
5.943
 20
2.3875
 30
0.0
 40
0.5
  1
SC Screw Conveyor Hanger Bearings -(Normal Duty)
100
AcDbAttributeDefinition
  3

  2
NT
 70
     8
280
     0
  0
ATTDEF
  5
145
330
13F
100
AcDbEntity
  8
AM_6
100
AcDbText
 10
5.943
 20
1.8875
 30
0.0
 40
0.5
  1
124996H
100
AcDbAttributeDefinition
  3

  2
NB
 70
     8
280
     0
  0
ATTDEF
  5
146
330
13F
100
AcDbEntity
  8
AM_6
100
AcDbText
 10
5.943
 20
1.3875
 30
0.0
 40
0.5
  1
$PN.H
100
AcDbAttributeDefinition
  3

  2
NBSYN
 70
     8
280
     0
  0
ATTDEF
  5
147
330
13F
100
AcDbEntity
  8
AM_6
100
AcDbText
 10
5.943
 20
0.8875000000000002
 30
0.0
 40
0.5
  1
124996
100
AcDbAttributeDefinition
  3

  2
LINA
 70
     8
280
     0
  0
ATTDEF
  5
148
330
13F
100
AcDbEntity
  8
AM_6
100
AcDbText
 10
5.943
 20
0.3875000000000002
 30
0.0
 40
0.5
  1
207
100
AcDbAttributeDefinition
  3

  2
SERIES
 70
     8
280
     0
  0
ATTDEF
  5
149
330
13F
100
AcDbEntity
  8
AM_6
100
AcDbText
 10
5.943
 20
-0.1124999999999998
 30
0.0
 40
0.5
  1
1-1/4
100
AcDbAttributeDefinition
  3

  2
SS
 70
     8
280
     0
  0
ATTDEF
  5
14A
330
13F
100
AcDbEntity
  8
AM_6
100
AcDbText
 10
5.943
 20
-0.6124999999999998
 30
0.0
 40
0.5
  1
124996
100
AcDbAttributeDefinition
  3

  2
PN
 70
     8
280
     0
  0
ATTDEF
  5
14B
330
13F
100
AcDbEntity
  8
AM_6
100
AcDbText
 10
5.943
 20
-1.1125
 30
0.0
 40
0.5
  1
1
100
AcDbAttributeDefinition
  3

  2
HLP
 70
     8
280
     0
  0
ATTDEF
  5
14C
330
13F
100
AcDbEntity
  8
AM_6
100
AcDbText
 10
5.943
 20
-1.6125
 30
0.0
 40
0.5
  1
SCHB-SC-104
100
AcDbAttributeDefinition
  3

  2
DESCRIPTION
 70
     8
280
     0
  0
ATTDEF
  5
14D
330
13F
100
AcDbEntity
  8
AM_6
100
AcDbText
 10
5.943
 20
-2.1125
 30
0.0
 40
0.5
  1
3.5
100
AcDbAttributeDefinition
  3

  2
W
 70
     8
280
     0
  0
ATTDEF
  5
14E
330
13F
100
AcDbEntity
  8
AM_6
100
AcDbText
 10
5.943
 20
-2.6125
 30
0.0
 40
0.5
  1
1.71
100
AcDbAttributeDefinition
  3

  2
A
 70
     8
280
     0
  0
ATTDEF
  5
14F
330
13F
100
AcDbEntity
  8
AM_6
100
AcDbText
 10
5.943
 20
-3.1125
 30
0.0
 40
0.5
  1
3.88
100
AcDbAttributeDefinition
  3

  2
B
 70
     8
280
     0
  0
ATTDEF
  5
150
330
13F
100
AcDbEntity
  8
AM_6
100
AcDbText
 10
5.943
 20
-3.6125
 30
0.0
 40
0.5
  1
0.82
100
AcDbAttributeDefinition
  3

  2
C
 70
     8
280
     0
  0
ATTDEF
  5
151
330
13F
100
AcDbEntity
  8
AM_6
100
AcDbText
 10
5.943
 20
-4.1125
 30
0.0
 40
0.5
  1
0.82
100
AcDbAttributeDefinition
  3

  2
D
 70
     8
280
     0
  0
ATTDEF
  5
152
330
13F
100
AcDbEntity
  8
AM_6
100
AcDbText
 10
5.943
 20
-4.6125
 30
0.0
 40
0.5
  1
3/4- 14
100
AcDbAttributeDefinition
  3

  2
F
 70
     8
280
     0
  0
ATTDEF
  5
153
330
13F
100
AcDbEntity
  8
AM_6
100
AcDbText
 10
5.943
 20
-5.1125
 30
0.0
 40
0.5
  1
0.63
100
AcDbAttributeDefinition
  3

  2
G
 70
     8
280
     0
  0
ATTDEF
  5
154
330
13F
100
AcDbEntity
  8
AM_6
100
AcDbText
 10
5.943
 20
-5.6125
 30
0.0
 40
0.5
  1
0.94
100
AcDbAttributeDefinition
  3

  2
H
 70
     8
280
     0
  0
ATTDEF
  5
155
330
13F
100
AcDbEntity
  8
AM_6
100
AcDbText
 10
5.943
 20
-6.1125
 30
0.0
 40
0.5
  1
4.69
100
AcDbAttributeDefinition
  3

  2
J
 70
     8
280
     0
  0
ATTDEF
  5
156
330
13F
100
AcDbEntity
  8
AM_6
100
AcDbText
 10
5.943
 20
-6.6125
 30
0.0
 40
0.5
  1
0.98
100
AcDbAttributeDefinition
  3

  2
K
 70
     8
280
     0
  0
ATTDEF
  5
157
330
13F
100
AcDbEntity
  8
AM_6
100
AcDbText
 10
5.943
 20
-7.1125
 30
0.0
 40
0.5
  1
1.84
100
AcDbAttributeDefinition
  3

  2
L
 70
     8
280
     0
  0
ATTDEF
  5
158
330
13F
100
AcDbEntity
  8
AM_6
100
AcDbText
 10
5.943
 20
-7.6125
 30
0.0
 40
0.5
  1
2.75
100
AcDbAttributeDefinition
  3

  2
M
 70
     8
280
     0
  0
ATTDEF
  5
159
330
13F
100
AcDbEntity
  8
AM_6
100
AcDbText
 10
5.943
 20
-8.1125
 30
0.0
 40
0.5
  1
3065
100
AcDbAttributeDefinition
  3

  2
CAPS
 70
     8
280
     0
  0
ATTDEF
  5
15A
330
13F
100
AcDbEntity
  8
AM_6
100
AcDbText
 10
5.943
 20
-8.6125
 30
0.0
 40
0.5
  1
5759
100
AcDbAttributeDefinition
  3

  2
CAPD
 70
     8
280
     0
  0
ATTDEF
  5
15B
330
13F
100
AcDbEntity
  8
AM_6
100
AcDbText
 10
5.943
 20
-9.1125
 30
0.0
 40
0.5
  1
baldor
100
AcDbAttributeDefinition
  3

  2
COMPANY
 70
     8
280
     0
  0
ELLIPSE
  5
15C
330
13F
100
AcDbEntity
  8
AM_9
100
AcDbEllipse
 10
-0.0000000000000001
 20
1.619274528917194
 30
0.0
 11
-0.2057362423417479
 21
2.519542306524258E-17
 31
0.0
210
0.0
220
0.0
230
1.0
 40
0.7071067811865478
 41
0.0
 42
6.283185307179586
  0
LINE
  5
15D
330
13F
100
AcDbEntity
  8
AM_9
100
AcDbLine
 10
0.1618581488615637
 20
1.428312711655473
 30
0.0
 11
0.168990547720647
 21
1.589613584152846
 31
0.0
  0
LINE
  5
15E
330
13F
100
AcDbEntity
  8
AM_9
100
AcDbLine
 10
-0.1689905477206472
 20
1.589613584152846
 30
0.0
 11
-0.1618581488615639
 21
1.428312711655473
 31
0.0
  0
ELLIPSE
  5
15F
330
13F
100
AcDbEntity
  8
AM_9
100
AcDbEllipse
 10
0.0000000000012815
 20
1.431891231902777
 30
0.0
 11
0.1619372470052143
 21
0.0
 31
0.0
210
0.0
220
0.0
230
1.0
 40
0.7071067811865481
 41
4.71238898038469
 42
10.21375521780924
  0
ELLIPSE
  5
160
330
13F
100
AcDbEntity
  8
AM_9
100
AcDbEllipse
 10
-0.0000000000000001
 20
1.619274528917194
 30
0.0
 11
-0.3999999999999999
 21
5.960464526524934E-9
 31
0.0
210
0.0
220
0.0
230
1.0
 40
0.7071067811865478
 41
0.0
 42
6.283185307179586
  0
LWPOLYLINE
  5
161
330
13F
100
AcDbEntity
  8
AM_9
100
AcDbPolyline
 90
       26
 70
     0
 43
0.0
 10
-0.1640265473559913
 20
1.910598006749912
 10
-0.1683057373786661
 20
1.909462637642646
 10
-0.1924017173771004
 20
1.902439575439905
 10
-0.2160240517159796
 20
1.894466718463681
 10
-0.2391102695089697
 20
1.885556534413035
 10
-0.2615975531168475
 20
1.875723741090093
 10
-0.2834222106456154
 20
1.864985923907634
 10
-0.3045185830467542
 20
1.853364779766608
 10
-0.3248224947803399
 20
1.840885037732666
 10
-0.3442700330189646
 20
1.827575612990044
 10
-0.3627981201746315
 20
1.813470057440576
 10
-0.3803453075019209
 20
1.798606881932723
 10
-0.3968527662147856
 20
1.783029668192521
 10
-0.4122654094820219
 20
1.766786898935679
 10
-0.4265330336167856
 20
1.749931468305442
 10
-0.4396113374025252
 20
1.732519887045042
 10
-0.4514626789477725
 20
1.714611255073553
 10
-0.4620564651786804
 20
1.69626612020022
 10
-0.4713691320870322
 20
1.677545359698675
 10
-0.4793837449556689
 20
1.658509205800167
 10
-0.4860893052309061
 20
1.639216494421639
 10
-0.4914798800654023
 20
1.619724165024324
 10
-0.4955536697727837
 20
1.600086995333881
 10
-0.4983121060670785
 20
1.580357528227223
 10
-0.4997590430506989
 20
1.560586141151726
 10
-0.4999999184617452
 20
1.548785036124261
  0
LWPOLYLINE
  5
162
330
13F
100
AcDbEntity
  8
AM_9
100
AcDbPolyline
 90
       15
 70
     0
 43
0.0
 10
0.1640281296358295
 20
1.910597593026506
 10
0.1597572441181292
 20
1.911698008114873
 10
0.1351688488399645
 20
1.917411680277344
 10
0.1102422236032382
 20
1.922159425907453
 10
0.0850406242897251
 20
1.925933035983191
 10
0.0596270534034086
 20
1.928726113940806
 10
0.0340642951319712
 20
1.930533940421489
 10
0.0084149497407511
 20
1.93135337252423
 10
-0.017258535316306
 20
1.93118277162182
 10
-0.0428936362173995
 20
1.93002196803653
 10
-0.0684271845618168
 20
1.927872329109749
 10
-0.093797114608211
 20
1.924736645440188
 10
-0.1189414618708688
 20
1.92061912130641
 10
-0.1437983121725939
 20
1.91552540279164
 10
-0.1640265473559913
 20
1.910598006749912
  0
LWPOLYLINE
  5
163
330
13F
100
AcDbEntity
  8
AM_9
100
AcDbPolyline
 90
       26
 70
     0
 43
0.0
 10
0.4999999639393963
 20
1.548416757762577
 10
0.4999528059151768
 20
1.553885031688048
 10
0.4989536158096879
 20
1.57360583114146
 10
0.496662948954312
 20
1.593227186328458
 10
0.4930905943975697
 20
1.612703365370656
 10
0.4882466360813755
 20
1.631991785327134
 10
0.4821415066139569
 20
1.651050485380645
 10
0.4747862118409684
 20
1.669837614257951
 10
0.4661927696323125
 20
1.688310925211498
 10
0.4563748521992707
 20
1.706427331353857
 10
0.4453485946997706
 20
1.724142584581305
 10
0.4331335006871283
 20
1.74141114286837
 10
0.4197533444214712
 20
1.758186278008489
 10
0.4052369510382877
 20
1.774420447302634
 10
0.3896187376409296
 20
1.790065911551102
 10
0.3729389266224614
 20
1.805075536836437
 10
0.3552433937193183
 20
1.819403681458445
 10
0.3365831753194643
 20
1.833007053520884
 10
0.3170137152108217
 20
1.845845434495131
 10
0.296593965043356
 20
1.857882196144986
 10
0.2753854583093036
 20
1.869084581700704
 10
0.2534514578541086
 20
1.87942376398239
 10
0.2308562422726648
 20
1.888874723211668
 10
0.2076649010486727
 20
1.89741588373846
 10
0.1839438714566352
 20
1.905028606840249
 10
0.1640281296358295
 20
1.910597593026506
  0
LWPOLYLINE
  5
164
330
13F
100
AcDbEntity
  8
AM_9
100
AcDbPolyline
 90
        9
 70
     0
 43
0.0
 10
-0.164
 20
1.869756346006565
 10
-0.1222088861920989
 20
1.881284106161308
 10
-0.0794876889685328
 20
1.889407927099993
 10
-0.0361615424359374
 20
1.894065981639979
 10
0.0074398152695318
 20
1.895222819173604
 10
0.0509845514885166
 20
1.892869635468723
 10
0.0941412644853599
 20
1.887024339674219
 10
0.13658150561542
 20
1.877731418020575
 10
0.1639999999999997
 20
1.869756346006565
  0
ELLIPSE
  5
165
330
13F
100
AcDbEntity
  8
AM_9
100
AcDbEllipse
 10
0.0000000000000001
 20
1.548563850798539
 30
0.0
 11
0.5000000000000002
 21
0.0
 31
0.0
210
0.0
220
0.0
230
1.0
 40
0.7071067811865476
 41
3.141592653589793
 42
4.71238898038469
  0
LWPOLYLINE
  5
166
330
13F
100
AcDbEntity
  8
AM_9
100
AcDbPolyline
 90
        9
 70
     0
 43
0.0
 10
0.1640000000000008
 20
0.9982864651447964
 10
0.1222088861920997
 20
0.9867587049900524
 10
0.0794876889685337
 20
0.9786348840513674
 10
0.0361615424359383
 20
0.9739768295113823
 10
-0.0074398152695309
 20
0.9728199919777561
 10
-0.0509845514885157
 20
0.9751731756826377
 10
-0.0941412644853591
 20
0.9810184714771416
 10
-0.1365815056154192
 20
0.9903113931307858
 10
-0.1640000000000009
 20
0.9982864651447964
  0
LINE
  5
167
330
13F
100
AcDbEntity
  8
AM_9
100
AcDbLine
 10
0.4999999999999999
 20
1.371705381417175
 30
0.0
 11
0.4999999999999999
 21
1.548563850798539
 31
0.0
  0
LINE
  5
168
330
13F
100
AcDbEntity
  8
AM_9
100
AcDbLine
 10
-0.5000000000000001
 20
1.548563850798539
 30
0.0
 11
-0.5000000000000001
 21
1.37172454646419
 31
0.0
  0
ELLIPSE
  5
169
330
13F
100
AcDbEntity
  8
AM_9
100
AcDbEllipse
 10
-0.0000000000000004
 20
1.548563850798539
 30
0.0
 11
0.5000000000000003
 21
0.0
 31
0.0
210
0.0
220
0.0
230
1.0
 40
0.7071067811865475
 41
0.0
 42
1.904981997533174
  0
ELLIPSE
  5
16A
330
13F
100
AcDbEntity
  8
AM_9
100
AcDbEllipse
 10
0.0000000000000004
 20
1.548563850798539
 30
0.0
 11
0.5000000000000004
 21
0.0
 31
0.0
210
0.0
220
0.0
230
1.0
 40
0.7071067811865481
 41
1.904981997533176
 42
3.141592653589793
  0
LWPOLYLINE
  5
16B
330
13F
100
AcDbEntity
  8
AM_9
100
AcDbPolyline
 90
       17
 70
     0
 43
0.0
 10
-0.4999999999328285
 20
1.371792950813587
 10
-0.4999004647660953
 20
1.377619281017711
 10
-0.497490283597631
 20
1.406710344486817
 10
-0.4917255247895475
 20
1.434238049636404
 10
-0.4826621074425743
 20
1.460840532226483
 10
-0.4704201498487858
 20
1.486288544898885
 10
-0.4551197703002571
 20
1.510352840295439
 10
-0.4365998428659601
 20
1.533195843776123
 10
-0.4150986277977017
 20
1.554594743933779
 10
-0.3908462672852718
 20
1.574421017707194
 10
-0.3640729035184603
 20
1.592546142035152
 10
-0.3339581596165962
 20
1.609421264935603
 10
-0.3013570124897765
 20
1.624549881813568
 10
-0.2666075689464081
 20
1.637864380546866
 10
-0.230047935794898
 20
1.649297149013314
 10
-0.197554570227457
 20
1.657569664963223
 10
-0.1640000000000001
 20
1.664500682330301
  0
LWPOLYLINE
  5
16C
330
13F
100
AcDbEntity
  8
AM_9
100
AcDbPolyline
 90
       16
 70
     0
 43
0.0
 10
0.4999999999998423
 20
1.371787437187352
 10
0.4995437078053077
 20
1.357081424610477
 10
0.4961138192637968
 20
1.327370785964131
 10
0.4893519140334051
 20
1.297384291014655
 10
0.4793184418226437
 20
1.267458459017248
 10
0.4661098060284604
 20
1.23790442068825
 10
0.4497720118397128
 20
1.208689945027403
 10
0.4304917577501131
 20
1.180152569648181
 10
0.4084557422533741
 20
1.152629832164059
 10
0.3830488257512608
 20
1.125626270336729
 10
0.3549093630403133
 20
1.100001499737642
 10
0.3243270494097364
 20
1.076078152471511
 10
0.2915915801487346
 20
1.054178860643047
 10
0.2513311696240456
 20
1.031685630193705
 10
0.2086100891603039
 20
1.012336220033076
 10
0.163999999999997
 20
0.996512658485561
  0
ELLIPSE
  5
16D
330
13F
100
AcDbEntity
  8
AM_9
100
AcDbEllipse
 10
0.0000000000000144
 20
1.43189123190277
 30
0.0
 11
0.1619372470039535
 21
0.0
 31
0.0
210
0.0
220
0.0
230
1.0
 40
0.7071067811865479
 41
3.930569910635155
 42
4.71238898038469
  0
LINE
  5
16E
330
13F
100
AcDbEntity
  8
AM_9
100
AcDbLine
 10
0.1619372470039326
 20
1.002139812244756
 30
0.0
 11
0.1619372470039326
 21
1.431891231902759
 31
0.0
  0
LINE
  5
16F
330
13F
100
AcDbEntity
  8
AM_9
100
AcDbLine
 10
-0.1619372470039328
 20
1.431891231902759
 30
0.0
 11
-0.1619372470039328
 21
1.002181895103897
 31
0.0
  0
LWPOLYLINE
  5
170
330
13F
100
AcDbEntity
  8
AM_9
100
AcDbPolyline
 90
        7
 70
     0
 43
0.0
 10
-0.100331120712822
 20
1.088025181982902
 10
-0.1077016423367959
 20
1.084023918775003
 10
-0.1264260985979644
 20
1.071179295736708
 10
-0.1416272770433428
 20
1.0561410728994
 10
-0.1528276202219765
 20
1.039331067171341
 10
-0.1596331650311726
 20
1.021173566206407
 10
-0.1619372470029223
 20
1.002182035986948
  0
LWPOLYLINE
  5
171
330
13F
100
AcDbEntity
  8
AM_9
100
AcDbPolyline
 90
        8
 70
     0
 43
0.0
 10
0.0600080197593377
 20
1.10287795374618
 10
0.0448464557208534
 20
1.10614264621692
 10
0.0180371737749599
 20
1.109495401758118
 10
-0.0091413258523467
 20
1.109955588455075
 10
-0.036060953800248
 20
1.107577499251691
 10
-0.0618759810815024
 20
1.102388357537045
 10
-0.0859587253687554
 20
1.094516147838248
 10
-0.100331120712822
 20
1.088025181982902
  0
LWPOLYLINE
  5
172
330
13F
100
AcDbEntity
  8
AM_9
100
AcDbPolyline
 90
        9
 70
     0
 43
0.0
 10
0.1619372463459097
 20
1.002172118208524
 10
0.1609063636805312
 20
1.014999300752675
 10
0.1555922006015643
 20
1.033376774377424
 10
0.1459525426870289
 20
1.050560070201362
 10
0.1321697547975715
 20
1.066138846217657
 10
0.1147040439386589
 20
1.07974657245659
 10
0.0938676398163647
 20
1.091124007106351
 10
0.0703754861918058
 20
1.099990629382191
 10
0.0600080197593377
 20
1.10287795374618
  0
LWPOLYLINE
  5
173
330
13F
100
AcDbEntity
  8
AM_9
100
AcDbPolyline
 90
        6
 70
     0
 43
0.0
 10
-0.1003397161519949
 20
0.9082675780430716
 10
-0.0863775498513576
 20
0.9006339396843729
 10
-0.0620987959478898
 20
0.8908488040439717
 10
-0.0360492773745868
 20
0.8843119723137277
 10
-0.0181398128661726
 20
0.8819185405037349
 10
-0.0000000000000001
 20
0.8811123837994547
  0
LWPOLYLINE
  5
174
330
13F
100
AcDbEntity
  8
AM_9
100
AcDbPolyline
 90
        8
 70
     0
 43
0.0
 10
-0.1619372470029223
 20
1.002182035986948
 10
-0.1619372271647376
 20
1.002125758648964
 10
-0.1596328989302089
 20
0.9828165782838558
 10
-0.1528780156995876
 20
0.963708433759221
 10
-0.1418110241911752
 20
0.9453920335968773
 10
-0.1268033897668709
 20
0.9284286334455867
 10
-0.1081114685818861
 20
0.9133144947225736
 10
-0.1003397161519949
 20
0.9082675780430716
  0
LINE
  5
175
330
13F
100
AcDbEntity
  8
AM_9
100
AcDbLine
 10
0.3365
 20
2.1585
 30
0.0
 11
0.3365
 21
2.7115
 31
0.0
  0
LINE
  5
176
330
13F
100
AcDbEntity
  8
AM_9
100
AcDbLine
 10
-0.3365
 20
2.7115
 30
0.0
 11
-0.3365
 21
2.1585
 31
0.0
  0
LINE
  5
177
330
13F
100
AcDbEntity
  8
AM_9
100
AcDbLine
 10
-0.3365
 20
2.7115
 30
0.0
 11
0.3365
 21
2.7115
 31
0.0
  0
LINE
  5
178
330
13F
100
AcDbEntity
  8
AM_9
100
AcDbLine
 10
0.3365
 20
2.7115
 30
0.0
 11
0.3749999999999999
 21
2.75
 31
0.0
  0
LINE
  5
179
330
13F
100
AcDbEntity
  8
AM_9
100
AcDbLine
 10
-0.3749999999999999
 20
2.75
 30
0.0
 11
-0.3365
 21
2.7115
 31
0.0
  0
LINE
  5
17A
330
13F
100
AcDbEntity
  8
AM_9
100
AcDbLine
 10
-0.3365
 20
2.1585
 30
0.0
 11
0.3365
 21
2.1585
 31
0.0
  0
LINE
  5
17B
330
13F
100
AcDbEntity
  8
AM_9
100
AcDbLine
 10
-0.3365
 20
2.1585
 30
0.0
 11
-0.3749999999999999
 21
2.12
 31
0.0
  0
LINE
  5
17C
330
13F
100
AcDbEntity
  8
AM_9
100
AcDbLine
 10
0.3749999999999999
 20
2.12
 30
0.0
 11
0.3365
 21
2.1585
 31
0.0
  0
LINE
  5
17D
330
13F
100
AcDbEntity
  8
AM_9
100
AcDbLine
 10
-0.4166666666666666
 20
1.81
 30
0.0
 11
0.4166666666666666
 21
1.81
 31
0.0
  0
LINE
  5
17E
330
13F
100
AcDbEntity
  8
AM_9
100
AcDbLine
 10
-0.4166666666666666
 20
2.12
 30
0.0
 11
0.4166666666666666
 21
2.12
 31
0.0
  0
LINE
  5
17F
330
13F
100
AcDbEntity
  8
AM_9
100
AcDbLine
 10
0.4166666666666666
 20
1.81
 30
0.0
 11
0.4166666666666666
 21
2.12
 31
0.0
  0
LINE
  5
180
330
13F
100
AcDbEntity
  8
AM_9
100
AcDbLine
 10
-0.4166666666666666
 20
2.12
 30
0.0
 11
-0.4166666666666666
 21
1.81
 31
0.0
  0
LWPOLYLINE
  5
181
330
13F
100
AcDbEntity
  8
AM_9
100
AcDbPolyline
 90
        9
 70
     0
 43
0.0
 10
0.0599830459432223
 20
0.8901604521656007
 10
0.0781901493688062
 20
0.8968932022732559
 10
0.1007836810543163
 20
0.9085386594446826
 10
0.120596883324777
 20
0.9228617302351876
 10
0.1370208876709882
 20
0.9392940633761222
 10
0.1495713036987854
 20
0.9573640263002913
 10
0.1578921697721704
 20
0.9764260726946548
 10
0.1616708471105806
 20
0.9958024501268704
 10
0.1619372463459097
 20
1.002172118208524
  0
LWPOLYLINE
  5
182
330
13F
100
AcDbEntity
  8
AM_9
100
AcDbPolyline
 90
        4
 70
     0
 43
0.0
 10
-0.0000000000000001
 20
0.8811123837994547
 10
0.0270847229397766
 20
0.8829238167780703
 10
0.0534035904590108
 20
0.8882339989326319
 10
0.0599830459432223
 20
0.8901604521656007
  0
LINE
  5
183
330
13F
100
AcDbEntity
  8
AM_9
100
AcDbLine
 10
-0.41
 20
-1.4173
 30
0.0
 11
0.8199999999999997
 21
-1.4173
 31
0.0
  0
LINE
  5
184
330
13F
100
AcDbEntity
  8
AM_9
100
AcDbLine
 10
0.8199999999999997
 20
1.4173
 30
0.0
 11
-0.82
 21
1.4173
 31
0.0
  0
LINE
  5
185
330
13F
100
AcDbEntity
  8
AM_9
100
AcDbLine
 10
0.0205
 20
-0.4166666666666667
 30
0.0
 11
0.8200000000000002
 21
-0.4166666666666667
 31
0.0
  0
LINE
  5
186
330
13F
100
AcDbEntity
  8
AM_9
100
AcDbLine
 10
0.0205
 20
0.4166666666666666
 30
0.0
 11
0.8200000000000002
 21
0.4166666666666666
 31
0.0
  0
LINE
  5
187
330
13F
100
AcDbEntity
  8
AM_9
100
AcDbLine
 10
0.0205
 20
-0.4166666666666667
 30
0.0
 11
0.0205
 21
0.4166666666666666
 31
0.0
  0
LWPOLYLINE
  5
188
330
13F
100
AcDbEntity
  8
AM_9
100
AcDbPolyline
 90
       16
 70
     0
 43
0.0
 10
-0.1640000000000002
 20
0.9965126584855617
 10
-0.2018244537800601
 20
1.009657049082149
 10
-0.2383858462311717
 20
1.025379489356201
 10
-0.2733433831487794
 20
1.043443788457641
 10
-0.306356270328328
 20
1.063613755536389
 10
-0.3382629368683954
 20
1.086514224257038
 10
-0.3679026137190465
 20
1.111356325474553
 10
-0.3949908612159922
 20
1.13780663036091
 10
-0.419243239694944
 20
1.165531710088088
 10
-0.4408335014458526
 20
1.194814973230869
 10
-0.4593304627308272
 20
1.225078750636985
 10
-0.4745373024639769
 20
1.25593419579292
 10
-0.4862571995594105
 20
1.28699246218516
 10
-0.4942490134036537
 20
1.317416014504753
 10
-0.4988084049203258
 20
1.347739729236313
 10
-0.4999999999328285
 20
1.371792950813587
  0
LWPOLYLINE
  5
189
330
13F
100
AcDbEntity
  8
AM_9
100
AcDbPolyline
 90
       16
 70
     0
 43
0.0
 10
0.164
 20
1.664500682330301
 10
0.2071906115098426
 20
1.655283408339524
 10
0.2485293713799966
 20
1.643827040285402
 10
0.2834567963658743
 20
1.631744686820271
 10
0.3165336501746644
 20
1.617859975632358
 10
0.3474519463757866
 20
1.602241978775863
 10
0.3759036985386604
 20
1.584959768304982
 10
0.402429646687232
 20
1.565433211032804
 10
0.4261717744009952
 20
1.544101803856581
 10
0.4468866771927508
 20
1.521121129783412
 10
0.4643309505752996
 20
1.496646771820394
 10
0.478292734633854
 20
1.47087478893443
 10
0.4888945014598114
 20
1.443689298151696
 10
0.4960270376870448
 20
1.415365773172835
 10
0.4995811299494264
 20
1.386179687698493
 10
0.4999999999998423
 20
1.371787437187352
  0
LINE
  5
18A
330
13F
100
AcDbEntity
  8
AM_5
100
AcDbLine
 10
0.3749999999999999
 20
2.75
 30
0.0
 11
0.3749999999999999
 21
2.12
 31
0.0
  0
LINE
  5
18B
330
13F
100
AcDbEntity
  8
AM_5
100
AcDbLine
 10
-0.3749999999999999
 20
2.75
 30
0.0
 11
-0.3749999999999999
 21
2.12
 31
0.0
  0
ELLIPSE
  5
18C
330
13F
100
AcDbEntity
  8
AM_9
100
AcDbEllipse
 10
-0.0000000000000029
 20
1.593349794537515
 30
0.0
 11
0.1690731313810747
 21
0.0
 31
0.0
210
0.0
220
0.0
230
1.0
 40
0.7071067811865519
 41
0.0
 42
6.283185307179586
  0
LINE
  5
18D
330
13F
100
AcDbEntity
  8
AM_7
100
AcDbLine
 10
0.0
 20
2.8875
 30
0.0
 11
0.0
 21
-0.1375
 31
0.0
  0
LINE
  5
18E
330
13F
100
AcDbEntity
  8
AM_7
100
AcDbLine
 10
-1.763
 20
0.0
 30
0.0
 11
0.9429999999999994
 21
0.0
 31
0.0
  0
LINE
  5
18F
330
13F
100
AcDbEntity
  8
AM_4
100
AcDbLine
 10
0.6833333333333333
 20
2.75
 30
0.0
 11
-0.6833333333333333
 21
2.75
 31
0.0
  0
LINE
  5
190
330
13F
100
AcDbEntity
  8
AM_4
100
AcDbLine
 10
-0.6833333333333333
 20
2.75
 30
0.0
 11
-0.82
 21
2.613333333333333
 31
0.0
  0
LINE
  5
191
330
13F
100
AcDbEntity
  8
AM_4
100
AcDbLine
 10
0.82
 20
2.613333333333333
 30
0.0
 11
0.6833333333333333
 21
2.75
 31
0.0
  0
LINE
  5
192
330
13F
100
AcDbEntity
  8
AM_4
100
AcDbLine
 10
0.82
 20
2.613333333333333
 30
0.0
 11
-0.82
 21
2.613333333333333
 31
0.0
  0
LINE
  5
193
330
13F
100
AcDbEntity
  8
AM_4
100
AcDbLine
 10
-0.82
 20
2.613333333333333
 30
0.0
 11
-0.8199999999999998
 21
1.141713888888888
 31
0.0
  0
LINE
  5
194
330
13F
100
AcDbEntity
  8
AM_4
100
AcDbLine
 10
0.82
 20
-1.858
 30
0.0
 11
0.82
 21
2.613333333333333
 31
0.0
  0
LINE
  5
195
330
13F
100
AcDbEntity
  8
AM_4
100
AcDbLine
 10
0.164
 20
0.9125163150134086
 30
0.0
 11
0.164
 21
2.602567364367117
 31
0.0
  0
LWPOLYLINE
  5
196
330
13F
100
AcDbEntity
  8
AM_4
100
AcDbPolyline
 90
        4
 70
     0
 43
0.0
 10
0.1639999999999996
 20
2.602567364367117
 10
0.0933521623807535
 20
2.591331126298029
 10
0.021993858438213
 20
2.586295010268328
 10
0.0000000000000003
 20
2.586
  0
LINE
  5
197
330
13F
100
AcDbEntity
  8
AM_4
100
AcDbLine
 10
-0.1639999999999998
 20
0.9125163150134087
 30
0.0
 11
-0.164
 21
2.602567364367117
 31
0.0
  0
LWPOLYLINE
  5
198
330
13F
100
AcDbEntity
  8
AM_4
100
AcDbPolyline
 90
        4
 70
     0
 43
0.0
 10
0.0000000000000003
 20
2.586
 10
-0.0714677090530794
 20
2.589120347564768
 10
-0.1423915056868825
 20
2.598457642529989
 10
-0.163999999999997
 20
2.602567364367117
  0
LINE
  5
199
330
13F
100
AcDbEntity
  8
AM_4
100
AcDbLine
 10
-0.634532753584295
 20
0.9458134815857204
 30
0.0
 11
-0.8199999999999982
 21
1.141713888888889
 31
0.0
  0
LWPOLYLINE
  5
19A
330
13F
100
AcDbEntity
  8
AM_4
100
AcDbPolyline
 90
        8
 70
     0
 43
0.0
 10
-0.82
 20
1.858
 10
-0.8187016381612238
 20
1.858726115021852
 10
-0.8147941392225923
 20
1.860920624031763
 10
-0.8060363079628975
 20
1.865889223415913
 10
-0.7930561355222565
 20
1.873379674898227
 10
-0.7756492636266072
 20
1.883658701661447
 10
-0.7541094441446233
 20
1.896743505236705
 10
-0.7380000000000002
 20
1.906788923819309
  0
LINE
  5
19B
330
13F
100
AcDbEntity
  8
AM_4
100
AcDbLine
 10
-0.164
 20
2.586
 30
0.0
 11
0.164
 21
2.586
 31
0.0
  0
LWPOLYLINE
  5
19C
330
13F
100
AcDbEntity
  8
AM_4
100
AcDbPolyline
 90
       14
 70
     0
 43
0.0
 10
0.1639999999999996
 20
1.765813127145678
 10
0.1874553614623146
 20
1.768145783735313
 10
0.2477028491721075
 20
1.775564699820524
 10
0.3064823635149351
 20
1.784729154543347
 10
0.3633090469605852
 20
1.79534471427287
 10
0.4176980419788455
 20
1.807116945378179
 10
0.4730242831646466
 20
1.820706871203572
 10
0.5253461259359283
 20
1.834999386049365
 10
0.5742492028213453
 20
1.849588893260328
 10
0.6193191463495523
 20
1.864069796181231
 10
0.6532296198945416
 20
1.875607385354489
 10
0.6844457683349638
 20
1.886704633042893
 10
0.7127688191952921
 20
1.897164244209985
 10
0.738
 20
1.906788923819309
  0
LINE
  5
19D
330
13F
100
AcDbEntity
  8
AM_4
100
AcDbLine
 10
-0.1639999999999998
 20
0.9125163150134087
 30
0.0
 11
0.164
 21
0.9125163150134086
 31
0.0
  0
LWPOLYLINE
  5
19E
330
13F
100
AcDbEntity
  8
AM_4
100
AcDbPolyline
 90
       17
 70
     0
 43
0.0
 10
-0.7380000000000002
 20
1.906788923819309
 10
-0.7166421106377109
 20
1.898624192379809
 10
-0.6930410053308259
 20
1.889842288823028
 10
-0.6673180341454875
 20
1.880561979487993
 10
-0.6386768089587932
 20
1.870590194375995
 10
-0.6079222602108665
 20
1.86031428886059
 10
-0.5751955030102963
 20
1.849878338346408
 10
-0.5415950505172451
 20
1.839708426829722
 10
-0.5062579836953507
 20
1.829617231106944
 10
-0.4693243930641003
 20
1.819743219777171
 10
-0.4297168922059927
 20
1.809934456099622
 10
-0.3885569105583211
 20
1.800606240224504
 10
-0.3460254632778025
 20
1.791907816054335
 10
-0.3024413063310181
 20
1.784004896866293
 10
-0.2577167175355523
 20
1.776968741001737
 10
-0.2112892548036309
 20
1.770832352381139
 10
-0.164
 20
1.765813127145678
  0
LINE
  5
19F
330
13F
100
AcDbEntity
  8
AM_4
100
AcDbLine
 10
-0.7380000000000002
 20
1.906788923819309
 30
0.0
 11
-0.7380000000000024
 21
1.055101111111115
 31
0.0
  0
LWPOLYLINE
  5
1A0
330
13F
100
AcDbEntity
  8
AM_4
100
AcDbPolyline
 90
       13
 70
     0
 43
0.0
 10
-0.4099999999999999
 20
0.382059316682171
 10
-0.4112785177707851
 20
0.4277492843934863
 10
-0.4150741995972861
 20
0.4730996793218834
 10
-0.4213272382507207
 20
0.5178840729116359
 10
-0.4302991082550785
 20
0.5633660409184625
 10
-0.4417578074545598
 20
0.6080412849799246
 10
-0.455605776576152
 20
0.6517138859514038
 10
-0.479850157997581
 20
0.7132244262069625
 10
-0.5087432786174213
 20
0.7721730717081295
 10
-0.5429292187998808
 20
0.8296418254774841
 10
-0.5815198139562209
 20
0.8839292682718494
 10
-0.6072589082508244
 20
0.9155320275490495
 10
-0.6345327535842952
 20
0.9458134815857209
  0
LINE
  5
1A1
330
13F
100
AcDbEntity
  8
AM_4
100
AcDbLine
 10
-0.41
 20
-1.94
 30
0.0
 11
0.738
 21
-1.94
 31
0.0
  0
LINE
  5
1A2
330
13F
100
AcDbEntity
  8
AM_4
100
AcDbLine
 10
-0.41
 20
-1.94
 30
0.0
 11
-0.4099999999999999
 21
0.3820593166821707
 31
0.0
  0
LWPOLYLINE
  5
1A3
330
13F
100
AcDbEntity
  8
AM_4
100
AcDbPolyline
 90
        9
 70
     0
 43
0.0
 10
0.738
 20
1.906788923819309
 10
0.7597011499562666
 20
1.893308299069115
 10
0.7784406612842737
 20
1.881992440059955
 10
0.7941302928991467
 20
1.872754120388563
 10
0.8062861809688537
 20
1.865746506354359
 10
0.8122289943414375
 20
1.862368756397365
 10
0.8165169825897782
 20
1.859951345321748
 10
0.8191257659922614
 20
1.858488751208967
 10
0.82
 20
1.858
  0
LINE
  5
1A4
330
13F
100
AcDbEntity
  8
AM_4
100
AcDbLine
 10
0.738
 20
1.906788923819309
 30
0.0
 11
0.738
 21
-1.94
 31
0.0
  0
LINE
  5
1A5
330
13F
100
AcDbEntity
  8
AM_4
100
AcDbLine
 10
0.738
 20
-1.94
 30
0.0
 11
0.82
 21
-1.858
 31
0.0
  0
ENDBLK
  5
142
330
13F
100
AcDbEntity
  8
0
100
AcDbBlockEnd
  0
ENDSEC
  0
SECTION
  2
ENTITIES
  0
INSERT
  5
6F
330
1F
100
AcDbEntity
  8
0
100
AcDbBlockReference
  2
1_124996_2
 10
0.0
 20
0.0
 30
0.0
  0
POINT
  5
1A7
330
1F
100
AcDbEntity
  8
ConnectionPoints
100
AcDbPoint
 10
0.7300000000000001
 20
0.0
 30
0.0
  0
POINT
  5
1A8
330
1F
100
AcDbEntity
  8
ConnectionPoints
100
AcDbPoint
 10
-0.98
 20
0.0
 30
0.0000000000000001
  0
POINT
  5
1A9
330
1F
100
AcDbEntity
  8
ConnectionPoints
100
AcDbPoint
 10
-0.0000000000000001
 20
1.619274528917194
 30
-1.619274528917194
  0
POINT
  5
1AA
330
1F
100
AcDbEntity
  8
ConnectionPoints
100
AcDbPoint
 10
-0.98
 20
0.0
 30
0.0000000000000001
  0
POINT
  5
1AB
330
1F
100
AcDbEntity
  8
ConnectionPoints
100
AcDbPoint
 10
-0.98
 20
0.0
 30
0.0000000000000001
  0
ENDSEC
  0
SECTION
  2
OBJECTS
  0
DICTIONARY
  5
C
330
0
100
AcDbDictionary
281
     1
  3
ACAD_DETAILVIEWSTYLE
350
1B3
  3
ACAD_GROUP
350
D
  3
ACAD_LAYOUT
350
1A
  3
ACAD_MATERIAL
350
43
  3
ACAD_MLEADERSTYLE
350
6B
  3
ACAD_MLINESTYLE
350
17
  3
ACAD_PLOTSETTINGS
350
19
  3
ACAD_PLOTSTYLENAME
350
E
  3
ACAD_SCALELIST
350
47
  3
ACAD_SECTIONVIEWSTYLE
350
1B4
  3
ACAD_TABLESTYLE
350
69
  3
ACAD_VISUALSTYLE
350
2A
  3
ACDB_RECOMPOSE_DATA
350
1B0
  3
AcDbVariableDictionary
350
1AC
  0
SUN
  5
6D
330
29
100
AcDbSun
 90
        1
290
     0
 63
     7
421
 16777215
 40
1.0
291
     1
 91
  2455826
 92
 54000000
292
     0
 70
     2
 71
   256
280
     1
  0
DICTIONARY
  5
1B3
102
{ACAD_REACTORS
330
C
102
}
330
C
100
AcDbDictionary
281
     1
  0
DICTIONARY
  5
D
102
{ACAD_REACTORS
330
C
102
}
330
C
100
AcDbDictionary
281
     1
  0
DICTIONARY
  5
1A
102
{ACAD_REACTORS
330
C
102
}
330
C
100
AcDbDictionary
281
     1
  3
Layout1
350
1E
  3
Layout2
350
26
  3
Model
350
22
  0
DICTIONARY
  5
43
102
{ACAD_REACTORS
330
C
102
}
330
C
100
AcDbDictionary
281
     1
  3
ByBlock
350
45
  3
ByLayer
350
44
  3
Global
350
46
  0
DICTIONARY
  5
6B
102
{ACAD_REACTORS
330
C
102
}
330
C
100
AcDbDictionary
281
     1
  3
Standard
350
6C
  0
DICTIONARY
  5
17
102
{ACAD_REACTORS
330
C
102
}
330
C
100
AcDbDictionary
281
     1
  3
Standard
350
18
  0
DICTIONARY
  5
19
102
{ACAD_REACTORS
330
C
102
}
330
C
100
AcDbDictionary
281
     1
  0
ACDBDICTIONARYWDFLT
  5
E
102
{ACAD_REACTORS
330
C
102
}
330
C
100
AcDbDictionary
281
     1
  3
Normal
350
F
100
AcDbDictionaryWithDefault
340
F
  0
DICTIONARY
  5
47
102
{ACAD_REACTORS
330
C
102
}
330
C
100
AcDbDictionary
281
     1
  3
A0
350
48
  3
A1
350
49
  3
A2
350
4A
  3
A3
350
4B
  3
A4
350
4C
  3
A5
350
4D
  3
A6
350
4E
  3
A7
350
4F
  3
A8
350
50
  3
A9
350
51
  3
B0
350
52
  3
B1
350
53
  3
B2
350
54
  3
B3
350
55
  3
B4
350
56
  3
B5
350
57
  3
B6
350
58
  3
B7
350
59
  3
B8
350
5A
  3
B9
350
5B
  3
C0
350
5C
  3
C1
350
5D
  3
C2
350
5E
  3
C3
350
5F
  3
C4
350
60
  3
C5
350
61
  3
C6
350
62
  3
C7
350
63
  3
C8
350
64
  3
C9
350
65
  3
D0
350
66
  3
D1
350
67
  3
D2
350
68
  0
DICTIONARY
  5
1B4
102
{ACAD_REACTORS
330
C
102
}
330
C
100
AcDbDictionary
281
     1
  0
DICTIONARY
  5
69
102
{ACAD_REACTORS
330
C
102
}
330
C
100
AcDbDictionary
281
     1
  3
Standard
350
6A
  0
DICTIONARY
  5
2A
102
{ACAD_REACTORS
330
C
102
}
330
C
100
AcDbDictionary
281
     1
  3
2dWireframe
350
2F
  3
Basic
350
32
  3
Brighten
350
36
  3
ColorChange
350
3A
  3
Conceptual
350
34
  3
Dim
350
35
  3
EdgeColorOff
350
3D
  3
Facepattern
350
39
  3
Flat
350
2B
  3
FlatWithEdges
350
2C
  3
Gouraud
350
2D
  3
GouraudWithEdges
350
2E
  3
Hidden
350
31
  3
JitterOff
350
3B
  3
Linepattern
350
38
  3
OverhangOff
350
3C
  3
Realistic
350
33
  3
Shaded
350
42
  3
Shaded with edges
350
41
  3
Shades of Gray
350
3E
  3
Sketchy
350
3F
  3
Thicken
350
37
  3
Wireframe
350
30
  3
X-Ray
350
40
  0
XRECORD
  5
1B0
102
{ACAD_REACTORS
330
C
102
}
330
C
100
AcDbXrecord
280
     1
 90
        1
330
6A
  0
DICTIONARY
  5
1AC
102
{ACAD_REACTORS
330
C
102
}
330
C
100
AcDbDictionary
281
     1
  3
CANNOSCALE
350
1AD
  3
CMLEADERSTYLE
350
1B2
  3
CTABLESTYLE
350
1B1
  0
LAYOUT
  5
1E
102
{ACAD_REACTORS
330
1A
102
}
330
1A
100
AcDbPlotSettings
  1

  2
none_device
  4

  6

 40
0.0
 41
0.0
 42
0.0
 43
0.0
 44
0.0
 45
0.0
 46
0.0
 47
0.0
 48
0.0
 49
0.0
140
0.0
141
0.0
142
1.0
143
1.0
 70
   688
 72
     0
 73
     0
 74
     5
  7

 75
    16
 76
     0
 77
     2
 78
   300
147
1.0
148
0.0
149
0.0
100
AcDbLayout
  1
Layout1
 70
     1
 71
     1
 10
0.0
 20
0.0
 11
12.0
 21
9.0
 12
0.0
 22
0.0
 32
0.0
 14
1.000000000000000E+20
 24
1.000000000000000E+20
 34
1.000000000000000E+20
 15
-1.000000000000000E+20
 25
-1.000000000000000E+20
 35
-1.000000000000000E+20
146
0.0
 13
0.0
 23
0.0
 33
0.0
 16
1.0
 26
0.0
 36
0.0
 17
0.0
 27
1.0
 37
0.0
 76
     0
330
1B
  0
LAYOUT
  5
26
102
{ACAD_REACTORS
330
1A
102
}
330
1A
100
AcDbPlotSettings
  1

  2
none_device
  4

  6

 40
0.0
 41
0.0
 42
0.0
 43
0.0
 44
0.0
 45
0.0
 46
0.0
 47
0.0
 48
0.0
 49
0.0
140
0.0
141
0.0
142
1.0
143
1.0
 70
   688
 72
     0
 73
     0
 74
     5
  7

 75
    16
 76
     0
 77
     2
 78
   300
147
1.0
148
0.0
149
0.0
100
AcDbLayout
  1
Layout2
 70
     1
 71
     2
 10
0.0
 20
0.0
 11
0.0
 21
0.0
 12
0.0
 22
0.0
 32
0.0
 14
0.0
 24
0.0
 34
0.0
 15
0.0
 25
0.0
 35
0.0
146
0.0
 13
0.0
 23
0.0
 33
0.0
 16
1.0
 26
0.0
 36
0.0
 17
0.0
 27
1.0
 37
0.0
 76
     0
330
23
  0
LAYOUT
  5
22
102
{ACAD_REACTORS
330
1A
102
}
330
1A
100
AcDbPlotSettings
  1

  2
none_device
  4
Letter_(8.50_x_11.00_Inches)
  6

 40
6.35
 41
6.35
 42
6.35000508
 43
6.35000508
 44
215.9
 45
279.4
 46
0.0
 47
0.0
 48
0.0
 49
0.0
140
0.0
141
0.0
142
1.0
143
1.0
 70
  1712
 72
     0
 73
     0
 74
     0
  7

 75
     0
 76
     0
 77
     2
 78
   300
147
1.0
148
0.0
149
0.0
100
AcDbLayout
  1
Model
 70
     1
 71
     0
 10
0.0
 20
0.0
 11
12.0
 21
9.0
 12
0.0
 22
0.0
 32
0.0
 14
1.000000000000000E+20
 24
1.000000000000000E+20
 34
1.000000000000000E+20
 15
-1.000000000000000E+20
 25
-1.000000000000000E+20
 35
-1.000000000000000E+20
146
0.0
 13
0.0
 23
0.0
 33
0.0
 16
1.0
 26
0.0
 36
0.0
 17
0.0
 27
1.0
 37
0.0
 76
     0
330
1F
331
29
  0
MATERIAL
  5
45
102
{ACAD_REACTORS
330
43
102
}
330
43
100
AcDbMaterial
  1
ByBlock
 72
     1
 94
      127
  0
MATERIAL
  5
44
102
{ACAD_REACTORS
330
43
102
}
330
43
100
AcDbMaterial
  1
ByLayer
 72
     1
 94
      127
  0
MATERIAL
  5
46
102
{ACAD_REACTORS
330
43
102
}
330
43
100
AcDbMaterial
  1
Global
 72
     1
 94
      127
  0
MLEADERSTYLE
  5
6C
102
{ACAD_REACTORS
330
6B
102
}
330
6B
100
AcDbMLeaderStyle
179
     2
170
     2
171
     1
172
     0
 90
        2
 40
0.0
 41
0.0
173
     1
 91
-1056964608
340
14
 92
       -2
290
     1
 42
0.09
291
     1
 43
0.36
  3
Standard
341
0
 44
0.18
300

342
11
174
     1
178
     6
175
     1
176
     0
 93
-1056964608
 45
0.18
292
     0
297
     0
 46
0.18
343
0
 94
-1056964608
 47
1.0
 49
1.0
140
1.0
293
     1
141
0.0
294
     1
177
     0
142
1.0
295
     0
296
     0
143
0.125
271
     0
272
     9
273
     9
298
     0
  0
MLINESTYLE
  5
18
102
{ACAD_REACTORS
330
17
102
}
330
17
100
AcDbMlineStyle
  2
Standard
 70
     0
  3

 62
   256
 51
90.0
 52
90.0
 71
     2
 49
0.5
 62
   256
  6
BYLAYER
 49
-0.5
 62
   256
  6
BYLAYER
  0
ACDBPLACEHOLDER
  5
F
102
{ACAD_REACTORS
330
E
102
}
330
E
  0
SCALE
  5
48
102
{ACAD_REACTORS
330
47
102
}
330
47
100
AcDbScale
 70
     0
300
1:1
140
1.0
141
1.0
290
     1
  0
SCALE
  5
49
102
{ACAD_REACTORS
330
47
102
}
330
47
100
AcDbScale
 70
     0
300
1:2
140
1.0
141
2.0
290
     0
  0
SCALE
  5
4A
102
{ACAD_REACTORS
330
47
102
}
330
47
100
AcDbScale
 70
     0
300
1:4
140
1.0
141
4.0
290
     0
  0
SCALE
  5
4B
102
{ACAD_REACTORS
330
47
102
}
330
47
100
AcDbScale
 70
     0
300
1:5
140
1.0
141
5.0
290
     0
  0
SCALE
  5
4C
102
{ACAD_REACTORS
330
47
102
}
330
47
100
AcDbScale
 70
     0
300
1:8
140
1.0
141
8.0
290
     0
  0
SCALE
  5
4D
102
{ACAD_REACTORS
330
47
102
}
330
47
100
AcDbScale
 70
     0
300
1:10
140
1.0
141
10.0
290
     0
  0
SCALE
  5
4E
102
{ACAD_REACTORS
330
47
102
}
330
47
100
AcDbScale
 70
     0
300
1:16
140
1.0
141
16.0
290
     0
  0
SCALE
  5
4F
102
{ACAD_REACTORS
330
47
102
}
330
47
100
AcDbScale
 70
     0
300
1:20
140
1.0
141
20.0
290
     0
  0
SCALE
  5
50
102
{ACAD_REACTORS
330
47
102
}
330
47
100
AcDbScale
 70
     0
300
1:30
140
1.0
141
30.0
290
     0
  0
SCALE
  5
51
102
{ACAD_REACTORS
330
47
102
}
330
47
100
AcDbScale
 70
     0
300
1:40
140
1.0
141
40.0
290
     0
  0
SCALE
  5
52
102
{ACAD_REACTORS
330
47
102
}
330
47
100
AcDbScale
 70
     0
300
1:50
140
1.0
141
50.0
290
     0
  0
SCALE
  5
53
102
{ACAD_REACTORS
330
47
102
}
330
47
100
AcDbScale
 70
     0
300
1:100
140
1.0
141
100.0
290
     0
  0
SCALE
  5
54
102
{ACAD_REACTORS
330
47
102
}
330
47
100
AcDbScale
 70
     0
300
2:1
140
2.0
141
1.0
290
     0
  0
SCALE
  5
55
102
{ACAD_REACTORS
330
47
102
}
330
47
100
AcDbScale
 70
     0
300
4:1
140
4.0
141
1.0
290
     0
  0
SCALE
  5
56
102
{ACAD_REACTORS
330
47
102
}
330
47
100
AcDbScale
 70
     0
300
8:1
140
8.0
141
1.0
290
     0
  0
SCALE
  5
57
102
{ACAD_REACTORS
330
47
102
}
330
47
100
AcDbScale
 70
     0
300
10:1
140
10.0
141
1.0
290
     0
  0
SCALE
  5
58
102
{ACAD_REACTORS
330
47
102
}
330
47
100
AcDbScale
 70
     0
300
100:1
140
100.0
141
1.0
290
     0
  0
SCALE
  5
59
102
{ACAD_REACTORS
330
47
102
}
330
47
100
AcDbScale
 70
     0
300
1/128" = 1'-0"
140
0.0078125
141
12.0
290
     0
  0
SCALE
  5
5A
102
{ACAD_REACTORS
330
47
102
}
330
47
100
AcDbScale
 70
     0
300
1/64" = 1'-0"
140
0.015625
141
12.0
290
     0
  0
SCALE
  5
5B
102
{ACAD_REACTORS
330
47
102
}
330
47
100
AcDbScale
 70
     0
300
1/32" = 1'-0"
140
0.03125
141
12.0
290
     0
  0
SCALE
  5
5C
102
{ACAD_REACTORS
330
47
102
}
330
47
100
AcDbScale
 70
     0
300
1/16" = 1'-0"
140
0.0625
141
12.0
290
     0
  0
SCALE
  5
5D
102
{ACAD_REACTORS
330
47
102
}
330
47
100
AcDbScale
 70
     0
300
3/32" = 1'-0"
140
0.09375
141
12.0
290
     0
  0
SCALE
  5
5E
102
{ACAD_REACTORS
330
47
102
}
330
47
100
AcDbScale
 70
     0
300
1/8" = 1'-0"
140
0.125
141
12.0
290
     0
  0
SCALE
  5
5F
102
{ACAD_REACTORS
330
47
102
}
330
47
100
AcDbScale
 70
     0
300
3/16" = 1'-0"
140
0.1875
141
12.0
290
     0
  0
SCALE
  5
60
102
{ACAD_REACTORS
330
47
102
}
330
47
100
AcDbScale
 70
     0
300
1/4" = 1'-0"
140
0.25
141
12.0
290
     0
  0
SCALE
  5
61
102
{ACAD_REACTORS
330
47
102
}
330
47
100
AcDbScale
 70
     0
300
3/8" = 1'-0"
140
0.375
141
12.0
290
     0
  0
SCALE
  5
62
102
{ACAD_REACTORS
330
47
102
}
330
47
100
AcDbScale
 70
     0
300
1/2" = 1'-0"
140
0.5
141
12.0
290
     0
  0
SCALE
  5
63
102
{ACAD_REACTORS
330
47
102
}
330
47
100
AcDbScale
 70
     0
300
3/4" = 1'-0"
140
0.75
141
12.0
290
     0
  0
SCALE
  5
64
102
{ACAD_REACTORS
330
47
102
}
330
47
100
AcDbScale
 70
     0
300
1" = 1'-0"
140
1.0
141
12.0
290
     0
  0
SCALE
  5
65
102
{ACAD_REACTORS
330
47
102
}
330
47
100
AcDbScale
 70
     0
300
1-1/2" = 1'-0"
140
1.5
141
12.0
290
     0
  0
SCALE
  5
66
102
{ACAD_REACTORS
330
47
102
}
330
47
100
AcDbScale
 70
     0
300
3" = 1'-0"
140
3.0
141
12.0
290
     0
  0
SCALE
  5
67
102
{ACAD_REACTORS
330
47
102
}
330
47
100
AcDbScale
 70
     0
300
6" = 1'-0"
140
6.0
141
12.0
290
     0
  0
SCALE
  5
68
102
{ACAD_REACTORS
330
47
102
}
330
47
100
AcDbScale
 70
     0
300
1'-0" = 1'-0"
140
12.0
141
12.0
290
     0
  0
TABLESTYLE
  5
6A
102
{ACAD_REACTORS
330
69
102
}
102
{ACAD_XDICTIONARY
360
1AE
102
}
330
69
100
AcDbTableStyle
  3
Standard
 70
     0
 71
     0
 40
0.06
 41
0.06
280
     0
281
     0
  7
Standard
140
0.18
170
     2
 62
     0
 63
   257
283
     0
 90
        4
 91
        0
  1

274
    -2
284
     1
 64
     0
275
    -2
285
     1
 65
     0
276
    -2
286
     1
 66
     0
277
    -2
287
     1
 67
     0
278
    -2
288
     1
 68
     0
279
    -2
289
     1
 69
     0
  7
Standard
140
0.25
170
     5
 62
     0
 63
   257
283
     0
 90
        4
 91
        0
  1

274
    -2
284
     1
 64
     0
275
    -2
285
     1
 65
     0
276
    -2
286
     1
 66
     0
277
    -2
287
     1
 67
     0
278
    -2
288
     1
 68
     0
279
    -2
289
     1
 69
     0
  7
Standard
140
0.18
170
     5
 62
     0
 63
   257
283
     0
 90
        4
 91
        0
  1

274
    -2
284
     1
 64
     0
275
    -2
285
     1
 65
     0
276
    -2
286
     1
 66
     0
277
    -2
287
     1
 67
     0
278
    -2
288
     1
 68
     0
279
    -2
289
     1
 69
     0
  0
VISUALSTYLE
  5
2F
102
{ACAD_REACTORS
330
2A
102
}
330
2A
100
AcDbVisualStyle
  2
2dWireframe
 70
     4
177
     3
291
     0
 70
    58
 90
        0
176
     1
 90
        2
176
     1
 90
        0
176
     1
 90
        0
176
     1
 40
0.6
176
     1
 40
30.0
176
     1
 62
     7
420
 16777215
176
     1
 90
        1
176
     1
 90
        4
176
     1
 62
     7
176
     1
 62
   257
176
     1
 90
        1
176
     1
 90
        1
176
     1
 40
1.0
176
     1
 90
        0
176
     1
 62
   257
176
     1
 40
1.0
176
     1
 90
        1
176
     1
 90
        6
176
     1
 90
        2
176
     1
 62
     7
176
     1
 90
        5
176
     1
 90
        0
176
     1
 90
        0
176
     1
290
     0
176
     1
 90
        1
176
     1
 40
0.0
176
     1
 90
        0
176
     1
290
     1
176
     1
290
     1
176
     1
290
     0
176
     1
290
     0
176
     1
290
     0
176
     1
290
     0
176
     1
290
     0
176
     1
290
     0
176
     1
290
     0
176
     1
 90
       50
176
     1
 40
0.0
176
     1
 40
1.0
176
     1
 90
        0
176
     1
 62
    18
420
        0
176
     1
 90
       50
176
     1
 90
        3
176
     1
 62
     5
420
      255
176
     1
290
     0
176
     1
 90
       50
176
     1
 90
       50
176
     1
 90
       50
176
     1
290
     0
176
     1
 90
       50
176
     1
 62
   256
176
     0
 40
1.0
176
     0
 90
        2
176
     1
  1
strokes_ogs.tif
176
     1
290
     0
176
     1
 40
1.0
176
     1
 40
1.0
176
     1
  0
VISUALSTYLE
  5
32
102
{ACAD_REACTORS
330
2A
102
}
330
2A
100
AcDbVisualStyle
  2
Basic
 70
     7
177
     3
291
     1
 70
    58
 90
        1
176
     1
 90
        0
176
     1
 90
        1
176
     1
 90
        0
176
     1
 40
0.6
176
     1
 40
30.0
176
     1
 62
     7
420
 16777215
176
     1
 90
        0
176
     1
 90
        4
176
     1
 62
     7
176
     1
 62
   257
176
     1
 90
        1
176
     1
 90
        1
176
     1
 40
1.0
176
     1
 90
        8
176
     1
 62
     7
176
     1
 40
1.0
176
     1
 90
        1
176
     1
 90
        6
176
     1
 90
        2
176
     1
 62
     7
176
     1
 90
        5
176
     1
 90
        0
176
     1
 90
        0
176
     1
290
     0
176
     1
 90
        1
176
     1
 40
0.0
176
     1
 90
        0
176
     1
290
     0
176
     1
290
     1
176
     1
290
     1
176
     1
290
     0
176
     1
290
     0
176
     1
290
     0
176
     1
290
     0
176
     1
290
     0
176
     1
290
     0
176
     1
 90
       50
176
     1
 40
0.0
176
     1
 40
1.0
176
     1
 90
        0
176
     1
 62
    18
420
        0
176
     1
 90
       50
176
     1
 90
        3
176
     1
 62
     5
420
      255
176
     1
290
     0
176
     1
 90
       50
176
     1
 90
       50
176
     1
 90
       50
176
     1
290
     0
176
     1
 90
       50
176
     1
 62
   256
176
     0
 40
1.0
176
     0
 90
        2
176
     1
  1
strokes_ogs.tif
176
     1
290
     0
176
     1
 40
1.0
176
     1
 40
1.0
176
     1
  0
VISUALSTYLE
  5
36
102
{ACAD_REACTORS
330
2A
102
}
330
2A
100
AcDbVisualStyle
  2
Brighten
 70
    12
177
     3
291
     1
 70
    58
 90
        2
176
     1
 90
        2
176
     1
 90
        0
176
     1
 90
        0
176
     1
 40
0.6
176
     1
 40
30.0
176
     1
 62
     7
420
 16777215
176
     1
 90
        1
176
     1
 90
        4
176
     1
 62
     7
176
     1
 62
   257
176
     1
 90
        1
176
     1
 90
        1
176
     1
 40
1.0
176
     1
 90
        8
176
     1
 62
     7
176
     1
 40
1.0
176
     1
 90
        1
176
     1
 90
        6
176
     1
 90
        2
176
     1
 62
     7
176
     1
 90
        5
176
     1
 90
        0
176
     1
 90
        0
176
     1
290
     0
176
     1
 90
        1
176
     1
 40
50.0
176
     1
 90
        0
176
     1
290
     0
176
     1
290
     1
176
     1
290
     1
176
     1
290
     0
176
     1
290
     0
176
     1
290
     0
176
     1
290
     0
176
     1
290
     0
176
     1
290
     0
176
     1
 90
       50
176
     1
 40
0.0
176
     1
 40
1.0
176
     1
 90
        0
176
     1
 62
    18
420
        0
176
     1
 90
       50
176
     1
 90
        3
176
     1
 62
     5
420
      255
176
     1
290
     0
176
     1
 90
       50
176
     1
 90
       50
176
     1
 90
       50
176
     1
290
     0
176
     1
 90
       50
176
     1
 62
   256
176
     0
 40
1.0
176
     0
 90
        2
176
     1
  1
strokes_ogs.tif
176
     1
290
     0
176
     1
 40
1.0
176
     1
 40
1.0
176
     1
  0
VISUALSTYLE
  5
3A
102
{ACAD_REACTORS
330
2A
102
}
330
2A
100
AcDbVisualStyle
  2
ColorChange
 70
    16
177
     3
291
     1
 70
    58
 90
        2
176
     1
 90
        2
176
     1
 90
        3
176
     1
 90
        0
176
     1
 40
0.6
176
     1
 40
30.0
176
     1
 62
     8
420
  8421504
176
     1
 90
        1
176
     1
 90
        4
176
     1
 62
     7
176
     1
 62
   257
176
     1
 90
        1
176
     1
 90
        1
176
     1
 40
1.0
176
     1
 90
        8
176
     1
 62
     8
420
  8421504
176
     1
 40
1.0
176
     1
 90
        1
176
     1
 90
        6
176
     1
 90
        2
176
     1
 62
     7
176
     1
 90
        5
176
     1
 90
        0
176
     1
 90
        0
176
     1
290
     0
176
     1
 90
        1
176
     1
 40
0.0
176
     1
 90
        0
176
     1
290
     0
176
     1
290
     1
176
     1
290
     1
176
     1
290
     0
176
     1
290
     0
176
     1
290
     0
176
     1
290
     0
176
     1
290
     0
176
     1
290
     0
176
     1
 90
       50
176
     1
 40
0.0
176
     1
 40
1.0
176
     1
 90
        0
176
     1
 62
    18
420
        0
176
     1
 90
       50
176
     1
 90
        3
176
     1
 62
     5
420
      255
176
     1
290
     0
176
     1
 90
       50
176
     1
 90
       50
176
     1
 90
       50
176
     1
290
     0
176
     1
 90
       50
176
     1
 62
   256
176
     0
 40
1.0
176
     0
 90
        2
176
     1
  1
strokes_ogs.tif
176
     1
290
     0
176
     1
 40
1.0
176
     1
 40
1.0
176
     1
  0
VISUALSTYLE
  5
34
102
{ACAD_REACTORS
330
2A
102
}
330
2A
100
AcDbVisualStyle
  2
Conceptual
 70
     9
177
     3
291
     0
 70
    58
 90
        3
176
     1
 90
        2
176
     1
 90
        0
176
     1
 90
        0
176
     1
 40
0.6
176
     1
 40
30.0
176
     1
 62
     7
420
 16777215
176
     1
 90
        2
176
     1
 90
        2
176
     1
 62
     7
176
     1
 62
   257
176
     1
 90
        1
176
     1
 90
        1
176
     1
 40
179.0
176
     1
 90
        8
176
     1
 62
     7
176
     1
 40
1.0
176
     1
 90
        1
176
     1
 90
        6
176
     1
 90
        2
176
     1
 62
     7
176
     1
 90
        3
176
     1
 90
        0
176
     1
 90
        0
176
     1
290
     0
176
     1
 90
        1
176
     1
 40
0.0
176
     1
 90
        0
176
     1
290
     0
176
     1
290
     1
176
     1
290
     1
176
     1
290
     0
176
     1
290
     0
176
     1
290
     0
176
     1
290
     0
176
     1
290
     0
176
     1
290
     0
176
     1
 90
       50
176
     1
 40
0.0
176
     1
 40
1.0
176
     1
 90
        0
176
     1
 62
    18
420
        0
176
     1
 90
       50
176
     1
 90
        3
176
     1
 62
     5
420
      255
176
     1
290
     0
176
     1
 90
       50
176
     1
 90
       50
176
     1
 90
       50
176
     1
290
     0
176
     1
 90
       50
176
     1
 62
   256
176
     0
 40
1.0
176
     0
 90
        2
176
     1
  1
strokes_ogs.tif
176
     1
290
     0
176
     1
 40
1.0
176
     1
 40
1.0
176
     1
  0
VISUALSTYLE
  5
35
102
{ACAD_REACTORS
330
2A
102
}
330
2A
100
AcDbVisualStyle
  2
Dim
 70
    11
177
     3
291
     1
 70
    58
 90
        2
176
     1
 90
        2
176
     1
 90
        0
176
     1
 90
        0
176
     1
 40
0.6
176
     1
 40
30.0
176
     1
 62
     7
420
 16777215
176
     1
 90
        1
176
     1
 90
        4
176
     1
 62
     7
176
     1
 62
   257
176
     1
 90
        1
176
     1
 90
        1
176
     1
 40
1.0
176
     1
 90
        8
176
     1
 62
     7
176
     1
 40
1.0
176
     1
 90
        1
176
     1
 90
        6
176
     1
 90
        2
176
     1
 62
     7
176
     1
 90
        5
176
     1
 90
        0
176
     1
 90
        0
176
     1
290
     0
176
     1
 90
        1
176
     1
 40
-50.0
176
     1
 90
        0
176
     1
290
     0
176
     1
290
     1
176
     1
290
     1
176
     1
290
     0
176
     1
290
     0
176
     1
290
     0
176
     1
290
     0
176
     1
290
     0
176
     1
290
     0
176
     1
 90
       50
176
     1
 40
0.0
176
     1
 40
1.0
176
     1
 90
        0
176
     1
 62
    18
420
        0
176
     1
 90
       50
176
     1
 90
        3
176
     1
 62
     5
420
      255
176
     1
290
     0
176
     1
 90
       50
176
     1
 90
       50
176
     1
 90
       50
176
     1
290
     0
176
     1
 90
       50
176
     1
 62
   256
176
     0
 40
1.0
176
     0
 90
        2
176
     1
  1
strokes_ogs.tif
176
     1
290
     0
176
     1
 40
1.0
176
     1
 40
1.0
176
     1
  0
VISUALSTYLE
  5
3D
102
{ACAD_REACTORS
330
2A
102
}
330
2A
100
AcDbVisualStyle
  2
EdgeColorOff
 70
    22
177
     3
291
     1
 70
    58
 90
        2
176
     0
 90
        2
176
     0
 90
        0
176
     0
 90
        0
176
     0
 40
0.6
176
     0
 40
30.0
176
     0
 62
     7
420
 16777215
176
     0
 90
        1
176
     0
 90
        4
176
     0
 62
     7
176
     0
 62
   257
176
     0
 90
        1
176
     0
 90
        1
176
     0
 40
1.0
176
     0
 90
        8
176
     2
 62
     7
176
     0
 40
1.0
176
     0
 90
        1
176
     0
 90
        6
176
     0
 90
        2
176
     0
 62
     7
176
     0
 90
        5
176
     0
 90
        0
176
     0
 90
        0
176
     0
290
     0
176
     0
 90
        1
176
     0
 40
0.0
176
     0
 90
        0
176
     0
290
     0
176
     0
290
     1
176
     0
290
     1
176
     0
290
     0
176
     0
290
     0
176
     0
290
     0
176
     0
290
     0
176
     0
290
     0
176
     0
290
     0
176
     0
 90
       50
176
     0
 40
0.0
176
     0
 40
1.0
176
     0
 90
        0
176
     0
 62
    18
420
        0
176
     0
 90
       50
176
     0
 90
        3
176
     0
 62
     5
420
      255
176
     0
290
     0
176
     0
 90
       50
176
     0
 90
       50
176
     0
 90
       50
176
     0
290
     0
176
     0
 90
       50
176
     0
 62
   256
176
     0
 40
1.0
176
     0
 90
        2
176
     0
  1
strokes_ogs.tif
176
     0
290
     0
176
     0
 40
1.0
176
     0
 40
1.0
176
     0
  0
VISUALSTYLE
  5
39
102
{ACAD_REACTORS
330
2A
102
}
330
2A
100
AcDbVisualStyle
  2
Facepattern
 70
    15
177
     3
291
     1
 70
    58
 90
        2
176
     1
 90
        2
176
     1
 90
        0
176
     1
 90
        0
176
     1
 40
0.6
176
     1
 40
30.0
176
     1
 62
     7
420
 16777215
176
     1
 90
        1
176
     1
 90
        4
176
     1
 62
     7
176
     1
 62
   257
176
     1
 90
        1
176
     1
 90
        1
176
     1
 40
1.0
176
     1
 90
        8
176
     1
 62
     7
176
     1
 40
1.0
176
     1
 90
        1
176
     1
 90
        6
176
     1
 90
        2
176
     1
 62
     7
176
     1
 90
        5
176
     1
 90
        0
176
     1
 90
        0
176
     1
290
     0
176
     1
 90
        1
176
     1
 40
0.0
176
     1
 90
        0
176
     1
290
     0
176
     1
290
     1
176
     1
290
     1
176
     1
290
     0
176
     1
290
     0
176
     1
290
     0
176
     1
290
     0
176
     1
290
     0
176
     1
290
     0
176
     1
 90
       50
176
     1
 40
0.0
176
     1
 40
1.0
176
     1
 90
        0
176
     1
 62
    18
420
        0
176
     1
 90
       50
176
     1
 90
        3
176
     1
 62
     5
420
      255
176
     1
290
     0
176
     1
 90
       50
176
     1
 90
       50
176
     1
 90
       50
176
     1
290
     0
176
     1
 90
       50
176
     1
 62
   256
176
     0
 40
1.0
176
     0
 90
        2
176
     1
  1
strokes_ogs.tif
176
     1
290
     0
176
     1
 40
1.0
176
     1
 40
1.0
176
     1
  0
VISUALSTYLE
  5
2B
102
{ACAD_REACTORS
330
2A
102
}
330
2A
100
AcDbVisualStyle
  2
Flat
 70
     0
177
     3
291
     1
 70
    58
 90
        2
176
     1
 90
        1
176
     1
 90
        1
176
     1
 90
        2
176
     1
 40
0.6
176
     1
 40
30.0
176
     1
 62
     7
420
 16777215
176
     1
 90
        0
176
     1
 90
        0
176
     1
 62
     7
176
     1
 62
   257
176
     1
 90
        1
176
     1
 90
        1
176
     1
 40
1.0
176
     1
 90
        8
176
     1
 62
     7
176
     1
 40
1.0
176
     1
 90
        1
176
     1
 90
        6
176
     1
 90
        2
176
     1
 62
     7
176
     1
 90
        5
176
     1
 90
        0
176
     1
 90
        0
176
     1
290
     0
176
     1
 90
       13
176
     1
 40
0.0
176
     1
 90
        0
176
     1
290
     0
176
     1
290
     1
176
     1
290
     1
176
     1
290
     0
176
     1
290
     0
176
     1
290
     0
176
     1
290
     0
176
     1
290
     0
176
     1
290
     0
176
     1
 90
       50
176
     1
 40
0.0
176
     1
 40
1.0
176
     1
 90
        0
176
     1
 62
    18
420
        0
176
     1
 90
       50
176
     1
 90
        3
176
     1
 62
     5
420
      255
176
     1
290
     0
176
     1
 90
       50
176
     1
 90
       50
176
     1
 90
       50
176
     1
290
     0
176
     1
 90
       50
176
     1
 62
   256
176
     0
 40
1.0
176
     0
 90
        2
176
     1
  1
strokes_ogs.tif
176
     1
290
     0
176
     1
 40
1.0
176
     1
 40
1.0
176
     1
  0
VISUALSTYLE
  5
2C
102
{ACAD_REACTORS
330
2A
102
}
330
2A
100
AcDbVisualStyle
  2
FlatWithEdges
 70
     1
177
     3
291
     1
 70
    58
 90
        2
176
     1
 90
        1
176
     1
 90
        1
176
     1
 90
        2
176
     1
 40
0.6
176
     1
 40
30.0
176
     1
 62
     7
420
 16777215
176
     1
 90
        1
176
     1
 90
        0
176
     1
 62
     7
176
     1
 62
   257
176
     1
 90
        1
176
     1
 90
        1
176
     1
 40
1.0
176
     1
 90
        0
176
     1
 62
   257
176
     1
 40
1.0
176
     1
 90
        1
176
     1
 90
        6
176
     1
 90
        2
176
     1
 62
     7
176
     1
 90
        5
176
     1
 90
        0
176
     1
 90
        0
176
     1
290
     0
176
     1
 90
       13
176
     1
 40
0.0
176
     1
 90
        0
176
     1
290
     0
176
     1
290
     1
176
     1
290
     1
176
     1
290
     0
176
     1
290
     0
176
     1
290
     0
176
     1
290
     0
176
     1
290
     0
176
     1
290
     0
176
     1
 90
       50
176
     1
 40
0.0
176
     1
 40
1.0
176
     1
 90
        0
176
     1
 62
    18
420
        0
176
     1
 90
       50
176
     1
 90
        3
176
     1
 62
     5
420
      255
176
     1
290
     0
176
     1
 90
       50
176
     1
 90
       50
176
     1
 90
       50
176
     1
290
     0
176
     1
 90
       50
176
     1
 62
   256
176
     0
 40
1.0
176
     0
 90
        2
176
     1
  1
strokes_ogs.tif
176
     1
290
     0
176
     1
 40
1.0
176
     1
 40
1.0
176
     1
  0
VISUALSTYLE
  5
2D
102
{ACAD_REACTORS
330
2A
102
}
330
2A
100
AcDbVisualStyle
  2
Gouraud
 70
     2
177
     3
291
     1
 70
    58
 90
        2
176
     1
 90
        2
176
     1
 90
        1
176
     1
 90
        2
176
     1
 40
0.6
176
     1
 40
30.0
176
     1
 62
     7
420
 16777215
176
     1
 90
        0
176
     1
 90
        0
176
     1
 62
     7
176
     1
 62
   257
176
     1
 90
        1
176
     1
 90
        1
176
     1
 40
1.0
176
     1
 90
        0
176
     1
 62
     7
176
     1
 40
1.0
176
     1
 90
        1
176
     1
 90
        6
176
     1
 90
        2
176
     1
 62
     7
176
     1
 90
        5
176
     1
 90
        0
176
     1
 90
        0
176
     1
290
     0
176
     1
 90
       13
176
     1
 40
0.0
176
     1
 90
        0
176
     1
290
     0
176
     1
290
     1
176
     1
290
     1
176
     1
290
     0
176
     1
290
     0
176
     1
290
     0
176
     1
290
     0
176
     1
290
     0
176
     1
290
     0
176
     1
 90
       50
176
     1
 40
0.0
176
     1
 40
1.0
176
     1
 90
        0
176
     1
 62
    18
420
        0
176
     1
 90
       50
176
     1
 90
        3
176
     1
 62
     5
420
      255
176
     1
290
     0
176
     1
 90
       50
176
     1
 90
       50
176
     1
 90
       50
176
     1
290
     0
176
     1
 90
       50
176
     1
 62
   256
176
     0
 40
1.0
176
     0
 90
        2
176
     1
  1
strokes_ogs.tif
176
     1
290
     0
176
     1
 40
1.0
176
     1
 40
1.0
176
     1
  0
VISUALSTYLE
  5
2E
102
{ACAD_REACTORS
330
2A
102
}
330
2A
100
AcDbVisualStyle
  2
GouraudWithEdges
 70
     3
177
     3
291
     1
 70
    58
 90
        2
176
     1
 90
        2
176
     1
 90
        1
176
     1
 90
        2
176
     1
 40
0.6
176
     1
 40
30.0
176
     1
 62
     7
420
 16777215
176
     1
 90
        1
176
     1
 90
        0
176
     1
 62
     7
176
     1
 62
   257
176
     1
 90
        1
176
     1
 90
        1
176
     1
 40
1.0
176
     1
 90
        0
176
     1
 62
   257
176
     1
 40
1.0
176
     1
 90
        1
176
     1
 90
        6
176
     1
 90
        2
176
     1
 62
     7
176
     1
 90
        5
176
     1
 90
        0
176
     1
 90
        0
176
     1
290
     0
176
     1
 90
       13
176
     1
 40
0.0
176
     1
 90
        0
176
     1
290
     0
176
     1
290
     1
176
     1
290
     1
176
     1
290
     0
176
     1
290
     0
176
     1
290
     0
176
     1
290
     0
176
     1
290
     0
176
     1
290
     0
176
     1
 90
       50
176
     1
 40
0.0
176
     1
 40
1.0
176
     1
 90
        0
176
     1
 62
    18
420
        0
176
     1
 90
       50
176
     1
 90
        3
176
     1
 62
     5
420
      255
176
     1
290
     0
176
     1
 90
       50
176
     1
 90
       50
176
     1
 90
       50
176
     1
290
     0
176
     1
 90
       50
176
     1
 62
   256
176
     0
 40
1.0
176
     0
 90
        2
176
     1
  1
strokes_ogs.tif
176
     1
290
     0
176
     1
 40
1.0
176
     1
 40
1.0
176
     1
  0
VISUALSTYLE
  5
31
102
{ACAD_REACTORS
330
2A
102
}
330
2A
100
AcDbVisualStyle
  2
Hidden
 70
     6
177
     3
291
     0
 70
    58
 90
        1
176
     1
 90
        2
176
     1
 90
        2
176
     1
 90
        0
176
     1
 40
0.6
176
     1
 40
30.0
176
     1
 62
     7
420
 16777215
176
     1
 90
        2
176
     1
 90
        2
176
     1
 62
     7
176
     1
 62
   257
176
     1
 90
        2
176
     1
 90
        1
176
     1
 40
40.0
176
     1
 90
        0
176
     1
 62
   257
176
     1
 40
1.0
176
     1
 90
        1
176
     1
 90
        6
176
     1
 90
        2
176
     1
 62
     7
176
     1
 90
        3
176
     1
 90
        0
176
     1
 90
        0
176
     1
290
     0
176
     1
 90
        1
176
     1
 40
0.0
176
     1
 90
        0
176
     1
290
     0
176
     1
290
     1
176
     1
290
     1
176
     1
290
     0
176
     1
290
     0
176
     1
290
     0
176
     1
290
     0
176
     1
290
     0
176
     1
290
     0
176
     1
 90
       50
176
     1
 40
0.0
176
     1
 40
1.0
176
     1
 90
        0
176
     1
 62
    18
420
        0
176
     1
 90
       50
176
     1
 90
        3
176
     1
 62
     5
420
      255
176
     1
290
     0
176
     1
 90
       50
176
     1
 90
       50
176
     1
 90
       50
176
     1
290
     0
176
     1
 90
       50
176
     1
 62
   256
176
     0
 40
1.0
176
     0
 90
        2
176
     1
  1
strokes_ogs.tif
176
     1
290
     0
176
     1
 40
1.0
176
     1
 40
1.0
176
     1
  0
VISUALSTYLE
  5
3B
102
{ACAD_REACTORS
330
2A
102
}
330
2A
100
AcDbVisualStyle
  2
JitterOff
 70
    20
177
     3
291
     1
 70
    58
 90
        2
176
     0
 90
        2
176
     0
 90
        0
176
     0
 90
        0
176
     0
 40
0.6
176
     0
 40
30.0
176
     0
 62
     7
420
 16777215
176
     0
 90
        1
176
     0
 90
        4
176
     0
 62
     7
176
     0
 62
   257
176
     0
 90
        1
176
     0
 90
        1
176
     0
 40
1.0
176
     0
 90
       10
176
     2
 62
     7
176
     0
 40
1.0
176
     0
 90
        1
176
     0
 90
        6
176
     0
 90
        2
176
     0
 62
     7
176
     0
 90
        5
176
     0
 90
        0
176
     0
 90
        0
176
     0
290
     0
176
     0
 90
        1
176
     0
 40
0.0
176
     0
 90
        0
176
     0
290
     0
176
     0
290
     1
176
     0
290
     1
176
     0
290
     0
176
     0
290
     0
176
     0
290
     0
176
     0
290
     0
176
     0
290
     0
176
     0
290
     0
176
     0
 90
       50
176
     0
 40
0.0
176
     0
 40
1.0
176
     0
 90
        0
176
     0
 62
    18
420
        0
176
     0
 90
       50
176
     0
 90
        3
176
     0
 62
     5
420
      255
176
     0
290
     0
176
     0
 90
       50
176
     0
 90
       50
176
     0
 90
       50
176
     0
290
     0
176
     0
 90
       50
176
     0
 62
   256
176
     0
 40
1.0
176
     0
 90
        2
176
     0
  1
strokes_ogs.tif
176
     0
290
     0
176
     0
 40
1.0
176
     0
 40
1.0
176
     0
  0
VISUALSTYLE
  5
38
102
{ACAD_REACTORS
330
2A
102
}
330
2A
100
AcDbVisualStyle
  2
Linepattern
 70
    14
177
     3
291
     1
 70
    58
 90
        2
176
     1
 90
        2
176
     1
 90
        0
176
     1
 90
        0
176
     1
 40
0.6
176
     1
 40
30.0
176
     1
 62
     7
420
 16777215
176
     1
 90
        1
176
     1
 90
        4
176
     1
 62
     7
176
     1
 62
   257
176
     1
 90
        7
176
     1
 90
        7
176
     1
 40
1.0
176
     1
 90
        8
176
     1
 62
     7
176
     1
 40
1.0
176
     1
 90
        1
176
     1
 90
        6
176
     1
 90
        2
176
     1
 62
     7
176
     1
 90
        5
176
     1
 90
        0
176
     1
 90
        0
176
     1
290
     0
176
     1
 90
        1
176
     1
 40
0.0
176
     1
 90
        0
176
     1
290
     0
176
     1
290
     1
176
     1
290
     1
176
     1
290
     0
176
     1
290
     0
176
     1
290
     0
176
     1
290
     0
176
     1
290
     0
176
     1
290
     0
176
     1
 90
       50
176
     1
 40
0.0
176
     1
 40
1.0
176
     1
 90
        0
176
     1
 62
    18
420
        0
176
     1
 90
       50
176
     1
 90
        3
176
     1
 62
     5
420
      255
176
     1
290
     0
176
     1
 90
       50
176
     1
 90
       50
176
     1
 90
       50
176
     1
290
     0
176
     1
 90
       50
176
     1
 62
   256
176
     0
 40
1.0
176
     0
 90
        2
176
     1
  1
strokes_ogs.tif
176
     1
290
     0
176
     1
 40
1.0
176
     1
 40
1.0
176
     1
  0
VISUALSTYLE
  5
3C
102
{ACAD_REACTORS
330
2A
102
}
330
2A
100
AcDbVisualStyle
  2
OverhangOff
 70
    21
177
     3
291
     1
 70
    58
 90
        2
176
     0
 90
        2
176
     0
 90
        0
176
     0
 90
        0
176
     0
 40
0.6
176
     0
 40
30.0
176
     0
 62
     7
420
 16777215
176
     0
 90
        1
176
     0
 90
        4
176
     0
 62
     7
176
     0
 62
   257
176
     0
 90
        1
176
     0
 90
        1
176
     0
 40
1.0
176
     0
 90
        9
176
     2
 62
     7
176
     0
 40
1.0
176
     0
 90
        1
176
     0
 90
        6
176
     0
 90
        2
176
     0
 62
     7
176
     0
 90
        5
176
     0
 90
        0
176
     0
 90
        0
176
     0
290
     0
176
     0
 90
        1
176
     0
 40
0.0
176
     0
 90
        0
176
     0
290
     0
176
     0
290
     1
176
     0
290
     1
176
     0
290
     0
176
     0
290
     0
176
     0
290
     0
176
     0
290
     0
176
     0
290
     0
176
     0
290
     0
176
     0
 90
       50
176
     0
 40
0.0
176
     0
 40
1.0
176
     0
 90
        0
176
     0
 62
    18
420
        0
176
     0
 90
       50
176
     0
 90
        3
176
     0
 62
     5
420
      255
176
     0
290
     0
176
     0
 90
       50
176
     0
 90
       50
176
     0
 90
       50
176
     0
290
     0
176
     0
 90
       50
176
     0
 62
   256
176
     0
 40
1.0
176
     0
 90
        2
176
     0
  1
strokes_ogs.tif
176
     0
290
     0
176
     0
 40
1.0
176
     0
 40
1.0
176
     0
  0
VISUALSTYLE
  5
33
102
{ACAD_REACTORS
330
2A
102
}
330
2A
100
AcDbVisualStyle
  2
Realistic
 70
     8
177
     3
291
     0
 70
    58
 90
        2
176
     1
 90
        3
176
     1
 90
        0
176
     1
 90
        2
176
     1
 40
0.6
176
     1
 40
30.0
176
     1
 62
     7
420
 16777215
176
     1
 90
        0
176
     1
 90
        0
176
     1
 62
     7
176
     1
 62
   257
176
     1
 90
        1
176
     1
 90
        1
176
     1
 40
1.0
176
     1
 90
        8
176
     1
 62
   257
176
     1
 40
1.0
176
     1
 90
        1
176
     1
 90
        6
176
     1
 90
        2
176
     1
 62
     7
176
     1
 90
        3
176
     1
 90
        0
176
     1
 90
        0
176
     1
290
     0
176
     1
 90
       13
176
     1
 40
0.0
176
     1
 90
        0
176
     1
290
     0
176
     1
290
     1
176
     1
290
     1
176
     1
290
     0
176
     1
290
     0
176
     1
290
     0
176
     1
290
     0
176
     1
290
     0
176
     1
290
     0
176
     1
 90
       50
176
     1
 40
0.0
176
     1
 40
1.0
176
     1
 90
        0
176
     1
 62
    18
420
        0
176
     1
 90
       50
176
     1
 90
        3
176
     1
 62
     5
420
      255
176
     1
290
     0
176
     1
 90
       50
176
     1
 90
       50
176
     1
 90
       50
176
     1
290
     0
176
     1
 90
       50
176
     1
 62
   256
176
     0
 40
1.0
176
     0
 90
        2
176
     1
  1
strokes_ogs.tif
176
     1
290
     0
176
     1
 40
1.0
176
     1
 40
1.0
176
     1
  0
VISUALSTYLE
  5
42
102
{ACAD_REACTORS
330
2A
102
}
330
2A
100
AcDbVisualStyle
  2
Shaded
 70
    27
177
     3
291
     0
 70
    58
 90
        2
176
     1
 90
        2
176
     1
 90
        1
176
     1
 90
        2
176
     1
 40
0.6
176
     1
 40
30.0
176
     1
 62
     7
420
 16777215
176
     1
 90
        0
176
     1
 90
        4
176
     1
 62
     7
176
     1
 62
   257
176
     1
 90
        1
176
     1
 90
        1
176
     1
 40
1.0
176
     1
 90
        8
176
     1
 62
   257
176
     1
 40
1.0
176
     1
 90
        1
176
     1
 90
        6
176
     1
 90
        2
176
     1
 62
     8
420
  7895160
176
     1
 90
        3
176
     1
 90
        0
176
     1
 90
        0
176
     1
290
     0
176
     1
 90
        5
176
     1
 40
0.0
176
     1
 90
        0
176
     1
290
     0
176
     1
290
     1
176
     1
290
     1
176
     1
290
     0
176
     1
290
     0
176
     1
290
     0
176
     1
290
     0
176
     1
290
     0
176
     1
290
     0
176
     1
 90
       50
176
     1
 40
0.0
176
     1
 40
1.0
176
     1
 90
        0
176
     1
 62
    18
420
        0
176
     1
 90
       50
176
     1
 90
        3
176
     1
 62
     5
420
      255
176
     1
290
     0
176
     1
 90
       50
176
     1
 90
       50
176
     1
 90
       50
176
     1
290
     0
176
     1
 90
       50
176
     1
 62
   256
176
     0
 40
1.0
176
     0
 90
        2
176
     1
  1
strokes_ogs.tif
176
     1
290
     0
176
     1
 40
1.0
176
     1
 40
1.0
176
     1
  0
VISUALSTYLE
  5
41
102
{ACAD_REACTORS
330
2A
102
}
330
2A
100
AcDbVisualStyle
  2
Shaded with edges
 70
    26
177
     3
291
     0
 70
    58
 90
        2
176
     1
 90
        2
176
     1
 90
        1
176
     1
 90
        2
176
     1
 40
0.6
176
     1
 40
30.0
176
     1
 62
     7
420
 16777215
176
     1
 90
        1
176
     1
 90
       10
176
     1
 62
     7
176
     1
 62
   257
176
     1
 90
        2
176
     1
 90
        1
176
     1
 40
1.0
176
     1
 90
        8
176
     1
 62
   257
176
     1
 40
1.0
176
     1
 90
        1
176
     1
 90
        6
176
     1
 90
        2
176
     1
 62
     7
176
     1
 90
        3
176
     1
 90
        0
176
     1
 90
        0
176
     1
290
     0
176
     1
 90
        5
176
     1
 40
0.0
176
     1
 90
        0
176
     1
290
     0
176
     1
290
     1
176
     1
290
     1
176
     1
290
     0
176
     1
290
     0
176
     1
290
     0
176
     1
290
     0
176
     1
290
     0
176
     1
290
     0
176
     1
 90
       50
176
     1
 40
0.0
176
     1
 40
1.0
176
     1
 90
        0
176
     1
 62
    18
420
        0
176
     1
 90
       50
176
     1
 90
        3
176
     1
 62
     5
420
      255
176
     1
290
     0
176
     1
 90
       50
176
     1
 90
       50
176
     1
 90
       50
176
     1
290
     0
176
     1
 90
       50
176
     1
 62
   256
176
     0
 40
1.0
176
     0
 90
        2
176
     1
  1
strokes_ogs.tif
176
     1
290
     0
176
     1
 40
1.0
176
     1
 40
1.0
176
     1
  0
VISUALSTYLE
  5
3E
102
{ACAD_REACTORS
330
2A
102
}
330
2A
100
AcDbVisualStyle
  2
Shades of Gray
 70
    23
177
     3
291
     0
 70
    58
 90
        2
176
     1
 90
        2
176
     1
 90
        3
176
     1
 90
        0
176
     1
 40
0.6
176
     1
 40
30.0
176
     1
 62
     7
420
 16777215
176
     1
 90
        2
176
     1
 90
        2
176
     1
 62
     7
176
     1
 62
     7
176
     1
 90
        1
176
     1
 90
        1
176
     1
 40
40.0
176
     1
 90
        8
176
     1
 62
     7
176
     1
 40
1.0
176
     1
 90
        1
176
     1
 90
        6
176
     1
 90
        2
176
     1
 62
     7
176
     1
 90
        3
176
     1
 90
        0
176
     1
 90
        0
176
     1
290
     0
176
     1
 90
        1
176
     1
 40
0.0
176
     1
 90
        0
176
     1
290
     0
176
     1
290
     1
176
     1
290
     1
176
     1
290
     0
176
     1
290
     0
176
     1
290
     0
176
     1
290
     0
176
     1
290
     0
176
     1
290
     0
176
     1
 90
       50
176
     1
 40
0.0
176
     1
 40
1.0
176
     1
 90
        0
176
     1
 62
    18
420
        0
176
     1
 90
       50
176
     1
 90
        3
176
     1
 62
     5
420
      255
176
     1
290
     0
176
     1
 90
       50
176
     1
 90
       50
176
     1
 90
       50
176
     1
290
     0
176
     1
 90
       50
176
     1
 62
   256
176
     0
 40
1.0
176
     0
 90
        2
176
     1
  1
strokes_ogs.tif
176
     1
290
     0
176
     1
 40
1.0
176
     1
 40
1.0
176
     1
  0
VISUALSTYLE
  5
3F
102
{ACAD_REACTORS
330
2A
102
}
330
2A
100
AcDbVisualStyle
  2
Sketchy
 70
    24
177
     3
291
     0
 70
    58
 90
        1
176
     1
 90
        2
176
     1
 90
        2
176
     1
 90
        0
176
     1
 40
0.6
176
     1
 40
30.0
176
     1
 62
     7
420
 16777215
176
     1
 90
        2
176
     1
 90
        2
176
     1
 62
     7
176
     1
 62
     7
176
     1
 90
        1
176
     1
 90
        1
176
     1
 40
40.0
176
     1
 90
       11
176
     1
 62
     7
176
     1
 40
1.0
176
     1
 90
        1
176
     1
 90
        6
176
     1
 90
        2
176
     1
 62
     7
176
     1
 90
        6
176
     1
 90
        0
176
     1
 90
        0
176
     1
290
     0
176
     1
 90
        1
176
     1
 40
0.0
176
     1
 90
        0
176
     1
290
     0
176
     1
290
     1
176
     1
290
     1
176
     1
290
     0
176
     1
290
     0
176
     1
290
     0
176
     1
290
     0
176
     1
290
     0
176
     1
290
     0
176
     1
 90
       50
176
     1
 40
0.0
176
     1
 40
1.0
176
     1
 90
        0
176
     1
 62
    18
420
        0
176
     1
 90
       50
176
     1
 90
        3
176
     1
 62
     5
420
      255
176
     1
290
     0
176
     1
 90
       50
176
     1
 90
       50
176
     1
 90
       50
176
     1
290
     0
176
     1
 90
       50
176
     1
 62
   256
176
     0
 40
1.0
176
     0
 90
        2
176
     1
  1
strokes_ogs.tif
176
     1
290
     0
176
     1
 40
1.0
176
     1
 40
1.0
176
     1
  0
VISUALSTYLE
  5
37
102
{ACAD_REACTORS
330
2A
102
}
330
2A
100
AcDbVisualStyle
  2
Thicken
 70
    13
177
     3
291
     1
 70
    58
 90
        2
176
     1
 90
        2
176
     1
 90
        0
176
     1
 90
        0
176
     1
 40
0.6
176
     1
 40
30.0
176
     1
 62
     7
420
 16777215
176
     1
 90
        1
176
     1
 90
        4
176
     1
 62
     7
176
     1
 62
   257
176
     1
 90
        1
176
     1
 90
        1
176
     1
 40
1.0
176
     1
 90
       12
176
     1
 62
     7
176
     1
 40
1.0
176
     1
 90
        1
176
     1
 90
        6
176
     1
 90
        2
176
     1
 62
     7
176
     1
 90
        5
176
     1
 90
        0
176
     1
 90
        0
176
     1
290
     0
176
     1
 90
        1
176
     1
 40
0.0
176
     1
 90
        0
176
     1
290
     0
176
     1
290
     1
176
     1
290
     1
176
     1
290
     0
176
     1
290
     0
176
     1
290
     0
176
     1
290
     0
176
     1
290
     0
176
     1
290
     0
176
     1
 90
       50
176
     1
 40
0.0
176
     1
 40
1.0
176
     1
 90
        0
176
     1
 62
    18
420
        0
176
     1
 90
       50
176
     1
 90
        3
176
     1
 62
     5
420
      255
176
     1
290
     0
176
     1
 90
       50
176
     1
 90
       50
176
     1
 90
       50
176
     1
290
     0
176
     1
 90
       50
176
     1
 62
   256
176
     0
 40
1.0
176
     0
 90
        2
176
     1
  1
strokes_ogs.tif
176
     1
290
     0
176
     1
 40
1.0
176
     1
 40
1.0
176
     1
  0
VISUALSTYLE
  5
30
102
{ACAD_REACTORS
330
2A
102
}
330
2A
100
AcDbVisualStyle
  2
Wireframe
 70
     5
177
     3
291
     0
 70
    58
 90
        0
176
     1
 90
        2
176
     1
 90
        0
176
     1
 90
        0
176
     1
 40
0.6
176
     1
 40
30.0
176
     1
 62
     7
420
 16777215
176
     1
 90
        1
176
     1
 90
        4
176
     1
 62
     7
176
     1
 62
   257
176
     1
 90
        1
176
     1
 90
        1
176
     1
 40
1.0
176
     1
 90
        0
176
     1
 62
   257
176
     1
 40
1.0
176
     1
 90
        1
176
     1
 90
        6
176
     1
 90
        2
176
     1
 62
     7
176
     1
 90
        3
176
     1
 90
        0
176
     1
 90
        0
176
     1
290
     0
176
     1
 90
        1
176
     1
 40
0.0
176
     1
 90
        0
176
     1
290
     0
176
     1
290
     1
176
     1
290
     1
176
     1
290
     0
176
     1
290
     0
176
     1
290
     0
176
     1
290
     0
176
     1
290
     0
176
     1
290
     0
176
     1
 90
       50
176
     1
 40
0.0
176
     1
 40
1.0
176
     1
 90
        0
176
     1
 62
    18
420
        0
176
     1
 90
       50
176
     1
 90
        3
176
     1
 62
     5
420
      255
176
     1
290
     0
176
     1
 90
       50
176
     1
 90
       50
176
     1
 90
       50
176
     1
290
     0
176
     1
 90
       50
176
     1
 62
   256
176
     0
 40
1.0
176
     0
 90
        2
176
     1
  1
strokes_ogs.tif
176
     1
290
     0
176
     1
 40
1.0
176
     1
 40
1.0
176
     1
  0
VISUALSTYLE
  5
40
102
{ACAD_REACTORS
330
2A
102
}
330
2A
100
AcDbVisualStyle
  2
X-Ray
 70
    25
177
     3
291
     0
 70
    58
 90
        2
176
     1
 90
        2
176
     1
 90
        1
176
     1
 90
        1
176
     1
 40
0.5
176
     1
 40
30.0
176
     1
 62
     7
420
 16777215
176
     1
 90
        1
176
     1
 90
        0
176
     1
 62
     7
176
     1
 62
   257
176
     1
 90
        1
176
     1
 90
        1
176
     1
 40
1.0
176
     1
 90
        8
176
     1
 62
     7
176
     1
 40
1.0
176
     1
 90
        1
176
     1
 90
        6
176
     1
 90
        2
176
     1
 62
     7
176
     1
 90
        3
176
     1
 90
        0
176
     1
 90
        0
176
     1
290
     0
176
     1
 90
       13
176
     1
 40
0.0
176
     1
 90
        0
176
     1
290
     0
176
     1
290
     1
176
     1
290
     1
176
     1
290
     0
176
     1
290
     0
176
     1
290
     0
176
     1
290
     0
176
     1
290
     0
176
     1
290
     0
176
     1
 90
       50
176
     1
 40
0.0
176
     1
 40
1.0
176
     1
 90
        0
176
     1
 62
    18
420
        0
176
     1
 90
       50
176
     1
 90
        3
176
     1
 62
     5
420
      255
176
     1
290
     0
176
     1
 90
       50
176
     1
 90
       50
176
     1
 90
       50
176
     1
290
     0
176
     1
 90
       50
176
     1
 62
   256
176
     0
 40
1.0
176
     0
 90
        2
176
     1
  1
strokes_ogs.tif
176
     1
290
     0
176
     1
 40
1.0
176
     1
 40
1.0
176
     1
  0
DICTIONARYVAR
  5
1AD
102
{ACAD_REACTORS
330
1AC
102
}
330
1AC
100
DictionaryVariables
280
     0
  1
1:1
  0
DICTIONARYVAR
  5
1B2
102
{ACAD_REACTORS
330
1AC
102
}
330
1AC
100
DictionaryVariables
280
     0
  1
Standard
  0
DICTIONARYVAR
  5
1B1
102
{ACAD_REACTORS
330
1AC
102
}
330
1AC
100
DictionaryVariables
280
     0
  1
Standard
  0
DICTIONARY
  5
1AE
330
6A
100
AcDbDictionary
280
     1
281
     1
  3
ACAD_ROUNDTRIP_2008_TABLESTYLE_CELLSTYLEMAP
360
1AF
  0
CELLSTYLEMAP
  5
1AF
102
{ACAD_REACTORS
330
1AE
102
}
330
1AE
100
AcDbCellStyleMap
 90
        3
300
CELLSTYLE
  1
TABLEFORMAT_BEGIN
 90
        5
170
     1
 91
        0
 92
    32768
 62
   257
 93
        1
300
CONTENTFORMAT
  1
CONTENTFORMAT_BEGIN
 90
        0
 91
        0
 92
        4
 93
        0
300

 40
0.0
140
1.0
 94
        5
 62
     0
340
11
144
0.25
309
CONTENTFORMAT_END
171
     1
301
MARGIN
  1
CELLMARGIN_BEGIN
 40
0.06
 40
0.06
 40
0.06
 40
0.06
 40
0.06
 40
0.06
309
CELLMARGIN_END
 94
        6
 95
        1
302
GRIDFORMAT
  1
GRIDFORMAT_BEGIN
 90
        0
 91
        1
 62
     0
 92
       -2
340
14
 93
        0
 40
0.045
309
GRIDFORMAT_END
 95
        2
302
GRIDFORMAT
  1
GRIDFORMAT_BEGIN
 90
        0
 91
        1
 62
     0
 92
       -2
340
14
 93
        0
 40
0.045
309
GRIDFORMAT_END
 95
        4
302
GRIDFORMAT
  1
GRIDFORMAT_BEGIN
 90
        0
 91
        1
 62
     0
 92
       -2
340
14
 93
        0
 40
0.045
309
GRIDFORMAT_END
 95
        8
302
GRIDFORMAT
  1
GRIDFORMAT_BEGIN
 90
        0
 91
        1
 62
     0
 92
       -2
340
14
 93
        0
 40
0.045
309
GRIDFORMAT_END
 95
       16
302
GRIDFORMAT
  1
GRIDFORMAT_BEGIN
 90
        0
 91
        1
 62
     0
 92
       -2
340
14
 93
        0
 40
0.045
309
GRIDFORMAT_END
 95
       32
302
GRIDFORMAT
  1
GRIDFORMAT_BEGIN
 90
        0
 91
        1
 62
     0
 92
       -2
340
14
 93
        0
 40
0.045
309
GRIDFORMAT_END
309
TABLEFORMAT_END
  1
CELLSTYLE_BEGIN
 90
        1
 91
        1
300
_TITLE
309
CELLSTYLE_END
300
CELLSTYLE
  1
TABLEFORMAT_BEGIN
 90
        5
170
     1
 91
        0
 92
        0
 62
   257
 93
        1
300
CONTENTFORMAT
  1
CONTENTFORMAT_BEGIN
 90
        0
 91
        0
 92
        4
 93
        0
300

 40
0.0
140
1.0
 94
        5
 62
     0
340
11
144
0.18
309
CONTENTFORMAT_END
171
     1
301
MARGIN
  1
CELLMARGIN_BEGIN
 40
0.06
 40
0.06
 40
0.06
 40
0.06
 40
0.06
 40
0.06
309
CELLMARGIN_END
 94
        6
 95
        1
302
GRIDFORMAT
  1
GRIDFORMAT_BEGIN
 90
        0
 91
        1
 62
     0
 92
       -2
340
14
 93
        0
 40
0.045
309
GRIDFORMAT_END
 95
        2
302
GRIDFORMAT
  1
GRIDFORMAT_BEGIN
 90
        0
 91
        1
 62
     0
 92
       -2
340
14
 93
        0
 40
0.045
309
GRIDFORMAT_END
 95
        4
302
GRIDFORMAT
  1
GRIDFORMAT_BEGIN
 90
        0
 91
        1
 62
     0
 92
       -2
340
14
 93
        0
 40
0.045
309
GRIDFORMAT_END
 95
        8
302
GRIDFORMAT
  1
GRIDFORMAT_BEGIN
 90
        0
 91
        1
 62
     0
 92
       -2
340
14
 93
        0
 40
0.045
309
GRIDFORMAT_END
 95
       16
302
GRIDFORMAT
  1
GRIDFORMAT_BEGIN
 90
        0
 91
        1
 62
     0
 92
       -2
340
14
 93
        0
 40
0.045
309
GRIDFORMAT_END
 95
       32
302
GRIDFORMAT
  1
GRIDFORMAT_BEGIN
 90
        0
 91
        1
 62
     0
 92
       -2
340
14
 93
        0
 40
0.045
309
GRIDFORMAT_END
309
TABLEFORMAT_END
  1
CELLSTYLE_BEGIN
 90
        2
 91
        1
300
_HEADER
309
CELLSTYLE_END
300
CELLSTYLE
  1
TABLEFORMAT_BEGIN
 90
        5
170
     1
 91
        0
 92
        0
 62
   257
 93
        1
300
CONTENTFORMAT
  1
CONTENTFORMAT_BEGIN
 90
        0
 91
        0
 92
        4
 93
        0
300

 40
0.0
140
1.0
 94
        2
 62
     0
340
11
144
0.18
309
CONTENTFORMAT_END
171
     1
301
MARGIN
  1
CELLMARGIN_BEGIN
 40
0.06
 40
0.06
 40
0.06
 40
0.06
 40
0.06
 40
0.06
309
CELLMARGIN_END
 94
        6
 95
        1
302
GRIDFORMAT
  1
GRIDFORMAT_BEGIN
 90
        0
 91
        1
 62
     0
 92
       -2
340
14
 93
        0
 40
0.045
309
GRIDFORMAT_END
 95
        2
302
GRIDFORMAT
  1
GRIDFORMAT_BEGIN
 90
        0
 91
        1
 62
     0
 92
       -2
340
14
 93
        0
 40
0.045
309
GRIDFORMAT_END
 95
        4
302
GRIDFORMAT
  1
GRIDFORMAT_BEGIN
 90
        0
 91
        1
 62
     0
 92
       -2
340
14
 93
        0
 40
0.045
309
GRIDFORMAT_END
 95
        8
302
GRIDFORMAT
  1
GRIDFORMAT_BEGIN
 90
        0
 91
        1
 62
     0
 92
       -2
340
14
 93
        0
 40
0.045
309
GRIDFORMAT_END
 95
       16
302
GRIDFORMAT
  1
GRIDFORMAT_BEGIN
 90
        0
 91
        1
 62
     0
 92
       -2
340
14
 93
        0
 40
0.045
309
GRIDFORMAT_END
 95
       32
302
GRIDFORMAT
  1
GRIDFORMAT_BEGIN
 90
        0
 91
        1
 62
     0
 92
       -2
340
14
 93
        0
 40
0.045
309
GRIDFORMAT_END
309
TABLEFORMAT_END
  1
CELLSTYLE_BEGIN
 90
        3
 91
        2
300
_DATA
309
CELLSTYLE_END
  0
ENDSEC
  0
EOF