0
SECTION
  2
HEADER
  9
$ACADVER
  1
AC1027
  9
$ACADMAINTVER
 70
     8
  9
$DWGCODEPAGE
  3
ANSI_1252
  9
$REQUIREDVERSIONS
160
                 0
  9
$COMMENTS
  1
File was created by Cadenas
  9
$CUSTOMPROPERTYTAG
  1
NN
  9
$CUSTOMPROPERTY
  1
Set Screw Low Backing Height Two-Bolt Pillow Block Metric Bore
  9
$CUSTOMPROPERTYTAG
  1
NT
  9
$CUSTOMPROPERTY
  1
SC Pillow Block Bearings -(Normal Duty) -Low Backing Height
  9
$CUSTOMPROPERTYTAG
  1
NB
  9
$CUSTOMPROPERTY
  1
124943
  9
$CUSTOMPROPERTYTAG
  1
NBSYN
  9
$CUSTOMPROPERTY
  1
$PN.
  9
$CUSTOMPROPERTYTAG
  1
LINA
  9
$CUSTOMPROPERTY
  1
124943
  9
$CUSTOMPROPERTYTAG
  1
SERIES
  9
$CUSTOMPROPERTY
  1
211
  9
$CUSTOMPROPERTYTAG
  1
SS
  9
$CUSTOMPROPERTY
  1
55
  9
$CUSTOMPROPERTYTAG
  1
PN
  9
$CUSTOMPROPERTY
  1
124943
  9
$CUSTOMPROPERTYTAG
  1
DESCRIPTION
  9
$CUSTOMPROPERTY
  1
P2B-SCB-55M
  9
$CUSTOMPROPERTYTAG
  1
WEIGHT
  9
$CUSTOMPROPERTY
  1
3.3
  9
$CUSTOMPROPERTYTAG
  1
A
  9
$CUSTOMPROPERTY
  1
56.4
  9
$CUSTOMPROPERTYTAG
  1
B
  9
$CUSTOMPROPERTY
  1
225.6
  9
$CUSTOMPROPERTYTAG
  1
C
  9
$CUSTOMPROPERTY
  1
58.4
  9
$CUSTOMPROPERTYTAG
  1
DMIN
  9
$CUSTOMPROPERTY
  1
162.1
  9
$CUSTOMPROPERTYTAG
  1
DMAX
  9
$CUSTOMPROPERTY
  1
189.0
  9
$CUSTOMPROPERTYTAG
  1
F
  9
$CUSTOMPROPERTY
  1
M16
  9
$CUSTOMPROPERTYTAG
  1
G
  9
$CUSTOMPROPERTY
  1
30.7
  9
$CUSTOMPROPERTYTAG
  1
H
  9
$CUSTOMPROPERTY
  1
20.6
  9
$CUSTOMPROPERTYTAG
  1
J
  9
$CUSTOMPROPERTY
  1
124.5
  9
$CUSTOMPROPERTYTAG
  1
L
  9
$CUSTOMPROPERTY
  1
68.8
  9
$CUSTOMPROPERTYTAG
  1
M
  9
$CUSTOMPROPERTY
  1
62.0
  9
$CUSTOMPROPERTYTAG
  1
R
  9
$CUSTOMPROPERTY
  1
22.1
  9
$CUSTOMPROPERTYTAG
  1
S
  9
$CUSTOMPROPERTY
  1
34.3
  9
$CUSTOMPROPERTYTAG
  1
U
  9
$CUSTOMPROPERTY
  1
100.1
  9
$CUSTOMPROPERTYTAG
  1
V
  9
$CUSTOMPROPERTY
  1
200.2
  9
$CUSTOMPROPERTYTAG
  1
W
  9
$CUSTOMPROPERTY
  1
20.6
  9
$CUSTOMPROPERTYTAG
  1
X
  9
$CUSTOMPROPERTY
  1
3.0
  9
$CUSTOMPROPERTYTAG
  1
COMPANY
  9
$CUSTOMPROPERTY
  1
baldor
  9
$INSBASE
 10
0.0
 20
0.0
 30
0.0
  9
$EXTMIN
 10
1.000000000000000E+20
 20
1.000000000000000E+20
 30
1.000000000000000E+20
  9
$EXTMAX
 10
-1.000000000000000E+20
 20
-1.000000000000000E+20
 30
-1.000000000000000E+20
  9
$LIMMIN
 10
0.0
 20
0.0
  9
$LIMMAX
 10
420.0
 20
297.0
  9
$ORTHOMODE
 70
     0
  9
$REGENMODE
 70
     1
  9
$FILLMODE
 70
     1
  9
$QTEXTMODE
 70
     0
  9
$MIRRTEXT
 70
     1
  9
$LTSCALE
 40
1.0
  9
$ATTMODE
 70
     1
  9
$TEXTSIZE
 40
2.5
  9
$TRACEWID
 40
1.0
  9
$TEXTSTYLE
  7
Standard
  9
$CLAYER
  8
0
  9
$CELTYPE
  6
ByLayer
  9
$CECOLOR
 62
   256
  9
$CELTSCALE
 40
1.0
  9
$DISPSILH
 70
     0
  9
$DIMSCALE
 40
1.0
  9
$DIMASZ
 40
2.5
  9
$DIMEXO
 40
0.625
  9
$DIMDLI
 40
3.75
  9
$DIMRND
 40
0.0
  9
$DIMDLE
 40
0.0
  9
$DIMEXE
 40
1.25
  9
$DIMTP
 40
0.0
  9
$DIMTM
 40
0.0
  9
$DIMTXT
 40
2.5
  9
$DIMCEN
 40
2.5
  9
$DIMTSZ
 40
0.0
  9
$DIMTOL
 70
     0
  9
$DIMLIM
 70
     0
  9
$DIMTIH
 70
     0
  9
$DIMTOH
 70
     0
  9
$DIMSE1
 70
     0
  9
$DIMSE2
 70
     0
  9
$DIMTAD
 70
     1
  9
$DIMZIN
 70
     8
  9
$DIMBLK
  1

  9
$DIMASO
 70
     1
  9
$DIMSHO
 70
     1
  9
$DIMPOST
  1

  9
$DIMAPOST
  1

  9
$DIMALT
 70
     0
  9
$DIMALTD
 70
     3
  9
$DIMALTF
 40
0.03937007874016
  9
$DIMLFAC
 40
1.0
  9
$DIMTOFL
 70
     1
  9
$DIMTVP
 40
0.0
  9
$DIMTIX
 70
     0
  9
$DIMSOXD
 70
     0
  9
$DIMSAH
 70
     0
  9
$DIMBLK1
  1

  9
$DIMBLK2
  1

  9
$DIMSTYLE
  2
ISO-25
  9
$DIMCLRD
 70
     0
  9
$DIMCLRE
 70
     0
  9
$DIMCLRT
 70
     0
  9
$DIMTFAC
 40
1.0
  9
$DIMGAP
 40
0.625
  9
$DIMJUST
 70
     0
  9
$DIMSD1
 70
     0
  9
$DIMSD2
 70
     0
  9
$DIMTOLJ
 70
     0
  9
$DIMTZIN
 70
     8
  9
$DIMALTZ
 70
     0
  9
$DIMALTTZ
 70
     0
  9
$DIMUPT
 70
     0
  9
$DIMDEC
 70
     2
  9
$DIMTDEC
 70
     2
  9
$DIMALTU
 70
     2
  9
$DIMALTTD
 70
     3
  9
$DIMTXSTY
  7
Standard
  9
$DIMAUNIT
 70
     0
  9
$DIMADEC
 70
     0
  9
$DIMALTRND
 40
0.0
  9
$DIMAZIN
 70
     0
  9
$DIMDSEP
 70
    44
  9
$DIMATFIT
 70
     3
  9
$DIMFRAC
 70
     0
  9
$DIMLDRBLK
  1

  9
$DIMLUNIT
 70
     2
  9
$DIMLWD
 70
    -2
  9
$DIMLWE
 70
    -2
  9
$DIMTMOVE
 70
     0
  9
$DIMFXL
 40
1.0
  9
$DIMFXLON
 70
     0
  9
$DIMJOGANG
 40
0.7853981633974483
  9
$DIMTFILL
 70
     0
  9
$DIMTFILLCLR
 70
     0
  9
$DIMARCSYM
 70
     0
  9
$DIMLTYPE
  6

  9
$DIMLTEX1
  6

  9
$DIMLTEX2
  6

  9
$DIMTXTDIRECTION
 70
     0
  9
$LUNITS
 70
     2
  9
$LUPREC
 70
     4
  9
$SKETCHINC
 40
1.0
  9
$FILLETRAD
 40
10.0
  9
$AUNITS
 70
     0
  9
$AUPREC
 70
     0
  9
$MENU
  1
.
  9
$ELEVATION
 40
0.0
  9
$PELEVATION
 40
0.0
  9
$THICKNESS
 40
0.0
  9
$LIMCHECK
 70
     0
  9
$CHAMFERA
 40
0.0
  9
$CHAMFERB
 40
0.0
  9
$CHAMFERC
 40
0.0
  9
$CHAMFERD
 40
0.0
  9
$SKPOLY
 70
     0
  9
$TDCREATE
 40
2458168.986984942
  9
$TDUCREATE
 40
2458168.945318276
  9
$TDUPDATE
 40
2458168.986985116
  9
$TDUUPDATE
 40
2458168.945318449
  9
$TDINDWG
 40
0.0000000116
  9
$TDUSRTIMER
 40
0.0000000116
  9
$USRTIMER
 70
     1
  9
$ANGBASE
 50
0.0
  9
$ANGDIR
 70
     0
  9
$PDMODE
 70
     0
  9
$PDSIZE
 40
0.0
  9
$PLINEWID
 40
0.0
  9
$SPLFRAME
 70
     0
  9
$SPLINETYPE
 70
     6
  9
$SPLINESEGS
 70
     8
  9
$HANDSEED
  5
1E9
  9
$SURFTAB1
 70
     6
  9
$SURFTAB2
 70
     6
  9
$SURFTYPE
 70
     6
  9
$SURFU
 70
     6
  9
$SURFV
 70
     6
  9
$UCSBASE
  2

  9
$UCSNAME
  2

  9
$UCSORG
 10
0.0
 20
0.0
 30
0.0
  9
$UCSXDIR
 10
1.0
 20
0.0
 30
0.0
  9
$UCSYDIR
 10
0.0
 20
1.0
 30
0.0
  9
$UCSORTHOREF
  2

  9
$UCSORTHOVIEW
 70
     0
  9
$UCSORGTOP
 10
0.0
 20
0.0
 30
0.0
  9
$UCSORGBOTTOM
 10
0.0
 20
0.0
 30
0.0
  9
$UCSORGLEFT
 10
0.0
 20
0.0
 30
0.0
  9
$UCSORGRIGHT
 10
0.0
 20
0.0
 30
0.0
  9
$UCSORGFRONT
 10
0.0
 20
0.0
 30
0.0
  9
$UCSORGBACK
 10
0.0
 20
0.0
 30
0.0
  9
$PUCSBASE
  2

  9
$PUCSNAME
  2

  9
$PUCSORG
 10
0.0
 20
0.0
 30
0.0
  9
$PUCSXDIR
 10
1.0
 20
0.0
 30
0.0
  9
$PUCSYDIR
 10
0.0
 20
1.0
 30
0.0
  9
$PUCSORTHOREF
  2

  9
$PUCSORTHOVIEW
 70
     0
  9
$PUCSORGTOP
 10
0.0
 20
0.0
 30
0.0
  9
$PUCSORGBOTTOM
 10
0.0
 20
0.0
 30
0.0
  9
$PUCSORGLEFT
 10
0.0
 20
0.0
 30
0.0
  9
$PUCSORGRIGHT
 10
0.0
 20
0.0
 30
0.0
  9
$PUCSORGFRONT
 10
0.0
 20
0.0
 30
0.0
  9
$PUCSORGBACK
 10
0.0
 20
0.0
 30
0.0
  9
$USERI1
 70
     0
  9
$USERI2
 70
     0
  9
$USERI3
 70
     0
  9
$USERI4
 70
     0
  9
$USERI5
 70
     0
  9
$USERR1
 40
0.0
  9
$USERR2
 40
0.0
  9
$USERR3
 40
0.0
  9
$USERR4
 40
0.0
  9
$USERR5
 40
0.0
  9
$WORLDVIEW
 70
     1
  9
$SHADEDGE
 70
     3
  9
$SHADEDIF
 70
    70
  9
$TILEMODE
 70
     1
  9
$MAXACTVP
 70
    64
  9
$PINSBASE
 10
0.0
 20
0.0
 30
0.0
  9
$PLIMCHECK
 70
     0
  9
$PEXTMIN
 10
1.000000000000000E+20
 20
1.000000000000000E+20
 30
1.000000000000000E+20
  9
$PEXTMAX
 10
-1.000000000000000E+20
 20
-1.000000000000000E+20
 30
-1.000000000000000E+20
  9
$PLIMMIN
 10
0.0
 20
0.0
  9
$PLIMMAX
 10
420.0
 20
297.0
  9
$UNITMODE
 70
     0
  9
$VISRETAIN
 70
     1
  9
$PLINEGEN
 70
     0
  9
$PSLTSCALE
 70
     1
  9
$TREEDEPTH
 70
  3020
  9
$CMLSTYLE
  2
Standard
  9
$CMLJUST
 70
     0
  9
$CMLSCALE
 40
20.0
  9
$PROXYGRAPHICS
 70
     1
  9
$MEASUREMENT
 70
     1
  9
$CELWEIGHT
370
    -1
  9
$ENDCAPS
280
     0
  9
$JOINSTYLE
280
     0
  9
$LWDISPLAY
290
     0
  9
$INSUNITS
 70
     4
  9
$HYPERLINKBASE
  1

  9
$STYLESHEET
  1

  9
$XEDIT
290
     1
  9
$CEPSNTYPE
380
     0
  9
$PSTYLEMODE
290
     1
  9
$FINGERPRINTGUID
  2
{9722A14F-EB51-4BE9-A708-55D001AE032A}
  9
$VERSIONGUID
  2
{FAEB1C32-E019-11D5-929B-00C0DF256EC4}
  9
$EXTNAMES
290
     1
  9
$PSVPSCALE
 40
0.0
  9
$OLESTARTUP
290
     0
  9
$SORTENTS
280
   127
  9
$INDEXCTL
280
     0
  9
$HIDETEXT
280
     1
  9
$XCLIPFRAME
280
     2
  9
$HALOGAP
280
     0
  9
$OBSCOLOR
 70
   257
  9
$OBSLTYPE
280
     0
  9
$INTERSECTIONDISPLAY
280
     0
  9
$INTERSECTIONCOLOR
 70
   257
  9
$DIMASSOC
280
     2
  9
$PROJECTNAME
  1

  9
$CAMERADISPLAY
290
     0
  9
$LENSLENGTH
 40
50.0
  9
$CAMERAHEIGHT
 40
0.0
  9
$STEPSPERSEC
 40
2.0
  9
$STEPSIZE
 40
6.0
  9
$3DDWFPREC
 40
2.0
  9
$PSOLWIDTH
 40
5.0
  9
$PSOLHEIGHT
 40
80.0
  9
$LOFTANG1
 40
1.570796326794897
  9
$LOFTANG2
 40
1.570796326794897
  9
$LOFTMAG1
 40
0.0
  9
$LOFTMAG2
 40
0.0
  9
$LOFTPARAM
 70
     7
  9
$LOFTNORMALS
280
     1
  9
$LATITUDE
 40
37.795
  9
$LONGITUDE
 40
-122.394
  9
$NORTHDIRECTION
 40
0.0
  9
$TIMEZONE
 70
 -8000
  9
$LIGHTGLYPHDISPLAY
280
     1
  9
$TILEMODELIGHTSYNCH
280
     1
  9
$CMATERIAL
347
44
  9
$SOLIDHIST
280
     0
  9
$SHOWHIST
280
     1
  9
$DWFFRAME
280
     2
  9
$DGNFRAME
280
     2
  9
$REALWORLDSCALE
290
     1
  9
$INTERFERECOLOR
 62
   256
  9
$CSHADOW
280
     0
  9
$SHADOWPLANELOCATION
 40
0.0
  0
ENDSEC
  0
SECTION
  2
CLASSES
  0
CLASS
  1
ACDBDICTIONARYWDFLT
  2
AcDbDictionaryWithDefault
  3
ObjectDBX Classes
 90
        0
 91
        4
280
     0
281
     0
  0
CLASS
  1
VISUALSTYLE
  2
AcDbVisualStyle
  3
ObjectDBX Classes
 90
     4095
 91
        4
280
     0
281
     0
  0
CLASS
  1
MATERIAL
  2
AcDbMaterial
  3
ObjectDBX Classes
 90
     1153
 91
        4
280
     0
281
     0
  0
CLASS
  1
SCALE
  2
AcDbScale
  3
ObjectDBX Classes
 90
     1153
 91
        4
280
     0
281
     0
  0
CLASS
  1
TABLESTYLE
  2
AcDbTableStyle
  3
ObjectDBX Classes
 90
     4095
 91
        4
280
     0
281
     0
  0
CLASS
  1
MLEADERSTYLE
  2
AcDbMLeaderStyle
  3
ACDB_MLEADERSTYLE_CLASS
 90
     4095
 91
        4
280
     0
281
     0
  0
CLASS
  1
SUN
  2
AcDbSun
  3
SCENEOE
 90
     1153
 91
        4
280
     0
281
     0
  0
CLASS
  1
DICTIONARYVAR
  2
AcDbDictionaryVar
  3
ObjectDBX Classes
 90
        0
 91
        4
280
     0
281
     0
  0
CLASS
  1
CELLSTYLEMAP
  2
AcDbCellStyleMap
  3
ObjectDBX Classes
 90
     1152
 91
        4
280
     0
281
     0
  0
ENDSEC
  0
SECTION
  2
TABLES
  0
TABLE
  2
VPORT
  5
8
330
0
100
AcDbSymbolTable
 70
     1
  0
VPORT
  5
29
330
8
100
AcDbSymbolTableRecord
100
AcDbViewportTableRecord
  2
*Active
 70
     0
 10
0.0
 20
0.0
 11
1.0
 21
1.0
 12
0.0
 22
-2.499999999999915
 13
0.0
 23
0.0
 14
10.0
 24
10.0
 15
10.0
 25
10.0
 16
0.0
 26
0.0
 36
1.0
 17
0.0
 27
0.0
 37
0.0
 40
70.62479999999984
 41
3.258232235701914
 42
50.0
 43
0.0
 44
0.0
 50
0.0
 51
0.0
 71
     0
 72
   100
 73
     1
 74
     3
 75
     0
 76
     0
 77
     0
 78
     0
281
     0
 65
     1
110
0.0
120
0.0
130
0.0
111
1.0
121
0.0
131
0.0
112
0.0
122
1.0
132
0.0
 79
     0
146
0.0
348
2F
 60
     3
 61
     5
292
     1
282
     1
141
0.0
142
0.0
 63
   250
361
6D
  0
ENDTAB
  0
TABLE
  2
LTYPE
  5
5
330
0
100
AcDbSymbolTable
 70
     3
  0
LTYPE
  5
14
330
5
100
AcDbSymbolTableRecord
100
AcDbLinetypeTableRecord
  2
ByBlock
 70
     0
  3

 72
    65
 73
     0
 40
0.0
  0
LTYPE
  5
15
330
5
100
AcDbSymbolTableRecord
100
AcDbLinetypeTableRecord
  2
ByLayer
 70
     0
  3

 72
    65
 73
     0
 40
0.0
  0
LTYPE
  5
16
330
5
100
AcDbSymbolTableRecord
100
AcDbLinetypeTableRecord
  2
Continuous
 70
     0
  3
Solid line
 72
    65
 73
     0
 40
0.0
  0
LTYPE
  5
9B
330
5
100
AcDbSymbolTableRecord
100
AcDbLinetypeTableRecord
  2
Dashed
 70
     0
  3

 72
    65
 73
     2
 40
2.0
 49
1.0
 74
     0
 49
-1.0
 74
     0
  0
LTYPE
  5
119
330
5
100
AcDbSymbolTableRecord
100
AcDbLinetypeTableRecord
  2
Center
 70
     0
  3

 72
    65
 73
     4
 40
1.5
 49
0.45
 74
     0
 49
-0.5
 74
     0
 49
0.05
 74
     0
 49
-0.5
 74
     0
  0
ENDTAB
  0
TABLE
  2
LAYER
  5
2
330
0
100
AcDbSymbolTable
 70
     7
  0
LAYER
  5
10
330
2
100
AcDbSymbolTableRecord
100
AcDbLayerTableRecord
  2
0
 70
     0
 62
     7
  6
Continuous
370
    -3
390
F
347
46
348
0
  0
LAYER
  5
72
330
2
100
AcDbSymbolTableRecord
100
AcDbLayerTableRecord
  2
AM_6
 70
     0
 62
    -2
  6
Continuous
370
    35
390
F
347
46
348
0
  0
LAYER
  5
9C
330
2
100
AcDbSymbolTableRecord
100
AcDbLayerTableRecord
  2
AM_9
 70
     0
 62
     6
  6
Dashed
370
    25
390
F
347
46
348
0
  0
LAYER
  5
B9
330
2
100
AcDbSymbolTableRecord
100
AcDbLayerTableRecord
  2
AM_4
 70
     0
 62
     7
  6
Continuous
370
    50
390
F
347
46
348
0
  0
LAYER
  5
11A
330
2
100
AcDbSymbolTableRecord
100
AcDbLayerTableRecord
  2
AM_7
 70
     0
 62
     7
  6
Center
370
    25
390
F
347
46
348
0
  0
LAYER
  5
12F
330
2
100
AcDbSymbolTableRecord
100
AcDbLayerTableRecord
  2
AM_5
 70
     0
 62
     3
  6
Continuous
370
    25
390
F
347
46
348
0
  0
LAYER
  5
1DC
330
2
100
AcDbSymbolTableRecord
100
AcDbLayerTableRecord
  2
ConnectionPoints
 70
     0
 62
     7
  6
Continuous
370
    50
390
F
347
46
348
0
  0
ENDTAB
  0
TABLE
  2
STYLE
  5
3
330
0
100
AcDbSymbolTable
 70
     1
  0
STYLE
  5
11
330
3
100
AcDbSymbolTableRecord
100
AcDbTextStyleTableRecord
  2
Standard
 70
     0
 40
0.0
 41
1.0
 50
0.0
 71
     0
 42
2.5
  3
txt
  4

  0
ENDTAB
  0
TABLE
  2
VIEW
  5
6
330
0
100
AcDbSymbolTable
 70
     0
  0
ENDTAB
  0
TABLE
  2
UCS
  5
7
330
0
100
AcDbSymbolTable
 70
     0
  0
ENDTAB
  0
TABLE
  2
APPID
  5
9
330
0
100
AcDbSymbolTable
 70
     1
  0
APPID
  5
12
330
9
100
AcDbSymbolTableRecord
100
AcDbRegAppTableRecord
  2
ACAD
 70
     0
  0
ENDTAB
  0
TABLE
  2
DIMSTYLE
  5
A
330
0
100
AcDbSymbolTable
 70
     1
100
AcDbDimStyleTable
  0
DIMSTYLE
105
27
330
A
100
AcDbSymbolTableRecord
100
AcDbDimStyleTableRecord
  2
ISO-25
 70
     0
 41
2.5
 42
0.625
 43
3.75
 44
1.25
 73
     0
 74
     0
 77
     1
 78
     8
140
2.5
141
2.5
143
0.03937007874016
147
0.625
171
     3
172
     1
178
     0
271
     2
272
     2
274
     3
278
    44
283
     0
284
     8
340
11
  0
ENDTAB
  0
TABLE
  2
BLOCK_RECORD
  5
1
330
0
100
AcDbSymbolTable
 70
     5
  0
BLOCK_RECORD
  5
1F
330
1
100
AcDbSymbolTableRecord
100
AcDbBlockTableRecord
  2
*Model_Space
340
22
 70
     0
280
     1
281
     0
  0
BLOCK_RECORD
  5
1B
330
1
100
AcDbSymbolTableRecord
100
AcDbBlockTableRecord
  2
*Paper_Space
340
1E
 70
     0
280
     1
281
     0
  0
BLOCK_RECORD
  5
23
330
1
100
AcDbSymbolTableRecord
100
AcDbBlockTableRecord
  2
*Paper_Space0
340
26
 70
     0
280
     1
281
     0
  0
BLOCK_RECORD
  5
6E
330
1
100
AcDbSymbolTableRecord
100
AcDbBlockTableRecord
  2
1_124943_4
340
0
102
{BLKREFS
331
6F
102
}
 70
     0
280
     1
281
     0
  0
BLOCK_RECORD
  5
8F
330
1
100
AcDbSymbolTableRecord
100
AcDbBlockTableRecord
  2
2_405015E_Metric_0_in_124943_4
340
0
102
{BLKREFS
331
90
102
}
 70
     0
280
     1
281
     0
  0
BLOCK_RECORD
  5
D7
330
1
100
AcDbSymbolTableRecord
100
AcDbBlockTableRecord
  2
3_125816_0_in_124943_4
340
0
102
{BLKREFS
331
D8
102
}
 70
     0
280
     1
281
     0
  0
BLOCK_RECORD
  5
132
330
1
100
AcDbSymbolTableRecord
100
AcDbBlockTableRecord
  2
4_124943H_0_in_124943_4
340
0
102
{BLKREFS
331
133
102
}
 70
     0
280
     1
281
     0
  0
ENDTAB
  0
ENDSEC
  0
SECTION
  2
BLOCKS
  0
BLOCK
  5
20
330
1F
100
AcDbEntity
  8
0
100
AcDbBlockBegin
  2
*Model_Space
 70
     0
 10
0.0
 20
0.0
 30
0.0
  3
*Model_Space
  1

  0
ENDBLK
  5
21
330
1F
100
AcDbEntity
  8
0
100
AcDbBlockEnd
  0
BLOCK
  5
1C
330
1B
100
AcDbEntity
 67
     1
  8
0
100
AcDbBlockBegin
  2
*Paper_Space
 70
     0
 10
0.0
 20
0.0
 30
0.0
  3
*Paper_Space
  1

  0
ENDBLK
  5
1D
330
1B
100
AcDbEntity
 67
     1
  8
0
100
AcDbBlockEnd
  0
BLOCK
  5
24
330
23
100
AcDbEntity
  8
0
100
AcDbBlockBegin
  2
*Paper_Space0
 70
     0
 10
0.0
 20
0.0
 30
0.0
  3
*Paper_Space0
  1

  0
ENDBLK
  5
25
330
23
100
AcDbEntity
  8
0
100
AcDbBlockEnd
  0
BLOCK
  5
70
330
6E
100
AcDbEntity
  8
0
100
AcDbBlockBegin
  2
1_124943_4
 70
     2
 10
0.0
 20
0.0
 30
0.0
  3
1_124943_4
  1

  0
ATTDEF
  5
73
330
6E
100
AcDbEntity
  8
AM_6
100
AcDbText
 10
117.8
 20
32.12
 30
0.0
 40
0.5
  1
Set Screw Low Backing Height Two-Bolt Pillow Block Metric Bore
100
AcDbAttributeDefinition
  3

  2
NN
 70
     8
280
     0
  0
ATTDEF
  5
74
330
6E
100
AcDbEntity
  8
AM_6
100
AcDbText
 10
117.8
 20
31.62
 30
0.0
 40
0.5
  1
SC Pillow Block Bearings -(Normal Duty) -Low Backing Height
100
AcDbAttributeDefinition
  3

  2
NT
 70
     8
280
     0
  0
ATTDEF
  5
75
330
6E
100
AcDbEntity
  8
AM_6
100
AcDbText
 10
117.8
 20
31.12
 30
0.0
 40
0.5
  1
124943
100
AcDbAttributeDefinition
  3

  2
NB
 70
     8
280
     0
  0
ATTDEF
  5
76
330
6E
100
AcDbEntity
  8
AM_6
100
AcDbText
 10
117.8
 20
30.62
 30
0.0
 40
0.5
  1
$PN.
100
AcDbAttributeDefinition
  3

  2
NBSYN
 70
     8
280
     0
  0
ATTDEF
  5
77
330
6E
100
AcDbEntity
  8
AM_6
100
AcDbText
 10
117.8
 20
30.12
 30
0.0
 40
0.5
  1
124943
100
AcDbAttributeDefinition
  3

  2
LINA
 70
     8
280
     0
  0
ATTDEF
  5
78
330
6E
100
AcDbEntity
  8
AM_6
100
AcDbText
 10
117.8
 20
29.62
 30
0.0
 40
0.5
  1
211
100
AcDbAttributeDefinition
  3

  2
SERIES
 70
     8
280
     0
  0
ATTDEF
  5
79
330
6E
100
AcDbEntity
  8
AM_6
100
AcDbText
 10
117.8
 20
29.12
 30
0.0
 40
0.5
  1
55
100
AcDbAttributeDefinition
  3

  2
SS
 70
     8
280
     0
  0
ATTDEF
  5
7A
330
6E
100
AcDbEntity
  8
AM_6
100
AcDbText
 10
117.8
 20
28.62
 30
0.0
 40
0.5
  1
124943
100
AcDbAttributeDefinition
  3

  2
PN
 70
     8
280
     0
  0
ATTDEF
  5
7B
330
6E
100
AcDbEntity
  8
AM_6
100
AcDbText
 10
117.8
 20
28.12
 30
0.0
 40
0.5
  1
P2B-SCB-55M
100
AcDbAttributeDefinition
  3

  2
DESCRIPTION
 70
     8
280
     0
  0
ATTDEF
  5
7C
330
6E
100
AcDbEntity
  8
AM_6
100
AcDbText
 10
117.8
 20
27.62
 30
0.0
 40
0.5
  1
3.3
100
AcDbAttributeDefinition
  3

  2
WEIGHT
 70
     8
280
     0
  0
ATTDEF
  5
7D
330
6E
100
AcDbEntity
  8
AM_6
100
AcDbText
 10
117.8
 20
27.12
 30
0.0
 40
0.5
  1
56.4
100
AcDbAttributeDefinition
  3

  2
A
 70
     8
280
     0
  0
ATTDEF
  5
7E
330
6E
100
AcDbEntity
  8
AM_6
100
AcDbText
 10
117.8
 20
26.62
 30
0.0
 40
0.5
  1
225.6
100
AcDbAttributeDefinition
  3

  2
B
 70
     8
280
     0
  0
ATTDEF
  5
7F
330
6E
100
AcDbEntity
  8
AM_6
100
AcDbText
 10
117.8
 20
26.12
 30
0.0
 40
0.5
  1
58.4
100
AcDbAttributeDefinition
  3

  2
C
 70
     8
280
     0
  0
ATTDEF
  5
80
330
6E
100
AcDbEntity
  8
AM_6
100
AcDbText
 10
117.8
 20
25.62
 30
0.0
 40
0.5
  1
162.1
100
AcDbAttributeDefinition
  3

  2
DMIN
 70
     8
280
     0
  0
ATTDEF
  5
81
330
6E
100
AcDbEntity
  8
AM_6
100
AcDbText
 10
117.8
 20
25.12
 30
0.0
 40
0.5
  1
189.0
100
AcDbAttributeDefinition
  3

  2
DMAX
 70
     8
280
     0
  0
ATTDEF
  5
82
330
6E
100
AcDbEntity
  8
AM_6
100
AcDbText
 10
117.8
 20
24.62
 30
0.0
 40
0.5
  1
M16
100
AcDbAttributeDefinition
  3

  2
F
 70
     8
280
     0
  0
ATTDEF
  5
83
330
6E
100
AcDbEntity
  8
AM_6
100
AcDbText
 10
117.8
 20
24.12
 30
0.0
 40
0.5
  1
30.7
100
AcDbAttributeDefinition
  3

  2
G
 70
     8
280
     0
  0
ATTDEF
  5
84
330
6E
100
AcDbEntity
  8
AM_6
100
AcDbText
 10
117.8
 20
23.62
 30
0.0
 40
0.5
  1
20.6
100
AcDbAttributeDefinition
  3

  2
H
 70
     8
280
     0
  0
ATTDEF
  5
85
330
6E
100
AcDbEntity
  8
AM_6
100
AcDbText
 10
117.8
 20
23.12
 30
0.0
 40
0.5
  1
124.5
100
AcDbAttributeDefinition
  3

  2
J
 70
     8
280
     0
  0
ATTDEF
  5
86
330
6E
100
AcDbEntity
  8
AM_6
100
AcDbText
 10
117.8
 20
22.62
 30
0.0
 40
0.5
  1
68.8
100
AcDbAttributeDefinition
  3

  2
L
 70
     8
280
     0
  0
ATTDEF
  5
87
330
6E
100
AcDbEntity
  8
AM_6
100
AcDbText
 10
117.8
 20
22.12
 30
0.0
 40
0.5
  1
62.0
100
AcDbAttributeDefinition
  3

  2
M
 70
     8
280
     0
  0
ATTDEF
  5
88
330
6E
100
AcDbEntity
  8
AM_6
100
AcDbText
 10
117.8
 20
21.62
 30
0.0
 40
0.5
  1
22.1
100
AcDbAttributeDefinition
  3

  2
R
 70
     8
280
     0
  0
ATTDEF
  5
89
330
6E
100
AcDbEntity
  8
AM_6
100
AcDbText
 10
117.8
 20
21.12
 30
0.0
 40
0.5
  1
34.3
100
AcDbAttributeDefinition
  3

  2
S
 70
     8
280
     0
  0
ATTDEF
  5
8A
330
6E
100
AcDbEntity
  8
AM_6
100
AcDbText
 10
117.8
 20
20.62
 30
0.0
 40
0.5
  1
100.1
100
AcDbAttributeDefinition
  3

  2
U
 70
     8
280
     0
  0
ATTDEF
  5
8B
330
6E
100
AcDbEntity
  8
AM_6
100
AcDbText
 10
117.8
 20
20.12
 30
0.0
 40
0.5
  1
200.2
100
AcDbAttributeDefinition
  3

  2
V
 70
     8
280
     0
  0
ATTDEF
  5
8C
330
6E
100
AcDbEntity
  8
AM_6
100
AcDbText
 10
117.8
 20
19.62
 30
0.0
 40
0.5
  1
20.6
100
AcDbAttributeDefinition
  3

  2
W
 70
     8
280
     0
  0
ATTDEF
  5
8D
330
6E
100
AcDbEntity
  8
AM_6
100
AcDbText
 10
117.8
 20
19.12
 30
0.0
 40
0.5
  1
3.0
100
AcDbAttributeDefinition
  3

  2
X
 70
     8
280
     0
  0
ATTDEF
  5
8E
330
6E
100
AcDbEntity
  8
AM_6
100
AcDbText
 10
117.8
 20
18.62
 30
0.0
 40
0.5
  1
baldor
100
AcDbAttributeDefinition
  3

  2
COMPANY
 70
     8
280
     0
  0
INSERT
  5
90
330
6E
100
AcDbEntity
  8
0
100
AcDbBlockReference
  2
2_405015E_Metric_0_in_124943_4
 10
0.0
 20
0.0
 30
0.0
  0
INSERT
  5
D8
330
6E
100
AcDbEntity
  8
0
100
AcDbBlockReference
  2
3_125816_0_in_124943_4
 10
0.0
 20
0.0
 30
0.0
  0
INSERT
  5
133
330
6E
100
AcDbEntity
  8
0
100
AcDbBlockReference
  2
4_124943H_0_in_124943_4
 10
0.0
 20
0.0
 30
0.0
  0
ENDBLK
  5
71
330
6E
100
AcDbEntity
  8
0
100
AcDbBlockEnd
  0
BLOCK
  5
91
330
8F
100
AcDbEntity
  8
0
100
AcDbBlockBegin
  2
2_405015E_Metric_0_in_124943_4
 70
     2
 10
0.0
 20
0.0
 30
0.0
  3
2_405015E_Metric_0_in_124943_4
  1

  0
ATTDEF
  5
93
330
8F
100
AcDbEntity
  8
AM_6
100
AcDbText
 10
57.60305057709789
 20
5.000000000000003
 30
0.0
 40
0.5
  1
405015E -Metric
100
AcDbAttributeDefinition
  3

  2
NN
 70
     8
280
     0
  0
ATTDEF
  5
94
330
8F
100
AcDbEntity
  8
AM_6
100
AcDbText
 10
57.60305057709789
 20
4.500000000000003
 30
0.0
 40
0.5
  1
Grease Fitting
100
AcDbAttributeDefinition
  3

  2
NT
 70
     8
280
     0
  0
ATTDEF
  5
95
330
8F
100
AcDbEntity
  8
AM_6
100
AcDbText
 10
57.60305057709789
 20
4.000000000000003
 30
0.0
 40
0.5
  1
405015E-Metric
100
AcDbAttributeDefinition
  3

  2
NB
 70
     8
280
     0
  0
ATTDEF
  5
96
330
8F
100
AcDbEntity
  8
AM_6
100
AcDbText
 10
57.60305057709789
 20
3.500000000000003
 30
0.0
 40
0.5
  1
$MN.-Metric
100
AcDbAttributeDefinition
  3

  2
NBSYN
 70
     8
280
     0
  0
ATTDEF
  5
97
330
8F
100
AcDbEntity
  8
AM_6
100
AcDbText
 10
57.60305057709789
 20
3.000000000000003
 30
0.0
 40
0.5
  1
405015E
100
AcDbAttributeDefinition
  3

  2
LINA
 70
     8
280
     0
  0
ATTDEF
  5
98
330
8F
100
AcDbEntity
  8
AM_6
100
AcDbText
 10
57.60305057709789
 20
2.500000000000003
 30
0.0
 40
0.5
  1
405015E
100
AcDbAttributeDefinition
  3

  2
MN
 70
     8
280
     0
  0
ATTDEF
  5
99
330
8F
100
AcDbEntity
  8
AM_6
100
AcDbText
 10
57.60305057709789
 20
2.000000000000003
 30
0.0
 40
0.5
  1
1/8 x 27PTF
100
AcDbAttributeDefinition
  3

  2
T
 70
     8
280
     0
  0
ATTDEF
  5
9A
330
8F
100
AcDbEntity
  8
AM_6
100
AcDbText
 10
57.60305057709789
 20
1.500000000000003
 30
0.0
 40
0.5
  1
baldor
100
AcDbAttributeDefinition
  3

  2
COMPANY
 70
     8
280
     0
  0
LWPOLYLINE
  5
9D
330
8F
100
AcDbEntity
  8
AM_9
100
AcDbPolyline
 90
        3
 70
     0
 43
0.0
 10
48.42321127130211
 20
0.0000000000000025
 10
47.80766547487097
 20
-1.24437966340913
 10
47.2560360026382
 20
-2.499999999999997
  0
LWPOLYLINE
  5
9E
330
8F
100
AcDbEntity
  8
AM_9
100
AcDbPolyline
 90
        3
 70
     0
 43
0.0
 10
47.2560360026382
 20
2.500000000000002
 10
47.80502924075938
 20
1.250000000000002
 10
48.42321127130211
 20
0.0000000000000025
  0
ELLIPSE
  5
9F
330
8F
100
AcDbEntity
  8
AM_9
100
AcDbEllipse
 10
39.43463807999257
 20
0.0000000000000024
 30
0.0
 11
2.546036870355444E-16
 21
4.15799375318352
 31
0.0
210
0.0
220
0.0
230
1.0
 40
0.7071067811865476
 41
0.0
 42
6.283185307179586
  0
LWPOLYLINE
  5
A0
330
8F
100
AcDbEntity
  8
AM_9
100
AcDbPolyline
 90
        3
 70
     0
 43
0.0
 10
49.37735634619784
 20
-2.499999999999995
 10
49.84898383423631
 20
-1.249999999999996
 10
50.25142252985324
 20
0.0000000000000027
  0
LWPOLYLINE
  5
A1
330
8F
100
AcDbEntity
  8
AM_9
100
AcDbPolyline
 90
        3
 70
     0
 43
0.0
 10
50.25142252985324
 20
0.0000000000000027
 10
49.85093658573482
 20
1.244379663409137
 10
49.37735634619784
 20
2.500000000000003
  0
LWPOLYLINE
  5
A2
330
8F
100
AcDbEntity
  8
AM_9
100
AcDbPolyline
 90
        3
 70
     0
 43
0.0
 10
46.3819698189828
 20
5.000000000000003
 10
46.78245576310121
 20
3.755620336590869
 10
47.2560360026382
 20
2.500000000000002
  0
LINE
  5
A3
330
8F
100
AcDbEntity
  8
AM_9
100
AcDbLine
 10
50.25142252985324
 20
0.0000000000000027
 30
0.0
 11
48.42321127130211
 21
0.0000000000000025
 31
0.0
  0
LWPOLYLINE
  5
A4
330
8F
100
AcDbEntity
  8
AM_9
100
AcDbPolyline
 90
        3
 70
     0
 43
0.0
 10
47.2560360026382
 20
-2.499999999999997
 10
46.78440851459973
 20
-3.749999999999997
 10
46.3819698189828
 20
-4.999999999999997
  0
LINE
  5
A5
330
8F
100
AcDbEntity
  8
AM_9
100
AcDbLine
 10
49.11768378556086
 20
-3.112932989209036
 30
0.0
 11
49.37735634619784
 21
-2.499999999999995
 31
0.0
  0
LINE
  5
A6
330
8F
100
AcDbEntity
  8
AM_9
100
AcDbLine
 10
49.37735634619784
 20
2.500000000000003
 30
0.0
 11
49.11648246321394
 21
3.115669622755251
 31
0.0
  0
LINE
  5
A7
330
8F
100
AcDbEntity
  8
AM_9
100
AcDbLine
 10
39.75378355008741
 20
-4.755705400136177
 30
0.0
 11
44.08466069768737
 21
-4.947208042050741
 31
0.0
  0
LINE
  5
A8
330
8F
100
AcDbEntity
  8
AM_9
100
AcDbLine
 10
44.08466069768737
 20
4.947208042050747
 30
0.0
 11
39.75378355008741
 21
4.755705400136183
 31
0.0
  0
ELLIPSE
  5
A9
330
8F
100
AcDbEntity
  8
AM_9
100
AcDbEllipse
 10
46.31549416771989
 20
0.0000000000009912
 30
0.0
 11
-9.184850993601927E-16
 21
-4.999999999998247
 31
0.0
210
0.0
220
0.0
230
1.0
 40
0.7071067811865482
 41
0.8982051386269241
 42
2.24338751496256
  0
LINE
  5
AA
330
8F
100
AcDbEntity
  8
AM_9
100
AcDbLine
 10
49.09518319812882
 20
1.989928832732518
 30
0.0
 11
48.83136372624193
 21
2.40658641745395
 31
0.0
  0
LINE
  5
AB
330
8F
100
AcDbEntity
  8
AM_9
100
AcDbLine
 10
48.83136372624193
 20
-2.406586417453944
 30
0.0
 11
49.09518319812882
 21
-1.989928832732512
 31
0.0
  0
ELLIPSE
  5
AC
330
8F
100
AcDbEntity
  8
AM_9
100
AcDbEllipse
 10
47.52380763725017
 20
0.0000000000000305
 30
0.0
 11
-5.479672885901868E-16
 21
-2.982994982562608
 31
0.0
210
0.0
220
0.0
230
1.0
 40
0.7071067811865476
 41
0.3869422381884107
 42
2.754650415401376
  0
ELLIPSE
  5
AD
330
8F
100
AcDbEntity
  8
AM_9
100
AcDbEllipse
 10
46.93096858681219
 20
0.0000000000179154
 30
0.0
 11
-6.627024103816363E-16
 21
-3.607583894627335
 31
0.0
210
0.0
220
0.0
230
1.0
 40
0.7071067811844431
 41
0.663383315188323
 42
2.478209338395357
  0
LINE
  5
AE
330
8F
100
AcDbEntity
  8
AM_9
100
AcDbLine
 10
48.81471639009188
 20
2.477229919855584
 30
0.0
 11
48.3431547392269
 21
2.748977116714939
 31
0.0
  0
LINE
  5
AF
330
8F
100
AcDbEntity
  8
AM_9
100
AcDbLine
 10
48.3431547392269
 20
-2.748977116714933
 30
0.0
 11
48.81471639009188
 21
-2.477229919855578
 31
0.0
  0
ELLIPSE
  5
B0
330
8F
100
AcDbEntity
  8
AM_9
100
AcDbEllipse
 10
48.10093879021488
 20
0.0000000000000031
 30
0.0
 11
-4.913895281578755E-16
 21
-2.675
 31
0.0
210
0.0
220
0.0
230
1.0
 40
0.7071067811865537
 41
0.0
 42
3.141592653589793
  0
ELLIPSE
  5
B1
330
8F
100
AcDbEntity
  8
AM_9
100
AcDbEllipse
 10
46.31549416771884
 20
0.000000000000012
 30
0.0
 11
-8.725608443924963E-16
 21
-4.750000000000039
 31
0.0
210
0.0
220
0.0
230
1.0
 40
0.7071067811865474
 41
0.8736482899485774
 42
2.267944363641213
  0
LINE
  5
B2
330
8F
100
AcDbEntity
  8
AM_9
100
AcDbLine
 10
48.21761140911068
 20
-2.674999999999997
 30
0.0
 11
48.59591353704548
 21
-2.674999999999997
 31
0.0
  0
LINE
  5
B3
330
8F
100
AcDbEntity
  8
AM_9
100
AcDbLine
 10
48.59591353704548
 20
2.675000000000003
 30
0.0
 11
48.21761140911067
 21
2.675000000000003
 31
0.0
  0
ELLIPSE
  5
B4
330
8F
100
AcDbEntity
  8
AM_9
100
AcDbEllipse
 10
48.59591353704547
 20
0.0000000000000056
 30
0.0
 11
-4.913895281578773E-16
 21
-2.67500000000001
 31
0.0
210
0.0
220
0.0
230
1.0
 40
0.7071067811865483
 41
5.888394187479833
 42
9.819569080469135
  0
ELLIPSE
  5
B5
330
8F
100
AcDbEntity
  8
AM_9
100
AcDbEllipse
 10
49.51515235258803
 20
0.0000000000000098
 30
0.0
 11
-5.832380380939246E-16
 21
-3.174999999999987
 31
0.0
210
0.0
220
0.0
230
1.0
 40
0.7071067811865408
 41
0.41591405210254
 42
2.725678601487252
  0
ELLIPSE
  5
B6
330
8F
100
AcDbEntity
  8
AM_9
100
AcDbEllipse
 10
44.19417382415922
 20
0.0000000000000029
 30
0.0
 11
-9.184850993605148E-16
 21
-5.0
 31
0.0
210
0.0
220
0.0
230
1.0
 40
0.7071067811865476
 41
0.0
 42
6.283185307179586
  0
ELLIPSE
  5
B7
330
8F
100
AcDbEntity
  8
AM_9
100
AcDbEllipse
 10
44.19417382415921
 20
-0.0000000000000071
 30
0.0
 11
-9.092325864233697E-16
 21
-4.949631665534982
 31
0.0
210
0.0
220
0.0
230
1.0
 40
0.7071067811865477
 41
0.0
 42
6.283185307179586
  0
ELLIPSE
  5
B8
330
8F
100
AcDbEntity
  8
AM_9
100
AcDbEllipse
 10
39.85892739477001
 20
0.0000000000000009
 30
0.0
 11
-8.740358316248946E-16
 21
-4.758029456511774
 31
0.0
210
0.0
220
0.0
230
1.0
 40
0.7071067811865474
 41
0.0
 42
6.283185307179586
  0
LWPOLYLINE
  5
BA
330
8F
100
AcDbEntity
  8
AM_4
100
AcDbPolyline
 90
        3
 70
     0
 43
0.0
 10
48.21018107753393
 20
-4.999999999999997
 10
48.82572687396506
 20
-3.755620336590863
 10
49.11768378556086
 20
-3.112932989209036
  0
LWPOLYLINE
  5
BB
330
8F
100
AcDbEntity
  8
AM_4
100
AcDbPolyline
 90
        3
 70
     0
 43
0.0
 10
49.11648246321394
 20
3.115669622755251
 10
48.82836310807664
 20
3.750000000000003
 10
48.21018107753393
 20
5.000000000000003
  0
ELLIPSE
  5
BC
330
8F
100
AcDbEntity
  8
AM_4
100
AcDbEllipse
 10
46.31549416771887
 20
0.0000000000000542
 30
0.0
 11
-9.184850993605036E-16
 21
-4.999999999999939
 31
0.0
210
0.0
220
0.0
230
1.0
 40
0.7071067811865477
 41
2.243387514962527
 42
7.181390445806835
  0
ELLIPSE
  5
BD
330
8F
100
AcDbEntity
  8
AM_4
100
AcDbEllipse
 10
46.93096858681547
 20
0.0000000000000033
 30
0.0
 11
-6.627024103768206E-16
 21
-3.60758389460112
 31
0.0
210
0.0
220
0.0
230
1.0
 40
0.7071067811865485
 41
2.47820933840087
 42
6.946568622368512
  0
LINE
  5
BE
330
8F
100
AcDbEntity
  8
AM_4
100
AcDbLine
 10
48.3431547392269
 20
2.748977116714939
 30
0.0
 11
48.3197683845768
 21
2.762453989376799
 31
0.0
  0
LINE
  5
BF
330
8F
100
AcDbEntity
  8
AM_4
100
AcDbLine
 10
48.3197683845768
 20
-2.762453989376794
 30
0.0
 11
48.3431547392269
 21
-2.748977116714933
 31
0.0
  0
ELLIPSE
  5
C0
330
8F
100
AcDbEntity
  8
AM_4
100
AcDbEllipse
 10
47.52380763725024
 20
0.0000000000000029
 30
0.0
 11
-5.479672885901702E-16
 21
-2.982994982562517
 31
0.0
210
0.0
220
0.0
230
1.0
 40
0.7071067811865477
 41
2.754650415401411
 42
6.670127545367968
  0
ELLIPSE
  5
C1
330
8F
100
AcDbEntity
  8
AM_4
100
AcDbEllipse
 10
46.31549416771887
 20
0.0000000000000031
 30
0.0
 11
-8.725608443924907E-16
 21
-4.750000000000009
 31
0.0
210
0.0
220
0.0
230
1.0
 40
0.7071067811865475
 41
2.267944363641219
 42
7.156833597128161
  0
LINE
  5
C2
330
8F
100
AcDbEntity
  8
AM_4
100
AcDbLine
 10
48.21018107753393
 20
-4.999999999999997
 30
0.0
 11
42.29948691434416
 21
-4.999999999999997
 31
0.0
  0
LWPOLYLINE
  5
C3
330
8F
100
AcDbEntity
  8
AM_4
100
AcDbPolyline
 90
        3
 70
     0
 43
0.0
 10
43.25363198923989
 20
-2.499999999999995
 10
43.72525947727836
 20
-3.749999999999997
 10
44.12769817289529
 20
-4.999999999999997
  0
LWPOLYLINE
  5
C4
330
8F
100
AcDbEntity
  8
AM_4
100
AcDbPolyline
 90
        3
 70
     0
 43
0.0
 10
41.13231164568025
 20
-2.499999999999997
 10
40.66068415764178
 20
-1.249999999999997
 10
40.25824546202485
 20
0.000000000000003
  0
LWPOLYLINE
  5
C5
330
8F
100
AcDbEntity
  8
AM_4
100
AcDbPolyline
 90
        3
 70
     0
 43
0.0
 10
42.29948691434416
 20
-4.999999999999997
 10
41.68394111791303
 20
-3.755620336590864
 10
41.13231164568025
 20
-2.499999999999997
  0
LWPOLYLINE
  5
C6
330
8F
100
AcDbEntity
  8
AM_4
100
AcDbPolyline
 90
        3
 70
     0
 43
0.0
 10
42.08645672057598
 20
0.0000000000000031
 10
42.70200251700712
 20
-1.24437966340913
 10
43.25363198923989
 20
-2.499999999999995
  0
LINE
  5
C7
330
8F
100
AcDbEntity
  8
AM_4
100
AcDbLine
 10
42.08645672057598
 20
0.0000000000000031
 30
0.0
 11
40.25824546202485
 21
0.000000000000003
 31
0.0
  0
LWPOLYLINE
  5
C8
330
8F
100
AcDbEntity
  8
AM_4
100
AcDbPolyline
 90
        3
 70
     0
 43
0.0
 10
43.25363198923989
 20
2.500000000000003
 10
42.70463875111871
 20
1.250000000000003
 10
42.08645672057598
 20
0.0000000000000031
  0
LWPOLYLINE
  5
C9
330
8F
100
AcDbEntity
  8
AM_4
100
AcDbPolyline
 90
        3
 70
     0
 43
0.0
 10
44.12769817289529
 20
5.000000000000003
 10
43.72721222877688
 20
3.75562033659087
 10
43.25363198923989
 20
2.500000000000003
  0
LINE
  5
CA
330
8F
100
AcDbEntity
  8
AM_4
100
AcDbLine
 10
48.21018107753393
 20
5.000000000000003
 30
0.0
 11
42.29948691434416
 21
5.000000000000003
 31
0.0
  0
LWPOLYLINE
  5
CB
330
8F
100
AcDbEntity
  8
AM_4
100
AcDbPolyline
 90
        3
 70
     0
 43
0.0
 10
41.13231164568025
 20
2.500000000000002
 10
41.68130488380144
 20
3.750000000000002
 10
42.29948691434416
 20
5.000000000000003
  0
LWPOLYLINE
  5
CC
330
8F
100
AcDbEntity
  8
AM_4
100
AcDbPolyline
 90
        3
 70
     0
 43
0.0
 10
40.25824546202485
 20
0.000000000000003
 10
40.65873140614326
 20
1.244379663409136
 10
41.13231164568025
 20
2.500000000000002
  0
LINE
  5
CD
330
8F
100
AcDbEntity
  8
AM_4
100
AcDbLine
 10
48.1009387902149
 20
-2.674999999999997
 30
0.0
 11
48.21761140911068
 21
-2.674999999999997
 31
0.0
  0
LINE
  5
CE
330
8F
100
AcDbEntity
  8
AM_4
100
AcDbLine
 10
48.21761140911067
 20
2.675000000000003
 30
0.0
 11
48.1009387902149
 21
2.675000000000003
 31
0.0
  0
ELLIPSE
  5
CF
330
8F
100
AcDbEntity
  8
AM_4
100
AcDbEllipse
 10
48.1009387902149
 20
0.0000000000000029
 30
0.0
 11
-4.913895281578751E-16
 21
-2.674999999999998
 31
0.0
210
0.0
220
0.0
230
1.0
 40
0.7071067811865489
 41
3.141592653589793
 42
6.283185307179586
  0
LINE
  5
D0
330
8F
100
AcDbEntity
  8
AM_4
100
AcDbLine
 10
47.86840944486317
 20
-2.469230769230767
 30
0.0
 11
48.65166618710057
 21
-2.930769230769228
 31
0.0
  0
LINE
  5
D1
330
8F
100
AcDbEntity
  8
AM_4
100
AcDbLine
 10
48.65166618710057
 20
2.930769230769234
 30
0.0
 11
47.86840944486317
 21
2.469230769230772
 31
0.0
  0
ELLIPSE
  5
D2
330
8F
100
AcDbEntity
  8
AM_4
100
AcDbEllipse
 10
49.51515235258799
 20
0.0000000000000033
 30
0.0
 11
-5.832380380939274E-16
 21
-3.175000000000002
 31
0.0
210
0.0
220
0.0
230
1.0
 40
0.7071067811865465
 41
2.725678601487241
 42
6.699099359282139
  0
ELLIPSE
  5
D3
330
8F
100
AcDbEntity
  8
AM_4
100
AcDbEllipse
 10
48.5959135370455
 20
0.0000000000000031
 30
0.0
 11
-4.913895281578770E-16
 21
-2.675000000000009
 31
0.0
210
0.0
220
0.0
230
1.0
 40
0.7071067811865488
 41
3.536383773289561
 42
5.888394187479818
  0
LINE
  5
D4
330
8F
100
AcDbEntity
  8
AM_4
100
AcDbLine
 10
51.60557841224241
 20
2.165159119691911
 30
0.0
 11
50.42221709949516
 21
2.904323000259531
 31
0.0
  0
LINE
  5
D5
330
8F
100
AcDbEntity
  8
AM_4
100
AcDbLine
 10
50.42221709949516
 20
-2.904323000259525
 30
0.0
 11
51.60557841224241
 21
-2.165159119691905
 31
0.0
  0
ELLIPSE
  5
D6
330
8F
100
AcDbEntity
  8
AM_4
100
AcDbEllipse
 10
50.92936591496107
 20
-0.0000000000000093
 30
0.0
 11
-4.348012108217479E-16
 21
-2.366947548329709
 31
0.0
210
0.0
220
0.0
230
1.0
 40
0.7071067811865521
 41
0.0
 42
6.283185307179586
  0
ENDBLK
  5
92
330
8F
100
AcDbEntity
  8
0
100
AcDbBlockEnd
  0
BLOCK
  5
D9
330
D7
100
AcDbEntity
  8
0
100
AcDbBlockBegin
  2
3_125816_0_in_124943_4
 70
     2
 10
0.0
 20
0.0
 30
0.0
  3
3_125816_0_in_124943_4
  1

  0
ATTDEF
  5
DB
330
D7
100
AcDbEntity
  8
AM_6
100
AcDbText
 10
54.98108159025714
 20
22.09999999999998
 30
0.0
 40
0.5
  1
Set Screw Insert Metric Bore - Stainless Steel
100
AcDbAttributeDefinition
  3

  2
NN
 70
     8
280
     0
  0
ATTDEF
  5
DC
330
D7
100
AcDbEntity
  8
AM_6
100
AcDbText
 10
54.98108159025714
 20
21.59999999999998
 30
0.0
 40
0.5
  1
SC Bearing Insert -Metric
100
AcDbAttributeDefinition
  3

  2
NT
 70
     8
280
     0
  0
ATTDEF
  5
DD
330
D7
100
AcDbEntity
  8
AM_6
100
AcDbText
 10
54.98108159025714
 20
21.09999999999998
 30
0.0
 40
0.5
  1
125816
100
AcDbAttributeDefinition
  3

  2
NB
 70
     8
280
     0
  0
ATTDEF
  5
DE
330
D7
100
AcDbEntity
  8
AM_6
100
AcDbText
 10
54.98108159025714
 20
20.59999999999998
 30
0.0
 40
0.5
  1
$PN.
100
AcDbAttributeDefinition
  3

  2
NBSYN
 70
     8
280
     0
  0
ATTDEF
  5
DF
330
D7
100
AcDbEntity
  8
AM_6
100
AcDbText
 10
54.98108159025714
 20
20.09999999999998
 30
0.0
 40
0.5
  1
125816
100
AcDbAttributeDefinition
  3

  2
LINA
 70
     8
280
     0
  0
ATTDEF
  5
E0
330
D7
100
AcDbEntity
  8
AM_6
100
AcDbText
 10
54.98108159025714
 20
19.59999999999998
 30
0.0
 40
0.5
  1
211
100
AcDbAttributeDefinition
  3

  2
SERIES
 70
     8
280
     0
  0
ATTDEF
  5
E1
330
D7
100
AcDbEntity
  8
AM_6
100
AcDbText
 10
54.98108159025714
 20
19.09999999999998
 30
0.0
 40
0.5
  1
55
100
AcDbAttributeDefinition
  3

  2
SS
 70
     8
280
     0
  0
ATTDEF
  5
E2
330
D7
100
AcDbEntity
  8
AM_6
100
AcDbText
 10
54.98108159025714
 20
18.59999999999998
 30
0.0
 40
0.5
  1
125816
100
AcDbAttributeDefinition
  3

  2
PN
 70
     8
280
     0
  0
ATTDEF
  5
E3
330
D7
100
AcDbEntity
  8
AM_6
100
AcDbText
 10
54.98108159025714
 20
18.09999999999998
 30
0.0
 40
0.5
  1
INS-SC-55
100
AcDbAttributeDefinition
  3

  2
DESCRIPTION
 70
     8
280
     0
  0
ATTDEF
  5
E4
330
D7
100
AcDbEntity
  8
AM_6
100
AcDbText
 10
54.98108159025714
 20
17.59999999999998
 30
0.0
 40
0.5
  1
0.89
100
AcDbAttributeDefinition
  3

  2
WEIGHT
 70
     8
280
     0
  0
ATTDEF
  5
E5
330
D7
100
AcDbEntity
  8
AM_6
100
AcDbText
 10
54.98108159025714
 20
17.09999999999998
 30
0.0
 40
0.5
  1
56.4
100
AcDbAttributeDefinition
  3

  2
A
 70
     8
280
     0
  0
ATTDEF
  5
E6
330
D7
100
AcDbEntity
  8
AM_6
100
AcDbText
 10
54.98108159025714
 20
16.59999999999998
 30
0.0
 40
0.5
  1
23.9
100
AcDbAttributeDefinition
  3

  2
C
 70
     8
280
     0
  0
ATTDEF
  5
E7
330
D7
100
AcDbEntity
  8
AM_6
100
AcDbText
 10
54.98108159025714
 20
16.09999999999998
 30
0.0
 40
0.5
  1
100
100
AcDbAttributeDefinition
  3

  2
D
 70
     8
280
     0
  0
ATTDEF
  5
E8
330
D7
100
AcDbEntity
  8
AM_6
100
AcDbText
 10
54.98108159025714
 20
15.59999999999998
 30
0.0
 40
0.5
  1
6.4
100
AcDbAttributeDefinition
  3

  2
J
 70
     8
280
     0
  0
ATTDEF
  5
E9
330
D7
100
AcDbEntity
  8
AM_6
100
AcDbText
 10
54.98108159025714
 20
15.09999999999998
 30
0.0
 40
0.5
  1
68.8
100
AcDbAttributeDefinition
  3

  2
L
 70
     8
280
     0
  0
ATTDEF
  5
EA
330
D7
100
AcDbEntity
  8
AM_6
100
AcDbText
 10
54.98108159025714
 20
14.59999999999998
 30
0.0
 40
0.5
  1
M10 x 1.5
100
AcDbAttributeDefinition
  3

  2
N
 70
     8
280
     0
  0
ATTDEF
  5
EB
330
D7
100
AcDbEntity
  8
AM_6
100
AcDbText
 10
54.98108159025714
 20
14.09999999999998
 30
0.0
 40
0.5
  1
22.1
100
AcDbAttributeDefinition
  3

  2
W
 70
     8
280
     0
  0
ATTDEF
  5
EC
330
D7
100
AcDbEntity
  8
AM_6
100
AcDbText
 10
54.98108159025714
 20
13.59999999999998
 30
0.0
 40
0.5
  1
34.3
100
AcDbAttributeDefinition
  3

  2
Y
 70
     8
280
     0
  0
ATTDEF
  5
ED
330
D7
100
AcDbEntity
  8
AM_6
100
AcDbText
 10
54.98108159025714
 20
13.09999999999998
 30
0.0
 40
0.5
  1
baldor
100
AcDbAttributeDefinition
  3

  2
COMPANY
 70
     8
280
     0
  0
LINE
  5
EE
330
D7
100
AcDbEntity
  8
AM_9
100
AcDbLine
 10
-52.75
 20
6.617272727272731
 30
0.0
 11
-52.75
 21
6.18272727272727
 31
0.0
  0
ARC
  5
EF
330
D7
100
AcDbEntity
  8
AM_9
100
AcDbCircle
 10
-50.57727272727274
 20
6.182727272727274
 30
0.0
 40
2.172727272727265
100
AcDbArc
 50
180.0
 51
270.0
  0
ARC
  5
F0
330
D7
100
AcDbEntity
  8
AM_9
100
AcDbCircle
 10
-50.57727272727274
 20
6.617272727272729
 30
0.0
 40
2.172727272727263
100
AcDbArc
 50
90.0
 51
180.0
  0
LINE
  5
F1
330
D7
100
AcDbEntity
  8
AM_9
100
AcDbLine
 10
-50.57727272727274
 20
8.789999999999994
 30
0.0
 11
-50.57727272727274
 21
4.010000000000007
 31
0.0
  0
LINE
  5
F2
330
D7
100
AcDbEntity
  8
AM_9
100
AcDbLine
 10
-50.57727272727274
 20
4.010000000000007
 30
0.0
 11
-49.73865656465158
 21
4.010000000000007
 31
0.0
  0
LINE
  5
F3
330
D7
100
AcDbEntity
  8
AM_9
100
AcDbLine
 10
-48.73206865675088
 20
8.789999999999994
 30
0.0
 11
-50.57727272727274
 21
8.789999999999994
 31
0.0
  0
LINE
  5
F4
330
D7
100
AcDbEntity
  8
AM_9
100
AcDbLine
 10
24.92154625024347
 20
-27.313
 30
0.0
 11
30.84590293342454
 21
-27.313
 31
0.0
  0
LINE
  5
F5
330
D7
100
AcDbEntity
  8
AM_9
100
AcDbLine
 10
30.84590293342454
 20
-18.937
 30
0.0
 11
24.9231288651351
 21
-18.937
 31
0.0
  0
LWPOLYLINE
  5
F6
330
D7
100
AcDbEntity
  8
AM_9
100
AcDbPolyline
 90
       21
 70
     0
 43
0.0
 10
24.92331588742095
 20
-27.31299998530803
 10
25.11506519917817
 20
-27.28747490281286
 10
25.38261086714229
 20
-27.15574685149483
 10
25.6302861027031
 20
-26.90702880781054
 10
25.840919417053
 20
-26.56062728977599
 10
26.02310136589237
 20
-26.10763129921575
 10
26.16705023290328
 20
-25.57963587134006
 10
26.27902989182513
 20
-24.96537366741304
 10
26.35325929767705
 20
-24.31570796331229
 10
26.39462634179601
 20
-23.61185769349357
 10
26.4012675896881
 20
-22.92098623365241
 10
26.37425039401077
 20
-22.2159453892985
 10
26.31519870593224
 20
-21.55952944557112
 10
26.2201211622004
 20
-20.92904535214871
 10
26.0926192164644
 20
-20.37216422739404
 10
25.92572372381117
 20
-19.87791555060663
 10
25.72740002218973
 20
-19.48405276153581
 10
25.48916428379081
 20
-19.18396379068214
 10
25.22911330741699
 20
-19.0037719467383
 10
24.93662376392377
 20
-18.93711604222496
 10
24.9235417221192
 20
-18.93700000402307
  0
LWPOLYLINE
  5
F7
330
D7
100
AcDbEntity
  8
AM_9
100
AcDbPolyline
 90
       11
 70
     0
 43
0.0
 10
24.9235417221192
 20
-18.93700000402307
 10
24.63903543040125
 20
-18.98873165243515
 10
24.32543823422859
 20
-19.15869132956799
 10
24.02406441951439
 20
-19.43234181449702
 10
23.728903997648
 20
-19.81728563179886
 10
23.46524481666654
 20
-20.28669509187432
 10
23.23259488568457
 20
-20.85080984290786
 10
23.05338893657966
 20
-21.46630370258525
 10
22.9274966159913
 20
-22.14854226825986
 10
22.87932745706674
 20
-22.62982456129345
 10
22.86282439196578
 20
-23.125
  0
ELLIPSE
  5
F8
330
D7
100
AcDbEntity
  8
AM_9
100
AcDbEllipse
 10
30.84590293342455
 20
-23.125
 30
0.0
 11
-7.693231192243657E-16
 21
-4.187999999999992
 31
0.0
210
0.0
220
0.0
230
1.0
 40
0.4226182617407021
 41
3.575262178821443
 42
5.845944381073835
  0
LINE
  5
F9
330
D7
100
AcDbEntity
  8
AM_9
100
AcDbLine
 10
30.02057322091911
 20
-26.82979950446317
 30
0.0
 11
30.22944368758141
 21
-27.0903208356794
 31
0.0
  0
LINE
  5
FA
330
D7
100
AcDbEntity
  8
AM_9
100
AcDbLine
 10
30.2339128856219
 20
-19.15410479355587
 30
0.0
 11
30.02057322091911
 21
-19.42020049553683
 31
0.0
  0
LWPOLYLINE
  5
FB
330
D7
100
AcDbEntity
  8
AM_9
100
AcDbPolyline
 90
       11
 70
     0
 43
0.0
 10
22.86282439196578
 20
-23.125
 10
22.89481350871085
 20
-23.8135579253152
 10
22.99284674641189
 20
-24.5021158506304
 10
23.14657052622978
 20
-25.13267684268023
 10
23.3571773572534
 20
-25.72384223392553
 10
23.60551540453295
 20
-26.23047045148927
 10
23.89322975669765
 20
-26.66265106352416
 10
24.19410958508051
 20
-26.98572618014408
 10
24.5122336342296
 20
-27.20644692712379
 10
24.81581238140828
 20
-27.30539669791705
 10
24.92331588742095
 20
-27.31299998530803
  0
LINE
  5
FC
330
D7
100
AcDbEntity
  8
AM_9
100
AcDbLine
 10
27.5
 20
-32.924
 30
0.0
 11
27.5
 21
20.72399999999999
 31
0.0
  0
LINE
  5
FD
330
D7
100
AcDbEntity
  8
AM_9
100
AcDbLine
 10
-27.5
 20
20.72399999999999
 30
0.0
 11
-27.5
 21
-32.924
 31
0.0
  0
LINE
  5
FE
330
D7
100
AcDbEntity
  8
AM_9
100
AcDbLine
 10
27.5
 20
20.72399999999999
 30
0.0
 11
28.87600000000001
 21
22.09999999999998
 31
0.0
  0
LINE
  5
FF
330
D7
100
AcDbEntity
  8
AM_9
100
AcDbLine
 10
-28.87600000000001
 20
22.09999999999998
 30
0.0
 11
-27.5
 21
20.72399999999999
 31
0.0
  0
LINE
  5
100
330
D7
100
AcDbEntity
  8
AM_9
100
AcDbLine
 10
-27.5
 20
-32.924
 30
0.0
 11
-28.87600000000001
 21
-34.3
 31
0.0
  0
LINE
  5
101
330
D7
100
AcDbEntity
  8
AM_9
100
AcDbLine
 10
28.87600000000001
 20
-34.3
 30
0.0
 11
27.5
 21
-32.924
 31
0.0
  0
LINE
  5
102
330
D7
100
AcDbEntity
  8
AM_9
100
AcDbLine
 10
34.40000000000001
 20
-18.28364965453925
 30
0.0
 11
34.40000000000001
 21
-11.95
 31
0.0
  0
LINE
  5
103
330
D7
100
AcDbEntity
  8
AM_9
100
AcDbLine
 10
-34.40000000000001
 20
-11.95
 30
0.0
 11
-34.40000000000001
 21
-18.28364965453925
 31
0.0
  0
LINE
  5
104
330
D7
100
AcDbEntity
  8
AM_9
100
AcDbLine
 10
34.40000000000001
 20
11.95
 30
0.0
 11
34.40000000000001
 21
18.28364965453927
 31
0.0
  0
LINE
  5
105
330
D7
100
AcDbEntity
  8
AM_9
100
AcDbLine
 10
-34.40000000000001
 20
18.28364965453927
 30
0.0
 11
-34.40000000000001
 21
11.95
 31
0.0
  0
LINE
  5
106
330
D7
100
AcDbEntity
  8
AM_9
100
AcDbLine
 10
47.61000000000003
 20
-7.353333333333333
 30
0.0
 11
47.61000000000003
 21
-4.16666666666667
 31
0.0
  0
LINE
  5
107
330
D7
100
AcDbEntity
  8
AM_9
100
AcDbLine
 10
-47.61000000000003
 20
-4.16666666666667
 30
0.0
 11
-47.61000000000003
 21
-7.353333333333333
 31
0.0
  0
LINE
  5
108
330
D7
100
AcDbEntity
  8
AM_9
100
AcDbLine
 10
-46.96542332119775
 20
-11.95
 30
0.0
 11
46.96542332107906
 21
-11.95
 31
0.0
  0
ARC
  5
109
330
D7
100
AcDbEntity
  8
AM_9
100
AcDbCircle
 10
46.96542330695225
 20
-10.99400000000003
 30
0.0
 40
0.9559999999999764
100
AcDbArc
 50
270.0
 51
338.5875329531169
  0
ARC
  5
10A
330
D7
100
AcDbEntity
  8
AM_9
100
AcDbCircle
 10
-46.96542330695224
 20
-10.99400000000001
 30
0.0
 40
0.9559999999999935
100
AcDbArc
 50
201.4124670468837
 51
270.0
  0
LINE
  5
10B
330
D7
100
AcDbEntity
  8
AM_9
100
AcDbLine
 10
-46.96542330695223
 20
11.95
 30
0.0
 11
46.96542330683354
 21
11.95
 31
0.0
  0
ARC
  5
10C
330
D7
100
AcDbEntity
  8
AM_9
100
AcDbCircle
 10
46.96542330695225
 20
10.994
 30
0.0
 40
0.9559999999999902
100
AcDbArc
 50
21.41246704688436
 51
90.0
  0
ARC
  5
10D
330
D7
100
AcDbEntity
  8
AM_9
100
AcDbCircle
 10
-46.96542330695225
 20
10.994
 30
0.0
 40
0.955999999999996
100
AcDbArc
 50
90.0
 51
158.5875329531156
  0
LINE
  5
10E
330
D7
100
AcDbEntity
  8
AM_9
100
AcDbLine
 10
-47.85543674526818
 20
-11.34301587301588
 30
0.0
 11
47.85543674526818
 21
-11.34301587301588
 31
0.0
  0
LINE
  5
10F
330
D7
100
AcDbEntity
  8
AM_9
100
AcDbLine
 10
-49.11730509483896
 20
-7.353333333333333
 30
0.0
 11
49.11730509483897
 21
-7.353333333333333
 31
0.0
  0
ARC
  5
110
330
D7
100
AcDbEntity
  8
AM_9
100
AcDbCircle
 10
18.93000000000135
 20
-0.0000000000002771
 30
0.0
 40
31.06999999999866
100
AcDbArc
 50
338.5875329531155
 51
346.3099227445071
  0
ARC
  5
111
330
D7
100
AcDbEntity
  8
AM_9
100
AcDbCircle
 10
-18.93000000000085
 20
-0.0000000000001332
 30
0.0
 40
31.06999999999918
100
AcDbArc
 50
193.690077255493
 51
201.4124670468844
  0
LINE
  5
112
330
D7
100
AcDbEntity
  8
AM_9
100
AcDbLine
 10
-49.71934537934983
 20
-4.166666666666672
 30
0.0
 11
49.71934537934983
 21
-4.166666666666672
 31
0.0
  0
LINE
  5
113
330
D7
100
AcDbEntity
  8
AM_9
100
AcDbLine
 10
-47.85543674526818
 20
11.34301587301588
 30
0.0
 11
47.85543674526818
 21
11.34301587301588
 31
0.0
  0
LINE
  5
114
330
D7
100
AcDbEntity
  8
AM_9
100
AcDbLine
 10
-48.90249063411913
 20
8.0755214786154
 30
0.0
 11
-48.88022554774447
 21
8.169955906491838
 31
0.0
  0
ARC
  5
115
330
D7
100
AcDbEntity
  8
AM_9
100
AcDbCircle
 10
18.93000000000048
 20
0.0000000000000303
 30
0.0
 40
31.06999999999956
100
AcDbArc
 50
352.2930851783878
 51
21.41246704688434
  0
ARC
  5
116
330
D7
100
AcDbEntity
  8
AM_9
100
AcDbCircle
 10
-18.93000000000425
 20
0.0000000000013234
 30
0.0
 40
31.06999999999557
100
AcDbArc
 50
158.5875329531154
 51
163.5769617941173
  0
ARC
  5
117
330
D7
100
AcDbEntity
  8
AM_9
100
AcDbCircle
 10
-18.92999999999981
 20
-0.0000000000000091
 30
0.0
 40
31.07000000000021
100
AcDbArc
 50
172.5691600878288
 51
187.706914821612
  0
LWPOLYLINE
  5
118
330
D7
100
AcDbEntity
  8
AM_9
100
AcDbPolyline
 90
       21
 70
     0
 43
0.0
 10
-48.73068455596453
 20
8.78999999972016
 10
-48.73110160138947
 20
8.788304014212098
 10
-48.74301869741605
 20
8.739764785431351
 10
-48.769549836373
 20
8.631167494080668
 10
-48.81105246080031
 20
8.459786953218368
 10
-48.86430198494507
 20
8.237147735853387
 10
-48.92967538635213
 20
7.959445574427678
 10
-49.0032407031199
 20
7.640938162165059
 10
-49.08487110440119
 20
7.279691363881533
 10
-49.16960334503258
 20
6.895515275302402
 10
-49.25756572433851
 20
6.486141815310777
 10
-49.34233561154807
 20
6.08076021516011
 10
-49.42540643635409
 20
5.672415949931147
 10
-49.49961604360647
 20
5.297684528060346
 10
-49.56791031258505
 20
4.943948595409124
 10
-49.62399509218046
 20
4.64667951817075
 10
-49.67114797468114
 20
4.391750216804263
 10
-49.70517969312491
 20
4.204783309696865
 10
-49.72843550216079
 20
4.07552873726214
 10
-49.73909854691143
 20
4.015849635498594
 10
-49.74014118760171
 20
4.010000000004565
  0
LINE
  5
11B
330
D7
100
AcDbEntity
  8
AM_7
100
AcDbLine
 10
-4.397399999999999
 20
-23.125
 30
0.0
 11
4.39739999999999
 21
-23.125
 31
0.0
  0
LINE
  5
11C
330
D7
100
AcDbEntity
  8
AM_7
100
AcDbLine
 10
-53.6675
 20
6.4
 30
0.0
 11
-33.4825
 21
6.4
 31
0.0
  0
ELLIPSE
  5
11D
330
D7
100
AcDbEntity
  8
AM_4
100
AcDbEllipse
 10
30.84590293342453
 20
-23.125
 30
0.0
 11
-7.693231192243670E-16
 21
-4.187999999999999
 31
0.0
210
0.0
220
0.0
230
1.0
 40
0.4226182617406988
 41
5.845944381073839
 42
9.858447486001024
  0
LWPOLYLINE
  5
11E
330
D7
100
AcDbEntity
  8
AM_4
100
AcDbPolyline
 90
       14
 70
     0
 43
0.0
 10
30.23410487363396
 20
-27.09613458512186
 10
30.12219537788484
 20
-26.94690334845157
 10
29.85620789727644
 20
-26.50521425455696
 10
29.62146187485422
 20
-25.98372412413877
 10
29.41566987187417
 20
-25.35928319124896
 10
29.26059297300792
 20
-24.67914948150456
 10
29.15887542618206
 20
-23.92222093847961
 10
29.12308332378158
 20
-23.14401410777732
 10
29.15747176188555
 20
-22.34392055627062
 10
29.26150420514506
 20
-21.56583609467128
 10
29.43232267695343
 20
-20.83187249206304
 10
29.66185167770747
 20
-20.16506330973516
 10
29.9334866448595
 20
-19.60285091636364
 10
30.23443468690436
 20
-19.15345395787243
  0
LWPOLYLINE
  5
11F
330
D7
100
AcDbEntity
  8
AM_4
100
AcDbPolyline
 90
        6
 70
     0
 43
0.0
 10
30.23443468690436
 20
-19.15345395787243
 10
30.24088811736627
 20
-19.14543558285319
 10
30.55305206053457
 20
-18.82795060635999
 10
30.87395258787555
 20
-18.63332474941129
 10
31.07109626818564
 20
-18.5794747200768
 10
31.26420831044271
 20
-18.57705682305819
  0
LINE
  5
120
330
D7
100
AcDbEntity
  8
AM_4
100
AcDbLine
 10
-33.02400000000001
 20
22.09999999999998
 30
0.0
 11
33.02400000000001
 21
22.09999999999998
 31
0.0
  0
LINE
  5
121
330
D7
100
AcDbEntity
  8
AM_4
100
AcDbLine
 10
-33.02400000000001
 20
22.09999999999998
 30
0.0
 11
-34.40000000000001
 21
20.72399999999998
 31
0.0
  0
LINE
  5
122
330
D7
100
AcDbEntity
  8
AM_4
100
AcDbLine
 10
34.40000000000001
 20
20.72399999999998
 30
0.0
 11
33.02400000000001
 21
22.09999999999998
 31
0.0
  0
LWPOLYLINE
  5
123
330
D7
100
AcDbEntity
  8
AM_4
100
AcDbPolyline
 90
       23
 70
     0
 43
0.0
 10
31.26420831044271
 20
-18.57705682305819
 10
31.53860414095853
 20
-18.66946107462991
 10
31.79180437298769
 20
-18.87160301242778
 10
32.01872732942288
 20
-19.17824180455807
 10
32.2161471953629
 20
-19.57723491512117
 10
32.38916204886976
 20
-20.08193612588775
 10
32.52759691262757
 20
-20.65947128850105
 10
32.63663338045649
 20
-21.33485773508206
 10
32.70789470658794
 20
-22.05589255067659
 10
32.7424910307296
 20
-22.83830828620892
 10
32.73704380405692
 20
-23.62852924959347
 10
32.68993078401569
 20
-24.41925428941283
 10
32.600570218507
 20
-25.17299294831536
 10
32.46874608472584
 20
-25.86153241687946
 10
32.29364311138094
 20
-26.46920490363956
 10
32.08342448655003
 20
-26.95661581073708
 10
31.834727787814
 20
-27.33064229756592
 10
31.56901053763831
 20
-27.56256262611011
 10
31.27855865723055
 20
-27.67101396116874
 10
30.98803447218187
 20
-27.65360528678627
 10
30.69111011577805
 20
-27.5221303656193
 10
30.40057133642464
 20
-27.28351550979946
 10
30.23410487363396
 20
-27.09613458512186
  0
LINE
  5
124
330
D7
100
AcDbEntity
  8
AM_4
100
AcDbLine
 10
34.40000000000001
 20
-32.924
 30
0.0
 11
34.40000000000001
 21
-18.28364965453925
 31
0.0
  0
LINE
  5
125
330
D7
100
AcDbEntity
  8
AM_4
100
AcDbLine
 10
-34.40000000000001
 20
-18.28364965453925
 30
0.0
 11
-34.40000000000001
 21
-32.924
 31
0.0
  0
LINE
  5
126
330
D7
100
AcDbEntity
  8
AM_4
100
AcDbLine
 10
-34.40000000000001
 20
20.72399999999998
 30
0.0
 11
34.40000000000001
 21
20.72399999999998
 31
0.0
  0
LINE
  5
127
330
D7
100
AcDbEntity
  8
AM_4
100
AcDbLine
 10
34.40000000000001
 20
18.28364965453927
 30
0.0
 11
34.40000000000001
 21
20.72399999999998
 31
0.0
  0
LINE
  5
128
330
D7
100
AcDbEntity
  8
AM_4
100
AcDbLine
 10
-34.40000000000001
 20
20.72399999999998
 30
0.0
 11
-34.40000000000001
 21
18.28364965453927
 31
0.0
  0
LWPOLYLINE
  5
129
330
D7
100
AcDbEntity
  8
AM_4
100
AcDbPolyline
 90
       39
 70
     0
 43
0.0
 10
-3.078850107564872
 20
-19.9603278457594
 10
-2.609241112369466
 20
-19.51503057151198
 10
-2.065621706152057
 20
-19.13696414984866
 10
-1.413894622370472
 20
-18.82736395473811
 10
-0.694559945911908
 20
-18.63206960135921
 10
-0.0146028626540541
 20
-18.57171470306649
 10
0.6865162635673575
 20
-18.63067012969688
 10
1.329801504238399
 20
-18.79709268104526
 10
1.953804994972948
 20
-19.07374207899776
 10
2.522219435253044
 20
-19.44580825726087
 10
3.037247135671194
 20
-19.91526484658305
 10
3.484005728859886
 20
-20.47644775393801
 10
3.845397720808597
 20
-21.11785682549782
 10
4.107909971136392
 20
-21.83013751935584
 10
4.256235075188436
 20
-22.59595333363391
 10
4.278470543355288
 20
-23.38244871270106
 10
4.167518065302937
 20
-24.18387858823086
 10
3.929064935800716
 20
-24.94040528684725
 10
3.554418211394641
 20
-25.66584744793829
 10
3.08323169892619
 20
-26.28485298176812
 10
2.491846125688137
 20
-26.82750610925577
 10
1.865303800908545
 20
-27.2231668687785
 10
1.154888690890638
 20
-27.50936590223742
 10
0.4741422642833172
 20
-27.65027237173126
 10
-0.2429050451112852
 20
-27.67096924801287
 10
-0.9028265612448602
 20
-27.57581850662637
 10
-1.555771689997665
 20
-27.36680637764181
 10
-2.152959714073138
 20
-27.06045701663191
 10
-2.707551128558564
 20
-26.65223126294007
 10
-3.200483305211306
 20
-26.15040192488353
 10
-3.618364808669614
 20
-25.56194470478895
 10
-3.948361663810026
 20
-24.89260869084258
 10
-4.172915400278068
 20
-24.15966876349715
 10
-4.278234766082992
 20
-23.38682180957491
 10
-4.255040430850888
 20
-22.58524459526792
 10
-4.101311532917792
 20
-21.80679341935399
 10
-3.810405893757949
 20
-21.04400968189646
 10
-3.4873107530704
 20
-20.48135812888007
 10
-3.078850107673327
 20
-19.96032784568829
  0
CIRCLE
  5
12A
330
D7
100
AcDbEntity
  8
AM_4
100
AcDbCircle
 10
-0.0000000000000049
 20
-23.125
 30
0.0
 40
4.187999999999995
  0
LINE
  5
12B
330
D7
100
AcDbEntity
  8
AM_4
100
AcDbLine
 10
-33.02400000000001
 20
-34.3
 30
0.0
 11
33.02400000000001
 21
-34.3
 31
0.0
  0
LINE
  5
12C
330
D7
100
AcDbEntity
  8
AM_4
100
AcDbLine
 10
-34.40000000000001
 20
-32.924
 30
0.0
 11
34.40000000000001
 21
-32.924
 31
0.0
  0
LINE
  5
12D
330
D7
100
AcDbEntity
  8
AM_4
100
AcDbLine
 10
33.02400000000001
 20
-34.3
 30
0.0
 11
34.40000000000001
 21
-32.924
 31
0.0
  0
LINE
  5
12E
330
D7
100
AcDbEntity
  8
AM_4
100
AcDbLine
 10
-34.40000000000001
 20
-32.924
 30
0.0
 11
-33.02400000000001
 21
-34.3
 31
0.0
  0
ARC
  5
130
330
D7
100
AcDbEntity
  8
AM_5
100
AcDbCircle
 10
-0.0000000000000033
 20
-24.29999999999999
 30
0.0
 40
5.000000000000004
100
AcDbArc
 50
75.0
 51
15.0
  0
ARC
  5
131
330
D7
100
AcDbEntity
  8
AM_5
100
AcDbCircle
 10
0.0000000000000024
 20
-23.125
 30
0.0
 40
4.999999999999996
100
AcDbArc
 50
75.0
 51
14.99999999999994
  0
ENDBLK
  5
DA
330
D7
100
AcDbEntity
  8
0
100
AcDbBlockEnd
  0
BLOCK
  5
134
330
132
100
AcDbEntity
  8
0
100
AcDbBlockBegin
  2
4_124943H_0_in_124943_4
 70
     2
 10
0.0
 20
0.0
 30
0.0
  3
4_124943H_0_in_124943_4
  1

  0
ATTDEF
  5
136
330
132
100
AcDbEntity
  8
AM_6
100
AcDbText
 10
117.8
 20
32.12
 30
0.0
 40
0.5
  1
P2B-SCB -M-Housing
100
AcDbAttributeDefinition
  3

  2
NN
 70
     8
280
     0
  0
ATTDEF
  5
137
330
132
100
AcDbEntity
  8
AM_6
100
AcDbText
 10
117.8
 20
31.62
 30
0.0
 40
0.5
  1
SC Pillow Block Bearings -(Normal Duty) -Low Backing Height
100
AcDbAttributeDefinition
  3

  2
NT
 70
     8
280
     0
  0
ATTDEF
  5
138
330
132
100
AcDbEntity
  8
AM_6
100
AcDbText
 10
117.8
 20
31.12
 30
0.0
 40
0.5
  1
124943H
100
AcDbAttributeDefinition
  3

  2
NB
 70
     8
280
     0
  0
ATTDEF
  5
139
330
132
100
AcDbEntity
  8
AM_6
100
AcDbText
 10
117.8
 20
30.62
 30
0.0
 40
0.5
  1
$PN.H
100
AcDbAttributeDefinition
  3

  2
NBSYN
 70
     8
280
     0
  0
ATTDEF
  5
13A
330
132
100
AcDbEntity
  8
AM_6
100
AcDbText
 10
117.8
 20
30.12
 30
0.0
 40
0.5
  1
124943
100
AcDbAttributeDefinition
  3

  2
LINA
 70
     8
280
     0
  0
ATTDEF
  5
13B
330
132
100
AcDbEntity
  8
AM_6
100
AcDbText
 10
117.8
 20
29.62
 30
0.0
 40
0.5
  1
211
100
AcDbAttributeDefinition
  3

  2
SERIES
 70
     8
280
     0
  0
ATTDEF
  5
13C
330
132
100
AcDbEntity
  8
AM_6
100
AcDbText
 10
117.8
 20
29.12
 30
0.0
 40
0.5
  1
55
100
AcDbAttributeDefinition
  3

  2
SS
 70
     8
280
     0
  0
ATTDEF
  5
13D
330
132
100
AcDbEntity
  8
AM_6
100
AcDbText
 10
117.8
 20
28.62
 30
0.0
 40
0.5
  1
124943
100
AcDbAttributeDefinition
  3

  2
PN
 70
     8
280
     0
  0
ATTDEF
  5
13E
330
132
100
AcDbEntity
  8
AM_6
100
AcDbText
 10
117.8
 20
28.12
 30
0.0
 40
0.5
  1
P2B-SCB-55M
100
AcDbAttributeDefinition
  3

  2
DESCRIPTION
 70
     8
280
     0
  0
ATTDEF
  5
13F
330
132
100
AcDbEntity
  8
AM_6
100
AcDbText
 10
117.8
 20
27.62
 30
0.0
 40
0.5
  1
100.0
100
AcDbAttributeDefinition
  3

  2
BOD
 70
     8
280
     0
  0
ATTDEF
  5
140
330
132
100
AcDbEntity
  8
AM_6
100
AcDbText
 10
117.8
 20
27.12
 30
0.0
 40
0.5
  1
56.4
100
AcDbAttributeDefinition
  3

  2
A
 70
     8
280
     0
  0
ATTDEF
  5
141
330
132
100
AcDbEntity
  8
AM_6
100
AcDbText
 10
117.8
 20
26.62
 30
0.0
 40
0.5
  1
225.6
100
AcDbAttributeDefinition
  3

  2
B
 70
     8
280
     0
  0
ATTDEF
  5
142
330
132
100
AcDbEntity
  8
AM_6
100
AcDbText
 10
117.8
 20
26.12
 30
0.0
 40
0.5
  1
58.4
100
AcDbAttributeDefinition
  3

  2
C
 70
     8
280
     0
  0
ATTDEF
  5
143
330
132
100
AcDbEntity
  8
AM_6
100
AcDbText
 10
117.8
 20
25.62
 30
0.0
 40
0.5
  1
162.1
100
AcDbAttributeDefinition
  3

  2
DMIN
 70
     8
280
     0
  0
ATTDEF
  5
144
330
132
100
AcDbEntity
  8
AM_6
100
AcDbText
 10
117.8
 20
25.12
 30
0.0
 40
0.5
  1
189.0
100
AcDbAttributeDefinition
  3

  2
DMAX
 70
     8
280
     0
  0
ATTDEF
  5
145
330
132
100
AcDbEntity
  8
AM_6
100
AcDbText
 10
117.8
 20
24.62
 30
0.0
 40
0.5
  1
M16
100
AcDbAttributeDefinition
  3

  2
F
 70
     8
280
     0
  0
ATTDEF
  5
146
330
132
100
AcDbEntity
  8
AM_6
100
AcDbText
 10
117.8
 20
24.12
 30
0.0
 40
0.5
  1
16.000
100
AcDbAttributeDefinition
  3

  2
F1
 70
     8
280
     0
  0
ATTDEF
  5
147
330
132
100
AcDbEntity
  8
AM_6
100
AcDbText
 10
117.8
 20
23.62
 30
0.0
 40
0.5
  1
30.7
100
AcDbAttributeDefinition
  3

  2
G
 70
     8
280
     0
  0
ATTDEF
  5
148
330
132
100
AcDbEntity
  8
AM_6
100
AcDbText
 10
117.8
 20
23.12
 30
0.0
 40
0.5
  1
17.5
100
AcDbAttributeDefinition
  3

  2
G1
 70
     8
280
     0
  0
ATTDEF
  5
149
330
132
100
AcDbEntity
  8
AM_6
100
AcDbText
 10
117.8
 20
22.62
 30
0.0
 40
0.5
  1
20.6
100
AcDbAttributeDefinition
  3

  2
H
 70
     8
280
     0
  0
ATTDEF
  5
14A
330
132
100
AcDbEntity
  8
AM_6
100
AcDbText
 10
117.8
 20
22.12
 30
0.0
 40
0.5
  1
124.5
100
AcDbAttributeDefinition
  3

  2
J
 70
     8
280
     0
  0
ATTDEF
  5
14B
330
132
100
AcDbEntity
  8
AM_6
100
AcDbText
 10
117.8
 20
21.62
 30
0.0
 40
0.5
  1
68.8
100
AcDbAttributeDefinition
  3

  2
L
 70
     8
280
     0
  0
ATTDEF
  5
14C
330
132
100
AcDbEntity
  8
AM_6
100
AcDbText
 10
117.8
 20
21.12
 30
0.0
 40
0.5
  1
62.0
100
AcDbAttributeDefinition
  3

  2
M
 70
     8
280
     0
  0
ATTDEF
  5
14D
330
132
100
AcDbEntity
  8
AM_6
100
AcDbText
 10
117.8
 20
20.62
 30
0.0
 40
0.5
  1
22.1
100
AcDbAttributeDefinition
  3

  2
R
 70
     8
280
     0
  0
ATTDEF
  5
14E
330
132
100
AcDbEntity
  8
AM_6
100
AcDbText
 10
117.8
 20
20.12
 30
0.0
 40
0.5
  1
34.3
100
AcDbAttributeDefinition
  3

  2
S
 70
     8
280
     0
  0
ATTDEF
  5
14F
330
132
100
AcDbEntity
  8
AM_6
100
AcDbText
 10
117.8
 20
19.62
 30
0.0
 40
0.5
  1
100.1
100
AcDbAttributeDefinition
  3

  2
U
 70
     8
280
     0
  0
ATTDEF
  5
150
330
132
100
AcDbEntity
  8
AM_6
100
AcDbText
 10
117.8
 20
19.12
 30
0.0
 40
0.5
  1
200.2
100
AcDbAttributeDefinition
  3

  2
V
 70
     8
280
     0
  0
ATTDEF
  5
151
330
132
100
AcDbEntity
  8
AM_6
100
AcDbText
 10
117.8
 20
18.62
 30
0.0
 40
0.5
  1
20.6
100
AcDbAttributeDefinition
  3

  2
W
 70
     8
280
     0
  0
ATTDEF
  5
152
330
132
100
AcDbEntity
  8
AM_6
100
AcDbText
 10
117.8
 20
18.12
 30
0.0
 40
0.5
  1
3.0
100
AcDbAttributeDefinition
  3

  2
X
 70
     8
280
     0
  0
ATTDEF
  5
153
330
132
100
AcDbEntity
  8
AM_6
100
AcDbText
 10
117.8
 20
17.62
 30
0.0
 40
0.5
  1
baldor
100
AcDbAttributeDefinition
  3

  2
COMPANY
 70
     8
280
     0
  0
LINE
  5
154
330
132
100
AcDbEntity
  8
AM_9
100
AcDbLine
 10
-52.75
 20
-26.14095238095239
 30
0.0
 11
-52.75
 21
-14.6
 31
0.0
  0
LINE
  5
155
330
132
100
AcDbEntity
  8
AM_9
100
AcDbLine
 10
-50.69
 20
-23.45507751239952
 30
0.0
 11
-50.69
 21
-14.6
 31
0.0
  0
LINE
  5
156
330
132
100
AcDbEntity
  8
AM_9
100
AcDbLine
 10
52.75
 20
-8.76
 30
0.0
 11
52.75
 21
26.14095238095225
 31
0.0
  0
LINE
  5
157
330
132
100
AcDbEntity
  8
AM_9
100
AcDbLine
 10
50.68999999999998
 20
14.6
 30
0.0
 11
50.68999999999998
 21
23.45507751239952
 31
0.0
  0
LINE
  5
158
330
132
100
AcDbEntity
  8
AM_9
100
AcDbLine
 10
-52.75
 20
6.617272727272731
 30
0.0
 11
-52.75
 21
26.14095238095237
 31
0.0
  0
LINE
  5
159
330
132
100
AcDbEntity
  8
AM_9
100
AcDbLine
 10
-50.69
 20
14.6
 30
0.0
 11
-50.69
 21
23.45507751239952
 31
0.0
  0
LINE
  5
15A
330
132
100
AcDbEntity
  8
AM_9
100
AcDbLine
 10
52.75
 20
-26.14095238095238
 30
0.0
 11
52.75
 21
-14.6
 31
0.0
  0
LINE
  5
15B
330
132
100
AcDbEntity
  8
AM_9
100
AcDbLine
 10
50.68999999999998
 20
-23.45507751239953
 30
0.0
 11
50.68999999999998
 21
-14.6
 31
0.0
  0
LINE
  5
15C
330
132
100
AcDbEntity
  8
AM_9
100
AcDbLine
 10
-99.13
 20
7.424661608450585
 30
0.0
 11
-99.13
 21
14.6
 31
0.0
  0
LINE
  5
15D
330
132
100
AcDbEntity
  8
AM_9
100
AcDbLine
 10
-103.25
 20
-14.6
 30
0.0
 11
-103.25
 21
14.6
 31
0.0
  0
LINE
  5
15E
330
132
100
AcDbEntity
  8
AM_9
100
AcDbLine
 10
-69.12204145030034
 20
-14.6
 30
0.0
 11
-69.12204145030034
 21
14.6
 31
0.0
  0
LINE
  5
15F
330
132
100
AcDbEntity
  8
AM_9
100
AcDbLine
 10
-99.13
 20
-14.6
 30
0.0
 11
-99.13
 21
-7.424661608450597
 31
0.0
  0
LINE
  5
160
330
132
100
AcDbEntity
  8
AM_9
100
AcDbLine
 10
99.12999999999995
 20
-14.6
 30
0.0
 11
99.12999999999995
 21
-7.424661608450618
 31
0.0
  0
LINE
  5
161
330
132
100
AcDbEntity
  8
AM_9
100
AcDbLine
 10
103.25
 20
-14.6
 30
0.0
 11
103.25
 21
14.6
 31
0.0
  0
LINE
  5
162
330
132
100
AcDbEntity
  8
AM_9
100
AcDbLine
 10
69.12204145030034
 20
-14.6
 30
0.0
 11
69.12204145030034
 21
14.6
 31
0.0
  0
LINE
  5
163
330
132
100
AcDbEntity
  8
AM_9
100
AcDbLine
 10
99.12999999999995
 20
7.424661608450617
 30
0.0
 11
99.12999999999995
 21
14.6
 31
0.0
  0
LINE
  5
164
330
132
100
AcDbEntity
  8
AM_9
100
AcDbLine
 10
-63.79036912118843
 20
-14.6
 30
0.0
 11
-63.79036912118843
 21
14.6
 31
0.0
  0
LINE
  5
165
330
132
100
AcDbEntity
  8
AM_9
100
AcDbLine
 10
63.79036912118841
 20
-14.6
 30
0.0
 11
63.79036912118841
 21
14.6
 31
0.0
  0
LINE
  5
166
330
132
100
AcDbEntity
  8
AM_9
100
AcDbLine
 10
-32.62972547057593
 20
-14.6
 30
0.0
 11
-32.62972547057593
 21
14.6
 31
0.0
  0
LINE
  5
167
330
132
100
AcDbEntity
  8
AM_9
100
AcDbLine
 10
32.62972626756339
 20
-14.6
 30
0.0
 11
32.62972626756339
 21
14.6
 31
0.0
  0
LINE
  5
168
330
132
100
AcDbEntity
  8
AM_9
100
AcDbLine
 10
40.95215050846209
 20
-14.6
 30
0.0
 11
40.95215050846209
 21
14.6
 31
0.0
  0
LINE
  5
169
330
132
100
AcDbEntity
  8
AM_9
100
AcDbLine
 10
-40.95215050846205
 20
-14.6
 30
0.0
 11
-40.95215050846205
 21
14.6
 31
0.0
  0
LINE
  5
16A
330
132
100
AcDbEntity
  8
AM_9
100
AcDbLine
 10
103.25
 20
14.6
 30
0.0
 11
-103.25
 21
14.6
 31
0.0
  0
LINE
  5
16B
330
132
100
AcDbEntity
  8
AM_9
100
AcDbLine
 10
103.25
 20
-14.6
 30
0.0
 11
-103.25
 21
-14.6
 31
0.0
  0
LINE
  5
16C
330
132
100
AcDbEntity
  8
AM_9
100
AcDbLine
 10
45.01458097105871
 20
-8.759999999999998
 30
0.0
 11
45.01458097105871
 21
19.51819056785372
 31
0.0
  0
LINE
  5
16D
330
132
100
AcDbEntity
  8
AM_9
100
AcDbLine
 10
52.75
 20
-8.76
 30
0.0
 11
41.75823272122517
 21
-8.759999999999998
 31
0.0
  0
LINE
  5
16E
330
132
100
AcDbEntity
  8
AM_9
100
AcDbLine
 10
-45.01458097105869
 20
-8.759999999999998
 30
0.0
 11
-45.01458097105869
 21
19.51819056785371
 31
0.0
  0
LINE
  5
16F
330
132
100
AcDbEntity
  8
AM_9
100
AcDbLine
 10
-41.75823272122517
 20
-8.759999999999998
 30
0.0
 11
-52.75
 21
-8.76
 31
0.0
  0
LINE
  5
170
330
132
100
AcDbEntity
  8
AM_9
100
AcDbLine
 10
-52.75
 20
6.18272727272727
 30
0.0
 11
-52.75
 21
-8.76
 31
0.0
  0
LINE
  5
171
330
132
100
AcDbEntity
  8
AM_9
100
AcDbLine
 10
40.65863991822648
 20
-2.749999999999997
 30
0.0
 11
44.19390073175794
 21
-2.749999999999997
 31
0.0
  0
LINE
  5
172
330
132
100
AcDbEntity
  8
AM_9
100
AcDbLine
 10
44.19411047106851
 20
2.750000000000003
 30
0.0
 11
40.65863991822648
 21
2.750000000000003
 31
0.0
  0
LWPOLYLINE
  5
173
330
132
100
AcDbEntity
  8
AM_9
100
AcDbPolyline
 90
       20
 70
     0
 43
0.0
 10
44.1939864429392
 20
-2.749999987232153
 10
44.4178547204998
 20
-2.731652250051273
 10
44.73579495164381
 20
-2.639495573925875
 10
45.0363815891
 20
-2.473089782677824
 10
45.31127272472944
 20
-2.236059185654605
 10
45.55353515330393
 20
-1.936104140802318
 10
45.75655989942228
 20
-1.580568183907679
 10
45.91554181967847
 20
-1.180452213077627
 10
46.02586072212306
 20
-0.7465385086318437
 10
46.08543960803955
 20
-0.2915417708601254
 10
46.09212219695362
 20
0.1714186762538902
 10
46.04652164153514
 20
0.6295439888056394
 10
45.94911323362515
 20
1.069497272426251
 10
45.80298091287347
 20
1.479334122713112
 10
45.61098921773989
 20
1.847183705237162
 10
45.37866899539696
 20
2.163007439619585
 10
45.11127072930061
 20
2.41722079140681
 10
44.81641454354988
 20
2.603273669902613
 10
44.50178787490508
 20
2.714842431438186
 10
44.19406462326168
 20
2.749999995663732
  0
LWPOLYLINE
  5
174
330
132
100
AcDbEntity
  8
AM_9
100
AcDbPolyline
 90
       11
 70
     0
 43
0.0
 10
44.19406462326168
 20
2.749999995663732
 10
44.1761867979665
 20
2.749882396939825
 10
43.84893308579992
 20
2.706374175903012
 10
43.52914744349408
 20
2.586705520087211
 10
43.22634640381548
 20
2.393237478836176
 10
42.9492789446978
 20
2.132449551117384
 10
42.70656363330471
 20
1.810541399966644
 10
42.50539652155153
 20
1.437605904602423
 10
42.35265149061487
 20
1.023396504637752
 10
42.25252145032837
 20
0.5802890166611285
 10
42.20682949006644
 20
0.0000000000000028
  0
LINE
  5
175
330
132
100
AcDbEntity
  8
AM_9
100
AcDbLine
 10
34.40000000000001
 20
-23.36000000000001
 30
0.0
 11
-34.40000000000001
 21
-23.36
 31
0.0
  0
LINE
  5
176
330
132
100
AcDbEntity
  8
AM_9
100
AcDbLine
 10
-41.75823272122517
 20
-8.759999999999998
 30
0.0
 11
-41.75823272122517
 21
19.51819056785372
 31
0.0
  0
LINE
  5
177
330
132
100
AcDbEntity
  8
AM_9
100
AcDbLine
 10
41.75823272122517
 20
19.51819056785372
 30
0.0
 11
41.75823272122517
 21
-8.759999999999998
 31
0.0
  0
LINE
  5
178
330
132
100
AcDbEntity
  8
AM_9
100
AcDbLine
 10
50.0
 20
-23.36015543501883
 30
0.0
 11
50.0
 21
-8.76
 31
0.0
  0
LINE
  5
179
330
132
100
AcDbEntity
  8
AM_9
100
AcDbLine
 10
-50.0
 20
-8.76
 30
0.0
 11
-50.0
 21
-23.36015543501882
 31
0.0
  0
LWPOLYLINE
  5
17A
330
132
100
AcDbEntity
  8
AM_9
100
AcDbPolyline
 90
       11
 70
     0
 43
0.0
 10
42.20682949006644
 20
0.0000000000000028
 10
42.23581433225009
 20
-0.4613889669138522
 10
42.32100830331442
 20
-0.9097661718013079
 10
42.46048562668549
 20
-1.332122778271083
 10
42.64908906768621
 20
-1.71695693179328
 10
42.8817277834024
 20
-2.052964518548837
 10
43.15054562270002
 20
-2.331127881414162
 10
43.44791751802894
 20
-2.542761643474311
 10
43.76449581435487
 20
-2.682685343584062
 10
44.0909012816015
 20
-2.745851172164602
 10
44.1939864429392
 20
-2.749999987232153
  0
ELLIPSE
  5
17B
330
132
100
AcDbEntity
  8
AM_9
100
AcDbEllipse
 10
40.65863991822646
 20
0.0000000000000114
 30
0.0
 11
-5.051668046482931E-16
 21
-2.750000000000054
 31
0.0
210
0.0
220
0.0
230
1.0
 40
0.7071067811865419
 41
0.0
 42
6.283185307179586
  0
LINE
  5
17C
330
132
100
AcDbEntity
  8
AM_7
100
AcDbLine
 10
98.52499999999999
 20
-20.6
 30
0.0
 11
101.675
 21
-20.6
 31
0.0
  0
LINE
  5
17D
330
132
100
AcDbEntity
  8
AM_7
100
AcDbLine
 10
100.1
 20
-22.175
 30
0.0
 11
100.1
 21
-19.02500000000001
 31
0.0
  0
LINE
  5
17E
330
132
100
AcDbEntity
  8
AM_7
100
AcDbLine
 10
-101.675
 20
-20.6
 30
0.0
 11
-98.52499999999999
 21
-20.6
 31
0.0
  0
LINE
  5
17F
330
132
100
AcDbEntity
  8
AM_7
100
AcDbLine
 10
-100.1
 20
-22.175
 30
0.0
 11
-100.1
 21
-19.02500000000001
 31
0.0
  0
LINE
  5
180
330
132
100
AcDbEntity
  8
AM_7
100
AcDbLine
 10
0.0
 20
32.12
 30
0.0
 11
0.0
 21
-37.12
 31
0.0
  0
LINE
  5
181
330
132
100
AcDbEntity
  8
AM_7
100
AcDbLine
 10
-103.6875
 20
-0.0000000000000044
 30
0.0
 11
-71.86249999999998
 21
0.0000000000000009
 31
0.0
  0
LINE
  5
182
330
132
100
AcDbEntity
  8
AM_7
100
AcDbLine
 10
-81.05000000000001
 20
-9.187500000000028
 30
0.0
 11
-81.05000000000001
 21
9.187500000000032
 31
0.0
  0
LINE
  5
183
330
132
100
AcDbEntity
  8
AM_7
100
AcDbLine
 10
-94.49999999999997
 20
-9.18750000000005
 30
0.0
 11
-94.49999999999997
 21
9.187500000000039
 31
0.0
  0
LINE
  5
184
330
132
100
AcDbEntity
  8
AM_7
100
AcDbLine
 10
71.86249999999998
 20
-0.0000000000000044
 30
0.0
 11
103.6875
 21
0.0
 31
0.0
  0
LINE
  5
185
330
132
100
AcDbEntity
  8
AM_7
100
AcDbLine
 10
94.49999999999997
 20
-9.187500000000044
 30
0.0
 11
94.49999999999997
 21
9.187500000000044
 31
0.0
  0
LINE
  5
186
330
132
100
AcDbEntity
  8
AM_7
100
AcDbLine
 10
81.05000000000001
 20
-9.187500000000036
 30
0.0
 11
81.05000000000001
 21
9.187500000000025
 31
0.0
  0
LINE
  5
187
330
132
100
AcDbEntity
  8
AM_4
100
AcDbLine
 10
-112.8
 20
-23.35999999999999
 30
0.0
 11
-106.96
 21
-29.19999999999999
 31
0.0
  0
LINE
  5
188
330
132
100
AcDbEntity
  8
AM_4
100
AcDbLine
 10
-106.96
 20
29.2
 30
0.0
 11
-112.8
 21
23.35999999999997
 31
0.0
  0
LINE
  5
189
330
132
100
AcDbEntity
  8
AM_4
100
AcDbLine
 10
-112.8
 20
-23.35999999999999
 30
0.0
 11
-112.8
 21
23.36
 31
0.0
  0
LINE
  5
18A
330
132
100
AcDbEntity
  8
AM_4
100
AcDbLine
 10
-108.68
 20
21.54000000000001
 30
0.0
 11
-108.68
 21
27.48000000000001
 31
0.0
  0
LINE
  5
18B
330
132
100
AcDbEntity
  8
AM_4
100
AcDbLine
 10
-108.68
 20
-27.48000000000002
 30
0.0
 11
-108.68
 21
-21.54000000000003
 31
0.0
  0
LINE
  5
18C
330
132
100
AcDbEntity
  8
AM_4
100
AcDbLine
 10
112.8
 20
23.36
 30
0.0
 11
106.96
 21
29.2
 31
0.0
  0
LINE
  5
18D
330
132
100
AcDbEntity
  8
AM_4
100
AcDbLine
 10
106.96
 20
-29.2
 30
0.0
 11
112.8
 21
-23.36000000000002
 31
0.0
  0
LINE
  5
18E
330
132
100
AcDbEntity
  8
AM_4
100
AcDbLine
 10
108.68
 20
-27.48000000000005
 30
0.0
 11
108.68
 21
-21.54000000000003
 31
0.0
  0
LINE
  5
18F
330
132
100
AcDbEntity
  8
AM_4
100
AcDbLine
 10
112.8
 20
-23.36000000000002
 30
0.0
 11
112.8
 21
23.35999999999999
 31
0.0
  0
LINE
  5
190
330
132
100
AcDbEntity
  8
AM_4
100
AcDbLine
 10
108.68
 20
21.54000000000001
 30
0.0
 11
108.68
 21
27.48000000000003
 31
0.0
  0
LINE
  5
191
330
132
100
AcDbEntity
  8
AM_4
100
AcDbLine
 10
-86.52112244927973
 20
23.59999999999999
 30
0.0
 11
-86.52112244927973
 21
29.2
 31
0.0
  0
LINE
  5
192
330
132
100
AcDbEntity
  8
AM_4
100
AcDbLine
 10
-86.52112244927973
 20
-29.2
 30
0.0
 11
-86.52112244927973
 21
-23.6
 31
0.0
  0
LINE
  5
193
330
132
100
AcDbEntity
  8
AM_4
100
AcDbLine
 10
86.52112244927974
 20
-29.2
 30
0.0
 11
86.52112244927974
 21
-23.6
 31
0.0
  0
LINE
  5
194
330
132
100
AcDbEntity
  8
AM_4
100
AcDbLine
 10
86.52112244927974
 20
23.59999999999999
 30
0.0
 11
86.52112244927974
 21
29.2
 31
0.0
  0
LINE
  5
195
330
132
100
AcDbEntity
  8
AM_4
100
AcDbLine
 10
81.05
 20
8.749999999999998
 30
0.0
 11
94.5
 21
8.750000000000005
 31
0.0
  0
ARC
  5
196
330
132
100
AcDbEntity
  8
AM_4
100
AcDbCircle
 10
81.04999999999998
 20
-0.0000000000000036
 30
0.0
 40
8.750000000000002
100
AcDbArc
 50
90.0
 51
270.0
  0
CIRCLE
  5
197
330
132
100
AcDbEntity
  8
AM_4
100
AcDbCircle
 10
100.1
 20
-20.6
 30
0.0
 40
1.5
  0
ARC
  5
198
330
132
100
AcDbEntity
  8
AM_4
100
AcDbCircle
 10
94.5
 20
-0.0000000000000009
 30
0.0
 40
8.75
100
AcDbArc
 50
270.0
 51
90.0
  0
LINE
  5
199
330
132
100
AcDbEntity
  8
AM_4
100
AcDbLine
 10
94.5
 20
-8.750000000000002
 30
0.0
 11
81.05
 21
-8.750000000000009
 31
0.0
  0
ARC
  5
19A
330
132
100
AcDbEntity
  8
AM_4
100
AcDbCircle
 10
102.5
 20
13.3
 30
0.0
 40
10.3
100
AcDbArc
 50
0.0
 51
90.0
  0
LINE
  5
19B
330
132
100
AcDbEntity
  8
AM_4
100
AcDbLine
 10
102.5
 20
23.59999999999999
 30
0.0
 11
81.05
 21
23.6
 31
0.0
  0
LINE
  5
19C
330
132
100
AcDbEntity
  8
AM_4
100
AcDbLine
 10
81.05
 20
-23.6
 30
0.0
 11
102.5
 21
-23.6
 31
0.0
  0
ARC
  5
19D
330
132
100
AcDbEntity
  8
AM_4
100
AcDbCircle
 10
102.5
 20
-13.30000000000002
 30
0.0
 40
10.29999999999999
100
AcDbArc
 50
270.0
 51
0.0
  0
CIRCLE
  5
19E
330
132
100
AcDbEntity
  8
AM_4
100
AcDbCircle
 10
-100.1
 20
-20.6
 30
0.0
 40
1.5
  0
ARC
  5
19F
330
132
100
AcDbEntity
  8
AM_4
100
AcDbCircle
 10
-94.5
 20
-0.0000000000000036
 30
0.0
 40
8.750000000000002
100
AcDbArc
 50
90.0
 51
270.0
  0
LINE
  5
1A0
330
132
100
AcDbEntity
  8
AM_4
100
AcDbLine
 10
-94.5
 20
8.749999999999998
 30
0.0
 11
-81.05
 21
8.750000000000005
 31
0.0
  0
ARC
  5
1A1
330
132
100
AcDbEntity
  8
AM_4
100
AcDbCircle
 10
-81.04999999999998
 20
-0.0000000000000009
 30
0.0
 40
8.75
100
AcDbArc
 50
270.0
 51
90.0
  0
LINE
  5
1A2
330
132
100
AcDbEntity
  8
AM_4
100
AcDbLine
 10
-81.05
 20
-8.750000000000002
 30
0.0
 11
-94.5
 21
-8.750000000000009
 31
0.0
  0
ARC
  5
1A3
330
132
100
AcDbEntity
  8
AM_4
100
AcDbCircle
 10
-102.5
 20
-13.3
 30
0.0
 40
10.3
100
AcDbArc
 50
180.0
 51
270.0
  0
LINE
  5
1A4
330
132
100
AcDbEntity
  8
AM_4
100
AcDbLine
 10
-102.5
 20
-23.6
 30
0.0
 11
-81.05
 21
-23.59999999999999
 31
0.0
  0
LINE
  5
1A5
330
132
100
AcDbEntity
  8
AM_4
100
AcDbLine
 10
-81.05
 20
23.59999999999999
 30
0.0
 11
-102.5000000000001
 21
23.6
 31
0.0
  0
ARC
  5
1A6
330
132
100
AcDbEntity
  8
AM_4
100
AcDbCircle
 10
-102.5
 20
13.29999999999997
 30
0.0
 40
10.30000000000002
100
AcDbArc
 50
90.0
 51
180.0
  0
LWPOLYLINE
  5
1A7
330
132
100
AcDbEntity
  8
AM_4
100
AcDbPolyline
 90
       15
 70
     0
 43
0.0
 10
-58.889335755933
 20
8.115723027662476
 10
-59.68099564227933
 20
10.01626940331157
 10
-60.63528655474553
 20
11.84058592081265
 10
-61.74494576327111
 20
13.57478842991508
 10
-63.00152809124865
 20
15.20567860238451
 10
-64.3954701884171
 20
16.72084437925001
 10
-65.91616331373172
 20
18.10875443406755
 10
-67.5520340742893
 20
19.35884593327695
 10
-69.2906325058362
 20
20.46160492574334
 10
-71.1187268245139
 20
21.40863874966998
 10
-73.02240412872375
 20
22.19273990582211
 10
-74.98717628470892
 20
22.8079409109482
 10
-76.99809019000053
 20
23.24955971393072
 10
-79.03984157555625
 20
23.51423532902225
 10
-81.05
 20
23.60000000000001
  0
LINE
  5
1A8
330
132
100
AcDbEntity
  8
AM_4
100
AcDbLine
 10
-82.63913743624865
 20
23.59999999999999
 30
0.0
 11
-82.63913743624865
 21
29.2
 31
0.0
  0
LWPOLYLINE
  5
1A9
330
132
100
AcDbEntity
  8
AM_4
100
AcDbPolyline
 90
       15
 70
     0
 43
0.0
 10
-81.05
 20
-23.59999999999999
 10
-78.99312447115527
 20
-23.51019487496519
 10
-76.95190300706044
 20
-23.24146297108811
 10
-74.9418705355805
 20
-22.795849500422
 10
-72.97832461751422
 20
-22.17674585054743
 10
-71.07620902291949
 20
-21.38886377406493
 10
-69.25
 20
-20.43819952931275
 10
-67.51359610211532
 20
-19.3319882452202
 10
-65.88021241139768
 20
-18.07864885760788
 10
-64.3622799639975
 20
-16.68772003600252
 10
-62.97135114239212
 20
-15.16978758860233
 10
-61.71801175477979
 20
-13.53640389788469
 10
-60.61180047068726
 20
-11.80000000000001
 10
-59.66113622593507
 20
-9.973790977080515
 10
-58.889335755933
 20
-8.115723027662458
  0
LINE
  5
1AA
330
132
100
AcDbEntity
  8
AM_4
100
AcDbLine
 10
-82.63913743624865
 20
-29.2
 30
0.0
 11
-82.63913743624865
 21
-23.6
 31
0.0
  0
LWPOLYLINE
  5
1AB
330
132
100
AcDbEntity
  8
AM_4
100
AcDbPolyline
 90
       15
 70
     0
 43
0.0
 10
81.05
 20
23.6
 10
78.99312447115527
 20
23.51019487496519
 10
76.95190300706044
 20
23.24146297108811
 10
74.9418705355805
 20
22.79584950042201
 10
72.97832461751422
 20
22.17674585054744
 10
71.07620902291949
 20
21.38886377406494
 10
69.25
 20
20.43819952931275
 10
67.51359610211532
 20
19.33198824522021
 10
65.88021241139768
 20
18.07864885760789
 10
64.3622799639975
 20
16.68772003600253
 10
62.97135114239212
 20
15.16978758860234
 10
61.71801175477979
 20
13.5364038978847
 10
60.61180047068726
 20
11.80000000000002
 10
59.66113622593507
 20
9.973790977080528
 10
58.889335755933
 20
8.11572302766245
  0
LINE
  5
1AC
330
132
100
AcDbEntity
  8
AM_4
100
AcDbLine
 10
82.63913743624865
 20
23.59999999999999
 30
0.0
 11
82.63913743624865
 21
29.2
 31
0.0
  0
LWPOLYLINE
  5
1AD
330
132
100
AcDbEntity
  8
AM_4
100
AcDbPolyline
 90
       15
 70
     0
 43
0.0
 10
58.889335755933
 20
-8.115723027662465
 10
59.68099564227933
 20
-10.01626940331156
 10
60.63528655474553
 20
-11.84058592081264
 10
61.74494576327111
 20
-13.57478842991507
 10
63.00152809124865
 20
-15.2056786023845
 10
64.3954701884171
 20
-16.72084437925
 10
65.91616331373172
 20
-18.10875443406754
 10
67.5520340742893
 20
-19.35884593327694
 10
69.2906325058362
 20
-20.46160492574333
 10
71.1187268245139
 20
-21.40863874966997
 10
73.02240412872375
 20
-22.1927399058221
 10
74.98717628470892
 20
-22.8079409109482
 10
76.99809019000053
 20
-23.24955971393072
 10
79.03984157555625
 20
-23.51423532902225
 10
81.05
 20
-23.6
  0
LINE
  5
1AE
330
132
100
AcDbEntity
  8
AM_4
100
AcDbLine
 10
82.63913743624865
 20
-29.2
 30
0.0
 11
82.63913743624865
 21
-23.6
 31
0.0
  0
LINE
  5
1AF
330
132
100
AcDbEntity
  8
AM_4
100
AcDbLine
 10
45.0145809710587
 20
19.51819056785371
 30
0.0
 11
45.0145809710587
 21
23.36
 31
0.0
  0
LWPOLYLINE
  5
1B0
330
132
100
AcDbEntity
  8
AM_4
100
AcDbPolyline
 90
        7
 70
     0
 43
0.0
 10
49.96904761904761
 20
23.36
 10
50.39720051759848
 20
23.39315667519345
 10
50.7905908494126
 20
23.48411914083997
 10
51.14975056277214
 20
23.62308886125856
 10
51.47257326330707
 20
23.80148518046016
 10
51.865744335176
 20
24.10717812795562
 10
52.18665854567782
 20
24.46288863865441
  0
LWPOLYLINE
  5
1B1
330
132
100
AcDbEntity
  8
AM_4
100
AcDbPolyline
 90
        3
 70
     0
 43
0.0
 10
52.75000000000001
 20
23.38248315688163
 10
52.5492703243396
 20
24.02851776012617
 10
52.18665854567787
 20
24.46288863865441
  0
LINE
  5
1B2
330
132
100
AcDbEntity
  8
AM_4
100
AcDbLine
 10
49.96904761904761
 20
23.36
 30
0.0
 11
-49.96904761904759
 21
23.36
 31
0.0
  0
LWPOLYLINE
  5
1B3
330
132
100
AcDbEntity
  8
AM_4
100
AcDbPolyline
 90
        7
 70
     0
 43
0.0
 10
-52.18665854567782
 20
24.4628886386544
 10
-51.866450708374
 20
24.10783712063401
 10
-51.47257326330705
 20
23.80148518046014
 10
-51.15282356355351
 20
23.62453217392536
 10
-50.79629250762648
 20
23.48588890912258
 10
-50.40133126829499
 20
23.39380349679665
 10
-49.96904761904759
 20
23.36
  0
LINE
  5
1B4
330
132
100
AcDbEntity
  8
AM_4
100
AcDbLine
 10
-45.0145809710587
 20
19.51819056785371
 30
0.0
 11
-45.0145809710587
 21
23.36
 31
0.0
  0
LWPOLYLINE
  5
1B5
330
132
100
AcDbEntity
  8
AM_4
100
AcDbPolyline
 90
        8
 70
     0
 43
0.0
 10
-52.75000000000001
 20
23.38248315688162
 10
-52.5492703243396
 20
22.73644855363706
 10
-51.94860897139399
 20
22.09533066380957
 10
-50.95258733674837
 20
21.46400878165827
 10
-49.56878574645668
 20
20.84728764790892
 10
-47.80773576618331
 20
20.24986088277576
 10
-45.68284004962916
 20
19.67627526467758
 10
-45.01458097105869
 20
19.51819056785371
  0
LINE
  5
1B6
330
132
100
AcDbEntity
  8
AM_4
100
AcDbLine
 10
-34.40000000000001
 20
-23.36
 30
0.0
 11
-49.99999999998001
 21
-23.36017225745477
 31
0.0
  0
LINE
  5
1B7
330
132
100
AcDbEntity
  8
AM_4
100
AcDbLine
 10
49.99999999998001
 20
-23.36017225745478
 30
0.0
 11
34.40000000000001
 21
-23.36000000000001
 31
0.0
  0
LINE
  5
1B8
330
132
100
AcDbEntity
  8
AM_4
100
AcDbLine
 10
41.75823272122517
 20
19.51819056785372
 30
0.0
 11
41.75823272122517
 21
23.36
 31
0.0
  0
LINE
  5
1B9
330
132
100
AcDbEntity
  8
AM_4
100
AcDbLine
 10
-41.75823272122517
 20
23.36
 30
0.0
 11
-41.75823272122517
 21
19.51819056785372
 31
0.0
  0
LINE
  5
1BA
330
132
100
AcDbEntity
  8
AM_4
100
AcDbLine
 10
-45.01458097105869
 20
19.51819056785371
 30
0.0
 11
-41.75823272122517
 21
19.51819056785372
 31
0.0
  0
LWPOLYLINE
  5
1BB
330
132
100
AcDbEntity
  8
AM_4
100
AcDbPolyline
 90
        3
 70
     0
 43
0.0
 10
-52.18665854567787
 20
24.46288863865439
 10
-52.65818159802458
 20
23.81964206632921
 10
-52.75000000000001
 20
23.38248315688162
  0
LWPOLYLINE
  5
1BC
330
132
100
AcDbEntity
  8
AM_4
100
AcDbPolyline
 90
        9
 70
     0
 43
0.0
 10
-52.75
 20
26.14095238095237
 10
-52.73941763659799
 20
25.8985764106446
 10
-52.70775108456728
 20
25.65804506782148
 10
-52.6552413454896
 20
25.4211889412387
 10
-52.58228805018557
 20
25.18981064903718
 10
-52.48944641728288
 20
24.96567111973062
 10
-52.3774230276672
 20
24.75047619047619
 10
-52.2470704469751
 20
24.54586362462375
 10
-52.18665854567782
 20
24.4628886386544
  0
LINE
  5
1BD
330
132
100
AcDbEntity
  8
AM_4
100
AcDbLine
 10
-52.75
 20
26.14095238095237
 30
0.0
 11
-52.75000000000001
 21
26.4190476190474
 31
0.0
  0
LWPOLYLINE
  5
1BE
330
132
100
AcDbEntity
  8
AM_4
100
AcDbPolyline
 90
       19
 70
     0
 43
0.0
 10
-52.75
 20
26.41904761904719
 10
-52.76058236340196
 20
26.66142358935496
 10
-52.79224891543264
 20
26.90195493217809
 10
-52.84475865451029
 20
27.13881105876088
 10
-52.91771194981428
 20
27.37018935096241
 10
-53.01055358271694
 20
27.59432888026899
 10
-53.12257697233259
 20
27.80952380952344
 10
-53.25292955302466
 20
28.01413637537589
 10
-53.40061926294504
 20
28.20660935265176
 10
-53.56452209422378
 20
28.38547790577562
 10
-53.74339064734759
 20
28.54938073705441
 10
-53.93586362462342
 20
28.69707044697486
 10
-54.14047619047583
 20
28.82742302766699
 10
-54.35567111973025
 20
28.9394464172827
 10
-54.57981064903679
 20
29.03228805018543
 10
-54.8111889412383
 20
29.10524134548949
 10
-55.04804506782108
 20
29.15775108456721
 10
-55.28857641064419
 20
29.18941763659796
 10
-55.53095238095197
 20
29.2
  0
LINE
  5
1BF
330
132
100
AcDbEntity
  8
AM_4
100
AcDbLine
 10
-106.96
 20
29.2
 30
0.0
 11
-55.53095238095239
 21
29.2
 31
0.0
  0
LINE
  5
1C0
330
132
100
AcDbEntity
  8
AM_4
100
AcDbLine
 10
-58.88933575593301
 20
20.44062907011384
 30
0.0
 11
-81.05
 21
29.2
 31
0.0
  0
LINE
  5
1C1
330
132
100
AcDbEntity
  8
AM_4
100
AcDbLine
 10
81.04999999999998
 20
29.2
 30
0.0
 11
58.889335755933
 21
20.44062907011383
 31
0.0
  0
LINE
  5
1C2
330
132
100
AcDbEntity
  8
AM_4
100
AcDbLine
 10
55.53095238095239
 20
29.2
 30
0.0
 11
106.96
 21
29.2
 31
0.0
  0
LWPOLYLINE
  5
1C3
330
132
100
AcDbEntity
  8
AM_4
100
AcDbPolyline
 90
       19
 70
     0
 43
0.0
 10
55.53095222590028
 20
29.2
 10
55.28857625618252
 20
29.18941762308432
 10
55.04804491512498
 20
29.15775105764277
 10
54.81118879146987
 20
29.10524130535916
 10
54.57981050333587
 20
29.03228799715463
 10
54.3556709792057
 20
28.93944635175502
 10
54.14047605619713
 20
28.82742295014114
 10
53.93586349761251
 20
28.69707035804086
 10
53.7433905285711
 20
28.5493806373891
 10
53.56452198458568
 20
28.38547779613752
 10
53.40061916327975
 20
28.20660923387528
 10
53.25292946409066
 20
28.01413624836499
 10
53.12257689480675
 20
27.80952367524474
 10
53.01055351718927
 20
27.59432873974443
 10
52.91771189678349
 20
27.37018920526149
 10
52.84475861437996
 20
27.13881090899245
 10
52.7922488885082
 20
26.90195477948198
 10
52.76058234988832
 20
26.6614234348933
 10
52.75
 20
26.41904761904761
  0
LINE
  5
1C4
330
132
100
AcDbEntity
  8
AM_4
100
AcDbLine
 10
52.75
 20
26.41904761904761
 30
0.0
 11
52.75000000000001
 21
26.14095238095211
 31
0.0
  0
LWPOLYLINE
  5
1C5
330
132
100
AcDbEntity
  8
AM_4
100
AcDbPolyline
 90
        9
 70
     0
 43
0.0
 10
52.18665854567782
 20
24.46288863865441
 10
52.32447275842483
 20
24.66255170525092
 10
52.44436076361661
 20
24.87346629367226
 10
52.54541014114328
 20
25.09402721654682
 10
52.62685184422657
 20
25.32255587207321
 10
52.68806605233019
 20
25.5573130191935
 10
52.72858688836831
 20
25.79651201426784
 10
52.74810596431152
 20
26.03833240851144
 10
52.75
 20
26.14095238095183
  0
LWPOLYLINE
  5
1C6
330
132
100
AcDbEntity
  8
AM_4
100
AcDbPolyline
 90
        8
 70
     0
 43
0.0
 10
45.01458097105871
 20
19.51819056785372
 10
47.24006982575087
 20
20.08419350919799
 10
49.10603322473501
 20
20.67529842632287
 10
50.59827005984537
 20
21.28700665389013
 10
51.70542350772953
 20
21.91466272292847
 10
52.41906746213155
 20
22.5534897917634
 10
52.73377066164843
 20
23.19862600066676
 10
52.75000000000001
 20
23.38248315688163
  0
LINE
  5
1C7
330
132
100
AcDbEntity
  8
AM_4
100
AcDbLine
 10
41.75823272122517
 20
19.51819056785372
 30
0.0
 11
45.01458097105871
 21
19.51819056785372
 31
0.0
  0
LWPOLYLINE
  5
1C8
330
132
100
AcDbEntity
  8
AM_4
100
AcDbPolyline
 90
       24
 70
     0
 43
0.0
 10
-41.75823272122518
 20
19.51819056785372
 10
-39.20254711300517
 20
19.02147805391632
 10
-36.34850645011005
 20
18.55795542205936
 10
-33.21783170530132
 20
18.1311503593939
 10
-29.83434920374009
 20
17.74431111015875
 10
-26.2238092902658
 20
17.40038175462053
 10
-22.41369035372361
 20
17.1019798028451
 10
-18.43298969983334
 20
16.85137627386549
 10
-14.31200286418383
 20
16.6504784118558
 10
-10.08209304491428
 20
16.50081517085136
 10
-5.775452409838713
 20
16.40352557848534
 10
-1.42485709461076
 20
16.35935006730072
 10
2.936582243459419
 20
16.36862483961152
 10
7.275672417500032
 20
16.43127930880018
 10
11.55939033127235
 20
16.54683663652439
 10
15.75513430487297
 20
16.71441736174473
 10
19.83097219320332
 20
16.93274609395427
 10
23.75588440887499
 20
17.20016121967041
 10
27.49999999999993
 20
17.51462754831677
 10
31.03482398617088
 20
17.8737518012524
 10
34.33345422246799
 20
18.27480082606731
 10
37.37078614102565
 20
18.71472239752262
 10
40.12370381195248
 20
19.19016844682767
 10
41.75823272122517
 20
19.51819056785371
  0
LINE
  5
1C9
330
132
100
AcDbEntity
  8
AM_4
100
AcDbLine
 10
52.75
 20
-26.14095238095238
 30
0.0
 11
52.75000000000001
 21
-26.41904761904763
 31
0.0
  0
LWPOLYLINE
  5
1CA
330
132
100
AcDbEntity
  8
AM_4
100
AcDbPolyline
 90
       19
 70
     0
 43
0.0
 10
52.75
 20
-26.41904761904763
 10
52.760582363402
 20
-26.6614235893554
 10
52.79224891543272
 20
-26.90195493217852
 10
52.8447586545104
 20
-27.13881105876131
 10
52.91771194981443
 20
-27.37018935096282
 10
53.01055358271713
 20
-27.59432888026939
 10
53.1225769723328
 20
-27.80952380952382
 10
53.25292955302491
 20
-28.01413637537626
 10
53.40061926294533
 20
-28.2066093526521
 10
53.56452209422408
 20
-28.38547790577594
 10
53.74339064734792
 20
-28.54938073705469
 10
53.93586362462377
 20
-28.69707044697511
 10
54.14047619047621
 20
-28.82742302766721
 10
54.35567111973064
 20
-28.93944641728289
 10
54.57981064903721
 20
-29.03228805018558
 10
54.81118894123873
 20
-29.10524134548961
 10
55.0480450678215
 20
-29.15775108456729
 10
55.28857641064462
 20
-29.18941763659801
 10
55.5309523809524
 20
-29.20000000000001
  0
LINE
  5
1CB
330
132
100
AcDbEntity
  8
AM_4
100
AcDbLine
 10
55.53095238095239
 20
-29.20000000000001
 30
0.0
 11
106.96
 21
-29.2
 31
0.0
  0
LINE
  5
1CC
330
132
100
AcDbEntity
  8
AM_4
100
AcDbLine
 10
58.889335755933
 20
-20.44062907011382
 30
0.0
 11
81.05000000000001
 21
-29.2
 31
0.0
  0
LINE
  5
1CD
330
132
100
AcDbEntity
  8
AM_4
100
AcDbLine
 10
-81.05
 20
-29.2
 30
0.0
 11
-58.889335755933
 21
-20.44062907011382
 31
0.0
  0
LINE
  5
1CE
330
132
100
AcDbEntity
  8
AM_4
100
AcDbLine
 10
-106.96
 20
-29.19999999999999
 30
0.0
 11
-55.53095238095239
 21
-29.2
 31
0.0
  0
LWPOLYLINE
  5
1CF
330
132
100
AcDbEntity
  8
AM_4
100
AcDbPolyline
 90
       19
 70
     0
 43
0.0
 10
-55.53095238095238
 20
-29.2
 10
-55.2885764106446
 20
-29.18941763659799
 10
-55.04804506782148
 20
-29.15775108456728
 10
-54.8111889412387
 20
-29.1052413454896
 10
-54.57981064903719
 20
-29.03228805018557
 10
-54.35567111973062
 20
-28.93944641728287
 10
-54.14047619047619
 20
-28.8274230276672
 10
-53.93586362462375
 20
-28.6970704469751
 10
-53.74339064734791
 20
-28.54938073705468
 10
-53.56452209422407
 20
-28.38547790577592
 10
-53.40061926294531
 20
-28.20660935265209
 10
-53.25292955302489
 20
-28.01413637537624
 10
-53.12257697233279
 20
-27.80952380952381
 10
-53.01055358271712
 20
-27.59432888026937
 10
-52.91771194981442
 20
-27.37018935096281
 10
-52.84475865451039
 20
-27.13881105876129
 10
-52.79224891543271
 20
-26.90195493217851
 10
-52.76058236340199
 20
-26.66142358935539
 10
-52.74999999999999
 20
-26.41904761904762
  0
LINE
  5
1D0
330
132
100
AcDbEntity
  8
AM_4
100
AcDbLine
 10
-52.74999999999999
 20
-26.41904761904761
 30
0.0
 11
-52.75000000000001
 21
-26.14095238095239
 31
0.0
  0
LWPOLYLINE
  5
1D1
330
132
100
AcDbEntity
  8
AM_4
100
AcDbPolyline
 90
       19
 70
     0
 43
0.0
 10
-49.99974784391562
 20
-23.36016946218331
 10
-50.24199222099666
 20
-23.37342688163144
 10
-50.48215932484842
 20
-23.40774684120698
 10
-50.71842133879372
 20
-23.46286814529461
 10
-50.94898016624752
 20
-23.53837128748707
 10
-51.17208111531767
 20
-23.63368164328223
 10
-51.38602625306973
 20
-23.74807384332253
 10
-51.58918732782179
 20
-23.88067729389375
 10
-51.78001816112297
 20
-24.03048280266891
 10
-51.95706641510506
 20
-24.19635025927117
 10
-52.11898464565058
 20
-24.37701731220229
 10
-52.26454055725617
 20
-24.57110897609971
 10
-52.39262638154547
 20
-24.77714809620543
 10
-52.50226730805529
 20
-24.99356659040561
 10
-52.59262890313189
 20
-25.21871738328234
 10
-52.66302346047492
 20
-25.45088694135205
 10
-52.7129152349976
 20
-25.68830831409003
 10
-52.74192452017034
 20
-25.92917458149078
 10
-52.75
 20
-26.14095238095239
  0
LWPOLYLINE
  5
1D2
330
132
100
AcDbEntity
  8
AM_4
100
AcDbPolyline
 90
       37
 70
     0
 43
0.0
 10
49.9997478439156
 20
-23.36016946218333
 10
49.7956438961587
 20
-22.74790238654405
 10
49.21256503092018
 20
-22.14046485373738
 10
48.25494883043715
 20
-21.5424798301688
 10
46.93008333221975
 20
-20.95849834294089
 10
45.24805156268506
 20
-20.39296484378911
 10
43.22165479923782
 20
-19.85018338412048
 10
40.86631514481968
 20
-19.33428485858348
 10
38.19995815639371
 20
-18.84919556646549
 10
35.2428764206322
 20
-18.39860733018445
 10
32.01757511507908
 20
-17.98594939829109
 10
28.54860073015979
 20
-17.61436234681677
 10
24.86235425556755
 20
-17.28667417759361
 10
20.98689025279048
 20
-17.00537879545293
 10
16.95170334295888
 20
-16.77261702810362
 10
12.78750373496903
 20
-16.5901603331406
 10
8.5259835022502
 20
-16.45939731618291
 10
4.199575386949652
 20
-16.38132316274645
 10
-0.1587940328185304
 20
-16.35653206428134
 10
-4.515954934114506
 20
-16.38521269601619
 10
-8.838746691553727
 20
-16.46714678102565
 10
-13.09427024968905
 20
-16.60171075144963
 10
-17.2501385046877
 20
-16.78788049422128
 10
-21.27472278974725
 20
-17.02423914518573
 10
-25.137393588348
 20
-17.30898787229188
 10
-28.80875364336818
 20
-17.63995956579049
 10
-32.26086168796127
 20
-18.01463533124784
 10
-35.46744509546809
 20
-18.4301636598534
 10
-38.40409982996952
 20
-18.88338213012362
 10
-41.04847617573541
 20
-19.37084147583894
 10
-43.38044883205636
 20
-19.88883183704247
 10
-45.38227007893419
 20
-20.43341099431432
 10
-47.03870484794746
 20
-21.00043437144176
 10
-48.33714667032129
 20
-21.58558657814678
 10
-49.26771361976682
 20
-22.18441425281179
 10
-49.8233235199071
 20
-22.79235995525056
 10
-49.9997478439156
 20
-23.36016946218331
  0
LWPOLYLINE
  5
1D3
330
132
100
AcDbEntity
  8
AM_4
100
AcDbPolyline
 90
       19
 70
     0
 43
0.0
 10
52.75
 20
-26.14095238095238
 10
52.73941763659799
 20
-25.8985764106446
 10
52.70775108456728
 20
-25.65804506782149
 10
52.6552413454896
 20
-25.4211889412387
 10
52.58228805018557
 20
-25.18981064903719
 10
52.48944641728288
 20
-24.96567111973063
 10
52.3774230276672
 20
-24.75047619047619
 10
52.2470704469751
 20
-24.54586362462376
 10
52.09938073705468
 20
-24.35339064734791
 10
51.93547790577593
 20
-24.17452209422408
 10
51.7566093526521
 20
-24.01061926294532
 10
51.56413637537625
 20
-23.8629295530249
 10
51.35952380952381
 20
-23.7325769723328
 10
51.14432888026938
 20
-23.62055358271713
 10
50.92018935096282
 20
-23.52771194981443
 10
50.68881105876131
 20
-23.45475865451041
 10
50.45195493217852
 20
-23.40224891543272
 10
50.21142358935541
 20
-23.37058236340201
 10
49.99974784391555
 20
-23.36016946218333
  0
LINE
  5
1D4
330
132
100
AcDbEntity
  8
AM_4
100
AcDbLine
 10
-58.889335755933
 20
-20.44062907011382
 30
0.0
 11
-58.88933575593301
 21
-8.115723027662472
 31
0.0
  0
LWPOLYLINE
  5
1D5
330
132
100
AcDbEntity
  8
AM_4
100
AcDbPolyline
 90
       30
 70
     0
 43
0.0
 10
-58.88933575593304
 20
-20.44062907011382
 10
-56.84059297455452
 20
-19.73060004179644
 10
-54.35925895935122
 20
-19.04836404905216
 10
-51.46421816044928
 20
-18.39911331973114
 10
-48.17750358640178
 20
-17.7877890439118
 10
-44.52412911968974
 20
-17.21904376846084
 10
-40.53189914597264
 20
-16.69720598834221
 10
-36.23119694592487
 20
-16.22624720415689
 10
-31.65475346012375
 20
-15.80975169662522
 10
-26.83739818682837
 20
-15.45088924804637
 10
-21.81579410846713
 20
-15.1523910183411
 10
-16.62815866420383
 20
-14.91652875927562
 10
-11.31397289214922
 20
-14.74509752505896
 10
-5.913680954821742
 20
-14.63940201089651
 10
-0.4683823346498786
 20
-14.60024662347173
 10
4.980480957905655
 20
-14.62792935892561
 10
10.3914397830749
 20
-14.72223953492605
 10
15.72331347697206
 20
-14.88245939408764
 10
20.9355232613132
 20
-15.10736956653876
 10
25.98840107242119
 20
-15.3952583500626
 10
30.84349145914244
 20
-15.74393473718452
 10
35.46384425205028
 20
-16.15074509006198
 10
39.81429577654539
 20
-16.61259333627077
 10
43.8617364696519
 20
-17.12596453178565
 10
47.57536286378379
 20
-17.68695161182674
 10
50.92691201973276
 20
-18.29128512598167
 10
53.89087662470133
 20
-18.93436573130117
 10
56.44469911835494
 20
-19.61129919607608
 10
58.56894336947671
 20
-20.31693364789585
 10
58.88933575593303
 20
-20.44062907011381
  0
LINE
  5
1D6
330
132
100
AcDbEntity
  8
AM_4
100
AcDbLine
 10
58.889335755933
 20
-20.44062907011382
 30
0.0
 11
58.88933575593301
 21
-8.115723027662487
 31
0.0
  0
LWPOLYLINE
  5
1D7
330
132
100
AcDbEntity
  8
AM_4
100
AcDbPolyline
 90
       21
 70
     0
 43
0.0
 10
58.88933575593301
 20
8.115723027662483
 10
58.64024331804969
 20
7.400182012768498
 10
58.40184898049148
 20
6.634851573135262
 10
58.17367785032122
 20
5.799363474116843
 10
57.96710523265413
 20
4.913244260124606
 10
57.820828314755
 20
4.167053568369401
 10
57.6951746741053
 20
3.392953580134563
 10
57.59063446524645
 20
2.572143553899918
 10
57.51356006761053
 20
1.730894366800913
 10
57.46710972794391
 20
0.8970517003636265
 10
57.45006639882489
 20
0.0559823197677432
 10
57.4641209118879
 20
-0.8144521213078277
 10
57.50971990175564
 20
-1.677859617548746
 10
57.57625313373628
 20
-2.437556952767235
 10
57.66541568534479
 20
-3.181385929242476
 10
57.77838000242161
 20
-3.923084797109517
 10
57.91075156601274
 20
-4.640601459963856
 10
58.11963390468862
 20
-5.581804864992268
 10
58.35372506605272
 20
-6.468315400680229
 10
58.61470844107038
 20
-7.322394899292429
 10
58.889335755933
 20
-8.115723027662561
  0
LINE
  5
1D8
330
132
100
AcDbEntity
  8
AM_4
100
AcDbLine
 10
58.889335755933
 20
8.115723027662465
 30
0.0
 11
58.889335755933
 21
20.44062907011383
 31
0.0
  0
LWPOLYLINE
  5
1D9
330
132
100
AcDbEntity
  8
AM_4
100
AcDbPolyline
 90
       30
 70
     0
 43
0.0
 10
58.88933575593301
 20
20.44062907011383
 10
56.84059297455449
 20
19.73060004179644
 10
54.35925895935119
 20
19.04836404905217
 10
51.46421816044926
 20
18.39911331973115
 10
48.17750358640176
 20
17.78778904391181
 10
44.5241291196897
 20
17.21904376846085
 10
40.53189914597262
 20
16.69720598834223
 10
36.23119694592484
 20
16.22624720415691
 10
31.65475346012373
 20
15.80975169662523
 10
26.83739818682833
 20
15.45088924804638
 10
21.8157941084671
 20
15.15239101834111
 10
16.62815866420379
 20
14.91652875927564
 10
11.31397289214918
 20
14.74509752505897
 10
5.9136809548217
 20
14.63940201089652
 10
0.4683823346498362
 20
14.60024662347175
 10
-4.980480957905698
 20
14.62792935892563
 10
-10.39143978307494
 20
14.72223953492607
 10
-15.7233134769721
 20
14.88245939408766
 10
-20.93552326131324
 20
15.10736956653878
 10
-25.98840107242123
 20
15.39525835006262
 10
-30.84349145914248
 20
15.74393473718454
 10
-35.46384425205032
 20
16.150745090062
 10
-39.81429577654542
 20
16.61259333627079
 10
-43.86173646965193
 20
17.12596453178567
 10
-47.57536286378383
 20
17.68695161182676
 10
-50.9269120197328
 20
18.29128512598169
 10
-53.89087662470136
 20
18.9343657313012
 10
-56.44469911835498
 20
19.6112991960761
 10
-58.56894336947674
 20
20.31693364789587
 10
-58.88933575593303
 20
20.44062907011383
  0
LINE
  5
1DA
330
132
100
AcDbEntity
  8
AM_4
100
AcDbLine
 10
-58.88933575593301
 20
8.115723027662487
 30
0.0
 11
-58.88933575593301
 21
20.44062907011384
 31
0.0
  0
LWPOLYLINE
  5
1DB
330
132
100
AcDbEntity
  8
AM_4
100
AcDbPolyline
 90
       21
 70
     0
 43
0.0
 10
-58.88933575593301
 20
-8.115723027662472
 10
-58.64024331804969
 20
-7.400182012768489
 10
-58.40184898049148
 20
-6.63485157313525
 10
-58.17367785032122
 20
-5.799363474116822
 10
-57.96710523265413
 20
-4.913244260124574
 10
-57.820828314755
 20
-4.167053568369377
 10
-57.6951746741053
 20
-3.392953580134546
 10
-57.59063446524645
 20
-2.572143553899912
 10
-57.51356006761053
 20
-1.730894366800919
 10
-57.46710972794391
 20
-0.8970517003636355
 10
-57.45006639882489
 20
-0.0559823197677553
 10
-57.4641209118879
 20
0.8144521213078134
 10
-57.50971990175564
 20
1.677859617548729
 10
-57.57625313373628
 20
2.437556952767215
 10
-57.66541568534479
 20
3.181385929242452
 10
-57.77838000242161
 20
3.923084797109496
 10
-57.91075156601274
 20
4.640601459963835
 10
-58.11963390468862
 20
5.581804864992264
 10
-58.35372506605272
 20
6.46831540068024
 10
-58.61470844107038
 20
7.322394899292446
 10
-58.88933575593301
 20
8.115723027662584
  0
ENDBLK
  5
135
330
132
100
AcDbEntity
  8
0
100
AcDbBlockEnd
  0
ENDSEC
  0
SECTION
  2
ENTITIES
  0
INSERT
  5
6F
330
1F
100
AcDbEntity
  8
0
100
AcDbBlockReference
  2
1_124943_4
 10
0.0
 20
0.0
 30
0.0
  0
POINT
  5
1DD
330
1F
100
AcDbEntity
  8
ConnectionPoints
100
AcDbPoint
 10
0.0
 20
-34.3
 30
0.0000000000000021
  0
POINT
  5
1DE
330
1F
100
AcDbEntity
  8
ConnectionPoints
100
AcDbPoint
 10
44.19417382415922
 20
0.0000000000000027
 30
44.19417382415921
  0
POINT
  5
1DF
330
1F
100
AcDbEntity
  8
ConnectionPoints
100
AcDbPoint
 10
0.0
 20
-34.3
 30
0.0000000000000021
  0
ENDSEC
  0
SECTION
  2
OBJECTS
  0
DICTIONARY
  5
C
330
0
100
AcDbDictionary
281
     1
  3
ACAD_DETAILVIEWSTYLE
350
1E7
  3
ACAD_GROUP
350
D
  3
ACAD_LAYOUT
350
1A
  3
ACAD_MATERIAL
350
43
  3
ACAD_MLEADERSTYLE
350
6B
  3
ACAD_MLINESTYLE
350
17
  3
ACAD_PLOTSETTINGS
350
19
  3
ACAD_PLOTSTYLENAME
350
E
  3
ACAD_SCALELIST
350
47
  3
ACAD_SECTIONVIEWSTYLE
350
1E8
  3
ACAD_TABLESTYLE
350
69
  3
ACAD_VISUALSTYLE
350
2A
  3
ACDB_RECOMPOSE_DATA
350
1E4
  3
AcDbVariableDictionary
350
1E0
  0
SUN
  5
6D
330
29
100
AcDbSun
 90
        1
290
     0
 63
     7
421
 16777215
 40
1.0
291
     1
 91
  2455826
 92
 54000000
292
     0
 70
     2
 71
   256
280
     1
  0
DICTIONARY
  5
1E7
102
{ACAD_REACTORS
330
C
102
}
330
C
100
AcDbDictionary
281
     1
  0
DICTIONARY
  5
D
102
{ACAD_REACTORS
330
C
102
}
330
C
100
AcDbDictionary
281
     1
  0
DICTIONARY
  5
1A
102
{ACAD_REACTORS
330
C
102
}
330
C
100
AcDbDictionary
281
     1
  3
Layout1
350
1E
  3
Layout2
350
26
  3
Model
350
22
  0
DICTIONARY
  5
43
102
{ACAD_REACTORS
330
C
102
}
330
C
100
AcDbDictionary
281
     1
  3
ByBlock
350
45
  3
ByLayer
350
44
  3
Global
350
46
  0
DICTIONARY
  5
6B
102
{ACAD_REACTORS
330
C
102
}
330
C
100
AcDbDictionary
281
     1
  3
Standard
350
6C
  0
DICTIONARY
  5
17
102
{ACAD_REACTORS
330
C
102
}
330
C
100
AcDbDictionary
281
     1
  3
Standard
350
18
  0
DICTIONARY
  5
19
102
{ACAD_REACTORS
330
C
102
}
330
C
100
AcDbDictionary
281
     1
  0
ACDBDICTIONARYWDFLT
  5
E
102
{ACAD_REACTORS
330
C
102
}
330
C
100
AcDbDictionary
281
     1
  3
Normal
350
F
100
AcDbDictionaryWithDefault
340
F
  0
DICTIONARY
  5
47
102
{ACAD_REACTORS
330
C
102
}
330
C
100
AcDbDictionary
281
     1
  3
A0
350
48
  3
A1
350
49
  3
A2
350
4A
  3
A3
350
4B
  3
A4
350
4C
  3
A5
350
4D
  3
A6
350
4E
  3
A7
350
4F
  3
A8
350
50
  3
A9
350
51
  3
B0
350
52
  3
B1
350
53
  3
B2
350
54
  3
B3
350
55
  3
B4
350
56
  3
B5
350
57
  3
B6
350
58
  3
B7
350
59
  3
B8
350
5A
  3
B9
350
5B
  3
C0
350
5C
  3
C1
350
5D
  3
C2
350
5E
  3
C3
350
5F
  3
C4
350
60
  3
C5
350
61
  3
C6
350
62
  3
C7
350
63
  3
C8
350
64
  3
C9
350
65
  3
D0
350
66
  3
D1
350
67
  3
D2
350
68
  0
DICTIONARY
  5
1E8
102
{ACAD_REACTORS
330
C
102
}
330
C
100
AcDbDictionary
281
     1
  0
DICTIONARY
  5
69
102
{ACAD_REACTORS
330
C
102
}
330
C
100
AcDbDictionary
281
     1
  3
Standard
350
6A
  0
DICTIONARY
  5
2A
102
{ACAD_REACTORS
330
C
102
}
330
C
100
AcDbDictionary
281
     1
  3
2dWireframe
350
2F
  3
Basic
350
32
  3
Brighten
350
36
  3
ColorChange
350
3A
  3
Conceptual
350
34
  3
Dim
350
35
  3
EdgeColorOff
350
3D
  3
Facepattern
350
39
  3
Flat
350
2B
  3
FlatWithEdges
350
2C
  3
Gouraud
350
2D
  3
GouraudWithEdges
350
2E
  3
Hidden
350
31
  3
JitterOff
350
3B
  3
Linepattern
350
38
  3
OverhangOff
350
3C
  3
Realistic
350
33
  3
Shaded
350
42
  3
Shaded with edges
350
41
  3
Shades of Gray
350
3E
  3
Sketchy
350
3F
  3
Thicken
350
37
  3
Wireframe
350
30
  3
X-Ray
350
40
  0
XRECORD
  5
1E4
102
{ACAD_REACTORS
330
C
102
}
330
C
100
AcDbXrecord
280
     1
 90
        1
330
6A
  0
DICTIONARY
  5
1E0
102
{ACAD_REACTORS
330
C
102
}
330
C
100
AcDbDictionary
281
     1
  3
CANNOSCALE
350
1E1
  3
CMLEADERSTYLE
350
1E6
  3
CTABLESTYLE
350
1E5
  0
LAYOUT
  5
1E
102
{ACAD_REACTORS
330
1A
102
}
330
1A
100
AcDbPlotSettings
  1

  2
none_device
  4

  6

 40
0.0
 41
0.0
 42
0.0
 43
0.0
 44
0.0
 45
0.0
 46
0.0
 47
0.0
 48
0.0
 49
0.0
140
0.0
141
0.0
142
1.0
143
1.0
 70
   688
 72
     1
 73
     0
 74
     5
  7

 75
    16
 76
     0
 77
     2
 78
   300
147
1.0
148
0.0
149
0.0
100
AcDbLayout
  1
Layout1
 70
     1
 71
     1
 10
0.0
 20
0.0
 11
420.0
 21
297.0
 12
0.0
 22
0.0
 32
0.0
 14
1.000000000000000E+20
 24
1.000000000000000E+20
 34
1.000000000000000E+20
 15
-1.000000000000000E+20
 25
-1.000000000000000E+20
 35
-1.000000000000000E+20
146
0.0
 13
0.0
 23
0.0
 33
0.0
 16
1.0
 26
0.0
 36
0.0
 17
0.0
 27
1.0
 37
0.0
 76
     0
330
1B
  0
LAYOUT
  5
26
102
{ACAD_REACTORS
330
1A
102
}
330
1A
100
AcDbPlotSettings
  1

  2
none_device
  4

  6

 40
0.0
 41
0.0
 42
0.0
 43
0.0
 44
0.0
 45
0.0
 46
0.0
 47
0.0
 48
0.0
 49
0.0
140
0.0
141
0.0
142
1.0
143
1.0
 70
   688
 72
     1
 73
     0
 74
     5
  7

 75
    16
 76
     0
 77
     2
 78
   300
147
1.0
148
0.0
149
0.0
100
AcDbLayout
  1
Layout2
 70
     1
 71
     2
 10
0.0
 20
0.0
 11
0.0
 21
0.0
 12
0.0
 22
0.0
 32
0.0
 14
0.0
 24
0.0
 34
0.0
 15
0.0
 25
0.0
 35
0.0
146
0.0
 13
0.0
 23
0.0
 33
0.0
 16
1.0
 26
0.0
 36
0.0
 17
0.0
 27
1.0
 37
0.0
 76
     0
330
23
  0
LAYOUT
  5
22
102
{ACAD_REACTORS
330
1A
102
}
330
1A
100
AcDbPlotSettings
  1

  2
none_device
  4
Letter_(8.50_x_11.00_Inches)
  6

 40
6.35
 41
6.35
 42
6.35000508
 43
6.35000508
 44
215.9
 45
279.4
 46
0.0
 47
0.0
 48
0.0
 49
0.0
140
0.0
141
0.0
142
1.0
143
1.0
 70
  1712
 72
     1
 73
     0
 74
     0
  7

 75
     0
 76
     0
 77
     2
 78
   300
147
1.0
148
0.0
149
0.0
100
AcDbLayout
  1
Model
 70
     1
 71
     0
 10
0.0
 20
0.0
 11
420.0
 21
297.0
 12
0.0
 22
0.0
 32
0.0
 14
1.000000000000000E+20
 24
1.000000000000000E+20
 34
1.000000000000000E+20
 15
-1.000000000000000E+20
 25
-1.000000000000000E+20
 35
-1.000000000000000E+20
146
0.0
 13
0.0
 23
0.0
 33
0.0
 16
1.0
 26
0.0
 36
0.0
 17
0.0
 27
1.0
 37
0.0
 76
     0
330
1F
331
29
  0
MATERIAL
  5
45
102
{ACAD_REACTORS
330
43
102
}
330
43
100
AcDbMaterial
  1
ByBlock
 72
     1
 94
      127
  0
MATERIAL
  5
44
102
{ACAD_REACTORS
330
43
102
}
330
43
100
AcDbMaterial
  1
ByLayer
 72
     1
 94
      127
  0
MATERIAL
  5
46
102
{ACAD_REACTORS
330
43
102
}
330
43
100
AcDbMaterial
  1
Global
 72
     1
 94
      127
  0
MLEADERSTYLE
  5
6C
102
{ACAD_REACTORS
330
6B
102
}
330
6B
100
AcDbMLeaderStyle
179
     2
170
     2
171
     1
172
     0
 90
        2
 40
0.0
 41
0.0
173
     1
 91
-1056964608
340
14
 92
       -2
290
     1
 42
2.0
291
     1
 43
8.0
  3
Standard
341
0
 44
4.0
300

342
11
174
     1
178
     6
175
     1
176
     0
 93
-1056964608
 45
4.0
292
     0
297
     0
 46
4.0
343
0
 94
-1056964608
 47
1.0
 49
1.0
140
1.0
293
     1
141
0.0
294
     1
177
     0
142
1.0
295
     0
296
     0
143
3.75
271
     0
272
     9
273
     9
298
     0
  0
MLINESTYLE
  5
18
102
{ACAD_REACTORS
330
17
102
}
330
17
100
AcDbMlineStyle
  2
Standard
 70
     0
  3

 62
   256
 51
90.0
 52
90.0
 71
     2
 49
0.5
 62
   256
  6
BYLAYER
 49
-0.5
 62
   256
  6
BYLAYER
  0
ACDBPLACEHOLDER
  5
F
102
{ACAD_REACTORS
330
E
102
}
330
E
  0
SCALE
  5
48
102
{ACAD_REACTORS
330
47
102
}
330
47
100
AcDbScale
 70
     0
300
1:1
140
1.0
141
1.0
290
     1
  0
SCALE
  5
49
102
{ACAD_REACTORS
330
47
102
}
330
47
100
AcDbScale
 70
     0
300
1:2
140
1.0
141
2.0
290
     0
  0
SCALE
  5
4A
102
{ACAD_REACTORS
330
47
102
}
330
47
100
AcDbScale
 70
     0
300
1:4
140
1.0
141
4.0
290
     0
  0
SCALE
  5
4B
102
{ACAD_REACTORS
330
47
102
}
330
47
100
AcDbScale
 70
     0
300
1:5
140
1.0
141
5.0
290
     0
  0
SCALE
  5
4C
102
{ACAD_REACTORS
330
47
102
}
330
47
100
AcDbScale
 70
     0
300
1:8
140
1.0
141
8.0
290
     0
  0
SCALE
  5
4D
102
{ACAD_REACTORS
330
47
102
}
330
47
100
AcDbScale
 70
     0
300
1:10
140
1.0
141
10.0
290
     0
  0
SCALE
  5
4E
102
{ACAD_REACTORS
330
47
102
}
330
47
100
AcDbScale
 70
     0
300
1:16
140
1.0
141
16.0
290
     0
  0
SCALE
  5
4F
102
{ACAD_REACTORS
330
47
102
}
330
47
100
AcDbScale
 70
     0
300
1:20
140
1.0
141
20.0
290
     0
  0
SCALE
  5
50
102
{ACAD_REACTORS
330
47
102
}
330
47
100
AcDbScale
 70
     0
300
1:30
140
1.0
141
30.0
290
     0
  0
SCALE
  5
51
102
{ACAD_REACTORS
330
47
102
}
330
47
100
AcDbScale
 70
     0
300
1:40
140
1.0
141
40.0
290
     0
  0
SCALE
  5
52
102
{ACAD_REACTORS
330
47
102
}
330
47
100
AcDbScale
 70
     0
300
1:50
140
1.0
141
50.0
290
     0
  0
SCALE
  5
53
102
{ACAD_REACTORS
330
47
102
}
330
47
100
AcDbScale
 70
     0
300
1:100
140
1.0
141
100.0
290
     0
  0
SCALE
  5
54
102
{ACAD_REACTORS
330
47
102
}
330
47
100
AcDbScale
 70
     0
300
2:1
140
2.0
141
1.0
290
     0
  0
SCALE
  5
55
102
{ACAD_REACTORS
330
47
102
}
330
47
100
AcDbScale
 70
     0
300
4:1
140
4.0
141
1.0
290
     0
  0
SCALE
  5
56
102
{ACAD_REACTORS
330
47
102
}
330
47
100
AcDbScale
 70
     0
300
8:1
140
8.0
141
1.0
290
     0
  0
SCALE
  5
57
102
{ACAD_REACTORS
330
47
102
}
330
47
100
AcDbScale
 70
     0
300
10:1
140
10.0
141
1.0
290
     0
  0
SCALE
  5
58
102
{ACAD_REACTORS
330
47
102
}
330
47
100
AcDbScale
 70
     0
300
100:1
140
100.0
141
1.0
290
     0
  0
SCALE
  5
59
102
{ACAD_REACTORS
330
47
102
}
330
47
100
AcDbScale
 70
     0
300
1/128" = 1'-0"
140
0.0078125
141
12.0
290
     0
  0
SCALE
  5
5A
102
{ACAD_REACTORS
330
47
102
}
330
47
100
AcDbScale
 70
     0
300
1/64" = 1'-0"
140
0.015625
141
12.0
290
     0
  0
SCALE
  5
5B
102
{ACAD_REACTORS
330
47
102
}
330
47
100
AcDbScale
 70
     0
300
1/32" = 1'-0"
140
0.03125
141
12.0
290
     0
  0
SCALE
  5
5C
102
{ACAD_REACTORS
330
47
102
}
330
47
100
AcDbScale
 70
     0
300
1/16" = 1'-0"
140
0.0625
141
12.0
290
     0
  0
SCALE
  5
5D
102
{ACAD_REACTORS
330
47
102
}
330
47
100
AcDbScale
 70
     0
300
3/32" = 1'-0"
140
0.09375
141
12.0
290
     0
  0
SCALE
  5
5E
102
{ACAD_REACTORS
330
47
102
}
330
47
100
AcDbScale
 70
     0
300
1/8" = 1'-0"
140
0.125
141
12.0
290
     0
  0
SCALE
  5
5F
102
{ACAD_REACTORS
330
47
102
}
330
47
100
AcDbScale
 70
     0
300
3/16" = 1'-0"
140
0.1875
141
12.0
290
     0
  0
SCALE
  5
60
102
{ACAD_REACTORS
330
47
102
}
330
47
100
AcDbScale
 70
     0
300
1/4" = 1'-0"
140
0.25
141
12.0
290
     0
  0
SCALE
  5
61
102
{ACAD_REACTORS
330
47
102
}
330
47
100
AcDbScale
 70
     0
300
3/8" = 1'-0"
140
0.375
141
12.0
290
     0
  0
SCALE
  5
62
102
{ACAD_REACTORS
330
47
102
}
330
47
100
AcDbScale
 70
     0
300
1/2" = 1'-0"
140
0.5
141
12.0
290
     0
  0
SCALE
  5
63
102
{ACAD_REACTORS
330
47
102
}
330
47
100
AcDbScale
 70
     0
300
3/4" = 1'-0"
140
0.75
141
12.0
290
     0
  0
SCALE
  5
64
102
{ACAD_REACTORS
330
47
102
}
330
47
100
AcDbScale
 70
     0
300
1" = 1'-0"
140
1.0
141
12.0
290
     0
  0
SCALE
  5
65
102
{ACAD_REACTORS
330
47
102
}
330
47
100
AcDbScale
 70
     0
300
1-1/2" = 1'-0"
140
1.5
141
12.0
290
     0
  0
SCALE
  5
66
102
{ACAD_REACTORS
330
47
102
}
330
47
100
AcDbScale
 70
     0
300
3" = 1'-0"
140
3.0
141
12.0
290
     0
  0
SCALE
  5
67
102
{ACAD_REACTORS
330
47
102
}
330
47
100
AcDbScale
 70
     0
300
6" = 1'-0"
140
6.0
141
12.0
290
     0
  0
SCALE
  5
68
102
{ACAD_REACTORS
330
47
102
}
330
47
100
AcDbScale
 70
     0
300
1'-0" = 1'-0"
140
12.0
141
12.0
290
     0
  0
TABLESTYLE
  5
6A
102
{ACAD_REACTORS
330
69
102
}
102
{ACAD_XDICTIONARY
360
1E2
102
}
330
69
100
AcDbTableStyle
  3
Standard
 70
     0
 71
     0
 40
0.06
 41
0.06
280
     0
281
     0
  7
Standard
140
4.5
170
     2
 62
     0
 63
   257
283
     0
 90
        4
 91
        0
  1

274
    -2
284
     1
 64
     0
275
    -2
285
     1
 65
     0
276
    -2
286
     1
 66
     0
277
    -2
287
     1
 67
     0
278
    -2
288
     1
 68
     0
279
    -2
289
     1
 69
     0
  7
Standard
140
6.0
170
     5
 62
     0
 63
   257
283
     0
 90
        4
 91
        0
  1

274
    -2
284
     1
 64
     0
275
    -2
285
     1
 65
     0
276
    -2
286
     1
 66
     0
277
    -2
287
     1
 67
     0
278
    -2
288
     1
 68
     0
279
    -2
289
     1
 69
     0
  7
Standard
140
4.5
170
     5
 62
     0
 63
   257
283
     0
 90
        4
 91
        0
  1

274
    -2
284
     1
 64
     0
275
    -2
285
     1
 65
     0
276
    -2
286
     1
 66
     0
277
    -2
287
     1
 67
     0
278
    -2
288
     1
 68
     0
279
    -2
289
     1
 69
     0
  0
VISUALSTYLE
  5
2F
102
{ACAD_REACTORS
330
2A
102
}
330
2A
100
AcDbVisualStyle
  2
2dWireframe
 70
     4
177
     3
291
     0
 70
    58
 90
        0
176
     1
 90
        2
176
     1
 90
        0
176
     1
 90
        0
176
     1
 40
0.6
176
     1
 40
30.0
176
     1
 62
     7
420
 16777215
176
     1
 90
        1
176
     1
 90
        4
176
     1
 62
     7
176
     1
 62
   257
176
     1
 90
        1
176
     1
 90
        1
176
     1
 40
1.0
176
     1
 90
        0
176
     1
 62
   257
176
     1
 40
1.0
176
     1
 90
        1
176
     1
 90
        6
176
     1
 90
        2
176
     1
 62
     7
176
     1
 90
        5
176
     1
 90
        0
176
     1
 90
        0
176
     1
290
     0
176
     1
 90
        1
176
     1
 40
0.0
176
     1
 90
        0
176
     1
290
     1
176
     1
290
     1
176
     1
290
     0
176
     1
290
     0
176
     1
290
     0
176
     1
290
     0
176
     1
290
     0
176
     1
290
     0
176
     1
290
     0
176
     1
 90
       50
176
     1
 40
0.0
176
     1
 40
1.0
176
     1
 90
        0
176
     1
 62
    18
420
        0
176
     1
 90
       50
176
     1
 90
        3
176
     1
 62
     5
420
      255
176
     1
290
     0
176
     1
 90
       50
176
     1
 90
       50
176
     1
 90
       50
176
     1
290
     0
176
     1
 90
       50
176
     1
 62
   256
176
     0
 40
1.0
176
     0
 90
        2
176
     1
  1
strokes_ogs.tif
176
     1
290
     0
176
     1
 40
1.0
176
     1
 40
1.0
176
     1
  0
VISUALSTYLE
  5
32
102
{ACAD_REACTORS
330
2A
102
}
330
2A
100
AcDbVisualStyle
  2
Basic
 70
     7
177
     3
291
     1
 70
    58
 90
        1
176
     1
 90
        0
176
     1
 90
        1
176
     1
 90
        0
176
     1
 40
0.6
176
     1
 40
30.0
176
     1
 62
     7
420
 16777215
176
     1
 90
        0
176
     1
 90
        4
176
     1
 62
     7
176
     1
 62
   257
176
     1
 90
        1
176
     1
 90
        1
176
     1
 40
1.0
176
     1
 90
        8
176
     1
 62
     7
176
     1
 40
1.0
176
     1
 90
        1
176
     1
 90
        6
176
     1
 90
        2
176
     1
 62
     7
176
     1
 90
        5
176
     1
 90
        0
176
     1
 90
        0
176
     1
290
     0
176
     1
 90
        1
176
     1
 40
0.0
176
     1
 90
        0
176
     1
290
     0
176
     1
290
     1
176
     1
290
     1
176
     1
290
     0
176
     1
290
     0
176
     1
290
     0
176
     1
290
     0
176
     1
290
     0
176
     1
290
     0
176
     1
 90
       50
176
     1
 40
0.0
176
     1
 40
1.0
176
     1
 90
        0
176
     1
 62
    18
420
        0
176
     1
 90
       50
176
     1
 90
        3
176
     1
 62
     5
420
      255
176
     1
290
     0
176
     1
 90
       50
176
     1
 90
       50
176
     1
 90
       50
176
     1
290
     0
176
     1
 90
       50
176
     1
 62
   256
176
     0
 40
1.0
176
     0
 90
        2
176
     1
  1
strokes_ogs.tif
176
     1
290
     0
176
     1
 40
1.0
176
     1
 40
1.0
176
     1
  0
VISUALSTYLE
  5
36
102
{ACAD_REACTORS
330
2A
102
}
330
2A
100
AcDbVisualStyle
  2
Brighten
 70
    12
177
     3
291
     1
 70
    58
 90
        2
176
     1
 90
        2
176
     1
 90
        0
176
     1
 90
        0
176
     1
 40
0.6
176
     1
 40
30.0
176
     1
 62
     7
420
 16777215
176
     1
 90
        1
176
     1
 90
        4
176
     1
 62
     7
176
     1
 62
   257
176
     1
 90
        1
176
     1
 90
        1
176
     1
 40
1.0
176
     1
 90
        8
176
     1
 62
     7
176
     1
 40
1.0
176
     1
 90
        1
176
     1
 90
        6
176
     1
 90
        2
176
     1
 62
     7
176
     1
 90
        5
176
     1
 90
        0
176
     1
 90
        0
176
     1
290
     0
176
     1
 90
        1
176
     1
 40
50.0
176
     1
 90
        0
176
     1
290
     0
176
     1
290
     1
176
     1
290
     1
176
     1
290
     0
176
     1
290
     0
176
     1
290
     0
176
     1
290
     0
176
     1
290
     0
176
     1
290
     0
176
     1
 90
       50
176
     1
 40
0.0
176
     1
 40
1.0
176
     1
 90
        0
176
     1
 62
    18
420
        0
176
     1
 90
       50
176
     1
 90
        3
176
     1
 62
     5
420
      255
176
     1
290
     0
176
     1
 90
       50
176
     1
 90
       50
176
     1
 90
       50
176
     1
290
     0
176
     1
 90
       50
176
     1
 62
   256
176
     0
 40
1.0
176
     0
 90
        2
176
     1
  1
strokes_ogs.tif
176
     1
290
     0
176
     1
 40
1.0
176
     1
 40
1.0
176
     1
  0
VISUALSTYLE
  5
3A
102
{ACAD_REACTORS
330
2A
102
}
330
2A
100
AcDbVisualStyle
  2
ColorChange
 70
    16
177
     3
291
     1
 70
    58
 90
        2
176
     1
 90
        2
176
     1
 90
        3
176
     1
 90
        0
176
     1
 40
0.6
176
     1
 40
30.0
176
     1
 62
     8
420
  8421504
176
     1
 90
        1
176
     1
 90
        4
176
     1
 62
     7
176
     1
 62
   257
176
     1
 90
        1
176
     1
 90
        1
176
     1
 40
1.0
176
     1
 90
        8
176
     1
 62
     8
420
  8421504
176
     1
 40
1.0
176
     1
 90
        1
176
     1
 90
        6
176
     1
 90
        2
176
     1
 62
     7
176
     1
 90
        5
176
     1
 90
        0
176
     1
 90
        0
176
     1
290
     0
176
     1
 90
        1
176
     1
 40
0.0
176
     1
 90
        0
176
     1
290
     0
176
     1
290
     1
176
     1
290
     1
176
     1
290
     0
176
     1
290
     0
176
     1
290
     0
176
     1
290
     0
176
     1
290
     0
176
     1
290
     0
176
     1
 90
       50
176
     1
 40
0.0
176
     1
 40
1.0
176
     1
 90
        0
176
     1
 62
    18
420
        0
176
     1
 90
       50
176
     1
 90
        3
176
     1
 62
     5
420
      255
176
     1
290
     0
176
     1
 90
       50
176
     1
 90
       50
176
     1
 90
       50
176
     1
290
     0
176
     1
 90
       50
176
     1
 62
   256
176
     0
 40
1.0
176
     0
 90
        2
176
     1
  1
strokes_ogs.tif
176
     1
290
     0
176
     1
 40
1.0
176
     1
 40
1.0
176
     1
  0
VISUALSTYLE
  5
34
102
{ACAD_REACTORS
330
2A
102
}
330
2A
100
AcDbVisualStyle
  2
Conceptual
 70
     9
177
     3
291
     0
 70
    58
 90
        3
176
     1
 90
        2
176
     1
 90
        0
176
     1
 90
        0
176
     1
 40
0.6
176
     1
 40
30.0
176
     1
 62
     7
420
 16777215
176
     1
 90
        2
176
     1
 90
        2
176
     1
 62
     7
176
     1
 62
   257
176
     1
 90
        1
176
     1
 90
        1
176
     1
 40
179.0
176
     1
 90
        8
176
     1
 62
     7
176
     1
 40
1.0
176
     1
 90
        1
176
     1
 90
        6
176
     1
 90
        2
176
     1
 62
     7
176
     1
 90
        3
176
     1
 90
        0
176
     1
 90
        0
176
     1
290
     0
176
     1
 90
        1
176
     1
 40
0.0
176
     1
 90
        0
176
     1
290
     0
176
     1
290
     1
176
     1
290
     1
176
     1
290
     0
176
     1
290
     0
176
     1
290
     0
176
     1
290
     0
176
     1
290
     0
176
     1
290
     0
176
     1
 90
       50
176
     1
 40
0.0
176
     1
 40
1.0
176
     1
 90
        0
176
     1
 62
    18
420
        0
176
     1
 90
       50
176
     1
 90
        3
176
     1
 62
     5
420
      255
176
     1
290
     0
176
     1
 90
       50
176
     1
 90
       50
176
     1
 90
       50
176
     1
290
     0
176
     1
 90
       50
176
     1
 62
   256
176
     0
 40
1.0
176
     0
 90
        2
176
     1
  1
strokes_ogs.tif
176
     1
290
     0
176
     1
 40
1.0
176
     1
 40
1.0
176
     1
  0
VISUALSTYLE
  5
35
102
{ACAD_REACTORS
330
2A
102
}
330
2A
100
AcDbVisualStyle
  2
Dim
 70
    11
177
     3
291
     1
 70
    58
 90
        2
176
     1
 90
        2
176
     1
 90
        0
176
     1
 90
        0
176
     1
 40
0.6
176
     1
 40
30.0
176
     1
 62
     7
420
 16777215
176
     1
 90
        1
176
     1
 90
        4
176
     1
 62
     7
176
     1
 62
   257
176
     1
 90
        1
176
     1
 90
        1
176
     1
 40
1.0
176
     1
 90
        8
176
     1
 62
     7
176
     1
 40
1.0
176
     1
 90
        1
176
     1
 90
        6
176
     1
 90
        2
176
     1
 62
     7
176
     1
 90
        5
176
     1
 90
        0
176
     1
 90
        0
176
     1
290
     0
176
     1
 90
        1
176
     1
 40
-50.0
176
     1
 90
        0
176
     1
290
     0
176
     1
290
     1
176
     1
290
     1
176
     1
290
     0
176
     1
290
     0
176
     1
290
     0
176
     1
290
     0
176
     1
290
     0
176
     1
290
     0
176
     1
 90
       50
176
     1
 40
0.0
176
     1
 40
1.0
176
     1
 90
        0
176
     1
 62
    18
420
        0
176
     1
 90
       50
176
     1
 90
        3
176
     1
 62
     5
420
      255
176
     1
290
     0
176
     1
 90
       50
176
     1
 90
       50
176
     1
 90
       50
176
     1
290
     0
176
     1
 90
       50
176
     1
 62
   256
176
     0
 40
1.0
176
     0
 90
        2
176
     1
  1
strokes_ogs.tif
176
     1
290
     0
176
     1
 40
1.0
176
     1
 40
1.0
176
     1
  0
VISUALSTYLE
  5
3D
102
{ACAD_REACTORS
330
2A
102
}
330
2A
100
AcDbVisualStyle
  2
EdgeColorOff
 70
    22
177
     3
291
     1
 70
    58
 90
        2
176
     0
 90
        2
176
     0
 90
        0
176
     0
 90
        0
176
     0
 40
0.6
176
     0
 40
30.0
176
     0
 62
     7
420
 16777215
176
     0
 90
        1
176
     0
 90
        4
176
     0
 62
     7
176
     0
 62
   257
176
     0
 90
        1
176
     0
 90
        1
176
     0
 40
1.0
176
     0
 90
        8
176
     2
 62
     7
176
     0
 40
1.0
176
     0
 90
        1
176
     0
 90
        6
176
     0
 90
        2
176
     0
 62
     7
176
     0
 90
        5
176
     0
 90
        0
176
     0
 90
        0
176
     0
290
     0
176
     0
 90
        1
176
     0
 40
0.0
176
     0
 90
        0
176
     0
290
     0
176
     0
290
     1
176
     0
290
     1
176
     0
290
     0
176
     0
290
     0
176
     0
290
     0
176
     0
290
     0
176
     0
290
     0
176
     0
290
     0
176
     0
 90
       50
176
     0
 40
0.0
176
     0
 40
1.0
176
     0
 90
        0
176
     0
 62
    18
420
        0
176
     0
 90
       50
176
     0
 90
        3
176
     0
 62
     5
420
      255
176
     0
290
     0
176
     0
 90
       50
176
     0
 90
       50
176
     0
 90
       50
176
     0
290
     0
176
     0
 90
       50
176
     0
 62
   256
176
     0
 40
1.0
176
     0
 90
        2
176
     0
  1
strokes_ogs.tif
176
     0
290
     0
176
     0
 40
1.0
176
     0
 40
1.0
176
     0
  0
VISUALSTYLE
  5
39
102
{ACAD_REACTORS
330
2A
102
}
330
2A
100
AcDbVisualStyle
  2
Facepattern
 70
    15
177
     3
291
     1
 70
    58
 90
        2
176
     1
 90
        2
176
     1
 90
        0
176
     1
 90
        0
176
     1
 40
0.6
176
     1
 40
30.0
176
     1
 62
     7
420
 16777215
176
     1
 90
        1
176
     1
 90
        4
176
     1
 62
     7
176
     1
 62
   257
176
     1
 90
        1
176
     1
 90
        1
176
     1
 40
1.0
176
     1
 90
        8
176
     1
 62
     7
176
     1
 40
1.0
176
     1
 90
        1
176
     1
 90
        6
176
     1
 90
        2
176
     1
 62
     7
176
     1
 90
        5
176
     1
 90
        0
176
     1
 90
        0
176
     1
290
     0
176
     1
 90
        1
176
     1
 40
0.0
176
     1
 90
        0
176
     1
290
     0
176
     1
290
     1
176
     1
290
     1
176
     1
290
     0
176
     1
290
     0
176
     1
290
     0
176
     1
290
     0
176
     1
290
     0
176
     1
290
     0
176
     1
 90
       50
176
     1
 40
0.0
176
     1
 40
1.0
176
     1
 90
        0
176
     1
 62
    18
420
        0
176
     1
 90
       50
176
     1
 90
        3
176
     1
 62
     5
420
      255
176
     1
290
     0
176
     1
 90
       50
176
     1
 90
       50
176
     1
 90
       50
176
     1
290
     0
176
     1
 90
       50
176
     1
 62
   256
176
     0
 40
1.0
176
     0
 90
        2
176
     1
  1
strokes_ogs.tif
176
     1
290
     0
176
     1
 40
1.0
176
     1
 40
1.0
176
     1
  0
VISUALSTYLE
  5
2B
102
{ACAD_REACTORS
330
2A
102
}
330
2A
100
AcDbVisualStyle
  2
Flat
 70
     0
177
     3
291
     1
 70
    58
 90
        2
176
     1
 90
        1
176
     1
 90
        1
176
     1
 90
        2
176
     1
 40
0.6
176
     1
 40
30.0
176
     1
 62
     7
420
 16777215
176
     1
 90
        0
176
     1
 90
        0
176
     1
 62
     7
176
     1
 62
   257
176
     1
 90
        1
176
     1
 90
        1
176
     1
 40
1.0
176
     1
 90
        8
176
     1
 62
     7
176
     1
 40
1.0
176
     1
 90
        1
176
     1
 90
        6
176
     1
 90
        2
176
     1
 62
     7
176
     1
 90
        5
176
     1
 90
        0
176
     1
 90
        0
176
     1
290
     0
176
     1
 90
       13
176
     1
 40
0.0
176
     1
 90
        0
176
     1
290
     0
176
     1
290
     1
176
     1
290
     1
176
     1
290
     0
176
     1
290
     0
176
     1
290
     0
176
     1
290
     0
176
     1
290
     0
176
     1
290
     0
176
     1
 90
       50
176
     1
 40
0.0
176
     1
 40
1.0
176
     1
 90
        0
176
     1
 62
    18
420
        0
176
     1
 90
       50
176
     1
 90
        3
176
     1
 62
     5
420
      255
176
     1
290
     0
176
     1
 90
       50
176
     1
 90
       50
176
     1
 90
       50
176
     1
290
     0
176
     1
 90
       50
176
     1
 62
   256
176
     0
 40
1.0
176
     0
 90
        2
176
     1
  1
strokes_ogs.tif
176
     1
290
     0
176
     1
 40
1.0
176
     1
 40
1.0
176
     1
  0
VISUALSTYLE
  5
2C
102
{ACAD_REACTORS
330
2A
102
}
330
2A
100
AcDbVisualStyle
  2
FlatWithEdges
 70
     1
177
     3
291
     1
 70
    58
 90
        2
176
     1
 90
        1
176
     1
 90
        1
176
     1
 90
        2
176
     1
 40
0.6
176
     1
 40
30.0
176
     1
 62
     7
420
 16777215
176
     1
 90
        1
176
     1
 90
        0
176
     1
 62
     7
176
     1
 62
   257
176
     1
 90
        1
176
     1
 90
        1
176
     1
 40
1.0
176
     1
 90
        0
176
     1
 62
   257
176
     1
 40
1.0
176
     1
 90
        1
176
     1
 90
        6
176
     1
 90
        2
176
     1
 62
     7
176
     1
 90
        5
176
     1
 90
        0
176
     1
 90
        0
176
     1
290
     0
176
     1
 90
       13
176
     1
 40
0.0
176
     1
 90
        0
176
     1
290
     0
176
     1
290
     1
176
     1
290
     1
176
     1
290
     0
176
     1
290
     0
176
     1
290
     0
176
     1
290
     0
176
     1
290
     0
176
     1
290
     0
176
     1
 90
       50
176
     1
 40
0.0
176
     1
 40
1.0
176
     1
 90
        0
176
     1
 62
    18
420
        0
176
     1
 90
       50
176
     1
 90
        3
176
     1
 62
     5
420
      255
176
     1
290
     0
176
     1
 90
       50
176
     1
 90
       50
176
     1
 90
       50
176
     1
290
     0
176
     1
 90
       50
176
     1
 62
   256
176
     0
 40
1.0
176
     0
 90
        2
176
     1
  1
strokes_ogs.tif
176
     1
290
     0
176
     1
 40
1.0
176
     1
 40
1.0
176
     1
  0
VISUALSTYLE
  5
2D
102
{ACAD_REACTORS
330
2A
102
}
330
2A
100
AcDbVisualStyle
  2
Gouraud
 70
     2
177
     3
291
     1
 70
    58
 90
        2
176
     1
 90
        2
176
     1
 90
        1
176
     1
 90
        2
176
     1
 40
0.6
176
     1
 40
30.0
176
     1
 62
     7
420
 16777215
176
     1
 90
        0
176
     1
 90
        0
176
     1
 62
     7
176
     1
 62
   257
176
     1
 90
        1
176
     1
 90
        1
176
     1
 40
1.0
176
     1
 90
        0
176
     1
 62
     7
176
     1
 40
1.0
176
     1
 90
        1
176
     1
 90
        6
176
     1
 90
        2
176
     1
 62
     7
176
     1
 90
        5
176
     1
 90
        0
176
     1
 90
        0
176
     1
290
     0
176
     1
 90
       13
176
     1
 40
0.0
176
     1
 90
        0
176
     1
290
     0
176
     1
290
     1
176
     1
290
     1
176
     1
290
     0
176
     1
290
     0
176
     1
290
     0
176
     1
290
     0
176
     1
290
     0
176
     1
290
     0
176
     1
 90
       50
176
     1
 40
0.0
176
     1
 40
1.0
176
     1
 90
        0
176
     1
 62
    18
420
        0
176
     1
 90
       50
176
     1
 90
        3
176
     1
 62
     5
420
      255
176
     1
290
     0
176
     1
 90
       50
176
     1
 90
       50
176
     1
 90
       50
176
     1
290
     0
176
     1
 90
       50
176
     1
 62
   256
176
     0
 40
1.0
176
     0
 90
        2
176
     1
  1
strokes_ogs.tif
176
     1
290
     0
176
     1
 40
1.0
176
     1
 40
1.0
176
     1
  0
VISUALSTYLE
  5
2E
102
{ACAD_REACTORS
330
2A
102
}
330
2A
100
AcDbVisualStyle
  2
GouraudWithEdges
 70
     3
177
     3
291
     1
 70
    58
 90
        2
176
     1
 90
        2
176
     1
 90
        1
176
     1
 90
        2
176
     1
 40
0.6
176
     1
 40
30.0
176
     1
 62
     7
420
 16777215
176
     1
 90
        1
176
     1
 90
        0
176
     1
 62
     7
176
     1
 62
   257
176
     1
 90
        1
176
     1
 90
        1
176
     1
 40
1.0
176
     1
 90
        0
176
     1
 62
   257
176
     1
 40
1.0
176
     1
 90
        1
176
     1
 90
        6
176
     1
 90
        2
176
     1
 62
     7
176
     1
 90
        5
176
     1
 90
        0
176
     1
 90
        0
176
     1
290
     0
176
     1
 90
       13
176
     1
 40
0.0
176
     1
 90
        0
176
     1
290
     0
176
     1
290
     1
176
     1
290
     1
176
     1
290
     0
176
     1
290
     0
176
     1
290
     0
176
     1
290
     0
176
     1
290
     0
176
     1
290
     0
176
     1
 90
       50
176
     1
 40
0.0
176
     1
 40
1.0
176
     1
 90
        0
176
     1
 62
    18
420
        0
176
     1
 90
       50
176
     1
 90
        3
176
     1
 62
     5
420
      255
176
     1
290
     0
176
     1
 90
       50
176
     1
 90
       50
176
     1
 90
       50
176
     1
290
     0
176
     1
 90
       50
176
     1
 62
   256
176
     0
 40
1.0
176
     0
 90
        2
176
     1
  1
strokes_ogs.tif
176
     1
290
     0
176
     1
 40
1.0
176
     1
 40
1.0
176
     1
  0
VISUALSTYLE
  5
31
102
{ACAD_REACTORS
330
2A
102
}
330
2A
100
AcDbVisualStyle
  2
Hidden
 70
     6
177
     3
291
     0
 70
    58
 90
        1
176
     1
 90
        2
176
     1
 90
        2
176
     1
 90
        0
176
     1
 40
0.6
176
     1
 40
30.0
176
     1
 62
     7
420
 16777215
176
     1
 90
        2
176
     1
 90
        2
176
     1
 62
     7
176
     1
 62
   257
176
     1
 90
        2
176
     1
 90
        1
176
     1
 40
40.0
176
     1
 90
        0
176
     1
 62
   257
176
     1
 40
1.0
176
     1
 90
        1
176
     1
 90
        6
176
     1
 90
        2
176
     1
 62
     7
176
     1
 90
        3
176
     1
 90
        0
176
     1
 90
        0
176
     1
290
     0
176
     1
 90
        1
176
     1
 40
0.0
176
     1
 90
        0
176
     1
290
     0
176
     1
290
     1
176
     1
290
     1
176
     1
290
     0
176
     1
290
     0
176
     1
290
     0
176
     1
290
     0
176
     1
290
     0
176
     1
290
     0
176
     1
 90
       50
176
     1
 40
0.0
176
     1
 40
1.0
176
     1
 90
        0
176
     1
 62
    18
420
        0
176
     1
 90
       50
176
     1
 90
        3
176
     1
 62
     5
420
      255
176
     1
290
     0
176
     1
 90
       50
176
     1
 90
       50
176
     1
 90
       50
176
     1
290
     0
176
     1
 90
       50
176
     1
 62
   256
176
     0
 40
1.0
176
     0
 90
        2
176
     1
  1
strokes_ogs.tif
176
     1
290
     0
176
     1
 40
1.0
176
     1
 40
1.0
176
     1
  0
VISUALSTYLE
  5
3B
102
{ACAD_REACTORS
330
2A
102
}
330
2A
100
AcDbVisualStyle
  2
JitterOff
 70
    20
177
     3
291
     1
 70
    58
 90
        2
176
     0
 90
        2
176
     0
 90
        0
176
     0
 90
        0
176
     0
 40
0.6
176
     0
 40
30.0
176
     0
 62
     7
420
 16777215
176
     0
 90
        1
176
     0
 90
        4
176
     0
 62
     7
176
     0
 62
   257
176
     0
 90
        1
176
     0
 90
        1
176
     0
 40
1.0
176
     0
 90
       10
176
     2
 62
     7
176
     0
 40
1.0
176
     0
 90
        1
176
     0
 90
        6
176
     0
 90
        2
176
     0
 62
     7
176
     0
 90
        5
176
     0
 90
        0
176
     0
 90
        0
176
     0
290
     0
176
     0
 90
        1
176
     0
 40
0.0
176
     0
 90
        0
176
     0
290
     0
176
     0
290
     1
176
     0
290
     1
176
     0
290
     0
176
     0
290
     0
176
     0
290
     0
176
     0
290
     0
176
     0
290
     0
176
     0
290
     0
176
     0
 90
       50
176
     0
 40
0.0
176
     0
 40
1.0
176
     0
 90
        0
176
     0
 62
    18
420
        0
176
     0
 90
       50
176
     0
 90
        3
176
     0
 62
     5
420
      255
176
     0
290
     0
176
     0
 90
       50
176
     0
 90
       50
176
     0
 90
       50
176
     0
290
     0
176
     0
 90
       50
176
     0
 62
   256
176
     0
 40
1.0
176
     0
 90
        2
176
     0
  1
strokes_ogs.tif
176
     0
290
     0
176
     0
 40
1.0
176
     0
 40
1.0
176
     0
  0
VISUALSTYLE
  5
38
102
{ACAD_REACTORS
330
2A
102
}
330
2A
100
AcDbVisualStyle
  2
Linepattern
 70
    14
177
     3
291
     1
 70
    58
 90
        2
176
     1
 90
        2
176
     1
 90
        0
176
     1
 90
        0
176
     1
 40
0.6
176
     1
 40
30.0
176
     1
 62
     7
420
 16777215
176
     1
 90
        1
176
     1
 90
        4
176
     1
 62
     7
176
     1
 62
   257
176
     1
 90
        7
176
     1
 90
        7
176
     1
 40
1.0
176
     1
 90
        8
176
     1
 62
     7
176
     1
 40
1.0
176
     1
 90
        1
176
     1
 90
        6
176
     1
 90
        2
176
     1
 62
     7
176
     1
 90
        5
176
     1
 90
        0
176
     1
 90
        0
176
     1
290
     0
176
     1
 90
        1
176
     1
 40
0.0
176
     1
 90
        0
176
     1
290
     0
176
     1
290
     1
176
     1
290
     1
176
     1
290
     0
176
     1
290
     0
176
     1
290
     0
176
     1
290
     0
176
     1
290
     0
176
     1
290
     0
176
     1
 90
       50
176
     1
 40
0.0
176
     1
 40
1.0
176
     1
 90
        0
176
     1
 62
    18
420
        0
176
     1
 90
       50
176
     1
 90
        3
176
     1
 62
     5
420
      255
176
     1
290
     0
176
     1
 90
       50
176
     1
 90
       50
176
     1
 90
       50
176
     1
290
     0
176
     1
 90
       50
176
     1
 62
   256
176
     0
 40
1.0
176
     0
 90
        2
176
     1
  1
strokes_ogs.tif
176
     1
290
     0
176
     1
 40
1.0
176
     1
 40
1.0
176
     1
  0
VISUALSTYLE
  5
3C
102
{ACAD_REACTORS
330
2A
102
}
330
2A
100
AcDbVisualStyle
  2
OverhangOff
 70
    21
177
     3
291
     1
 70
    58
 90
        2
176
     0
 90
        2
176
     0
 90
        0
176
     0
 90
        0
176
     0
 40
0.6
176
     0
 40
30.0
176
     0
 62
     7
420
 16777215
176
     0
 90
        1
176
     0
 90
        4
176
     0
 62
     7
176
     0
 62
   257
176
     0
 90
        1
176
     0
 90
        1
176
     0
 40
1.0
176
     0
 90
        9
176
     2
 62
     7
176
     0
 40
1.0
176
     0
 90
        1
176
     0
 90
        6
176
     0
 90
        2
176
     0
 62
     7
176
     0
 90
        5
176
     0
 90
        0
176
     0
 90
        0
176
     0
290
     0
176
     0
 90
        1
176
     0
 40
0.0
176
     0
 90
        0
176
     0
290
     0
176
     0
290
     1
176
     0
290
     1
176
     0
290
     0
176
     0
290
     0
176
     0
290
     0
176
     0
290
     0
176
     0
290
     0
176
     0
290
     0
176
     0
 90
       50
176
     0
 40
0.0
176
     0
 40
1.0
176
     0
 90
        0
176
     0
 62
    18
420
        0
176
     0
 90
       50
176
     0
 90
        3
176
     0
 62
     5
420
      255
176
     0
290
     0
176
     0
 90
       50
176
     0
 90
       50
176
     0
 90
       50
176
     0
290
     0
176
     0
 90
       50
176
     0
 62
   256
176
     0
 40
1.0
176
     0
 90
        2
176
     0
  1
strokes_ogs.tif
176
     0
290
     0
176
     0
 40
1.0
176
     0
 40
1.0
176
     0
  0
VISUALSTYLE
  5
33
102
{ACAD_REACTORS
330
2A
102
}
330
2A
100
AcDbVisualStyle
  2
Realistic
 70
     8
177
     3
291
     0
 70
    58
 90
        2
176
     1
 90
        3
176
     1
 90
        0
176
     1
 90
        2
176
     1
 40
0.6
176
     1
 40
30.0
176
     1
 62
     7
420
 16777215
176
     1
 90
        0
176
     1
 90
        0
176
     1
 62
     7
176
     1
 62
   257
176
     1
 90
        1
176
     1
 90
        1
176
     1
 40
1.0
176
     1
 90
        8
176
     1
 62
   257
176
     1
 40
1.0
176
     1
 90
        1
176
     1
 90
        6
176
     1
 90
        2
176
     1
 62
     7
176
     1
 90
        3
176
     1
 90
        0
176
     1
 90
        0
176
     1
290
     0
176
     1
 90
       13
176
     1
 40
0.0
176
     1
 90
        0
176
     1
290
     0
176
     1
290
     1
176
     1
290
     1
176
     1
290
     0
176
     1
290
     0
176
     1
290
     0
176
     1
290
     0
176
     1
290
     0
176
     1
290
     0
176
     1
 90
       50
176
     1
 40
0.0
176
     1
 40
1.0
176
     1
 90
        0
176
     1
 62
    18
420
        0
176
     1
 90
       50
176
     1
 90
        3
176
     1
 62
     5
420
      255
176
     1
290
     0
176
     1
 90
       50
176
     1
 90
       50
176
     1
 90
       50
176
     1
290
     0
176
     1
 90
       50
176
     1
 62
   256
176
     0
 40
1.0
176
     0
 90
        2
176
     1
  1
strokes_ogs.tif
176
     1
290
     0
176
     1
 40
1.0
176
     1
 40
1.0
176
     1
  0
VISUALSTYLE
  5
42
102
{ACAD_REACTORS
330
2A
102
}
330
2A
100
AcDbVisualStyle
  2
Shaded
 70
    27
177
     3
291
     0
 70
    58
 90
        2
176
     1
 90
        2
176
     1
 90
        1
176
     1
 90
        2
176
     1
 40
0.6
176
     1
 40
30.0
176
     1
 62
     7
420
 16777215
176
     1
 90
        0
176
     1
 90
        4
176
     1
 62
     7
176
     1
 62
   257
176
     1
 90
        1
176
     1
 90
        1
176
     1
 40
1.0
176
     1
 90
        8
176
     1
 62
   257
176
     1
 40
1.0
176
     1
 90
        1
176
     1
 90
        6
176
     1
 90
        2
176
     1
 62
     8
420
  7895160
176
     1
 90
        3
176
     1
 90
        0
176
     1
 90
        0
176
     1
290
     0
176
     1
 90
        5
176
     1
 40
0.0
176
     1
 90
        0
176
     1
290
     0
176
     1
290
     1
176
     1
290
     1
176
     1
290
     0
176
     1
290
     0
176
     1
290
     0
176
     1
290
     0
176
     1
290
     0
176
     1
290
     0
176
     1
 90
       50
176
     1
 40
0.0
176
     1
 40
1.0
176
     1
 90
        0
176
     1
 62
    18
420
        0
176
     1
 90
       50
176
     1
 90
        3
176
     1
 62
     5
420
      255
176
     1
290
     0
176
     1
 90
       50
176
     1
 90
       50
176
     1
 90
       50
176
     1
290
     0
176
     1
 90
       50
176
     1
 62
   256
176
     0
 40
1.0
176
     0
 90
        2
176
     1
  1
strokes_ogs.tif
176
     1
290
     0
176
     1
 40
1.0
176
     1
 40
1.0
176
     1
  0
VISUALSTYLE
  5
41
102
{ACAD_REACTORS
330
2A
102
}
330
2A
100
AcDbVisualStyle
  2
Shaded with edges
 70
    26
177
     3
291
     0
 70
    58
 90
        2
176
     1
 90
        2
176
     1
 90
        1
176
     1
 90
        2
176
     1
 40
0.6
176
     1
 40
30.0
176
     1
 62
     7
420
 16777215
176
     1
 90
        1
176
     1
 90
       10
176
     1
 62
     7
176
     1
 62
   257
176
     1
 90
        2
176
     1
 90
        1
176
     1
 40
1.0
176
     1
 90
        8
176
     1
 62
   257
176
     1
 40
1.0
176
     1
 90
        1
176
     1
 90
        6
176
     1
 90
        2
176
     1
 62
     7
176
     1
 90
        3
176
     1
 90
        0
176
     1
 90
        0
176
     1
290
     0
176
     1
 90
        5
176
     1
 40
0.0
176
     1
 90
        0
176
     1
290
     0
176
     1
290
     1
176
     1
290
     1
176
     1
290
     0
176
     1
290
     0
176
     1
290
     0
176
     1
290
     0
176
     1
290
     0
176
     1
290
     0
176
     1
 90
       50
176
     1
 40
0.0
176
     1
 40
1.0
176
     1
 90
        0
176
     1
 62
    18
420
        0
176
     1
 90
       50
176
     1
 90
        3
176
     1
 62
     5
420
      255
176
     1
290
     0
176
     1
 90
       50
176
     1
 90
       50
176
     1
 90
       50
176
     1
290
     0
176
     1
 90
       50
176
     1
 62
   256
176
     0
 40
1.0
176
     0
 90
        2
176
     1
  1
strokes_ogs.tif
176
     1
290
     0
176
     1
 40
1.0
176
     1
 40
1.0
176
     1
  0
VISUALSTYLE
  5
3E
102
{ACAD_REACTORS
330
2A
102
}
330
2A
100
AcDbVisualStyle
  2
Shades of Gray
 70
    23
177
     3
291
     0
 70
    58
 90
        2
176
     1
 90
        2
176
     1
 90
        3
176
     1
 90
        0
176
     1
 40
0.6
176
     1
 40
30.0
176
     1
 62
     7
420
 16777215
176
     1
 90
        2
176
     1
 90
        2
176
     1
 62
     7
176
     1
 62
     7
176
     1
 90
        1
176
     1
 90
        1
176
     1
 40
40.0
176
     1
 90
        8
176
     1
 62
     7
176
     1
 40
1.0
176
     1
 90
        1
176
     1
 90
        6
176
     1
 90
        2
176
     1
 62
     7
176
     1
 90
        3
176
     1
 90
        0
176
     1
 90
        0
176
     1
290
     0
176
     1
 90
        1
176
     1
 40
0.0
176
     1
 90
        0
176
     1
290
     0
176
     1
290
     1
176
     1
290
     1
176
     1
290
     0
176
     1
290
     0
176
     1
290
     0
176
     1
290
     0
176
     1
290
     0
176
     1
290
     0
176
     1
 90
       50
176
     1
 40
0.0
176
     1
 40
1.0
176
     1
 90
        0
176
     1
 62
    18
420
        0
176
     1
 90
       50
176
     1
 90
        3
176
     1
 62
     5
420
      255
176
     1
290
     0
176
     1
 90
       50
176
     1
 90
       50
176
     1
 90
       50
176
     1
290
     0
176
     1
 90
       50
176
     1
 62
   256
176
     0
 40
1.0
176
     0
 90
        2
176
     1
  1
strokes_ogs.tif
176
     1
290
     0
176
     1
 40
1.0
176
     1
 40
1.0
176
     1
  0
VISUALSTYLE
  5
3F
102
{ACAD_REACTORS
330
2A
102
}
330
2A
100
AcDbVisualStyle
  2
Sketchy
 70
    24
177
     3
291
     0
 70
    58
 90
        1
176
     1
 90
        2
176
     1
 90
        2
176
     1
 90
        0
176
     1
 40
0.6
176
     1
 40
30.0
176
     1
 62
     7
420
 16777215
176
     1
 90
        2
176
     1
 90
        2
176
     1
 62
     7
176
     1
 62
     7
176
     1
 90
        1
176
     1
 90
        1
176
     1
 40
40.0
176
     1
 90
       11
176
     1
 62
     7
176
     1
 40
1.0
176
     1
 90
        1
176
     1
 90
        6
176
     1
 90
        2
176
     1
 62
     7
176
     1
 90
        6
176
     1
 90
        0
176
     1
 90
        0
176
     1
290
     0
176
     1
 90
        1
176
     1
 40
0.0
176
     1
 90
        0
176
     1
290
     0
176
     1
290
     1
176
     1
290
     1
176
     1
290
     0
176
     1
290
     0
176
     1
290
     0
176
     1
290
     0
176
     1
290
     0
176
     1
290
     0
176
     1
 90
       50
176
     1
 40
0.0
176
     1
 40
1.0
176
     1
 90
        0
176
     1
 62
    18
420
        0
176
     1
 90
       50
176
     1
 90
        3
176
     1
 62
     5
420
      255
176
     1
290
     0
176
     1
 90
       50
176
     1
 90
       50
176
     1
 90
       50
176
     1
290
     0
176
     1
 90
       50
176
     1
 62
   256
176
     0
 40
1.0
176
     0
 90
        2
176
     1
  1
strokes_ogs.tif
176
     1
290
     0
176
     1
 40
1.0
176
     1
 40
1.0
176
     1
  0
VISUALSTYLE
  5
37
102
{ACAD_REACTORS
330
2A
102
}
330
2A
100
AcDbVisualStyle
  2
Thicken
 70
    13
177
     3
291
     1
 70
    58
 90
        2
176
     1
 90
        2
176
     1
 90
        0
176
     1
 90
        0
176
     1
 40
0.6
176
     1
 40
30.0
176
     1
 62
     7
420
 16777215
176
     1
 90
        1
176
     1
 90
        4
176
     1
 62
     7
176
     1
 62
   257
176
     1
 90
        1
176
     1
 90
        1
176
     1
 40
1.0
176
     1
 90
       12
176
     1
 62
     7
176
     1
 40
1.0
176
     1
 90
        1
176
     1
 90
        6
176
     1
 90
        2
176
     1
 62
     7
176
     1
 90
        5
176
     1
 90
        0
176
     1
 90
        0
176
     1
290
     0
176
     1
 90
        1
176
     1
 40
0.0
176
     1
 90
        0
176
     1
290
     0
176
     1
290
     1
176
     1
290
     1
176
     1
290
     0
176
     1
290
     0
176
     1
290
     0
176
     1
290
     0
176
     1
290
     0
176
     1
290
     0
176
     1
 90
       50
176
     1
 40
0.0
176
     1
 40
1.0
176
     1
 90
        0
176
     1
 62
    18
420
        0
176
     1
 90
       50
176
     1
 90
        3
176
     1
 62
     5
420
      255
176
     1
290
     0
176
     1
 90
       50
176
     1
 90
       50
176
     1
 90
       50
176
     1
290
     0
176
     1
 90
       50
176
     1
 62
   256
176
     0
 40
1.0
176
     0
 90
        2
176
     1
  1
strokes_ogs.tif
176
     1
290
     0
176
     1
 40
1.0
176
     1
 40
1.0
176
     1
  0
VISUALSTYLE
  5
30
102
{ACAD_REACTORS
330
2A
102
}
330
2A
100
AcDbVisualStyle
  2
Wireframe
 70
     5
177
     3
291
     0
 70
    58
 90
        0
176
     1
 90
        2
176
     1
 90
        0
176
     1
 90
        0
176
     1
 40
0.6
176
     1
 40
30.0
176
     1
 62
     7
420
 16777215
176
     1
 90
        1
176
     1
 90
        4
176
     1
 62
     7
176
     1
 62
   257
176
     1
 90
        1
176
     1
 90
        1
176
     1
 40
1.0
176
     1
 90
        0
176
     1
 62
   257
176
     1
 40
1.0
176
     1
 90
        1
176
     1
 90
        6
176
     1
 90
        2
176
     1
 62
     7
176
     1
 90
        3
176
     1
 90
        0
176
     1
 90
        0
176
     1
290
     0
176
     1
 90
        1
176
     1
 40
0.0
176
     1
 90
        0
176
     1
290
     0
176
     1
290
     1
176
     1
290
     1
176
     1
290
     0
176
     1
290
     0
176
     1
290
     0
176
     1
290
     0
176
     1
290
     0
176
     1
290
     0
176
     1
 90
       50
176
     1
 40
0.0
176
     1
 40
1.0
176
     1
 90
        0
176
     1
 62
    18
420
        0
176
     1
 90
       50
176
     1
 90
        3
176
     1
 62
     5
420
      255
176
     1
290
     0
176
     1
 90
       50
176
     1
 90
       50
176
     1
 90
       50
176
     1
290
     0
176
     1
 90
       50
176
     1
 62
   256
176
     0
 40
1.0
176
     0
 90
        2
176
     1
  1
strokes_ogs.tif
176
     1
290
     0
176
     1
 40
1.0
176
     1
 40
1.0
176
     1
  0
VISUALSTYLE
  5
40
102
{ACAD_REACTORS
330
2A
102
}
330
2A
100
AcDbVisualStyle
  2
X-Ray
 70
    25
177
     3
291
     0
 70
    58
 90
        2
176
     1
 90
        2
176
     1
 90
        1
176
     1
 90
        1
176
     1
 40
0.5
176
     1
 40
30.0
176
     1
 62
     7
420
 16777215
176
     1
 90
        1
176
     1
 90
        0
176
     1
 62
     7
176
     1
 62
   257
176
     1
 90
        1
176
     1
 90
        1
176
     1
 40
1.0
176
     1
 90
        8
176
     1
 62
     7
176
     1
 40
1.0
176
     1
 90
        1
176
     1
 90
        6
176
     1
 90
        2
176
     1
 62
     7
176
     1
 90
        3
176
     1
 90
        0
176
     1
 90
        0
176
     1
290
     0
176
     1
 90
       13
176
     1
 40
0.0
176
     1
 90
        0
176
     1
290
     0
176
     1
290
     1
176
     1
290
     1
176
     1
290
     0
176
     1
290
     0
176
     1
290
     0
176
     1
290
     0
176
     1
290
     0
176
     1
290
     0
176
     1
 90
       50
176
     1
 40
0.0
176
     1
 40
1.0
176
     1
 90
        0
176
     1
 62
    18
420
        0
176
     1
 90
       50
176
     1
 90
        3
176
     1
 62
     5
420
      255
176
     1
290
     0
176
     1
 90
       50
176
     1
 90
       50
176
     1
 90
       50
176
     1
290
     0
176
     1
 90
       50
176
     1
 62
   256
176
     0
 40
1.0
176
     0
 90
        2
176
     1
  1
strokes_ogs.tif
176
     1
290
     0
176
     1
 40
1.0
176
     1
 40
1.0
176
     1
  0
DICTIONARYVAR
  5
1E1
102
{ACAD_REACTORS
330
1E0
102
}
330
1E0
100
DictionaryVariables
280
     0
  1
1:1
  0
DICTIONARYVAR
  5
1E6
102
{ACAD_REACTORS
330
1E0
102
}
330
1E0
100
DictionaryVariables
280
     0
  1
Standard
  0
DICTIONARYVAR
  5
1E5
102
{ACAD_REACTORS
330
1E0
102
}
330
1E0
100
DictionaryVariables
280
     0
  1
Standard
  0
DICTIONARY
  5
1E2
330
6A
100
AcDbDictionary
280
     1
281
     1
  3
ACAD_ROUNDTRIP_2008_TABLESTYLE_CELLSTYLEMAP
360
1E3
  0
CELLSTYLEMAP
  5
1E3
102
{ACAD_REACTORS
330
1E2
102
}
330
1E2
100
AcDbCellStyleMap
 90
        3
300
CELLSTYLE
  1
TABLEFORMAT_BEGIN
 90
        5
170
     1
 91
        0
 92
    32768
 62
   257
 93
        1
300
CONTENTFORMAT
  1
CONTENTFORMAT_BEGIN
 90
        0
 91
        0
 92
        4
 93
        0
300

 40
0.0
140
1.0
 94
        5
 62
     0
340
11
144
6.0
309
CONTENTFORMAT_END
171
     1
301
MARGIN
  1
CELLMARGIN_BEGIN
 40
1.5
 40
1.5
 40
1.5
 40
1.5
 40
1.5
 40
1.5
309
CELLMARGIN_END
 94
        6
 95
        1
302
GRIDFORMAT
  1
GRIDFORMAT_BEGIN
 90
        0
 91
        1
 62
     0
 92
       -2
340
14
 93
        0
 40
0.045
309
GRIDFORMAT_END
 95
        2
302
GRIDFORMAT
  1
GRIDFORMAT_BEGIN
 90
        0
 91
        1
 62
     0
 92
       -2
340
14
 93
        0
 40
0.045
309
GRIDFORMAT_END
 95
        4
302
GRIDFORMAT
  1
GRIDFORMAT_BEGIN
 90
        0
 91
        1
 62
     0
 92
       -2
340
14
 93
        0
 40
0.045
309
GRIDFORMAT_END
 95
        8
302
GRIDFORMAT
  1
GRIDFORMAT_BEGIN
 90
        0
 91
        1
 62
     0
 92
       -2
340
14
 93
        0
 40
0.045
309
GRIDFORMAT_END
 95
       16
302
GRIDFORMAT
  1
GRIDFORMAT_BEGIN
 90
        0
 91
        1
 62
     0
 92
       -2
340
14
 93
        0
 40
0.045
309
GRIDFORMAT_END
 95
       32
302
GRIDFORMAT
  1
GRIDFORMAT_BEGIN
 90
        0
 91
        1
 62
     0
 92
       -2
340
14
 93
        0
 40
0.045
309
GRIDFORMAT_END
309
TABLEFORMAT_END
  1
CELLSTYLE_BEGIN
 90
        1
 91
        1
300
_TITLE
309
CELLSTYLE_END
300
CELLSTYLE
  1
TABLEFORMAT_BEGIN
 90
        5
170
     1
 91
        0
 92
        0
 62
   257
 93
        1
300
CONTENTFORMAT
  1
CONTENTFORMAT_BEGIN
 90
        0
 91
        0
 92
        4
 93
        0
300

 40
0.0
140
1.0
 94
        5
 62
     0
340
11
144
4.5
309
CONTENTFORMAT_END
171
     1
301
MARGIN
  1
CELLMARGIN_BEGIN
 40
1.5
 40
1.5
 40
1.5
 40
1.5
 40
1.5
 40
1.5
309
CELLMARGIN_END
 94
        6
 95
        1
302
GRIDFORMAT
  1
GRIDFORMAT_BEGIN
 90
        0
 91
        1
 62
     0
 92
       -2
340
14
 93
        0
 40
0.045
309
GRIDFORMAT_END
 95
        2
302
GRIDFORMAT
  1
GRIDFORMAT_BEGIN
 90
        0
 91
        1
 62
     0
 92
       -2
340
14
 93
        0
 40
0.045
309
GRIDFORMAT_END
 95
        4
302
GRIDFORMAT
  1
GRIDFORMAT_BEGIN
 90
        0
 91
        1
 62
     0
 92
       -2
340
14
 93
        0
 40
0.045
309
GRIDFORMAT_END
 95
        8
302
GRIDFORMAT
  1
GRIDFORMAT_BEGIN
 90
        0
 91
        1
 62
     0
 92
       -2
340
14
 93
        0
 40
0.045
309
GRIDFORMAT_END
 95
       16
302
GRIDFORMAT
  1
GRIDFORMAT_BEGIN
 90
        0
 91
        1
 62
     0
 92
       -2
340
14
 93
        0
 40
0.045
309
GRIDFORMAT_END
 95
       32
302
GRIDFORMAT
  1
GRIDFORMAT_BEGIN
 90
        0
 91
        1
 62
     0
 92
       -2
340
14
 93
        0
 40
0.045
309
GRIDFORMAT_END
309
TABLEFORMAT_END
  1
CELLSTYLE_BEGIN
 90
        2
 91
        1
300
_HEADER
309
CELLSTYLE_END
300
CELLSTYLE
  1
TABLEFORMAT_BEGIN
 90
        5
170
     1
 91
        0
 92
        0
 62
   257
 93
        1
300
CONTENTFORMAT
  1
CONTENTFORMAT_BEGIN
 90
        0
 91
        0
 92
        4
 93
        0
300

 40
0.0
140
1.0
 94
        2
 62
     0
340
11
144
4.5
309
CONTENTFORMAT_END
171
     1
301
MARGIN
  1
CELLMARGIN_BEGIN
 40
1.5
 40
1.5
 40
1.5
 40
1.5
 40
1.5
 40
1.5
309
CELLMARGIN_END
 94
        6
 95
        1
302
GRIDFORMAT
  1
GRIDFORMAT_BEGIN
 90
        0
 91
        1
 62
     0
 92
       -2
340
14
 93
        0
 40
0.045
309
GRIDFORMAT_END
 95
        2
302
GRIDFORMAT
  1
GRIDFORMAT_BEGIN
 90
        0
 91
        1
 62
     0
 92
       -2
340
14
 93
        0
 40
0.045
309
GRIDFORMAT_END
 95
        4
302
GRIDFORMAT
  1
GRIDFORMAT_BEGIN
 90
        0
 91
        1
 62
     0
 92
       -2
340
14
 93
        0
 40
0.045
309
GRIDFORMAT_END
 95
        8
302
GRIDFORMAT
  1
GRIDFORMAT_BEGIN
 90
        0
 91
        1
 62
     0
 92
       -2
340
14
 93
        0
 40
0.045
309
GRIDFORMAT_END
 95
       16
302
GRIDFORMAT
  1
GRIDFORMAT_BEGIN
 90
        0
 91
        1
 62
     0
 92
       -2
340
14
 93
        0
 40
0.045
309
GRIDFORMAT_END
 95
       32
302
GRIDFORMAT
  1
GRIDFORMAT_BEGIN
 90
        0
 91
        1
 62
     0
 92
       -2
340
14
 93
        0
 40
0.045
309
GRIDFORMAT_END
309
TABLEFORMAT_END
  1
CELLSTYLE_BEGIN
 90
        3
 91
        2
300
_DATA
309
CELLSTYLE_END
  0
ENDSEC
  0
EOF