0
SECTION
  2
HEADER
  9
$ACADVER
  1
AC1027
  9
$ACADMAINTVER
 70
     8
  9
$DWGCODEPAGE
  3
ANSI_1252
  9
$REQUIREDVERSIONS
160
                 0
  9
$COMMENTS
  1
File was created by Cadenas
  9
$CUSTOMPROPERTYTAG
  1
NN
  9
$CUSTOMPROPERTY
  1
Set Screw Air-Handling Two-Bolt Pillow Block Inch Bore
  9
$CUSTOMPROPERTYTAG
  1
NT
  9
$CUSTOMPROPERTY
  1
SC Pillow Block Bearings -(Normal Duty) -Air Handling
  9
$CUSTOMPROPERTYTAG
  1
NB
  9
$CUSTOMPROPERTY
  1
124872
  9
$CUSTOMPROPERTYTAG
  1
NBSYN
  9
$CUSTOMPROPERTY
  1
$PN.
  9
$CUSTOMPROPERTYTAG
  1
LINA
  9
$CUSTOMPROPERTY
  1
124872
  9
$CUSTOMPROPERTYTAG
  1
SERIES
  9
$CUSTOMPROPERTY
  1
214
  9
$CUSTOMPROPERTYTAG
  1
SS
  9
$CUSTOMPROPERTY
  1
2-11/16
  9
$CUSTOMPROPERTYTAG
  1
PN
  9
$CUSTOMPROPERTY
  1
124872
  9
$CUSTOMPROPERTYTAG
  1
DESCRIPTION
  9
$CUSTOMPROPERTY
  1
P2B-SCAH-211
  9
$CUSTOMPROPERTYTAG
  1
WEIGHT
  9
$CUSTOMPROPERTY
  1
15.0
  9
$CUSTOMPROPERTYTAG
  1
A
  9
$CUSTOMPROPERTY
  1
2.54
  9
$CUSTOMPROPERTYTAG
  1
B
  9
$CUSTOMPROPERTY
  1
10.75
  9
$CUSTOMPROPERTYTAG
  1
C
  9
$CUSTOMPROPERTY
  1
2.69
  9
$CUSTOMPROPERTYTAG
  1
DMIN
  9
$CUSTOMPROPERTY
  1
7.50
  9
$CUSTOMPROPERTYTAG
  1
DMAX
  9
$CUSTOMPROPERTY
  1
8.50
  9
$CUSTOMPROPERTYTAG
  1
F
  9
$CUSTOMPROPERTY
  1
3/4
  9
$CUSTOMPROPERTYTAG
  1
G
  9
$CUSTOMPROPERTY
  1
1.32
  9
$CUSTOMPROPERTYTAG
  1
H
  9
$CUSTOMPROPERTY
  1
0.94
  9
$CUSTOMPROPERTYTAG
  1
J
  9
$CUSTOMPROPERTY
  1
6.09
  9
$CUSTOMPROPERTYTAG
  1
L
  9
$CUSTOMPROPERTY
  1
3.31
  9
$CUSTOMPROPERTYTAG
  1
M
  9
$CUSTOMPROPERTY
  1
3.00
  9
$CUSTOMPROPERTYTAG
  1
R
  9
$CUSTOMPROPERTY
  1
1.06
  9
$CUSTOMPROPERTYTAG
  1
S
  9
$CUSTOMPROPERTY
  1
1.48
  9
$CUSTOMPROPERTYTAG
  1
U
  9
$CUSTOMPROPERTY
  1
4.88
  9
$CUSTOMPROPERTYTAG
  1
V
  9
$CUSTOMPROPERTY
  1
9.76
  9
$CUSTOMPROPERTYTAG
  1
W
  9
$CUSTOMPROPERTY
  1
0.94
  9
$CUSTOMPROPERTYTAG
  1
X
  9
$CUSTOMPROPERTY
  1
0.12
  9
$CUSTOMPROPERTYTAG
  1
COMPANY
  9
$CUSTOMPROPERTY
  1
baldor
  9
$INSBASE
 10
0.0
 20
0.0
 30
0.0
  9
$EXTMIN
 10
1.000000000000000E+20
 20
1.000000000000000E+20
 30
1.000000000000000E+20
  9
$EXTMAX
 10
-1.000000000000000E+20
 20
-1.000000000000000E+20
 30
-1.000000000000000E+20
  9
$LIMMIN
 10
0.0
 20
0.0
  9
$LIMMAX
 10
12.0
 20
9.0
  9
$ORTHOMODE
 70
     0
  9
$REGENMODE
 70
     1
  9
$FILLMODE
 70
     1
  9
$QTEXTMODE
 70
     0
  9
$MIRRTEXT
 70
     1
  9
$LTSCALE
 40
1.0
  9
$ATTMODE
 70
     1
  9
$TEXTSIZE
 40
0.2
  9
$TRACEWID
 40
0.05
  9
$TEXTSTYLE
  7
Standard
  9
$CLAYER
  8
0
  9
$CELTYPE
  6
ByLayer
  9
$CECOLOR
 62
   256
  9
$CELTSCALE
 40
1.0
  9
$DISPSILH
 70
     0
  9
$DIMSCALE
 40
1.0
  9
$DIMASZ
 40
0.18
  9
$DIMEXO
 40
0.0625
  9
$DIMDLI
 40
0.38
  9
$DIMRND
 40
0.0
  9
$DIMDLE
 40
0.0
  9
$DIMEXE
 40
0.18
  9
$DIMTP
 40
0.0
  9
$DIMTM
 40
0.0
  9
$DIMTXT
 40
0.18
  9
$DIMCEN
 40
0.09
  9
$DIMTSZ
 40
0.0
  9
$DIMTOL
 70
     0
  9
$DIMLIM
 70
     0
  9
$DIMTIH
 70
     1
  9
$DIMTOH
 70
     1
  9
$DIMSE1
 70
     0
  9
$DIMSE2
 70
     0
  9
$DIMTAD
 70
     0
  9
$DIMZIN
 70
     0
  9
$DIMBLK
  1

  9
$DIMASO
 70
     1
  9
$DIMSHO
 70
     1
  9
$DIMPOST
  1

  9
$DIMAPOST
  1

  9
$DIMALT
 70
     0
  9
$DIMALTD
 70
     2
  9
$DIMALTF
 40
25.4
  9
$DIMLFAC
 40
1.0
  9
$DIMTOFL
 70
     0
  9
$DIMTVP
 40
0.0
  9
$DIMTIX
 70
     0
  9
$DIMSOXD
 70
     0
  9
$DIMSAH
 70
     0
  9
$DIMBLK1
  1

  9
$DIMBLK2
  1

  9
$DIMSTYLE
  2
Standard
  9
$DIMCLRD
 70
     0
  9
$DIMCLRE
 70
     0
  9
$DIMCLRT
 70
     0
  9
$DIMTFAC
 40
1.0
  9
$DIMGAP
 40
0.09
  9
$DIMJUST
 70
     0
  9
$DIMSD1
 70
     0
  9
$DIMSD2
 70
     0
  9
$DIMTOLJ
 70
     1
  9
$DIMTZIN
 70
     0
  9
$DIMALTZ
 70
     0
  9
$DIMALTTZ
 70
     0
  9
$DIMUPT
 70
     0
  9
$DIMDEC
 70
     4
  9
$DIMTDEC
 70
     4
  9
$DIMALTU
 70
     2
  9
$DIMALTTD
 70
     2
  9
$DIMTXSTY
  7
Standard
  9
$DIMAUNIT
 70
     0
  9
$DIMADEC
 70
     0
  9
$DIMALTRND
 40
0.0
  9
$DIMAZIN
 70
     0
  9
$DIMDSEP
 70
    46
  9
$DIMATFIT
 70
     3
  9
$DIMFRAC
 70
     0
  9
$DIMLDRBLK
  1

  9
$DIMLUNIT
 70
     2
  9
$DIMLWD
 70
    -2
  9
$DIMLWE
 70
    -2
  9
$DIMTMOVE
 70
     0
  9
$DIMFXL
 40
1.0
  9
$DIMFXLON
 70
     0
  9
$DIMJOGANG
 40
0.7853981633974483
  9
$DIMTFILL
 70
     0
  9
$DIMTFILLCLR
 70
     0
  9
$DIMARCSYM
 70
     0
  9
$DIMLTYPE
  6

  9
$DIMLTEX1
  6

  9
$DIMLTEX2
  6

  9
$DIMTXTDIRECTION
 70
     0
  9
$LUNITS
 70
     2
  9
$LUPREC
 70
     4
  9
$SKETCHINC
 40
0.1
  9
$FILLETRAD
 40
0.5
  9
$AUNITS
 70
     0
  9
$AUPREC
 70
     0
  9
$MENU
  1
.
  9
$ELEVATION
 40
0.0
  9
$PELEVATION
 40
0.0
  9
$THICKNESS
 40
0.0
  9
$LIMCHECK
 70
     0
  9
$CHAMFERA
 40
0.0
  9
$CHAMFERB
 40
0.0
  9
$CHAMFERC
 40
0.0
  9
$CHAMFERD
 40
0.0
  9
$SKPOLY
 70
     0
  9
$TDCREATE
 40
2458168.978890162
  9
$TDUCREATE
 40
2458168.937223495
  9
$TDUPDATE
 40
2458168.978890336
  9
$TDUUPDATE
 40
2458168.937223669
  9
$TDINDWG
 40
0.0000000116
  9
$TDUSRTIMER
 40
0.0000000116
  9
$USRTIMER
 70
     1
  9
$ANGBASE
 50
0.0
  9
$ANGDIR
 70
     0
  9
$PDMODE
 70
     0
  9
$PDSIZE
 40
0.0
  9
$PLINEWID
 40
0.0
  9
$SPLFRAME
 70
     0
  9
$SPLINETYPE
 70
     6
  9
$SPLINESEGS
 70
     8
  9
$HANDSEED
  5
1E3
  9
$SURFTAB1
 70
     6
  9
$SURFTAB2
 70
     6
  9
$SURFTYPE
 70
     6
  9
$SURFU
 70
     6
  9
$SURFV
 70
     6
  9
$UCSBASE
  2

  9
$UCSNAME
  2

  9
$UCSORG
 10
0.0
 20
0.0
 30
0.0
  9
$UCSXDIR
 10
1.0
 20
0.0
 30
0.0
  9
$UCSYDIR
 10
0.0
 20
1.0
 30
0.0
  9
$UCSORTHOREF
  2

  9
$UCSORTHOVIEW
 70
     0
  9
$UCSORGTOP
 10
0.0
 20
0.0
 30
0.0
  9
$UCSORGBOTTOM
 10
0.0
 20
0.0
 30
0.0
  9
$UCSORGLEFT
 10
0.0
 20
0.0
 30
0.0
  9
$UCSORGRIGHT
 10
0.0
 20
0.0
 30
0.0
  9
$UCSORGFRONT
 10
0.0
 20
0.0
 30
0.0
  9
$UCSORGBACK
 10
0.0
 20
0.0
 30
0.0
  9
$PUCSBASE
  2

  9
$PUCSNAME
  2

  9
$PUCSORG
 10
0.0
 20
0.0
 30
0.0
  9
$PUCSXDIR
 10
1.0
 20
0.0
 30
0.0
  9
$PUCSYDIR
 10
0.0
 20
1.0
 30
0.0
  9
$PUCSORTHOREF
  2

  9
$PUCSORTHOVIEW
 70
     0
  9
$PUCSORGTOP
 10
0.0
 20
0.0
 30
0.0
  9
$PUCSORGBOTTOM
 10
0.0
 20
0.0
 30
0.0
  9
$PUCSORGLEFT
 10
0.0
 20
0.0
 30
0.0
  9
$PUCSORGRIGHT
 10
0.0
 20
0.0
 30
0.0
  9
$PUCSORGFRONT
 10
0.0
 20
0.0
 30
0.0
  9
$PUCSORGBACK
 10
0.0
 20
0.0
 30
0.0
  9
$USERI1
 70
     0
  9
$USERI2
 70
     0
  9
$USERI3
 70
     0
  9
$USERI4
 70
     0
  9
$USERI5
 70
     0
  9
$USERR1
 40
0.0
  9
$USERR2
 40
0.0
  9
$USERR3
 40
0.0
  9
$USERR4
 40
0.0
  9
$USERR5
 40
0.0
  9
$WORLDVIEW
 70
     1
  9
$SHADEDGE
 70
     3
  9
$SHADEDIF
 70
    70
  9
$TILEMODE
 70
     1
  9
$MAXACTVP
 70
    64
  9
$PINSBASE
 10
0.0
 20
0.0
 30
0.0
  9
$PLIMCHECK
 70
     0
  9
$PEXTMIN
 10
1.000000000000000E+20
 20
1.000000000000000E+20
 30
1.000000000000000E+20
  9
$PEXTMAX
 10
-1.000000000000000E+20
 20
-1.000000000000000E+20
 30
-1.000000000000000E+20
  9
$PLIMMIN
 10
0.0
 20
0.0
  9
$PLIMMAX
 10
12.0
 20
9.0
  9
$UNITMODE
 70
     0
  9
$VISRETAIN
 70
     1
  9
$PLINEGEN
 70
     0
  9
$PSLTSCALE
 70
     1
  9
$TREEDEPTH
 70
  3020
  9
$CMLSTYLE
  2
Standard
  9
$CMLJUST
 70
     0
  9
$CMLSCALE
 40
1.0
  9
$PROXYGRAPHICS
 70
     1
  9
$MEASUREMENT
 70
     0
  9
$CELWEIGHT
370
    -1
  9
$ENDCAPS
280
     0
  9
$JOINSTYLE
280
     0
  9
$LWDISPLAY
290
     0
  9
$INSUNITS
 70
     1
  9
$HYPERLINKBASE
  1

  9
$STYLESHEET
  1

  9
$XEDIT
290
     1
  9
$CEPSNTYPE
380
     0
  9
$PSTYLEMODE
290
     1
  9
$FINGERPRINTGUID
  2
{E439911C-20FD-448C-80FF-823E51995C08}
  9
$VERSIONGUID
  2
{FAEB1C32-E019-11D5-929B-00C0DF256EC4}
  9
$EXTNAMES
290
     1
  9
$PSVPSCALE
 40
0.0
  9
$OLESTARTUP
290
     0
  9
$SORTENTS
280
   127
  9
$INDEXCTL
280
     0
  9
$HIDETEXT
280
     1
  9
$XCLIPFRAME
280
     2
  9
$HALOGAP
280
     0
  9
$OBSCOLOR
 70
   257
  9
$OBSLTYPE
280
     0
  9
$INTERSECTIONDISPLAY
280
     0
  9
$INTERSECTIONCOLOR
 70
   257
  9
$DIMASSOC
280
     2
  9
$PROJECTNAME
  1

  9
$CAMERADISPLAY
290
     0
  9
$LENSLENGTH
 40
50.0
  9
$CAMERAHEIGHT
 40
0.0
  9
$STEPSPERSEC
 40
2.0
  9
$STEPSIZE
 40
6.0
  9
$3DDWFPREC
 40
2.0
  9
$PSOLWIDTH
 40
0.25
  9
$PSOLHEIGHT
 40
4.0
  9
$LOFTANG1
 40
1.570796326794897
  9
$LOFTANG2
 40
1.570796326794897
  9
$LOFTMAG1
 40
0.0
  9
$LOFTMAG2
 40
0.0
  9
$LOFTPARAM
 70
     7
  9
$LOFTNORMALS
280
     1
  9
$LATITUDE
 40
37.795
  9
$LONGITUDE
 40
-122.394
  9
$NORTHDIRECTION
 40
0.0
  9
$TIMEZONE
 70
 -8000
  9
$LIGHTGLYPHDISPLAY
280
     1
  9
$TILEMODELIGHTSYNCH
280
     1
  9
$CMATERIAL
347
44
  9
$SOLIDHIST
280
     0
  9
$SHOWHIST
280
     1
  9
$DWFFRAME
280
     2
  9
$DGNFRAME
280
     2
  9
$REALWORLDSCALE
290
     1
  9
$INTERFERECOLOR
 62
   256
  9
$CSHADOW
280
     0
  9
$SHADOWPLANELOCATION
 40
0.0
  0
ENDSEC
  0
SECTION
  2
CLASSES
  0
CLASS
  1
ACDBDICTIONARYWDFLT
  2
AcDbDictionaryWithDefault
  3
ObjectDBX Classes
 90
        0
 91
        4
280
     0
281
     0
  0
CLASS
  1
VISUALSTYLE
  2
AcDbVisualStyle
  3
ObjectDBX Classes
 90
     4095
 91
        4
280
     0
281
     0
  0
CLASS
  1
MATERIAL
  2
AcDbMaterial
  3
ObjectDBX Classes
 90
     1153
 91
        4
280
     0
281
     0
  0
CLASS
  1
SCALE
  2
AcDbScale
  3
ObjectDBX Classes
 90
     1153
 91
        4
280
     0
281
     0
  0
CLASS
  1
TABLESTYLE
  2
AcDbTableStyle
  3
ObjectDBX Classes
 90
     4095
 91
        4
280
     0
281
     0
  0
CLASS
  1
MLEADERSTYLE
  2
AcDbMLeaderStyle
  3
ACDB_MLEADERSTYLE_CLASS
 90
     4095
 91
        4
280
     0
281
     0
  0
CLASS
  1
SUN
  2
AcDbSun
  3
SCENEOE
 90
     1153
 91
        4
280
     0
281
     0
  0
CLASS
  1
DICTIONARYVAR
  2
AcDbDictionaryVar
  3
ObjectDBX Classes
 90
        0
 91
        4
280
     0
281
     0
  0
CLASS
  1
CELLSTYLEMAP
  2
AcDbCellStyleMap
  3
ObjectDBX Classes
 90
     1152
 91
        4
280
     0
281
     0
  0
ENDSEC
  0
SECTION
  2
TABLES
  0
TABLE
  2
VPORT
  5
8
330
0
100
AcDbSymbolTable
 70
     1
  0
VPORT
  5
29
330
8
100
AcDbSymbolTableRecord
100
AcDbViewportTableRecord
  2
*Active
 70
     0
 10
0.0
 20
0.0
 11
1.0
 21
1.0
 12
0.0
 22
-0.0637500000000006
 13
0.0
 23
0.0
 14
0.5
 24
0.5
 15
0.5
 25
0.5
 16
0.0
 26
0.0
 36
1.0
 17
0.0
 27
0.0
 37
0.0
 40
3.148230000000001
 41
3.482909444354446
 42
50.0
 43
0.0
 44
0.0
 50
0.0
 51
0.0
 71
     0
 72
   100
 73
     1
 74
     3
 75
     0
 76
     0
 77
     0
 78
     0
281
     0
 65
     1
110
0.0
120
0.0
130
0.0
111
1.0
121
0.0
131
0.0
112
0.0
122
1.0
132
0.0
 79
     0
146
0.0
348
2F
 60
     3
 61
     5
292
     1
282
     1
141
0.0
142
0.0
 63
   250
361
6D
  0
ENDTAB
  0
TABLE
  2
LTYPE
  5
5
330
0
100
AcDbSymbolTable
 70
     3
  0
LTYPE
  5
14
330
5
100
AcDbSymbolTableRecord
100
AcDbLinetypeTableRecord
  2
ByBlock
 70
     0
  3

 72
    65
 73
     0
 40
0.0
  0
LTYPE
  5
15
330
5
100
AcDbSymbolTableRecord
100
AcDbLinetypeTableRecord
  2
ByLayer
 70
     0
  3

 72
    65
 73
     0
 40
0.0
  0
LTYPE
  5
16
330
5
100
AcDbSymbolTableRecord
100
AcDbLinetypeTableRecord
  2
Continuous
 70
     0
  3
Solid line
 72
    65
 73
     0
 40
0.0
  0
LTYPE
  5
9B
330
5
100
AcDbSymbolTableRecord
100
AcDbLinetypeTableRecord
  2
Dashed
 70
     0
  3

 72
    65
 73
     2
 40
2.0
 49
1.0
 74
     0
 49
-1.0
 74
     0
  0
LTYPE
  5
11E
330
5
100
AcDbSymbolTableRecord
100
AcDbLinetypeTableRecord
  2
Center
 70
     0
  3

 72
    65
 73
     4
 40
1.5
 49
0.45
 74
     0
 49
-0.5
 74
     0
 49
0.05
 74
     0
 49
-0.5
 74
     0
  0
ENDTAB
  0
TABLE
  2
LAYER
  5
2
330
0
100
AcDbSymbolTable
 70
     7
  0
LAYER
  5
10
330
2
100
AcDbSymbolTableRecord
100
AcDbLayerTableRecord
  2
0
 70
     0
 62
     7
  6
Continuous
370
    -3
390
F
347
46
348
0
  0
LAYER
  5
72
330
2
100
AcDbSymbolTableRecord
100
AcDbLayerTableRecord
  2
AM_6
 70
     0
 62
    -2
  6
Continuous
370
    35
390
F
347
46
348
0
  0
LAYER
  5
9C
330
2
100
AcDbSymbolTableRecord
100
AcDbLayerTableRecord
  2
AM_9
 70
     0
 62
     6
  6
Dashed
370
    25
390
F
347
46
348
0
  0
LAYER
  5
BA
330
2
100
AcDbSymbolTableRecord
100
AcDbLayerTableRecord
  2
AM_4
 70
     0
 62
     7
  6
Continuous
370
    50
390
F
347
46
348
0
  0
LAYER
  5
11F
330
2
100
AcDbSymbolTableRecord
100
AcDbLayerTableRecord
  2
AM_7
 70
     0
 62
     7
  6
Center
370
    25
390
F
347
46
348
0
  0
LAYER
  5
134
330
2
100
AcDbSymbolTableRecord
100
AcDbLayerTableRecord
  2
AM_5
 70
     0
 62
     3
  6
Continuous
370
    25
390
F
347
46
348
0
  0
LAYER
  5
1D5
330
2
100
AcDbSymbolTableRecord
100
AcDbLayerTableRecord
  2
ConnectionPoints
 70
     0
 62
     7
  6
Continuous
370
    50
390
F
347
46
348
0
  0
ENDTAB
  0
TABLE
  2
STYLE
  5
3
330
0
100
AcDbSymbolTable
 70
     1
  0
STYLE
  5
11
330
3
100
AcDbSymbolTableRecord
100
AcDbTextStyleTableRecord
  2
Standard
 70
     0
 40
0.0
 41
1.0
 50
0.0
 71
     0
 42
0.2
  3
txt
  4

  0
ENDTAB
  0
TABLE
  2
VIEW
  5
6
330
0
100
AcDbSymbolTable
 70
     0
  0
ENDTAB
  0
TABLE
  2
UCS
  5
7
330
0
100
AcDbSymbolTable
 70
     0
  0
ENDTAB
  0
TABLE
  2
APPID
  5
9
330
0
100
AcDbSymbolTable
 70
     1
  0
APPID
  5
12
330
9
100
AcDbSymbolTableRecord
100
AcDbRegAppTableRecord
  2
ACAD
 70
     0
  0
ENDTAB
  0
TABLE
  2
DIMSTYLE
  5
A
330
0
100
AcDbSymbolTable
 70
     1
100
AcDbDimStyleTable
  0
DIMSTYLE
105
27
330
A
100
AcDbSymbolTableRecord
100
AcDbDimStyleTableRecord
  2
Standard
 70
     0
178
     0
340
11
  0
ENDTAB
  0
TABLE
  2
BLOCK_RECORD
  5
1
330
0
100
AcDbSymbolTable
 70
     5
  0
BLOCK_RECORD
  5
1F
330
1
100
AcDbSymbolTableRecord
100
AcDbBlockTableRecord
  2
*Model_Space
340
22
 70
     0
280
     1
281
     0
  0
BLOCK_RECORD
  5
1B
330
1
100
AcDbSymbolTableRecord
100
AcDbBlockTableRecord
  2
*Paper_Space
340
1E
 70
     0
280
     1
281
     0
  0
BLOCK_RECORD
  5
23
330
1
100
AcDbSymbolTableRecord
100
AcDbBlockTableRecord
  2
*Paper_Space0
340
26
 70
     0
280
     1
281
     0
  0
BLOCK_RECORD
  5
6E
330
1
100
AcDbSymbolTableRecord
100
AcDbBlockTableRecord
  2
1_124872_4
340
0
102
{BLKREFS
331
6F
102
}
 70
     0
280
     1
281
     0
  0
BLOCK_RECORD
  5
8F
330
1
100
AcDbSymbolTableRecord
100
AcDbBlockTableRecord
  2
2_405015E_Inch_0_in_124872_4
340
0
102
{BLKREFS
331
90
102
}
 70
     0
280
     1
281
     0
  0
BLOCK_RECORD
  5
D6
330
1
100
AcDbSymbolTableRecord
100
AcDbBlockTableRecord
  2
3_123326_0_in_124872_4
340
0
102
{BLKREFS
331
D7
102
}
 70
     0
280
     1
281
     0
  0
BLOCK_RECORD
  5
137
330
1
100
AcDbSymbolTableRecord
100
AcDbBlockTableRecord
  2
4_124872H_0_in_124872_4
340
0
102
{BLKREFS
331
138
102
}
 70
     0
280
     1
281
     0
  0
ENDTAB
  0
ENDSEC
  0
SECTION
  2
BLOCKS
  0
BLOCK
  5
20
330
1F
100
AcDbEntity
  8
0
100
AcDbBlockBegin
  2
*Model_Space
 70
     0
 10
0.0
 20
0.0
 30
0.0
  3
*Model_Space
  1

  0
ENDBLK
  5
21
330
1F
100
AcDbEntity
  8
0
100
AcDbBlockEnd
  0
BLOCK
  5
1C
330
1B
100
AcDbEntity
 67
     1
  8
0
100
AcDbBlockBegin
  2
*Paper_Space
 70
     0
 10
0.0
 20
0.0
 30
0.0
  3
*Paper_Space
  1

  0
ENDBLK
  5
1D
330
1B
100
AcDbEntity
 67
     1
  8
0
100
AcDbBlockEnd
  0
BLOCK
  5
24
330
23
100
AcDbEntity
  8
0
100
AcDbBlockBegin
  2
*Paper_Space0
 70
     0
 10
0.0
 20
0.0
 30
0.0
  3
*Paper_Space0
  1

  0
ENDBLK
  5
25
330
23
100
AcDbEntity
  8
0
100
AcDbBlockEnd
  0
BLOCK
  5
70
330
6E
100
AcDbEntity
  8
0
100
AcDbBlockBegin
  2
1_124872_4
 70
     2
 10
0.0
 20
0.0
 30
0.0
  3
1_124872_4
  1

  0
ATTDEF
  5
73
330
6E
100
AcDbEntity
  8
AM_6
100
AcDbText
 10
10.375
 20
1.4795
 30
0.0
 40
0.5
  1
Set Screw Air-Handling Two-Bolt Pillow Block Inch Bore
100
AcDbAttributeDefinition
  3

  2
NN
 70
     8
280
     0
  0
ATTDEF
  5
74
330
6E
100
AcDbEntity
  8
AM_6
100
AcDbText
 10
10.375
 20
0.9795
 30
0.0
 40
0.5
  1
SC Pillow Block Bearings -(Normal Duty) -Air Handling
100
AcDbAttributeDefinition
  3

  2
NT
 70
     8
280
     0
  0
ATTDEF
  5
75
330
6E
100
AcDbEntity
  8
AM_6
100
AcDbText
 10
10.375
 20
0.4795
 30
0.0
 40
0.5
  1
124872
100
AcDbAttributeDefinition
  3

  2
NB
 70
     8
280
     0
  0
ATTDEF
  5
76
330
6E
100
AcDbEntity
  8
AM_6
100
AcDbText
 10
10.375
 20
-0.0205
 30
0.0
 40
0.5
  1
$PN.
100
AcDbAttributeDefinition
  3

  2
NBSYN
 70
     8
280
     0
  0
ATTDEF
  5
77
330
6E
100
AcDbEntity
  8
AM_6
100
AcDbText
 10
10.375
 20
-0.5205
 30
0.0
 40
0.5
  1
124872
100
AcDbAttributeDefinition
  3

  2
LINA
 70
     8
280
     0
  0
ATTDEF
  5
78
330
6E
100
AcDbEntity
  8
AM_6
100
AcDbText
 10
10.375
 20
-1.0205
 30
0.0
 40
0.5
  1
214
100
AcDbAttributeDefinition
  3

  2
SERIES
 70
     8
280
     0
  0
ATTDEF
  5
79
330
6E
100
AcDbEntity
  8
AM_6
100
AcDbText
 10
10.375
 20
-1.5205
 30
0.0
 40
0.5
  1
2-11/16
100
AcDbAttributeDefinition
  3

  2
SS
 70
     8
280
     0
  0
ATTDEF
  5
7A
330
6E
100
AcDbEntity
  8
AM_6
100
AcDbText
 10
10.375
 20
-2.0205
 30
0.0
 40
0.5
  1
124872
100
AcDbAttributeDefinition
  3

  2
PN
 70
     8
280
     0
  0
ATTDEF
  5
7B
330
6E
100
AcDbEntity
  8
AM_6
100
AcDbText
 10
10.375
 20
-2.5205
 30
0.0
 40
0.5
  1
P2B-SCAH-211
100
AcDbAttributeDefinition
  3

  2
DESCRIPTION
 70
     8
280
     0
  0
ATTDEF
  5
7C
330
6E
100
AcDbEntity
  8
AM_6
100
AcDbText
 10
10.375
 20
-3.0205
 30
0.0
 40
0.5
  1
15.0
100
AcDbAttributeDefinition
  3

  2
WEIGHT
 70
     8
280
     0
  0
ATTDEF
  5
7D
330
6E
100
AcDbEntity
  8
AM_6
100
AcDbText
 10
10.375
 20
-3.5205
 30
0.0
 40
0.5
  1
2.54
100
AcDbAttributeDefinition
  3

  2
A
 70
     8
280
     0
  0
ATTDEF
  5
7E
330
6E
100
AcDbEntity
  8
AM_6
100
AcDbText
 10
10.375
 20
-4.0205
 30
0.0
 40
0.5
  1
10.75
100
AcDbAttributeDefinition
  3

  2
B
 70
     8
280
     0
  0
ATTDEF
  5
7F
330
6E
100
AcDbEntity
  8
AM_6
100
AcDbText
 10
10.375
 20
-4.5205
 30
0.0
 40
0.5
  1
2.69
100
AcDbAttributeDefinition
  3

  2
C
 70
     8
280
     0
  0
ATTDEF
  5
80
330
6E
100
AcDbEntity
  8
AM_6
100
AcDbText
 10
10.375
 20
-5.0205
 30
0.0
 40
0.5
  1
7.50
100
AcDbAttributeDefinition
  3

  2
DMIN
 70
     8
280
     0
  0
ATTDEF
  5
81
330
6E
100
AcDbEntity
  8
AM_6
100
AcDbText
 10
10.375
 20
-5.5205
 30
0.0
 40
0.5
  1
8.50
100
AcDbAttributeDefinition
  3

  2
DMAX
 70
     8
280
     0
  0
ATTDEF
  5
82
330
6E
100
AcDbEntity
  8
AM_6
100
AcDbText
 10
10.375
 20
-6.0205
 30
0.0
 40
0.5
  1
3/4
100
AcDbAttributeDefinition
  3

  2
F
 70
     8
280
     0
  0
ATTDEF
  5
83
330
6E
100
AcDbEntity
  8
AM_6
100
AcDbText
 10
10.375
 20
-6.5205
 30
0.0
 40
0.5
  1
1.32
100
AcDbAttributeDefinition
  3

  2
G
 70
     8
280
     0
  0
ATTDEF
  5
84
330
6E
100
AcDbEntity
  8
AM_6
100
AcDbText
 10
10.375
 20
-7.0205
 30
0.0
 40
0.5
  1
0.94
100
AcDbAttributeDefinition
  3

  2
H
 70
     8
280
     0
  0
ATTDEF
  5
85
330
6E
100
AcDbEntity
  8
AM_6
100
AcDbText
 10
10.375
 20
-7.5205
 30
0.0
 40
0.5
  1
6.09
100
AcDbAttributeDefinition
  3

  2
J
 70
     8
280
     0
  0
ATTDEF
  5
86
330
6E
100
AcDbEntity
  8
AM_6
100
AcDbText
 10
10.375
 20
-8.0205
 30
0.0
 40
0.5
  1
3.31
100
AcDbAttributeDefinition
  3

  2
L
 70
     8
280
     0
  0
ATTDEF
  5
87
330
6E
100
AcDbEntity
  8
AM_6
100
AcDbText
 10
10.375
 20
-8.5205
 30
0.0
 40
0.5
  1
3.00
100
AcDbAttributeDefinition
  3

  2
M
 70
     8
280
     0
  0
ATTDEF
  5
88
330
6E
100
AcDbEntity
  8
AM_6
100
AcDbText
 10
10.375
 20
-9.0205
 30
0.0
 40
0.5
  1
1.06
100
AcDbAttributeDefinition
  3

  2
R
 70
     8
280
     0
  0
ATTDEF
  5
89
330
6E
100
AcDbEntity
  8
AM_6
100
AcDbText
 10
10.375
 20
-9.5205
 30
0.0
 40
0.5
  1
1.48
100
AcDbAttributeDefinition
  3

  2
S
 70
     8
280
     0
  0
ATTDEF
  5
8A
330
6E
100
AcDbEntity
  8
AM_6
100
AcDbText
 10
10.375
 20
-10.0205
 30
0.0
 40
0.5
  1
4.88
100
AcDbAttributeDefinition
  3

  2
U
 70
     8
280
     0
  0
ATTDEF
  5
8B
330
6E
100
AcDbEntity
  8
AM_6
100
AcDbText
 10
10.375
 20
-10.5205
 30
0.0
 40
0.5
  1
9.76
100
AcDbAttributeDefinition
  3

  2
V
 70
     8
280
     0
  0
ATTDEF
  5
8C
330
6E
100
AcDbEntity
  8
AM_6
100
AcDbText
 10
10.375
 20
-11.0205
 30
0.0
 40
0.5
  1
0.94
100
AcDbAttributeDefinition
  3

  2
W
 70
     8
280
     0
  0
ATTDEF
  5
8D
330
6E
100
AcDbEntity
  8
AM_6
100
AcDbText
 10
10.375
 20
-11.5205
 30
0.0
 40
0.5
  1
0.12
100
AcDbAttributeDefinition
  3

  2
X
 70
     8
280
     0
  0
ATTDEF
  5
8E
330
6E
100
AcDbEntity
  8
AM_6
100
AcDbText
 10
10.375
 20
-12.0205
 30
0.0
 40
0.5
  1
baldor
100
AcDbAttributeDefinition
  3

  2
COMPANY
 70
     8
280
     0
  0
INSERT
  5
90
330
6E
100
AcDbEntity
  8
0
100
AcDbBlockReference
  2
2_405015E_Inch_0_in_124872_4
 10
0.0
 20
0.0
 30
0.0
  0
INSERT
  5
D7
330
6E
100
AcDbEntity
  8
0
100
AcDbBlockReference
  2
3_123326_0_in_124872_4
 10
0.0
 20
0.0
 30
0.0
  0
INSERT
  5
138
330
6E
100
AcDbEntity
  8
0
100
AcDbBlockReference
  2
4_124872H_0_in_124872_4
 10
0.0
 20
0.0
 30
0.0
  0
ENDBLK
  5
71
330
6E
100
AcDbEntity
  8
0
100
AcDbBlockEnd
  0
BLOCK
  5
91
330
8F
100
AcDbEntity
  8
0
100
AcDbBlockBegin
  2
2_405015E_Inch_0_in_124872_4
 70
     2
 10
0.0
 20
0.0
 30
0.0
  3
2_405015E_Inch_0_in_124872_4
  1

  0
ATTDEF
  5
93
330
8F
100
AcDbEntity
  8
AM_6
100
AcDbText
 10
7.522729237546351
 20
0.2187500000000001
 30
0.0
 40
0.5
  1
405015E -Inch
100
AcDbAttributeDefinition
  3

  2
NN
 70
     8
280
     0
  0
ATTDEF
  5
94
330
8F
100
AcDbEntity
  8
AM_6
100
AcDbText
 10
7.522729237546351
 20
-0.2812499999999999
 30
0.0
 40
0.5
  1
Grease Fitting
100
AcDbAttributeDefinition
  3

  2
NT
 70
     8
280
     0
  0
ATTDEF
  5
95
330
8F
100
AcDbEntity
  8
AM_6
100
AcDbText
 10
7.522729237546351
 20
-0.7812499999999999
 30
0.0
 40
0.5
  1
405015E-Inch
100
AcDbAttributeDefinition
  3

  2
NB
 70
     8
280
     0
  0
ATTDEF
  5
96
330
8F
100
AcDbEntity
  8
AM_6
100
AcDbText
 10
7.522729237546351
 20
-1.28125
 30
0.0
 40
0.5
  1
$MN.-Inch
100
AcDbAttributeDefinition
  3

  2
NBSYN
 70
     8
280
     0
  0
ATTDEF
  5
97
330
8F
100
AcDbEntity
  8
AM_6
100
AcDbText
 10
7.522729237546351
 20
-1.78125
 30
0.0
 40
0.5
  1
405015E
100
AcDbAttributeDefinition
  3

  2
LINA
 70
     8
280
     0
  0
ATTDEF
  5
98
330
8F
100
AcDbEntity
  8
AM_6
100
AcDbText
 10
7.522729237546351
 20
-2.28125
 30
0.0
 40
0.5
  1
405015E
100
AcDbAttributeDefinition
  3

  2
MN
 70
     8
280
     0
  0
ATTDEF
  5
99
330
8F
100
AcDbEntity
  8
AM_6
100
AcDbText
 10
7.522729237546351
 20
-2.78125
 30
0.0
 40
0.5
  1
1/8 x 27PTF
100
AcDbAttributeDefinition
  3

  2
T
 70
     8
280
     0
  0
ATTDEF
  5
9A
330
8F
100
AcDbEntity
  8
AM_6
100
AcDbText
 10
7.522729237546351
 20
-3.28125
 30
0.0
 40
0.5
  1
baldor
100
AcDbAttributeDefinition
  3

  2
COMPANY
 70
     8
280
     0
  0
LWPOLYLINE
  5
9D
330
8F
100
AcDbEntity
  8
AM_9
100
AcDbPolyline
 90
        3
 70
     0
 43
0.0
 10
2.318916424174886
 20
0.1093750000000001
 10
2.342934878342688
 20
0.0546875000000001
 10
2.369980342178933
 20
0.0000000000000001
  0
LWPOLYLINE
  5
9E
330
8F
100
AcDbEntity
  8
AM_9
100
AcDbPolyline
 90
        3
 70
     0
 43
0.0
 10
2.369980342178933
 20
0.0000000000000001
 10
2.34305021358507
 20
-0.0544416102741494
 10
2.318916424174886
 20
-0.1093749999999998
  0
ELLIPSE
  5
9F
330
8F
100
AcDbEntity
  8
AM_9
100
AcDbEllipse
 10
1.997576656851996
 20
0.0000000000000001
 30
0.0
 11
9.913691727296317E-18
 21
0.161902872472269
 31
0.0
210
0.0
220
0.0
230
1.0
 40
0.7071067811865478
 41
0.0
 42
6.283185307179586
  0
LWPOLYLINE
  5
A0
330
8F
100
AcDbEntity
  8
AM_9
100
AcDbPolyline
 90
        3
 70
     0
 43
0.0
 10
2.427867497828465
 20
0.0000000000000001
 10
2.410346237773284
 20
0.0544416102741497
 10
2.389627102293541
 20
0.109375
  0
LINE
  5
A1
330
8F
100
AcDbEntity
  8
AM_9
100
AcDbLine
 10
2.425195498029773
 20
-0.008840612700121
 30
0.0
 11
2.427867497828465
 21
0.0000000000000001
 31
0.0
  0
LWPOLYLINE
  5
A2
330
8F
100
AcDbEntity
  8
AM_9
100
AcDbPolyline
 90
        3
 70
     0
 43
0.0
 10
2.389627102293541
 20
-0.1093749999999998
 10
2.410260804895224
 20
-0.0546874999999999
 10
2.425195498029773
 20
-0.008840612700121
  0
LWPOLYLINE
  5
A3
330
8F
100
AcDbEntity
  8
AM_9
100
AcDbPolyline
 90
        3
 70
     0
 43
0.0
 10
2.318916424174886
 20
-0.1093749999999998
 10
2.298282721573203
 20
-0.1640624999999998
 10
2.280676028639962
 20
-0.2187499999999999
  0
LINE
  5
A4
330
8F
100
AcDbEntity
  8
AM_9
100
AcDbLine
 10
2.427867497828465
 20
0.0000000000000001
 30
0.0
 11
2.369980342178933
 21
0.0000000000000001
 31
0.0
  0
LWPOLYLINE
  5
A5
330
8F
100
AcDbEntity
  8
AM_9
100
AcDbPolyline
 90
        3
 70
     0
 43
0.0
 10
2.280676028639963
 20
0.2187500000000001
 10
2.298197288695143
 20
0.1643083897258505
 10
2.318916424174886
 20
0.1093750000000001
  0
LINE
  5
A6
330
8F
100
AcDbEntity
  8
AM_9
100
AcDbLine
 10
2.379892826160535
 20
-0.1324675376933441
 30
0.0
 11
2.389627102293541
 21
-0.1093749999999998
 31
0.0
  0
LINE
  5
A7
330
8F
100
AcDbEntity
  8
AM_9
100
AcDbLine
 10
2.389627102293541
 20
0.109375
 30
0.0
 11
2.379883204375086
 21
0.1324896703041859
 31
0.0
  0
LINE
  5
A8
330
8F
100
AcDbEntity
  8
AM_9
100
AcDbLine
 10
2.019148818300423
 20
-0.1985206121313387
 30
0.0
 11
2.180408483001199
 21
-0.2056511888648692
 31
0.0
  0
LINE
  5
A9
330
8F
100
AcDbEntity
  8
AM_9
100
AcDbLine
 10
2.180408483001199
 20
0.2056511888648695
 30
0.0
 11
2.019148818300423
 21
0.198520612131339
 31
0.0
  0
ELLIPSE
  5
AA
330
8F
100
AcDbEntity
  8
AM_9
100
AcDbEllipse
 10
2.255670631985018
 20
-0.0000000000000651
 30
0.0
 11
-4.018372309704374E-17
 21
-0.2187500000001155
 31
0.0
210
0.0
220
0.0
230
1.0
 40
0.7071067811865474
 41
0.9156936017152226
 42
2.225899051875043
  0
LINE
  5
AB
330
8F
100
AcDbEntity
  8
AM_9
100
AcDbLine
 10
2.361736649163068
 20
0.0948683298050516
 30
0.0
 11
2.343122782734003
 21
0.1073548910028991
 31
0.0
  0
LINE
  5
AC
330
8F
100
AcDbEntity
  8
AM_9
100
AcDbLine
 10
2.343122782734003
 20
-0.1073548910028988
 30
0.0
 11
2.361736649163068
 21
-0.0948683298050513
 31
0.0
  0
ELLIPSE
  5
AD
330
8F
100
AcDbEntity
  8
AM_9
100
AcDbEllipse
 10
2.329916844009674
 20
-0.0000000000000002
 30
0.0
 11
-1.928818708657064E-17
 21
-0.1049999999999991
 31
0.0
210
0.0
220
0.0
230
1.0
 40
0.7071067811865472
 41
0.0
 42
3.141592653589793
  0
ELLIPSE
  5
AE
330
8F
100
AcDbEntity
  8
AM_9
100
AcDbEllipse
 10
2.255670631985085
 20
0.0000000000000004
 30
0.0
 11
-3.926523799766212E-17
 21
-0.2137500000000006
 31
0.0
210
0.0
220
0.0
230
1.0
 40
0.7071067811865476
 41
0.9036552188403233
 42
2.237937434749468
  0
LINE
  5
AF
330
8F
100
AcDbEntity
  8
AM_9
100
AcDbLine
 10
2.331235834892212
 20
-0.1049999999999999
 30
0.0
 11
2.35113004744527
 21
-0.1049999999999999
 31
0.0
  0
LINE
  5
B0
330
8F
100
AcDbEntity
  8
AM_9
100
AcDbLine
 10
2.35113004744527
 20
0.1050000000000002
 30
0.0
 11
2.331235834892212
 21
0.1050000000000002
 31
0.0
  0
ELLIPSE
  5
B1
330
8F
100
AcDbEntity
  8
AM_9
100
AcDbEllipse
 10
2.351130047445269
 20
0.0000000000000003
 30
0.0
 11
-1.928818708657087E-17
 21
-0.1050000000000003
 31
0.0
210
0.0
220
0.0
230
1.0
 40
0.7071067811865474
 41
5.759586531581294
 42
9.948376736367672
  0
ELLIPSE
  5
B2
330
8F
100
AcDbEntity
  8
AM_9
100
AcDbEllipse
 10
2.307114857634017
 20
-0.0000000000000025
 30
0.0
 11
-2.182689656893813E-17
 21
-0.1188200907349225
 31
0.0
210
0.0
220
0.0
230
1.0
 40
0.707106781186826
 41
0.3762206261013503
 42
2.765372027488457
  0
LINE
  5
B3
330
8F
100
AcDbEntity
  8
AM_9
100
AcDbLine
 10
2.390020570953746
 20
0.0192743186691522
 30
0.0
 11
2.389007730762755
 21
0.0279874918769155
 31
0.0
  0
LINE
  5
B4
330
8F
100
AcDbEntity
  8
AM_9
100
AcDbLine
 10
2.389007730762755
 20
-0.0279874918769152
 30
0.0
 11
2.390020570953746
 21
-0.0192743186691519
 31
0.0
  0
ELLIPSE
  5
B5
330
8F
100
AcDbEntity
  8
AM_9
100
AcDbEllipse
 10
2.268623554392459
 20
0.0000000000000013
 30
0.0
 11
-3.169399141454496E-17
 21
-0.1725340532830176
 31
0.0
210
0.0
220
0.0
230
1.0
 40
0.707106781186572
 41
0.7772913431420916
 42
2.364301310447692
  0
ELLIPSE
  5
B6
330
8F
100
AcDbEntity
  8
AM_9
100
AcDbEllipse
 10
2.393556454316464
 20
0.0000000000000003
 30
0.0
 11
-2.479909768273381E-17
 21
-0.1349999999999995
 31
0.0
210
0.0
220
0.0
230
1.0
 40
0.7071067811865441
 41
0.4159140521025391
 42
2.725678601487253
  0
ELLIPSE
  5
B7
330
8F
100
AcDbEntity
  8
AM_9
100
AcDbEllipse
 10
2.184959953866432
 20
0.0000000000000007
 30
0.0
 11
-3.779601035290902E-17
 21
-0.2057518972230691
 31
0.0
210
0.0
220
0.0
230
1.0
 40
0.7071067811865457
 41
0.0
 42
6.283185307179586
  0
ELLIPSE
  5
B8
330
8F
100
AcDbEntity
  8
AM_9
100
AcDbEllipse
 10
2.02353790859345
 20
0.0000000000000008
 30
0.0
 11
-3.648546613377872E-17
 21
-0.1986176267812147
 31
0.0
210
0.0
220
0.0
230
1.0
 40
0.7071067811865481
 41
0.0
 42
6.283185307179586
  0
ELLIPSE
  5
B9
330
8F
100
AcDbEntity
  8
AM_9
100
AcDbEllipse
 10
2.18495995386643
 20
0.0000000000000001
 30
0.0
 11
-4.018372309702227E-17
 21
-0.2187499999999986
 31
0.0
210
0.0
220
0.0
230
1.0
 40
0.7071067811865476
 41
0.0
 42
6.283185307179586
  0
LWPOLYLINE
  5
BB
330
8F
100
AcDbEntity
  8
AM_4
100
AcDbPolyline
 90
        3
 70
     0
 43
0.0
 10
2.338563184289495
 20
-0.2187499999999999
 10
2.365493312883357
 20
-0.1643083897258503
 10
2.379892826160535
 20
-0.1324675376933441
  0
LWPOLYLINE
  5
BC
330
8F
100
AcDbEntity
  8
AM_4
100
AcDbPolyline
 90
        3
 70
     0
 43
0.0
 10
2.379883204375086
 20
0.1324896703041859
 10
2.365608648125739
 20
0.1640625000000001
 10
2.338563184289495
 20
0.2187500000000001
  0
ELLIPSE
  5
BD
330
8F
100
AcDbEntity
  8
AM_4
100
AcDbEllipse
 10
2.255670631985088
 20
-0.0000000000000001
 30
0.0
 11
-4.018372309702255E-17
 21
-0.2187500000000001
 31
0.0
210
0.0
220
0.0
230
1.0
 40
0.7071067811865427
 41
2.225899051875079
 42
7.198878908894303
  0
ELLIPSE
  5
BE
330
8F
100
AcDbEntity
  8
AM_4
100
AcDbEllipse
 10
2.307114857634068
 20
0.0000000000000001
 30
0.0
 11
-2.182689656893357E-17
 21
-0.1188200907348977
 31
0.0
210
0.0
220
0.0
230
1.0
 40
0.7071067811865475
 41
2.765372027488877
 42
6.659405933280503
  0
ELLIPSE
  5
BF
330
8F
100
AcDbEntity
  8
AM_4
100
AcDbEllipse
 10
2.255670631985086
 20
0.0000000000000001
 30
0.0
 11
-3.926523799766201E-17
 21
-0.21375
 31
0.0
210
0.0
220
0.0
230
1.0
 40
0.7071067811865476
 41
2.237937434749471
 42
7.186840526019909
  0
LINE
  5
C0
330
8F
100
AcDbEntity
  8
AM_4
100
AcDbLine
 10
2.329916844009674
 20
-0.1049999999999999
 30
0.0
 11
2.331235834892212
 21
-0.1049999999999999
 31
0.0
  0
LINE
  5
C1
330
8F
100
AcDbEntity
  8
AM_4
100
AcDbLine
 10
2.331235834892212
 20
0.1050000000000002
 30
0.0
 11
2.329916844009674
 21
0.1050000000000002
 31
0.0
  0
ELLIPSE
  5
C2
330
8F
100
AcDbEntity
  8
AM_4
100
AcDbEllipse
 10
2.329916844009674
 20
0.0000000000000002
 30
0.0
 11
-1.928818708657087E-17
 21
-0.1050000000000003
 31
0.0
210
0.0
220
0.0
230
1.0
 40
0.7071067811865474
 41
3.141592653589793
 42
6.283185307179586
  0
ELLIPSE
  5
C3
330
8F
100
AcDbEntity
  8
AM_4
100
AcDbEllipse
 10
2.268623554392465
 20
0.0000000000000002
 30
0.0
 11
-3.169399141454455E-17
 21
-0.1725340532830154
 31
0.0
210
0.0
220
0.0
230
1.0
 40
0.7071067811865475
 41
2.364301310447714
 42
7.060476650321666
  0
LWPOLYLINE
  5
C4
330
8F
100
AcDbEntity
  8
AM_4
100
AcDbPolyline
 90
        3
 70
     0
 43
0.0
 10
2.121714161676631
 20
0.109375
 10
2.097695707508829
 20
0.0546875000000001
 10
2.070650243672585
 20
0.0000000000000001
  0
LWPOLYLINE
  5
C5
330
8F
100
AcDbEntity
  8
AM_4
100
AcDbPolyline
 90
        3
 70
     0
 43
0.0
 10
2.159954557211555
 20
0.2187500000000001
 10
2.142433297156374
 20
0.1643083897258505
 10
2.121714161676631
 20
0.109375
  0
LINE
  5
C6
330
8F
100
AcDbEntity
  8
AM_4
100
AcDbLine
 10
2.338563184289495
 20
0.2187500000000001
 30
0.0
 11
2.102067401562022
 21
0.2187500000000001
 31
0.0
  0
LWPOLYLINE
  5
C7
330
8F
100
AcDbEntity
  8
AM_4
100
AcDbPolyline
 90
        3
 70
     0
 43
0.0
 10
2.051003483557976
 20
0.1093750000000001
 10
2.075021937725778
 20
0.1640625000000001
 10
2.102067401562022
 20
0.2187500000000001
  0
LWPOLYLINE
  5
C8
330
8F
100
AcDbEntity
  8
AM_4
100
AcDbPolyline
 90
        3
 70
     0
 43
0.0
 10
2.012763088023052
 20
0.0000000000000001
 10
2.030284348078233
 20
0.0544416102741497
 10
2.051003483557976
 20
0.1093750000000001
  0
LINE
  5
C9
330
8F
100
AcDbEntity
  8
AM_4
100
AcDbLine
 10
2.338563184289495
 20
-0.2187499999999999
 30
0.0
 11
2.102067401562022
 21
-0.2187499999999999
 31
0.0
  0
LWPOLYLINE
  5
CA
330
8F
100
AcDbEntity
  8
AM_4
100
AcDbPolyline
 90
        3
 70
     0
 43
0.0
 10
2.121714161676631
 20
-0.1093749999999998
 10
2.142347864278314
 20
-0.1640624999999998
 10
2.159954557211555
 20
-0.2187499999999999
  0
LWPOLYLINE
  5
CB
330
8F
100
AcDbEntity
  8
AM_4
100
AcDbPolyline
 90
        3
 70
     0
 43
0.0
 10
2.070650243672585
 20
0.0000000000000001
 10
2.097580372266447
 20
-0.0544416102741494
 10
2.121714161676631
 20
-0.1093749999999998
  0
LINE
  5
CC
330
8F
100
AcDbEntity
  8
AM_4
100
AcDbLine
 10
2.070650243672585
 20
0.0000000000000001
 30
0.0
 11
2.012763088023052
 21
0.0000000000000001
 31
0.0
  0
LWPOLYLINE
  5
CD
330
8F
100
AcDbEntity
  8
AM_4
100
AcDbPolyline
 90
        3
 70
     0
 43
0.0
 10
2.051003483557976
 20
-0.1093749999999998
 10
2.030369780956293
 20
-0.0546874999999999
 10
2.012763088023052
 20
0.0000000000000001
  0
LWPOLYLINE
  5
CE
330
8F
100
AcDbEntity
  8
AM_4
100
AcDbPolyline
 90
        3
 70
     0
 43
0.0
 10
2.102067401562022
 20
-0.2187499999999999
 10
2.07513727296816
 20
-0.1643083897258503
 10
2.051003483557976
 20
-0.1093749999999998
  0
LINE
  5
CF
330
8F
100
AcDbEntity
  8
AM_4
100
AcDbLine
 10
2.314006941432976
 20
-0.0909326673973659
 30
0.0
 11
2.345826746586371
 21
-0.116913429510899
 31
0.0
  0
LINE
  5
D0
330
8F
100
AcDbEntity
  8
AM_4
100
AcDbLine
 10
2.345826746586371
 20
0.1169134295108993
 30
0.0
 11
2.314006941432976
 21
0.0909326673973662
 31
0.0
  0
ELLIPSE
  5
D1
330
8F
100
AcDbEntity
  8
AM_4
100
AcDbEllipse
 10
2.393556454316462
 20
0.0000000000000002
 30
0.0
 11
-2.479909768273386E-17
 21
-0.1349999999999998
 31
0.0
210
0.0
220
0.0
230
1.0
 40
0.7071067811865492
 41
2.725678601487243
 42
6.699099359282137
  0
ELLIPSE
  5
D2
330
8F
100
AcDbEntity
  8
AM_4
100
AcDbEllipse
 10
2.35113004744527
 20
0.0000000000000002
 30
0.0
 11
-1.928818708657081E-17
 21
-0.105
 31
0.0
210
0.0
220
0.0
230
1.0
 40
0.7071067811865454
 41
3.665191429188095
 42
5.759586531581284
  0
LINE
  5
D3
330
8F
100
AcDbEntity
  8
AM_4
100
AcDbLine
 10
2.479459014175161
 20
0.0939243440009288
 30
0.0
 11
2.432124561665271
 21
0.1234908992236336
 31
0.0
  0
LINE
  5
D4
330
8F
100
AcDbEntity
  8
AM_4
100
AcDbLine
 10
2.432124561665271
 20
-0.1234908992236333
 30
0.0
 11
2.479459014175161
 21
-0.0939243440009285
 31
0.0
  0
ELLIPSE
  5
D5
330
8F
100
AcDbEntity
  8
AM_4
100
AcDbEllipse
 10
2.450124996811387
 20
0.0000000000000012
 30
0.0
 11
-1.886162459184633E-17
 21
-0.1026779019331861
 31
0.0
210
0.0
220
0.0
230
1.0
 40
0.7071067811865515
 41
0.0
 42
6.283185307179586
  0
ENDBLK
  5
92
330
8F
100
AcDbEntity
  8
0
100
AcDbBlockEnd
  0
BLOCK
  5
D8
330
D6
100
AcDbEntity
  8
0
100
AcDbBlockBegin
  2
3_123326_0_in_124872_4
 70
     2
 10
0.0
 20
0.0
 30
0.0
  3
3_123326_0_in_124872_4
  1

  0
ATTDEF
  5
DA
330
D6
100
AcDbEntity
  8
AM_6
100
AcDbText
 10
7.46048984515693
 20
1.06
 30
0.0
 40
0.5
  1
Set Screw Insert Inch Bore
100
AcDbAttributeDefinition
  3

  2
NN
 70
     8
280
     0
  0
ATTDEF
  5
DB
330
D6
100
AcDbEntity
  8
AM_6
100
AcDbText
 10
7.46048984515693
 20
0.56
 30
0.0
 40
0.5
  1
SC Normal Duty Bearing Inserts
100
AcDbAttributeDefinition
  3

  2
NT
 70
     8
280
     0
  0
ATTDEF
  5
DC
330
D6
100
AcDbEntity
  8
AM_6
100
AcDbText
 10
7.46048984515693
 20
0.0600000000000001
 30
0.0
 40
0.5
  1
123326
100
AcDbAttributeDefinition
  3

  2
NB
 70
     8
280
     0
  0
ATTDEF
  5
DD
330
D6
100
AcDbEntity
  8
AM_6
100
AcDbText
 10
7.46048984515693
 20
-0.4399999999999999
 30
0.0
 40
0.5
  1
$PN.
100
AcDbAttributeDefinition
  3

  2
NBSYN
 70
     8
280
     0
  0
ATTDEF
  5
DE
330
D6
100
AcDbEntity
  8
AM_6
100
AcDbText
 10
7.46048984515693
 20
-0.94
 30
0.0
 40
0.5
  1
123326
100
AcDbAttributeDefinition
  3

  2
LINA
 70
     8
280
     0
  0
ATTDEF
  5
DF
330
D6
100
AcDbEntity
  8
AM_6
100
AcDbText
 10
7.46048984515693
 20
-1.44
 30
0.0
 40
0.5
  1
214
100
AcDbAttributeDefinition
  3

  2
SERIES
 70
     8
280
     0
  0
ATTDEF
  5
E0
330
D6
100
AcDbEntity
  8
AM_6
100
AcDbText
 10
7.46048984515693
 20
-1.94
 30
0.0
 40
0.5
  1
2-11/16
100
AcDbAttributeDefinition
  3

  2
SS
 70
     8
280
     0
  0
ATTDEF
  5
E1
330
D6
100
AcDbEntity
  8
AM_6
100
AcDbText
 10
7.46048984515693
 20
-2.44
 30
0.0
 40
0.5
  1
123326
100
AcDbAttributeDefinition
  3

  2
PN
 70
     8
280
     0
  0
ATTDEF
  5
E2
330
D6
100
AcDbEntity
  8
AM_6
100
AcDbText
 10
7.46048984515693
 20
-2.94
 30
0.0
 40
0.5
  1
INS-SC-211
100
AcDbAttributeDefinition
  3

  2
DESCRIPTION
 70
     8
280
     0
  0
ATTDEF
  5
E3
330
D6
100
AcDbEntity
  8
AM_6
100
AcDbText
 10
7.46048984515693
 20
-3.44
 30
0.0
 40
0.5
  1
2.54
100
AcDbAttributeDefinition
  3

  2
A
 70
     8
280
     0
  0
ATTDEF
  5
E4
330
D6
100
AcDbEntity
  8
AM_6
100
AcDbText
 10
7.46048984515693
 20
-3.94
 30
0.0
 40
0.5
  1
1.10
100
AcDbAttributeDefinition
  3

  2
C
 70
     8
280
     0
  0
ATTDEF
  5
E5
330
D6
100
AcDbEntity
  8
AM_6
100
AcDbText
 10
7.46048984515693
 20
-4.44
 30
0.0
 40
0.5
  1
4.9213
100
AcDbAttributeDefinition
  3

  2
D
 70
     8
280
     0
  0
ATTDEF
  5
E6
330
D6
100
AcDbEntity
  8
AM_6
100
AcDbText
 10
7.46048984515693
 20
-4.94
 30
0.0
 40
0.5
  1
0.26
100
AcDbAttributeDefinition
  3

  2
J
 70
     8
280
     0
  0
ATTDEF
  5
E7
330
D6
100
AcDbEntity
  8
AM_6
100
AcDbText
 10
7.46048984515693
 20
-5.44
 30
0.0
 40
0.5
  1
3.31
100
AcDbAttributeDefinition
  3

  2
L
 70
     8
280
     0
  0
ATTDEF
  5
E8
330
D6
100
AcDbEntity
  8
AM_6
100
AcDbText
 10
7.46048984515693
 20
-5.94
 30
0.0
 40
0.5
  1
3/8 - 24
100
AcDbAttributeDefinition
  3

  2
N
 70
     8
280
     0
  0
ATTDEF
  5
E9
330
D6
100
AcDbEntity
  8
AM_6
100
AcDbText
 10
7.46048984515693
 20
-6.44
 30
0.0
 40
0.5
  1
1.06
100
AcDbAttributeDefinition
  3

  2
W
 70
     8
280
     0
  0
ATTDEF
  5
EA
330
D6
100
AcDbEntity
  8
AM_6
100
AcDbText
 10
7.46048984515693
 20
-6.94
 30
0.0
 40
0.5
  1
1.48
100
AcDbAttributeDefinition
  3

  2
Y
 70
     8
280
     0
  0
ATTDEF
  5
EB
330
D6
100
AcDbEntity
  8
AM_6
100
AcDbText
 10
7.46048984515693
 20
-7.44
 30
0.0
 40
0.5
  1
baldor
100
AcDbAttributeDefinition
  3

  2
COMPANY
 70
     8
280
     0
  0
LINE
  5
EC
330
D6
100
AcDbEntity
  8
AM_9
100
AcDbLine
 10
-2.595024999999999
 20
0.2849999999999971
 30
0.0
 11
-2.595024999999999
 21
0.2350000000000028
 31
0.0
  0
ARC
  5
ED
330
D6
100
AcDbEntity
  8
AM_9
100
AcDbCircle
 10
-2.495025
 20
0.2349999999999988
 30
0.0
 40
0.0999999999999988
100
AcDbArc
 50
180.0
 51
270.0
  0
ARC
  5
EE
330
D6
100
AcDbEntity
  8
AM_9
100
AcDbCircle
 10
-2.495025
 20
0.2850000000000013
 30
0.0
 40
0.0999999999999988
100
AcDbArc
 50
90.0
 51
180.0
  0
LINE
  5
EF
330
D6
100
AcDbEntity
  8
AM_9
100
AcDbLine
 10
-2.495025
 20
0.385
 30
0.0
 11
-2.495025
 21
0.135
 31
0.0
  0
LINE
  5
F0
330
D6
100
AcDbEntity
  8
AM_9
100
AcDbLine
 10
-2.495025
 20
0.135
 30
0.0
 11
-2.456902676166874
 21
0.135
 31
0.0
  0
LINE
  5
F1
330
D6
100
AcDbEntity
  8
AM_9
100
AcDbLine
 10
-2.430383020351249
 20
0.385
 30
0.0
 11
-2.495025
 21
0.385
 31
0.0
  0
ELLIPSE
  5
F2
330
D6
100
AcDbEntity
  8
AM_9
100
AcDbEllipse
 10
1.216178319722522
 20
-1.015
 30
0.0
 11
-2.822504710334864E-17
 21
-0.1536500000000001
 31
0.0
210
0.0
220
0.0
230
1.0
 40
0.4226182617406989
 41
0.4851122464737818
 42
2.656480407116012
  0
LWPOLYLINE
  5
F3
330
D6
100
AcDbEntity
  8
AM_9
100
AcDbPolyline
 90
       17
 70
     0
 43
0.0
 10
1.246410240084252
 20
-1.150982016305727
 10
1.246704890142678
 20
-1.150611723691075
 10
1.255639413243254
 20
-1.13632431669418
 10
1.26319487527265
 20
-1.118024873120147
 10
1.26903181848802
 20
-1.096947961241824
 10
1.273373200331843
 20
-1.073115414737105
 10
1.276001507611455
 20
-1.048867259215048
 10
1.277211682627776
 20
-1.023538587522667
 10
1.277019123201177
 20
-0.9994028102871175
 10
1.27555225085001
 20
-0.9757155596081388
 10
1.272860169868586
 20
-0.9534349803539952
 10
1.268981838464524
 20
-0.932795418210415
 10
1.265155013077724
 20
-0.9181544363549518
 10
1.260661865777083
 20
-0.904982940055707
 10
1.254170163036529
 20
-0.8908599716155967
 10
1.246771136494224
 20
-0.8794722987760262
 10
1.246410227273185
 20
-0.8790179677152691
  0
ELLIPSE
  5
F4
330
D6
100
AcDbEntity
  8
AM_9
100
AcDbEllipse
 10
1.216178319722522
 20
-1.015
 30
0.0
 11
-2.822504710334867E-17
 21
-0.1536500000000003
 31
0.0
210
0.0
220
0.0
230
1.0
 40
0.4226182617406997
 41
3.617582533291605
 42
5.807195427477774
  0
LINE
  5
F5
330
D6
100
AcDbEntity
  8
AM_9
100
AcDbLine
 10
1.217822981591716
 20
-1.16865
 30
0.0
 11
1.480040923590909
 21
-1.16865
 31
0.0
  0
LINE
  5
F6
330
D6
100
AcDbEntity
  8
AM_9
100
AcDbLine
 10
1.480040923590909
 20
-0.8613500000000001
 30
0.0
 11
1.217822981591716
 21
-0.8613500000000001
 31
0.0
  0
LWPOLYLINE
  5
F7
330
D6
100
AcDbEntity
  8
AM_9
100
AcDbPolyline
 90
        5
 70
     0
 43
0.0
 10
1.217857719818783
 20
-1.16864999919886
 10
1.219491445355563
 20
-1.16860066104592
 10
1.230179543662457
 20
-1.165715789751468
 10
1.238311041804693
 20
-1.160133638484288
 10
1.245932874639426
 20
-1.151570200846165
  0
LWPOLYLINE
  5
F8
330
D6
100
AcDbEntity
  8
AM_9
100
AcDbPolyline
 90
        5
 70
     0
 43
0.0
 10
1.217844457676169
 20
-0.8613500008011399
 10
1.21620050783295
 20
-0.8613993389540805
 10
1.204920215900412
 20
-0.8642842102485329
 10
1.195674329873933
 20
-0.8698663615157128
 10
1.186423764805617
 20
-0.8784297991538351
  0
ELLIPSE
  5
F9
330
D6
100
AcDbEntity
  8
AM_9
100
AcDbEllipse
 10
1.480040923590909
 20
-1.015
 30
0.0
 11
-2.822504710334880E-17
 21
-0.153650000000001
 31
0.0
210
0.0
220
0.0
230
1.0
 40
0.422618261740695
 41
3.503193886663469
 42
5.922467964867002
  0
LINE
  5
FA
330
D6
100
AcDbEntity
  8
AM_9
100
AcDbLine
 10
1.449761097820504
 20
-1.15092226453218
 30
0.0
 11
1.463727322328528
 21
-1.168342149013876
 31
0.0
  0
LINE
  5
FB
330
D6
100
AcDbEntity
  8
AM_9
100
AcDbLine
 10
1.46387985682096
 20
-0.8614675967598582
 30
0.0
 11
1.449761097820504
 21
-0.8790777354678203
 31
0.0
  0
LWPOLYLINE
  5
FC
330
D6
100
AcDbEntity
  8
AM_9
100
AcDbPolyline
 90
       16
 70
     0
 43
0.0
 10
-0.0704052749503763
 20
-0.8784297991538347
 10
-0.0758320925643125
 20
-0.881026933788109
 10
-0.0958409289346742
 20
-0.892903922318967
 10
-0.1139413647641784
 20
-0.9075075129669792
 10
-0.1296640923683418
 20
-0.9246008027148135
 10
-0.1426420393457509
 20
-0.9438625532066109
 10
-0.1533763635331713
 20
-0.9674833831129542
 10
-0.1597799509823443
 20
-0.9926356959924857
 10
-0.1615181060635562
 20
-1.017033507195548
 10
-0.1590833336275032
 20
-1.041371110117553
 10
-0.1527471458784773
 20
-1.064285208907158
 10
-0.1427951777783034
 20
-1.08586635146945
 10
-0.1291370760315164
 20
-1.106058731374353
 10
-0.1124722721993899
 20
-1.123850171918343
 10
-0.0925198500666256
 20
-1.139337251447748
 10
-0.0704052749503763
 20
-1.151570200846165
  0
LWPOLYLINE
  5
FD
330
D6
100
AcDbEntity
  8
AM_9
100
AcDbPolyline
 90
       15
 70
     0
 43
0.0
 10
0.0719993575244647
 20
-1.150832306040289
 10
0.0920477016333312
 20
-1.139659659422809
 10
0.1140769934507282
 20
-1.122340202877227
 10
0.1327126959681135
 20
-1.101427055528035
 10
0.1465879919994481
 20
-1.078636850790332
 10
0.1561807350857096
 20
-1.053730625945869
 10
0.1608174956596418
 20
-1.02922200779485
 10
0.1611453657395769
 20
-1.004276933120396
 10
0.157345196804714
 20
-0.980727028695349
 10
0.1497358448394065
 20
-0.9581267630875603
 10
0.1384288173374041
 20
-0.936896777502585
 10
0.1239088541171267
 20
-0.9177266436550028
 10
0.1056049787536134
 20
-0.9002488494488741
 10
0.0847736693247407
 20
-0.8858573736952373
 10
0.0704052749503763
 20
-0.8784297991538347
  0
LINE
  5
FE
330
D6
100
AcDbEntity
  8
AM_9
100
AcDbLine
 10
0.0704052749503763
 20
-1.151570200846165
 30
0.0
 11
0.0719993575244647
 21
-1.150832306040289
 31
0.0
  0
LWPOLYLINE
  5
FF
330
D6
100
AcDbEntity
  8
AM_9
100
AcDbPolyline
 90
        4
 70
     0
 43
0.0
 10
1.245932874639426
 20
-0.8784297991538347
 10
1.23695057961088
 20
-0.8686998155086945
 10
1.226771796941084
 20
-0.8628583132894733
 10
1.217844457676169
 20
-0.8613500008011399
  0
LWPOLYLINE
  5
100
330
D6
100
AcDbEntity
  8
AM_9
100
AcDbPolyline
 90
       15
 70
     0
 43
0.0
 10
1.186423764805617
 20
-0.8784297991538348
 10
1.177610175553216
 20
-0.8883384246068536
 10
1.166590389775255
 20
-0.9051816125106896
 10
1.156925372826047
 20
-0.9256953158881187
 10
1.149459229824393
 20
-0.9482428509577379
 10
1.144098958993031
 20
-0.9730162520810032
 10
1.141330244967531
 20
-0.9975135796096941
 10
1.140850426697259
 20
-1.022551245759895
 10
1.142594817207194
 20
-1.046212993026562
 10
1.146354768255816
 20
-1.069004993712298
 10
1.152002355682807
 20
-1.090423428854732
 10
1.15922541262164
 20
-1.109850769992043
 10
1.16819049601993
 20
-1.127633289424917
 10
1.178185598756056
 20
-1.142395272307146
 10
1.186423764805617
 20
-1.151570200846165
  0
LWPOLYLINE
  5
101
330
D6
100
AcDbEntity
  8
AM_9
100
AcDbPolyline
 90
        4
 70
     0
 43
0.0
 10
1.186423764805617
 20
-1.151570200846165
 10
1.197264240349602
 20
-1.161300184491306
 10
1.208619279150221
 20
-1.167141686710527
 10
1.217857719818783
 20
-1.16864999919886
  0
LINE
  5
102
330
D6
100
AcDbEntity
  8
AM_9
100
AcDbLine
 10
1.34375
 20
-1.4138
 30
0.0
 11
1.34375
 21
0.9937999999999997
 31
0.0
  0
LINE
  5
103
330
D6
100
AcDbEntity
  8
AM_9
100
AcDbLine
 10
-1.34375
 20
0.9937999999999997
 30
0.0
 11
-1.34375
 21
-1.4138
 31
0.0
  0
LINE
  5
104
330
D6
100
AcDbEntity
  8
AM_9
100
AcDbLine
 10
1.34375
 20
0.9937999999999997
 30
0.0
 11
1.40995
 21
1.06
 31
0.0
  0
LINE
  5
105
330
D6
100
AcDbEntity
  8
AM_9
100
AcDbLine
 10
-1.40995
 20
1.06
 30
0.0
 11
-1.34375
 21
0.9937999999999997
 31
0.0
  0
LINE
  5
106
330
D6
100
AcDbEntity
  8
AM_9
100
AcDbLine
 10
-1.34375
 20
-1.4138
 30
0.0
 11
-1.40995
 21
-1.48
 31
0.0
  0
LINE
  5
107
330
D6
100
AcDbEntity
  8
AM_9
100
AcDbLine
 10
1.40995
 20
-1.48
 30
0.0
 11
1.34375
 21
-1.4138
 31
0.0
  0
LINE
  5
108
330
D6
100
AcDbEntity
  8
AM_9
100
AcDbLine
 10
1.655
 20
-0.8382188173839688
 30
0.0
 11
1.655
 21
-0.55
 31
0.0
  0
LINE
  5
109
330
D6
100
AcDbEntity
  8
AM_9
100
AcDbLine
 10
-1.655
 20
-0.55
 30
0.0
 11
-1.655
 21
-0.8382188173839688
 31
0.0
  0
LINE
  5
10A
330
D6
100
AcDbEntity
  8
AM_9
100
AcDbLine
 10
1.655
 20
0.55
 30
0.0
 11
1.655
 21
0.8382188173839691
 31
0.0
  0
LINE
  5
10B
330
D6
100
AcDbEntity
  8
AM_9
100
AcDbLine
 10
-1.655
 20
0.8382188173839691
 30
0.0
 11
-1.655
 21
0.55
 31
0.0
  0
LINE
  5
10C
330
D6
100
AcDbEntity
  8
AM_9
100
AcDbLine
 10
2.373983333333333
 20
-0.312
 30
0.0
 11
2.373983333333333
 21
-0.2079999999999999
 31
0.0
  0
LINE
  5
10D
330
D6
100
AcDbEntity
  8
AM_9
100
AcDbLine
 10
-2.373983333333333
 20
-0.2079999999999999
 30
0.0
 11
-2.373983333333333
 21
-0.312
 31
0.0
  0
LINE
  5
10E
330
D6
100
AcDbEntity
  8
AM_9
100
AcDbLine
 10
-2.356605784279585
 20
0.55
 30
0.0
 11
2.356605784275925
 21
0.55
 31
0.0
  0
ARC
  5
10F
330
D6
100
AcDbEntity
  8
AM_9
100
AcDbCircle
 10
2.356605784279585
 20
0.4980000000000002
 30
0.0
 40
0.0519999999999999
100
AcDbArc
 50
11.93224393296574
 51
90.0
  0
ARC
  5
110
330
D6
100
AcDbEntity
  8
AM_9
100
AcDbCircle
 10
-2.356605784279585
 20
0.4980000000000002
 30
0.0
 40
0.0519999999999999
100
AcDbArc
 50
90.0
 51
168.0677560670343
  0
LINE
  5
111
330
D6
100
AcDbEntity
  8
AM_9
100
AcDbLine
 10
-2.356605785054446
 20
-0.55
 30
0.0
 11
2.356605785050785
 21
-0.55
 31
0.0
  0
ARC
  5
112
330
D6
100
AcDbEntity
  8
AM_9
100
AcDbCircle
 10
2.356605784279585
 20
-0.4979999999999999
 30
0.0
 40
0.0520000000000002
100
AcDbArc
 50
270.0
 51
348.0677560670337
  0
ARC
  5
113
330
D6
100
AcDbEntity
  8
AM_9
100
AcDbCircle
 10
-2.356605784279585
 20
-0.4979999999999999
 30
0.0
 40
0.0520000000000004
100
AcDbArc
 50
191.9322439329663
 51
270.0
  0
LINE
  5
114
330
D6
100
AcDbEntity
  8
AM_9
100
AcDbLine
 10
-2.440789712879829
 20
-0.312
 30
0.0
 11
2.440789712879606
 21
-0.312
 31
0.0
  0
LINE
  5
115
330
D6
100
AcDbEntity
  8
AM_9
100
AcDbLine
 10
-2.407482209157645
 20
-0.5087512507006003
 30
0.0
 11
2.407482209157422
 21
-0.5087512507006003
 31
0.0
  0
ARC
  5
116
330
D6
100
AcDbEntity
  8
AM_9
100
AcDbCircle
 10
-0.0000000002642238
 20
0.0000000000446843
 30
0.0
 40
2.460650000267535
100
AcDbArc
 50
348.0677560672872
 51
352.7155291891173
  0
ARC
  5
117
330
D6
100
AcDbEntity
  8
AM_9
100
AcDbCircle
 10
0.0000000002644018
 20
0.0000000000447145
 30
0.0
 40
2.460650000267715
100
AcDbArc
 50
187.2844708108829
 51
191.9322439327126
  0
LINE
  5
118
330
D6
100
AcDbEntity
  8
AM_9
100
AcDbLine
 10
-2.451843066450216
 20
-0.2080000000000005
 30
0.0
 11
2.451843066450217
 21
-0.2080000000000005
 31
0.0
  0
LINE
  5
119
330
D6
100
AcDbEntity
  8
AM_9
100
AcDbLine
 10
-2.407482209157645
 20
0.5087512507006
 30
0.0
 11
2.407482209157645
 21
0.5087512507006
 31
0.0
  0
ARC
  5
11A
330
D6
100
AcDbEntity
  8
AM_9
100
AcDbCircle
 10
0.0000000000000022
 20
-0.0000000000000004
 30
0.0
 40
2.460649999999998
100
AcDbArc
 50
355.1509720763079
 51
11.93224393296581
  0
ARC
  5
11B
330
D6
100
AcDbEntity
  8
AM_9
100
AcDbCircle
 10
-0.0000000000002753
 20
0.000000000000043
 30
0.0
 40
2.460649999999722
100
AcDbArc
 50
168.0677560670339
 51
171.0067518563438
  0
ARC
  5
11C
330
D6
100
AcDbEntity
  8
AM_9
100
AcDbCircle
 10
0.0000000000000826
 20
0.0000000000000025
 30
0.0
 40
2.460650000000083
100
AcDbArc
 50
176.8459398345114
 51
184.849027923692
  0
LINE
  5
11D
330
D6
100
AcDbEntity
  8
AM_9
100
AcDbLine
 10
-2.430344301225836
 20
0.3849999999982861
 30
0.0
 11
-2.456943919282569
 21
0.1350000000007925
 31
0.0
  0
LINE
  5
120
330
D6
100
AcDbEntity
  8
AM_7
100
AcDbLine
 10
-0.1613325
 20
-1.015
 30
0.0
 11
0.1613325
 21
-1.015
 31
0.0
  0
LINE
  5
121
330
D6
100
AcDbEntity
  8
AM_7
100
AcDbLine
 10
-2.642026249999999
 20
0.26
 30
0.0
 11
-1.60799875
 21
0.26
 31
0.0
  0
ELLIPSE
  5
122
330
D6
100
AcDbEntity
  8
AM_4
100
AcDbEllipse
 10
1.480040923590909
 20
-1.015
 30
0.0
 11
-2.822504710334867E-17
 21
-0.1536500000000003
 31
0.0
210
0.0
220
0.0
230
1.0
 40
0.4226182617406983
 41
5.922467964867002
 42
9.786379193843052
  0
LWPOLYLINE
  5
123
330
D6
100
AcDbEntity
  8
AM_4
100
AcDbPolyline
 90
       15
 70
     0
 43
0.0
 10
1.463916568648263
 20
-1.168578191059821
 10
1.459397199578253
 20
-1.162519130691934
 10
1.449191903758485
 20
-1.145318794980665
 10
1.440225131977563
 20
-1.124938585452926
 10
1.432488503393646
 20
-1.100760394591002
 10
1.42668554076275
 20
-1.074401348055706
 10
1.422933374862512
 20
-1.045306044038663
 10
1.421632611439999
 20
-1.015396015007813
 10
1.422928413064914
 20
-0.984762882368308
 10
1.42679377165642
 20
-0.9549819406254096
 10
1.433128069693218
 20
-0.9269052273033888
 10
1.441647285841046
 20
-0.9013952985899661
 10
1.4517909271792
 20
-0.8797953719396588
 10
1.463316769183352
 20
-0.8621773980242463
 10
1.463923348134369
 20
-0.8614133509589711
  0
LWPOLYLINE
  5
124
330
D6
100
AcDbEntity
  8
AM_4
100
AcDbPolyline
 90
        4
 70
     0
 43
0.0
 10
1.463923348134369
 20
-0.8614133509589711
 10
1.475211561836431
 20
-0.8497513135173048
 10
1.487527264518352
 20
-0.8420319910350621
 10
1.503164888374964
 20
-0.8395798620054234
  0
LINE
  5
125
330
D6
100
AcDbEntity
  8
AM_4
100
AcDbLine
 10
-1.5888
 20
-1.48
 30
0.0
 11
1.5888
 21
-1.48
 31
0.0
  0
LINE
  5
126
330
D6
100
AcDbEntity
  8
AM_4
100
AcDbLine
 10
1.5888
 20
-1.48
 30
0.0
 11
1.655
 21
-1.4138
 31
0.0
  0
LINE
  5
127
330
D6
100
AcDbEntity
  8
AM_4
100
AcDbLine
 10
-1.655
 20
-1.4138
 30
0.0
 11
-1.5888
 21
-1.48
 31
0.0
  0
LINE
  5
128
330
D6
100
AcDbEntity
  8
AM_4
100
AcDbLine
 10
-1.5888
 20
1.06
 30
0.0
 11
1.5888
 21
1.06
 31
0.0
  0
LINE
  5
129
330
D6
100
AcDbEntity
  8
AM_4
100
AcDbLine
 10
-1.5888
 20
1.06
 30
0.0
 11
-1.655
 21
0.9938
 31
0.0
  0
LINE
  5
12A
330
D6
100
AcDbEntity
  8
AM_4
100
AcDbLine
 10
1.655
 20
0.9938
 30
0.0
 11
1.5888
 21
1.06
 31
0.0
  0
LINE
  5
12B
330
D6
100
AcDbEntity
  8
AM_4
100
AcDbLine
 10
-1.655
 20
-1.4138
 30
0.0
 11
1.655
 21
-1.4138
 31
0.0
  0
LWPOLYLINE
  5
12C
330
D6
100
AcDbEntity
  8
AM_4
100
AcDbPolyline
 90
       23
 70
     0
 43
0.0
 10
1.503164888374964
 20
-0.8395798620054234
 10
1.513826412745494
 20
-0.8430017599210406
 10
1.523773305045924
 20
-0.8505708597156818
 10
1.53300562682013
 20
-0.8624376146997564
 10
1.541113208255716
 20
-0.8780108242854334
 10
1.548209035763513
 20
-0.8976057257828605
 10
1.553932667030009
 20
-0.9200934616977993
 10
1.558421345330746
 20
-0.9461488764825634
 10
1.561371033152233
 20
-0.973986574995567
 10
1.562796023726802
 20
-1.003998767388478
 10
1.562572204296894
 20
-1.034311683420202
 10
1.560638476635761
 20
-1.064577636241555
 10
1.556994126339019
 20
-1.093429005722139
 10
1.55165759189759
 20
-1.119811835238336
 10
1.544643080626267
 20
-1.143119693609372
 10
1.536269067151048
 20
-1.161965245234847
 10
1.526471297199842
 20
-1.176504635370565
 10
1.515979421302919
 20
-1.185741231342049
 10
1.504603818944036
 20
-1.190215865183841
 10
1.49317110303963
 20
-1.189794588544777
 10
1.481548251295559
 20
-1.184862585708882
 10
1.470211833848138
 20
-1.175654241154435
 10
1.463916568648263
 20
-1.168578191059821
  0
LINE
  5
12D
330
D6
100
AcDbEntity
  8
AM_4
100
AcDbLine
 10
1.655
 20
-1.4138
 30
0.0
 11
1.655
 21
-0.8382188173839688
 31
0.0
  0
LINE
  5
12E
330
D6
100
AcDbEntity
  8
AM_4
100
AcDbLine
 10
-1.655
 20
-0.8382188173839688
 30
0.0
 11
-1.655
 21
-1.4138
 31
0.0
  0
LWPOLYLINE
  5
12F
330
D6
100
AcDbEntity
  8
AM_4
100
AcDbPolyline
 90
       39
 70
     0
 43
0.0
 10
-0.1202287550370992
 20
-0.8930750980079909
 10
-0.1019262818770334
 20
-0.875878383889321
 10
-0.0807720761466795
 20
-0.8612976911068169
 10
-0.0553995150667326
 20
-0.8493397676415161
 10
-0.0274535498652036
 20
-0.8417843027695098
 10
-0.0007162514598639
 20
-0.8393960899543887
 10
0.0268472797724288
 20
-0.8416792341088203
 10
0.0523014521739095
 20
-0.8482300308157618
 10
0.0769976165381197
 20
-0.8591716499043252
 10
0.0993646466599871
 20
-0.8738464840009904
 10
0.1196061473209125
 20
-0.8924010721814492
 10
0.1369137296563235
 20
-0.9143436442899943
 10
0.1508458022217853
 20
-0.9394296408834559
 10
0.1607581834264157
 20
-0.966971497686775
 10
0.1662170813873601
 20
-0.9965537098432908
 10
0.1667707771550194
 20
-1.026711909562919
 10
0.1621903424082344
 20
-1.057392569539478
 10
0.1527412282488436
 20
-1.086250077076132
 10
0.1380920866737367
 20
-1.113864896244325
 10
0.1197743304517548
 20
-1.137417564194987
 10
0.0969176589909207
 20
-1.15802035257302
 10
0.0725952482732301
 20
-1.173146490442901
 10
0.0451149732963149
 20
-1.184074876513963
 10
0.0184456699680045
 20
-1.189530700917603
 10
-0.0096141749252098
 20
-1.190314179055401
 10
-0.0356953692211559
 20
-1.186546138834549
 10
-0.0615003661924162
 20
-1.178263128751739
 10
-0.085055625552951
 20
-1.166127419924003
 10
-0.1069100637419529
 20
-1.14992758422619
 10
-0.1260936173889473
 20
-1.130201310308556
 10
-0.1422927376168537
 20
-1.107061370559945
 10
-0.1548423387011068
 20
-1.081062426666647
 10
-0.1632552516097046
 20
-1.052620408865093
 10
-0.1669738500372474
 20
-1.022906540816329
 10
-0.1657187329604343
 20
-0.9921420000690643
 10
-0.1594587916473046
 20
-0.9624146324157838
 10
-0.1479444776364193
 20
-0.933350922221697
 10
-0.1356263850218234
 20
-0.9124392178089956
 10
-0.1202287550666987
 20
-0.893075097989094
  0
CIRCLE
  5
130
330
D6
100
AcDbEntity
  8
AM_4
100
AcDbCircle
 10
0.0
 20
-1.015
 30
0.0
 40
0.15365
  0
LINE
  5
131
330
D6
100
AcDbEntity
  8
AM_4
100
AcDbLine
 10
-1.655
 20
0.9938
 30
0.0
 11
1.655
 21
0.9938
 31
0.0
  0
LINE
  5
132
330
D6
100
AcDbEntity
  8
AM_4
100
AcDbLine
 10
1.655
 20
0.8382188173839691
 30
0.0
 11
1.655
 21
0.9938
 31
0.0
  0
LINE
  5
133
330
D6
100
AcDbEntity
  8
AM_4
100
AcDbLine
 10
-1.655
 20
0.9938
 30
0.0
 11
-1.655
 21
0.8382188173839691
 31
0.0
  0
ARC
  5
135
330
D6
100
AcDbEntity
  8
AM_5
100
AcDbCircle
 10
-0.0000000000000002
 20
-1.105
 30
0.0
 40
0.1875
100
AcDbArc
 50
74.99999999999994
 51
14.99999999999987
  0
ARC
  5
136
330
D6
100
AcDbEntity
  8
AM_5
100
AcDbCircle
 10
0.0
 20
-1.015
 30
0.0
 40
0.1875
100
AcDbArc
 50
75.0
 51
15.00000000000002
  0
ENDBLK
  5
D9
330
D6
100
AcDbEntity
  8
0
100
AcDbBlockEnd
  0
BLOCK
  5
139
330
137
100
AcDbEntity
  8
0
100
AcDbBlockBegin
  2
4_124872H_0_in_124872_4
 70
     2
 10
0.0
 20
0.0
 30
0.0
  3
4_124872H_0_in_124872_4
  1

  0
ATTDEF
  5
13B
330
137
100
AcDbEntity
  8
AM_6
100
AcDbText
 10
10.375
 20
1.4795
 30
0.0
 40
0.5
  1
P2B-SCAH - housing -Inch
100
AcDbAttributeDefinition
  3

  2
NN
 70
     8
280
     0
  0
ATTDEF
  5
13C
330
137
100
AcDbEntity
  8
AM_6
100
AcDbText
 10
10.375
 20
0.9795
 30
0.0
 40
0.5
  1
SC Pillow Block Bearings -(Normal Duty) -Air Handling
100
AcDbAttributeDefinition
  3

  2
NT
 70
     8
280
     0
  0
ATTDEF
  5
13D
330
137
100
AcDbEntity
  8
AM_6
100
AcDbText
 10
10.375
 20
0.4795
 30
0.0
 40
0.5
  1
124872H
100
AcDbAttributeDefinition
  3

  2
NB
 70
     8
280
     0
  0
ATTDEF
  5
13E
330
137
100
AcDbEntity
  8
AM_6
100
AcDbText
 10
10.375
 20
-0.0205
 30
0.0
 40
0.5
  1
$PN.H
100
AcDbAttributeDefinition
  3

  2
NBSYN
 70
     8
280
     0
  0
ATTDEF
  5
13F
330
137
100
AcDbEntity
  8
AM_6
100
AcDbText
 10
10.375
 20
-0.5205
 30
0.0
 40
0.5
  1
124872
100
AcDbAttributeDefinition
  3

  2
LINA
 70
     8
280
     0
  0
ATTDEF
  5
140
330
137
100
AcDbEntity
  8
AM_6
100
AcDbText
 10
10.375
 20
-1.0205
 30
0.0
 40
0.5
  1
214
100
AcDbAttributeDefinition
  3

  2
SERIES
 70
     8
280
     0
  0
ATTDEF
  5
141
330
137
100
AcDbEntity
  8
AM_6
100
AcDbText
 10
10.375
 20
-1.5205
 30
0.0
 40
0.5
  1
2-11/16
100
AcDbAttributeDefinition
  3

  2
SS
 70
     8
280
     0
  0
ATTDEF
  5
142
330
137
100
AcDbEntity
  8
AM_6
100
AcDbText
 10
10.375
 20
-2.0205
 30
0.0
 40
0.5
  1
124872
100
AcDbAttributeDefinition
  3

  2
PN
 70
     8
280
     0
  0
ATTDEF
  5
143
330
137
100
AcDbEntity
  8
AM_6
100
AcDbText
 10
10.375
 20
-2.5205
 30
0.0
 40
0.5
  1
P2B-SCAH-211
100
AcDbAttributeDefinition
  3

  2
DESCRIPTION
 70
     8
280
     0
  0
ATTDEF
  5
144
330
137
100
AcDbEntity
  8
AM_6
100
AcDbText
 10
10.375
 20
-3.0205
 30
0.0
 40
0.5
  1
15.0
100
AcDbAttributeDefinition
  3

  2
WEIGHT
 70
     8
280
     0
  0
ATTDEF
  5
145
330
137
100
AcDbEntity
  8
AM_6
100
AcDbText
 10
10.375
 20
-3.5205
 30
0.0
 40
0.5
  1
2.54
100
AcDbAttributeDefinition
  3

  2
A
 70
     8
280
     0
  0
ATTDEF
  5
146
330
137
100
AcDbEntity
  8
AM_6
100
AcDbText
 10
10.375
 20
-4.0205
 30
0.0
 40
0.5
  1
10.75
100
AcDbAttributeDefinition
  3

  2
B
 70
     8
280
     0
  0
ATTDEF
  5
147
330
137
100
AcDbEntity
  8
AM_6
100
AcDbText
 10
10.375
 20
-4.5205
 30
0.0
 40
0.5
  1
2.69
100
AcDbAttributeDefinition
  3

  2
C
 70
     8
280
     0
  0
ATTDEF
  5
148
330
137
100
AcDbEntity
  8
AM_6
100
AcDbText
 10
10.375
 20
-5.0205
 30
0.0
 40
0.5
  1
7.50
100
AcDbAttributeDefinition
  3

  2
DMIN
 70
     8
280
     0
  0
ATTDEF
  5
149
330
137
100
AcDbEntity
  8
AM_6
100
AcDbText
 10
10.375
 20
-5.5205
 30
0.0
 40
0.5
  1
8.50
100
AcDbAttributeDefinition
  3

  2
DMAX
 70
     8
280
     0
  0
ATTDEF
  5
14A
330
137
100
AcDbEntity
  8
AM_6
100
AcDbText
 10
10.375
 20
-6.0205
 30
0.0
 40
0.5
  1
3/4
100
AcDbAttributeDefinition
  3

  2
F
 70
     8
280
     0
  0
ATTDEF
  5
14B
330
137
100
AcDbEntity
  8
AM_6
100
AcDbText
 10
10.375
 20
-6.5205
 30
0.0
 40
0.5
  1
1.32
100
AcDbAttributeDefinition
  3

  2
G
 70
     8
280
     0
  0
ATTDEF
  5
14C
330
137
100
AcDbEntity
  8
AM_6
100
AcDbText
 10
10.375
 20
-7.0205
 30
0.0
 40
0.5
  1
0.94
100
AcDbAttributeDefinition
  3

  2
H
 70
     8
280
     0
  0
ATTDEF
  5
14D
330
137
100
AcDbEntity
  8
AM_6
100
AcDbText
 10
10.375
 20
-7.5205
 30
0.0
 40
0.5
  1
6.09
100
AcDbAttributeDefinition
  3

  2
J
 70
     8
280
     0
  0
ATTDEF
  5
14E
330
137
100
AcDbEntity
  8
AM_6
100
AcDbText
 10
10.375
 20
-8.0205
 30
0.0
 40
0.5
  1
3.31
100
AcDbAttributeDefinition
  3

  2
L
 70
     8
280
     0
  0
ATTDEF
  5
14F
330
137
100
AcDbEntity
  8
AM_6
100
AcDbText
 10
10.375
 20
-8.5205
 30
0.0
 40
0.5
  1
3.00
100
AcDbAttributeDefinition
  3

  2
M
 70
     8
280
     0
  0
ATTDEF
  5
150
330
137
100
AcDbEntity
  8
AM_6
100
AcDbText
 10
10.375
 20
-9.0205
 30
0.0
 40
0.5
  1
1.06
100
AcDbAttributeDefinition
  3

  2
R
 70
     8
280
     0
  0
ATTDEF
  5
151
330
137
100
AcDbEntity
  8
AM_6
100
AcDbText
 10
10.375
 20
-9.5205
 30
0.0
 40
0.5
  1
1.48
100
AcDbAttributeDefinition
  3

  2
S
 70
     8
280
     0
  0
ATTDEF
  5
152
330
137
100
AcDbEntity
  8
AM_6
100
AcDbText
 10
10.375
 20
-10.0205
 30
0.0
 40
0.5
  1
4.88
100
AcDbAttributeDefinition
  3

  2
U
 70
     8
280
     0
  0
ATTDEF
  5
153
330
137
100
AcDbEntity
  8
AM_6
100
AcDbText
 10
10.375
 20
-10.5205
 30
0.0
 40
0.5
  1
4.88
100
AcDbAttributeDefinition
  3

  2
U1
 70
     8
280
     0
  0
ATTDEF
  5
154
330
137
100
AcDbEntity
  8
AM_6
100
AcDbText
 10
10.375
 20
-11.0205
 30
0.0
 40
0.5
  1
9.76
100
AcDbAttributeDefinition
  3

  2
V
 70
     8
280
     0
  0
ATTDEF
  5
155
330
137
100
AcDbEntity
  8
AM_6
100
AcDbText
 10
10.375
 20
-11.5205
 30
0.0
 40
0.5
  1
9.76
100
AcDbAttributeDefinition
  3

  2
V1
 70
     8
280
     0
  0
ATTDEF
  5
156
330
137
100
AcDbEntity
  8
AM_6
100
AcDbText
 10
10.375
 20
-12.0205
 30
0.0
 40
0.5
  1
0.94
100
AcDbAttributeDefinition
  3

  2
W
 70
     8
280
     0
  0
ATTDEF
  5
157
330
137
100
AcDbEntity
  8
AM_6
100
AcDbText
 10
10.375
 20
-12.5205
 30
0.0
 40
0.5
  1
0.94
100
AcDbAttributeDefinition
  3

  2
W1
 70
     8
280
     0
  0
ATTDEF
  5
158
330
137
100
AcDbEntity
  8
AM_6
100
AcDbText
 10
10.375
 20
-13.0205
 30
0.0
 40
0.5
  1
0.12
100
AcDbAttributeDefinition
  3

  2
X
 70
     8
280
     0
  0
ATTDEF
  5
159
330
137
100
AcDbEntity
  8
AM_6
100
AcDbText
 10
10.375
 20
-13.5205
 30
0.0
 40
0.5
  1
0.12
100
AcDbAttributeDefinition
  3

  2
X1
 70
     8
280
     0
  0
ATTDEF
  5
15A
330
137
100
AcDbEntity
  8
AM_6
100
AcDbText
 10
10.375
 20
-14.0205
 30
0.0
 40
0.5
  1
8410
100
AcDbAttributeDefinition
  3

  2
CAPS
 70
     8
280
     0
  0
ATTDEF
  5
15B
330
137
100
AcDbEntity
  8
AM_6
100
AcDbText
 10
10.375
 20
-14.5205
 30
0.0
 40
0.5
  1
13994
100
AcDbAttributeDefinition
  3

  2
CAPD
 70
     8
280
     0
  0
ATTDEF
  5
15C
330
137
100
AcDbEntity
  8
AM_6
100
AcDbText
 10
10.375
 20
-15.0205
 30
0.0
 40
0.5
  1
baldor
100
AcDbAttributeDefinition
  3

  2
COMPANY
 70
     8
280
     0
  0
LINE
  5
15D
330
137
100
AcDbEntity
  8
AM_9
100
AcDbLine
 10
2.595025
 20
-0.4035
 30
0.0
 11
2.595024999999999
 21
1.085999999999998
 31
0.0
  0
LINE
  5
15E
330
137
100
AcDbEntity
  8
AM_9
100
AcDbLine
 10
2.501024999999999
 20
0.6724999999999999
 30
0.0
 11
2.501024999999999
 21
1.076
 31
0.0
  0
LINE
  5
15F
330
137
100
AcDbEntity
  8
AM_9
100
AcDbLine
 10
-2.595025
 20
0.2849999999999971
 30
0.0
 11
-2.595024999999999
 21
1.085999999999999
 31
0.0
  0
LINE
  5
160
330
137
100
AcDbEntity
  8
AM_9
100
AcDbLine
 10
-2.501025
 20
0.6724999999999999
 30
0.0
 11
-2.501025
 21
1.076
 31
0.0
  0
LINE
  5
161
330
137
100
AcDbEntity
  8
AM_9
100
AcDbLine
 10
-2.595024999999999
 20
-1.076000000000001
 30
0.0
 11
-2.595024999999999
 21
-0.6725000000000001
 31
0.0
  0
LINE
  5
162
330
137
100
AcDbEntity
  8
AM_9
100
AcDbLine
 10
-2.501025
 20
-1.076
 30
0.0
 11
-2.501025
 21
-0.6725000000000001
 31
0.0
  0
LINE
  5
163
330
137
100
AcDbEntity
  8
AM_9
100
AcDbLine
 10
2.595024999999999
 20
-1.076
 30
0.0
 11
2.595024999999999
 21
-0.6725000000000001
 31
0.0
  0
LINE
  5
164
330
137
100
AcDbEntity
  8
AM_9
100
AcDbLine
 10
2.501024999999999
 20
-1.076
 30
0.0
 11
2.501024999999999
 21
-0.6725000000000001
 31
0.0
  0
LINE
  5
165
330
137
100
AcDbEntity
  8
AM_9
100
AcDbLine
 10
4.472
 20
0.3446969683649677
 30
0.0
 11
4.472
 21
0.6724999999999999
 31
0.0
  0
LINE
  5
166
330
137
100
AcDbEntity
  8
AM_9
100
AcDbLine
 10
4.66
 20
-0.6725000000000001
 30
0.0
 11
4.66
 21
0.6724999999999999
 31
0.0
  0
LINE
  5
167
330
137
100
AcDbEntity
  8
AM_9
100
AcDbLine
 10
-3.199753347732146
 20
-0.6725000000000001
 30
0.0
 11
-3.199753347732146
 21
0.6724999999999999
 31
0.0
  0
LINE
  5
168
330
137
100
AcDbEntity
  8
AM_9
100
AcDbLine
 10
-4.66
 20
-0.6725000000000001
 30
0.0
 11
-4.66
 21
0.6724999999999999
 31
0.0
  0
LINE
  5
169
330
137
100
AcDbEntity
  8
AM_9
100
AcDbLine
 10
-4.472
 20
0.3446969683649684
 30
0.0
 11
-4.472
 21
0.6724999999999999
 31
0.0
  0
LINE
  5
16A
330
137
100
AcDbEntity
  8
AM_9
100
AcDbLine
 10
-4.472
 20
-0.6725000000000001
 30
0.0
 11
-4.472
 21
-0.3446969683649679
 31
0.0
  0
LINE
  5
16B
330
137
100
AcDbEntity
  8
AM_9
100
AcDbLine
 10
4.472
 20
-0.6725000000000001
 30
0.0
 11
4.472
 21
-0.3446969683649679
 31
0.0
  0
LINE
  5
16C
330
137
100
AcDbEntity
  8
AM_9
100
AcDbLine
 10
3.199753347732152
 20
-0.6725000000000001
 30
0.0
 11
3.199753347732152
 21
0.6724999999999999
 31
0.0
  0
LINE
  5
16D
330
137
100
AcDbEntity
  8
AM_9
100
AcDbLine
 10
2.956463445335782
 20
-0.6725000000000001
 30
0.0
 11
2.956463445335782
 21
0.6724999999999999
 31
0.0
  0
LINE
  5
16E
330
137
100
AcDbEntity
  8
AM_9
100
AcDbLine
 10
-2.956463445335783
 20
-0.6725000000000001
 30
0.0
 11
-2.956463445335783
 21
0.6724999999999999
 31
0.0
  0
LINE
  5
16F
330
137
100
AcDbEntity
  8
AM_9
100
AcDbLine
 10
-1.543547489623752
 20
-0.6725000000000001
 30
0.0
 11
-1.543547489623752
 21
0.6724999999999999
 31
0.0
  0
LINE
  5
170
330
137
100
AcDbEntity
  8
AM_9
100
AcDbLine
 10
1.543547460325381
 20
-0.6725000000000001
 30
0.0
 11
1.543547460325381
 21
0.6724999999999999
 31
0.0
  0
LINE
  5
171
330
137
100
AcDbEntity
  8
AM_9
100
AcDbLine
 10
1.916959645695744
 20
-0.6725000000000001
 30
0.0
 11
1.916959645695744
 21
0.6724999999999999
 31
0.0
  0
LINE
  5
172
330
137
100
AcDbEntity
  8
AM_9
100
AcDbLine
 10
-1.916959645695744
 20
-0.6725000000000001
 30
0.0
 11
-1.916959645695744
 21
0.6724999999999999
 31
0.0
  0
LINE
  5
173
330
137
100
AcDbEntity
  8
AM_9
100
AcDbLine
 10
4.66
 20
-0.6725000000000001
 30
0.0
 11
-4.66
 21
-0.6725000000000001
 31
0.0
  0
LINE
  5
174
330
137
100
AcDbEntity
  8
AM_9
100
AcDbLine
 10
4.66
 20
0.6724999999999999
 30
0.0
 11
-4.66
 21
0.6724999999999999
 31
0.0
  0
LINE
  5
175
330
137
100
AcDbEntity
  8
AM_9
100
AcDbLine
 10
-2.220020425159417
 20
-0.4034999999999999
 30
0.0
 11
-2.220020425159417
 21
0.900529733009709
 31
0.0
  0
LINE
  5
176
330
137
100
AcDbEntity
  8
AM_9
100
AcDbLine
 10
-2.061342853578705
 20
-0.4034999999999999
 30
0.0
 11
-2.595025
 21
-0.4035
 31
0.0
  0
LINE
  5
177
330
137
100
AcDbEntity
  8
AM_9
100
AcDbLine
 10
-2.595025
 20
0.2350000000000028
 30
0.0
 11
-2.595025
 21
-0.4035
 31
0.0
  0
LINE
  5
178
330
137
100
AcDbEntity
  8
AM_9
100
AcDbLine
 10
2.595025
 20
-0.4035
 30
0.0
 11
2.061342853578705
 21
-0.4034999999999999
 31
0.0
  0
LINE
  5
179
330
137
100
AcDbEntity
  8
AM_9
100
AcDbLine
 10
2.220020425159417
 20
-0.4034999999999999
 30
0.0
 11
2.220020425159417
 21
0.9005297330097086
 31
0.0
  0
LINE
  5
17A
330
137
100
AcDbEntity
  8
AM_9
100
AcDbLine
 10
2.043538597629122
 20
-0.1499999999999995
 30
0.0
 11
2.184943506143768
 21
-0.1499999999999995
 31
0.0
  0
LINE
  5
17B
330
137
100
AcDbEntity
  8
AM_9
100
AcDbLine
 10
2.184956270874673
 20
0.1499999999999997
 30
0.0
 11
2.043538597629122
 21
0.1499999999999997
 31
0.0
  0
LWPOLYLINE
  5
17C
330
137
100
AcDbEntity
  8
AM_9
100
AcDbPolyline
 90
       20
 70
     0
 43
0.0
 10
2.18494975697994
 20
-0.1499999993068261
 10
2.197146857819074
 20
-0.149000974163948
 10
2.214470207792932
 20
-0.1439782277793125
 10
2.230836256885276
 20
-0.134907188948904
 10
2.245794106878937
 20
-0.1219844006897634
 10
2.25896875117523
 20
-0.1056301408749041
 10
2.270006215342931
 20
-0.0862407107270229
 10
2.278646208516642
 20
-0.0644185499909699
 10
2.284640777394657
 20
-0.0407513510754889
 10
2.287879075530605
 20
-0.0159328242604688
 10
2.288245495946656
 20
0.0093165775842118
 10
2.285774060221019
 20
0.0343031534297823
 10
2.280490260498469
 20
0.0582974349804893
 10
2.272559153580089
 20
0.0806504600896525
 10
2.262131649926352
 20
0.1007179756680701
 10
2.249505595883762
 20
0.1179492904115496
 10
2.23496016481716
 20
0.1318236135401341
 10
2.218908471074743
 20
0.1419805245119893
 10
2.201767487529446
 20
0.1480743303513742
 10
2.184954174117438
 20
0.1499999997772983
  0
LWPOLYLINE
  5
17D
330
137
100
AcDbEntity
  8
AM_9
100
AcDbPolyline
 90
       11
 70
     0
 43
0.0
 10
2.184954174117438
 20
0.1499999997772983
 10
2.184014045682529
 20
0.1499940375138161
 10
2.166158978738894
 20
0.1476299668490139
 10
2.148697671839994
 20
0.1411129280102728
 10
2.132151016350649
 20
0.1305716046053442
 10
2.116999552781186
 20
0.1163590857223178
 10
2.103714827233188
 20
0.098809592512251
 10
2.092696868796072
 20
0.0784754202655784
 10
2.084324587027501
 20
0.0558860621540514
 10
2.078831601688786
 20
0.0317180317490068
 10
2.076318000358803
 20
0.0000000000000001
  0
LINE
  5
17E
330
137
100
AcDbEntity
  8
AM_9
100
AcDbLine
 10
1.655
 20
-1.076
 30
0.0
 11
-1.655
 21
-1.076
 31
0.0
  0
LINE
  5
17F
330
137
100
AcDbEntity
  8
AM_9
100
AcDbLine
 10
-2.061342853578705
 20
-0.4034999999999999
 30
0.0
 11
-2.061342853578705
 21
0.900529733009709
 31
0.0
  0
LINE
  5
180
330
137
100
AcDbEntity
  8
AM_9
100
AcDbLine
 10
2.061342853578705
 20
0.900529733009709
 30
0.0
 11
2.061342853578705
 21
-0.4034999999999999
 31
0.0
  0
LINE
  5
181
330
137
100
AcDbEntity
  8
AM_9
100
AcDbLine
 10
2.46065
 20
-1.076
 30
0.0
 11
2.46065
 21
-0.4035
 31
0.0
  0
LINE
  5
182
330
137
100
AcDbEntity
  8
AM_9
100
AcDbLine
 10
-2.46065
 20
-0.4035
 30
0.0
 11
-2.46065
 21
-1.076
 31
0.0
  0
LWPOLYLINE
  5
183
330
137
100
AcDbEntity
  8
AM_9
100
AcDbPolyline
 90
       11
 70
     0
 43
0.0
 10
2.076318000358803
 20
0.0000000000000001
 10
2.077905516740735
 20
-0.0251637062800419
 10
2.082570854661426
 20
-0.0496176932901885
 10
2.090206924645256
 20
-0.0726523739725519
 10
2.10052883182125
 20
-0.0936409566879585
 10
2.113256819201375
 20
-0.1119695990643581
 10
2.127956811581485
 20
-0.1271436960605624
 10
2.144210189242288
 20
-0.1386904298580446
 10
2.161502366546295
 20
-0.1463254673214822
 10
2.179316151901603
 20
-0.1497729428064466
 10
2.18494975697994
 20
-0.1499999993068261
  0
ELLIPSE
  5
184
330
137
100
AcDbEntity
  8
AM_9
100
AcDbEllipse
 10
2.043538597629122
 20
0.0000000000000002
 30
0.0
 11
-2.755455298081544E-17
 21
-0.1499999999999999
 31
0.0
210
0.0
220
0.0
230
1.0
 40
0.7071067811865493
 41
0.0
 42
6.283185307179586
  0
LINE
  5
185
330
137
100
AcDbEntity
  8
AM_7
100
AcDbLine
 10
0.0
 20
1.4795
 30
0.0
 11
0.0
 21
-1.607
 31
0.0
  0
LINE
  5
186
330
137
100
AcDbEntity
  8
AM_7
100
AcDbLine
 10
-4.6805
 20
0.0000000000000002
 30
0.0
 11
-3.3195
 21
0.0000000000000004
 31
0.0
  0
LINE
  5
187
330
137
100
AcDbEntity
  8
AM_7
100
AcDbLine
 10
-3.75
 20
-0.4304999999999998
 30
0.0
 11
-3.75
 21
0.4305000000000005
 31
0.0
  0
LINE
  5
188
330
137
100
AcDbEntity
  8
AM_7
100
AcDbLine
 10
-4.25
 20
-0.4304999999999999
 30
0.0
 11
-4.25
 21
0.4305000000000004
 31
0.0
  0
LINE
  5
189
330
137
100
AcDbEntity
  8
AM_7
100
AcDbLine
 10
3.3195
 20
-0.0000000000000002
 30
0.0
 11
4.6805
 21
0.0000000000000001
 31
0.0
  0
LINE
  5
18A
330
137
100
AcDbEntity
  8
AM_7
100
AcDbLine
 10
4.25
 20
-0.4305000000000001
 30
0.0
 11
4.25
 21
0.4305000000000002
 31
0.0
  0
LINE
  5
18B
330
137
100
AcDbEntity
  8
AM_7
100
AcDbLine
 10
3.75
 20
-0.4305000000000004
 30
0.0
 11
3.75
 21
0.4304999999999999
 31
0.0
  0
LINE
  5
18C
330
137
100
AcDbEntity
  8
AM_4
100
AcDbLine
 10
-4.8375
 20
-1.345
 30
0.0
 11
-4.8375
 21
-1.06
 31
0.0
  0
LINE
  5
18D
330
137
100
AcDbEntity
  8
AM_4
100
AcDbLine
 10
-4.8375
 20
1.06
 30
0.0
 11
-4.8375
 21
1.345
 31
0.0
  0
LINE
  5
18E
330
137
100
AcDbEntity
  8
AM_4
100
AcDbLine
 10
4.8375
 20
1.06
 30
0.0
 11
4.8375
 21
1.345
 31
0.0
  0
LINE
  5
18F
330
137
100
AcDbEntity
  8
AM_4
100
AcDbLine
 10
4.8375
 20
-1.345
 30
0.0
 11
4.8375
 21
-1.06
 31
0.0
  0
LINE
  5
190
330
137
100
AcDbEntity
  8
AM_4
100
AcDbLine
 10
-3.969770323890316
 20
-1.345
 30
0.0
 11
-3.969770323890316
 21
-1.06
 31
0.0
  0
LINE
  5
191
330
137
100
AcDbEntity
  8
AM_4
100
AcDbLine
 10
-3.969770323890316
 20
1.06
 30
0.0
 11
-3.969770323890316
 21
1.345
 31
0.0
  0
LINE
  5
192
330
137
100
AcDbEntity
  8
AM_4
100
AcDbLine
 10
3.969770323890315
 20
-1.345
 30
0.0
 11
3.969770323890315
 21
-1.06
 31
0.0
  0
LINE
  5
193
330
137
100
AcDbEntity
  8
AM_4
100
AcDbLine
 10
3.969770323890315
 20
1.06
 30
0.0
 11
3.969770323890315
 21
1.345
 31
0.0
  0
LINE
  5
194
330
137
100
AcDbEntity
  8
AM_4
100
AcDbLine
 10
4.904999999999999
 20
1.06
 30
0.0
 11
3.75
 21
1.06
 31
0.0
  0
LINE
  5
195
330
137
100
AcDbEntity
  8
AM_4
100
AcDbLine
 10
5.375000000000001
 20
-0.589999999999999
 30
0.0
 11
5.375000000000001
 21
0.5899999999999997
 31
0.0
  0
ARC
  5
196
330
137
100
AcDbEntity
  8
AM_4
100
AcDbCircle
 10
4.904999999999998
 20
-0.5899999999999979
 30
0.0
 40
0.4700000000000024
100
AcDbArc
 50
270.0
 51
0.0000008537736463
  0
ARC
  5
197
330
137
100
AcDbEntity
  8
AM_4
100
AcDbCircle
 10
4.904999999999998
 20
0.5899999999999967
 30
0.0
 40
0.4700000000000033
100
AcDbArc
 50
0.0000008537736463
 51
90.0
  0
LINE
  5
198
330
137
100
AcDbEntity
  8
AM_4
100
AcDbLine
 10
3.75
 20
0.4099999999999999
 30
0.0
 11
4.25
 21
0.4100000000000001
 31
0.0
  0
ARC
  5
199
330
137
100
AcDbEntity
  8
AM_4
100
AcDbCircle
 10
3.75
 20
-0.0000000000000002
 30
0.0
 40
0.4100000000000001
100
AcDbArc
 50
90.0
 51
270.0
  0
LINE
  5
19A
330
137
100
AcDbEntity
  8
AM_4
100
AcDbLine
 10
4.25
 20
-0.4100000000000001
 30
0.0
 11
3.75
 21
-0.4100000000000004
 31
0.0
  0
ARC
  5
19B
330
137
100
AcDbEntity
  8
AM_4
100
AcDbCircle
 10
4.25
 20
0.0
 30
0.0
 40
0.4100000000000001
100
AcDbArc
 50
270.0
 51
90.0
  0
LINE
  5
19C
330
137
100
AcDbEntity
  8
AM_4
100
AcDbLine
 10
3.75
 20
-1.06
 30
0.0
 11
4.904999999999999
 21
-1.06
 31
0.0
  0
ARC
  5
19D
330
137
100
AcDbEntity
  8
AM_4
100
AcDbCircle
 10
-4.25
 20
0.0000000000000003
 30
0.0
 40
0.4100000000000001
100
AcDbArc
 50
90.0
 51
270.0
  0
LINE
  5
19E
330
137
100
AcDbEntity
  8
AM_4
100
AcDbLine
 10
-3.75
 20
-0.4099999999999997
 30
0.0
 11
-4.25
 21
-0.4099999999999999
 31
0.0
  0
ARC
  5
19F
330
137
100
AcDbEntity
  8
AM_4
100
AcDbCircle
 10
-3.75
 20
0.0000000000000004
 30
0.0
 40
0.41
100
AcDbArc
 50
270.0
 51
90.0
  0
LINE
  5
1A0
330
137
100
AcDbEntity
  8
AM_4
100
AcDbLine
 10
-4.25
 20
0.4100000000000004
 30
0.0
 11
-3.75
 21
0.4100000000000005
 31
0.0
  0
ARC
  5
1A1
330
137
100
AcDbEntity
  8
AM_4
100
AcDbCircle
 10
-4.904999999999998
 20
0.5899999999999965
 30
0.0
 40
0.4700000000000033
100
AcDbArc
 50
90.0
 51
179.9999991462263
  0
LINE
  5
1A2
330
137
100
AcDbEntity
  8
AM_4
100
AcDbLine
 10
-4.904999999999999
 20
-1.06
 30
0.0
 11
-3.75
 21
-1.06
 31
0.0
  0
LINE
  5
1A3
330
137
100
AcDbEntity
  8
AM_4
100
AcDbLine
 10
-3.749999999999998
 20
1.06
 30
0.0
 11
-4.905000000000001
 21
1.06
 31
0.0
  0
LINE
  5
1A4
330
137
100
AcDbEntity
  8
AM_4
100
AcDbLine
 10
-5.375000000000001
 20
0.5899999999999971
 30
0.0
 11
-5.375000000000001
 21
-0.589999999999999
 31
0.0
  0
ARC
  5
1A5
330
137
100
AcDbEntity
  8
AM_4
100
AcDbCircle
 10
-4.905000000000002
 20
-0.590000000000001
 30
0.0
 40
0.4699999999999989
100
AcDbArc
 50
180.0
 51
270.0
  0
LWPOLYLINE
  5
1A6
330
137
100
AcDbEntity
  8
AM_4
100
AcDbPolyline
 90
       11
 70
     0
 43
0.0
 10
2.984966090589986
 20
-0.733705061624104
 10
3.051823885188908
 20
-0.797590190954784
 10
3.123995221591807
 20
-0.8554051773341736
 10
3.200930832350413
 20
-0.9067100138062825
 10
3.282045191011859
 20
-0.9511142395868503
 10
3.366720968328544
 20
-0.9882799117056824
 10
3.454313730506457
 20
-1.017924176956708
 10
3.544156843735465
 20
-1.03982142458167
 10
3.635566547675143
 20
-1.053805003304224
 10
3.72784715928382
 20
-1.059768489646774
 10
3.75
 20
-1.06
  0
LINE
  5
1A7
330
137
100
AcDbEntity
  8
AM_4
100
AcDbLine
 10
3.788160736501669
 20
-1.345
 30
0.0
 11
3.788160736501669
 21
-1.06
 31
0.0
  0
LWPOLYLINE
  5
1A8
330
137
100
AcDbEntity
  8
AM_4
100
AcDbPolyline
 90
       11
 70
     0
 43
0.0
 10
3.75
 20
1.06
 10
3.657614912687482
 20
1.055966379977251
 10
3.565932931673054
 20
1.043896218192941
 10
3.475651812191328
 20
1.023881375866412
 10
3.387458648074792
 20
0.9960741780330631
 10
3.302024642554859
 20
0.9606862542588492
 10
3.220000000000001
 20
0.917986928011505
 10
3.142008977467892
 20
0.8683011669463317
 10
3.068645133732269
 20
0.8120071097061172
 10
3.00046681194226
 20
0.7495331880577409
 10
2.984966090589986
 20
0.7337050616241042
  0
LINE
  5
1A9
330
137
100
AcDbEntity
  8
AM_4
100
AcDbLine
 10
3.788160736501669
 20
1.06
 30
0.0
 11
3.788160736501669
 21
1.345
 31
0.0
  0
LWPOLYLINE
  5
1AA
330
137
100
AcDbEntity
  8
AM_4
100
AcDbPolyline
 90
       11
 70
     0
 43
0.0
 10
-2.984966090589986
 20
0.7337050616241049
 10
-3.051823885188908
 20
0.797590190954785
 10
-3.123995221591808
 20
0.855405177334175
 10
-3.200930832350413
 20
0.9067100138062835
 10
-3.28204519101186
 20
0.9511142395868513
 10
-3.366720968328545
 20
0.9882799117056832
 10
-3.454313730506457
 20
1.017924176956709
 10
-3.544156843735466
 20
1.039821424581671
 10
-3.635566547675144
 20
1.053805003304224
 10
-3.727847159283822
 20
1.059768489646774
 10
-3.75
 20
1.06
  0
LINE
  5
1AB
330
137
100
AcDbEntity
  8
AM_4
100
AcDbLine
 10
-3.788160736501669
 20
1.06
 30
0.0
 11
-3.788160736501669
 21
1.345
 31
0.0
  0
LWPOLYLINE
  5
1AC
330
137
100
AcDbEntity
  8
AM_4
100
AcDbPolyline
 90
       11
 70
     0
 43
0.0
 10
-3.750000000000001
 20
-1.06
 10
-3.657614912687483
 20
-1.05596637997725
 10
-3.565932931673054
 20
-1.04389621819294
 10
-3.475651812191328
 20
-1.023881375866412
 10
-3.387458648074792
 20
-0.996074178033063
 10
-3.302024642554859
 20
-0.9606862542588489
 10
-3.220000000000001
 20
-0.917986928011505
 10
-3.142008977467892
 20
-0.8683011669463314
 10
-3.068645133732269
 20
-0.8120071097061168
 10
-3.00046681194226
 20
-0.7495331880577407
 10
-2.984966090589986
 20
-0.733705061624104
  0
LINE
  5
1AD
330
137
100
AcDbEntity
  8
AM_4
100
AcDbLine
 10
-3.788160736501669
 20
-1.345
 30
0.0
 11
-3.788160736501669
 21
-1.06
 31
0.0
  0
LINE
  5
1AE
330
137
100
AcDbEntity
  8
AM_4
100
AcDbLine
 10
2.585025
 20
1.076
 30
0.0
 11
-2.585024999999999
 21
1.076
 31
0.0
  0
LWPOLYLINE
  5
1AF
330
137
100
AcDbEntity
  8
AM_4
100
AcDbPolyline
 90
        4
 70
     0
 43
0.0
 10
-2.5945014313003
 20
1.082806686703329
 10
-2.591873523909677
 20
1.078713181746566
 10
-2.586702329654351
 20
1.076141675333449
 10
-2.585024999999999
 20
1.076
  0
LINE
  5
1B0
330
137
100
AcDbEntity
  8
AM_4
100
AcDbLine
 10
-2.220020425159417
 20
0.9005297330097091
 30
0.0
 11
-2.220020425159417
 21
1.076
 31
0.0
  0
LWPOLYLINE
  5
1B1
330
137
100
AcDbEntity
  8
AM_4
100
AcDbPolyline
 90
        8
 70
     0
 43
0.0
 10
-2.595024999999999
 20
1.076
 10
-2.585150146415531
 20
1.046465976637822
 10
-2.555600739260505
 20
1.017156725026562
 10
-2.506601667365789
 20
0.9882953062683895
 10
-2.438525843254952
 20
0.9601013731870568
 10
-2.351891365054783
 20
0.932789498637275
 10
-2.247357573455713
 20
0.9065675424757285
 10
-2.220020425159416
 20
0.900529733009709
  0
LINE
  5
1B2
330
137
100
AcDbEntity
  8
AM_4
100
AcDbLine
 10
2.220020425159417
 20
0.9005297330097086
 30
0.0
 11
2.220020425159417
 21
1.076
 31
0.0
  0
LWPOLYLINE
  5
1B3
330
137
100
AcDbEntity
  8
AM_4
100
AcDbPolyline
 90
        4
 70
     0
 43
0.0
 10
2.585025
 20
1.076
 10
2.586702329654354
 20
1.076141675333449
 10
2.591873523909679
 20
1.078713181746567
 10
2.5945014313003
 20
1.082806686703329
  0
LINE
  5
1B4
330
137
100
AcDbEntity
  8
AM_4
100
AcDbLine
 10
2.595024999999999
 20
1.076
 30
0.0
 11
2.594501431300299
 21
1.082806686703329
 31
0.0
  0
LINE
  5
1B5
330
137
100
AcDbEntity
  8
AM_4
100
AcDbLine
 10
-1.655
 20
-1.076
 30
0.0
 11
-2.595024999999986
 21
-1.076000000000001
 31
0.0
  0
LINE
  5
1B6
330
137
100
AcDbEntity
  8
AM_4
100
AcDbLine
 10
2.595024999999999
 20
-1.076
 30
0.0
 11
1.655
 21
-1.076
 31
0.0
  0
LINE
  5
1B7
330
137
100
AcDbEntity
  8
AM_4
100
AcDbLine
 10
2.061342853578705
 20
0.9005297330097087
 30
0.0
 11
2.061342853578705
 21
1.076
 31
0.0
  0
LINE
  5
1B8
330
137
100
AcDbEntity
  8
AM_4
100
AcDbLine
 10
-2.061342853578705
 20
1.076
 30
0.0
 11
-2.061342853578705
 21
0.9005297330097087
 31
0.0
  0
LINE
  5
1B9
330
137
100
AcDbEntity
  8
AM_4
100
AcDbLine
 10
-2.984966090589986
 20
-0.9716910067200843
 30
0.0
 11
-2.984966090589986
 21
-0.7337050616241041
 31
0.0
  0
LINE
  5
1BA
330
137
100
AcDbEntity
  8
AM_4
100
AcDbLine
 10
2.984966090589986
 20
-0.9716910067200846
 30
0.0
 11
2.984966090589986
 21
-0.7337050616241042
 31
0.0
  0
LWPOLYLINE
  5
1BB
330
137
100
AcDbEntity
  8
AM_4
100
AcDbPolyline
 90
       37
 70
     0
 43
0.0
 10
2.984966090589986
 20
0.7337050616241042
 10
2.955330344147935
 20
0.701509818302536
 10
2.922823597688127
 20
0.6628568468820293
 10
2.899241308534901
 20
0.6323181423547481
 10
2.874787126372719
 20
0.5980129921286295
 10
2.849799129190451
 20
0.5596770427610277
 10
2.828254091792893
 20
0.5234368709249919
 10
2.806845190727934
 20
0.4837964507382959
 10
2.78547730580856
 20
0.4396536547356656
 10
2.765017564492119
 20
0.3916753780121515
 10
2.749710885497246
 20
0.3507411465450863
 10
2.735547735835265
 20
0.3073867331734428
 10
2.722499806437087
 20
0.2604558261295409
 10
2.711267197496247
 20
0.2112679933229528
 10
2.703585712810015
 20
0.1691521057755775
 10
2.697503220008025
 20
0.1258988804816179
 10
2.693063986121015
 20
0.0804947917615269
 10
2.690560790697547
 20
0.0344755245441149
 10
2.690055859667741
 20
-0.0105735375489432
 10
2.691456274053514
 20
-0.0555443989915372
 10
2.694871072325905
 20
-0.101470731177209
 10
2.70019014946834
 20
-0.1466263200339313
 10
2.706873103116303
 20
-0.18836758927224
 10
2.715015940645664
 20
-0.228927929450339
 10
2.724704731992847
 20
-0.2690110765370376
 10
2.735590625162069
 20
-0.3075282429971534
 10
2.752345820468407
 20
-0.3581649080148506
 10
2.77061075503493
 20
-0.4054586376521647
 10
2.790515123178409
 20
-0.4505425783343492
 10
2.811158004912508
 20
-0.4921135115602265
 10
2.831268760710041
 20
-0.5287144995506213
 10
2.851481107643782
 20
-0.5623786239791785
 10
2.871534425598683
 20
-0.5932101099878215
 10
2.901688507010724
 20
-0.6355920404491214
 10
2.930507716649423
 20
-0.6723335463360851
 10
2.95883892404464
 20
-0.7054531535780078
 10
2.984966090589986
 20
-0.7337050616241042
  0
LINE
  5
1BC
330
137
100
AcDbEntity
  8
AM_4
100
AcDbLine
 10
2.984966090589986
 20
0.7337050616241042
 30
0.0
 11
2.984966090589986
 21
0.971691006720085
 31
0.0
  0
LINE
  5
1BD
330
137
100
AcDbEntity
  8
AM_4
100
AcDbLine
 10
-2.984966090589986
 20
0.7337050616241048
 30
0.0
 11
-2.984966090589986
 21
0.971691006720085
 31
0.0
  0
LWPOLYLINE
  5
1BE
330
137
100
AcDbEntity
  8
AM_4
100
AcDbPolyline
 90
       37
 70
     0
 43
0.0
 10
-2.984966090589986
 20
-0.7337050616241041
 10
-2.955330344147935
 20
-0.7015098183025354
 10
-2.922823597688126
 20
-0.6628568468820286
 10
-2.899241308534901
 20
-0.6323181423547475
 10
-2.874787126372719
 20
-0.598012992128629
 10
-2.849799129190451
 20
-0.5596770427610274
 10
-2.828254091792893
 20
-0.5234368709249916
 10
-2.806845190727934
 20
-0.4837964507382956
 10
-2.785477305808559
 20
-0.4396536547356651
 10
-2.765017564492118
 20
-0.3916753780121506
 10
-2.749710885497245
 20
-0.3507411465450853
 10
-2.735547735835264
 20
-0.3073867331734415
 10
-2.722499806437086
 20
-0.2604558261295396
 10
-2.711267197496247
 20
-0.2112679933229515
 10
-2.703585712810015
 20
-0.1691521057755763
 10
-2.697503220008025
 20
-0.1258988804816168
 10
-2.693063986121015
 20
-0.0804947917615257
 10
-2.690560790697546
 20
-0.0344755245441136
 10
-2.690055859667741
 20
0.0105735375489446
 10
-2.691456274053514
 20
0.0555443989915386
 10
-2.694871072325905
 20
0.1014707311772104
 10
-2.70019014946834
 20
0.1466263200339326
 10
-2.706873103116303
 20
0.1883675892722414
 10
-2.715015940645664
 20
0.2289279294503404
 10
-2.724704731992847
 20
0.269011076537039
 10
-2.735590625162069
 20
0.3075282429971549
 10
-2.752345820468407
 20
0.3581649080148519
 10
-2.77061075503493
 20
0.4054586376521658
 10
-2.790515123178409
 20
0.4505425783343504
 10
-2.811158004912508
 20
0.4921135115602279
 10
-2.831268760710041
 20
0.5287144995506228
 10
-2.851481107643782
 20
0.5623786239791801
 10
-2.871534425598683
 20
0.5932101099878233
 10
-2.901688507010724
 20
0.6355920404491228
 10
-2.930507716649423
 20
0.6723335463360862
 10
-2.95883892404464
 20
0.7054531535780084
 10
-2.984966090589986
 20
0.7337050616241046
  0
LINE
  5
1BF
330
137
100
AcDbEntity
  8
AM_4
100
AcDbLine
 10
-2.220020425159417
 20
0.900529733009709
 30
0.0
 11
-2.061342853578705
 21
0.900529733009709
 31
0.0
  0
LINE
  5
1C0
330
137
100
AcDbEntity
  8
AM_4
100
AcDbLine
 10
-2.594501431300299
 20
1.082806686703329
 30
0.0
 11
-2.595024999999999
 21
1.076
 31
0.0
  0
LWPOLYLINE
  5
1C1
330
137
100
AcDbEntity
  8
AM_4
100
AcDbPolyline
 90
        5
 70
     0
 43
0.0
 10
-2.595024999999999
 20
1.085999999999999
 10
-2.594986946980917
 20
1.085128442572523
 10
-2.594873077530122
 20
1.08426351822333
 10
-2.59468425826289
 20
1.083411809548974
 10
-2.5945014313003
 20
1.082806686703329
  0
LINE
  5
1C2
330
137
100
AcDbEntity
  8
AM_4
100
AcDbLine
 10
-2.595024999999999
 20
1.085999999999999
 30
0.0
 11
-2.595024999999999
 21
1.345
 31
0.0
  0
LINE
  5
1C3
330
137
100
AcDbEntity
  8
AM_4
100
AcDbLine
 10
-4.8375
 20
1.345
 30
0.0
 11
-2.595024999999999
 21
1.345
 31
0.0
  0
LINE
  5
1C4
330
137
100
AcDbEntity
  8
AM_4
100
AcDbLine
 10
-2.984966090589986
 20
0.971691006720085
 30
0.0
 11
-3.75
 21
1.345
 31
0.0
  0
LWPOLYLINE
  5
1C5
330
137
100
AcDbEntity
  8
AM_4
100
AcDbPolyline
 90
       32
 70
     0
 43
0.0
 10
2.984966090589986
 20
0.9716910067200846
 10
2.903987604447168
 20
0.9381159844298904
 10
2.800908019158851
 20
0.9055903427548297
 10
2.676511832610232
 20
0.8743616214675691
 10
2.53174577489342
 20
0.844667489993522
 10
2.367711603119772
 20
0.816733938603013
 10
2.185657716383029
 20
0.790773558488863
 10
1.986969654688399
 20
0.7669839238190468
 10
1.77315955415651
 20
0.7455460880779762
 10
1.545854638754478
 20
0.7266232061401596
 10
1.306784836138974
 20
0.7103592925630923
 10
1.057769611862194
 20
0.6968781255495153
 10
0.800704122140389
 20
0.6862823049205533
 10
0.5375447905707277
 20
0.678652471269124
 10
0.2702944185664043
 20
0.6740466922363342
 10
0.0009869428285583
 20
0.672500020581669
 10
-0.2683280441401453
 20
0.6740242274103262
 10
-0.5356008926720397
 20
0.6786077125879983
 10
-0.7987974950060386
 20
0.6862155930248997
 10
-1.055914766075927
 20
0.6967899681571412
 10
-1.304995888197209
 20
0.7102503606049846
 10
-1.54414520363125
 20
0.7264943286542944
 10
-1.77154264168529
 20
0.7453982458998395
 10
-1.985457570549413
 20
0.7668182421168835
 10
-2.184261968449595
 20
0.7905912982004679
 10
-2.36644281387644
 20
0.8165364868392326
 10
-2.530613600592446
 20
0.8444563494815036
 10
-2.675524889781674
 20
0.874138399114099
 10
-2.800073819033565
 20
0.905356737416803
 10
-2.903312495791813
 20
0.9378737739849845
 10
-2.984455211389069
 20
0.9714420345360358
 10
-2.984966090589986
 20
0.9716910067200845
  0
LINE
  5
1C6
330
137
100
AcDbEntity
  8
AM_4
100
AcDbLine
 10
3.75
 20
1.345
 30
0.0
 11
2.984966090589986
 21
0.971691006720085
 31
0.0
  0
LINE
  5
1C7
330
137
100
AcDbEntity
  8
AM_4
100
AcDbLine
 10
2.595024999999999
 20
1.345
 30
0.0
 11
4.8375
 21
1.345
 31
0.0
  0
LINE
  5
1C8
330
137
100
AcDbEntity
  8
AM_4
100
AcDbLine
 10
2.595024999999999
 20
1.345
 30
0.0
 11
2.595024999999999
 21
1.085999999999997
 31
0.0
  0
LWPOLYLINE
  5
1C9
330
137
100
AcDbEntity
  8
AM_4
100
AcDbPolyline
 90
        5
 70
     0
 43
0.0
 10
2.5945014313003
 20
1.082806686703329
 10
2.594743686210387
 20
1.083644763633085
 10
2.594911976050108
 20
1.084500765333724
 10
2.595005020032171
 20
1.085368177115436
 10
2.595024999999999
 20
1.085999999999993
  0
LWPOLYLINE
  5
1CA
330
137
100
AcDbEntity
  8
AM_4
100
AcDbPolyline
 90
        8
 70
     0
 43
0.0
 10
2.220020425159416
 20
0.9005297330097087
 10
2.328688106516359
 20
0.9264635403125776
 10
2.419633065282389
 20
0.9535354103662506
 10
2.49216315540723
 20
0.9815393098931774
 10
2.545726379110166
 20
1.010262112308741
 10
2.579915087916458
 20
1.039485219743258
 10
2.594469085108384
 20
1.068986226703755
 10
2.595024999999999
 20
1.076
  0
LINE
  5
1CB
330
137
100
AcDbEntity
  8
AM_4
100
AcDbLine
 10
2.061342853578705
 20
0.900529733009709
 30
0.0
 11
2.220020425159417
 21
0.9005297330097086
 31
0.0
  0
LWPOLYLINE
  5
1CC
330
137
100
AcDbEntity
  8
AM_4
100
AcDbPolyline
 90
       24
 70
     0
 43
0.0
 10
-2.061342853578705
 20
0.9005297330097086
 10
-1.936383292367249
 20
0.8777372725131449
 10
-1.79668668508068
 20
0.8564537110870641
 10
-1.643316207251564
 20
0.8368410294852845
 10
-1.477439100823809
 20
0.8190484920572565
 10
-1.300317790736665
 20
0.8032115107562353
 10
-1.113300277108666
 20
0.7894506145725524
 10
-0.9178098761427829
 20
0.7778705322352218
 10
-0.7153343878306981
 20
0.7685593951630757
 10
-0.5074147728965093
 20
0.7615880667314514
 10
-0.2956334251551611
 20
0.7570096029591165
 10
-0.0816021285400393
 20
0.7548588487199307
 10
0.1330502095459845
 20
0.7551521725523149
 10
0.3466899551994503
 20
0.7578873420847915
 10
0.5576911809567298
 20
0.763043541025677
 10
0.7644480400837868
 20
0.7705815275876335
 10
0.9653869880394591
 20
0.7804439331413642
 10
1.158978758099551
 20
0.7925556988255215
 10
1.343749999999997
 20
0.8068246467899649
 10
1.518294493022009
 20
0.8231421817248588
 10
1.681283848180843
 20
0.8413841173365516
 10
1.831477618068078
 20
0.8614116214802564
 10
1.967732737405394
 20
0.8830722727565022
 10
2.061342853578704
 20
0.9005297330097085
  0
LINE
  5
1CD
330
137
100
AcDbEntity
  8
AM_4
100
AcDbLine
 10
2.595024999999999
 20
-1.076
 30
0.0
 11
2.595024999999999
 21
-1.345
 31
0.0
  0
LINE
  5
1CE
330
137
100
AcDbEntity
  8
AM_4
100
AcDbLine
 10
2.595024999999999
 20
-1.345
 30
0.0
 11
4.8375
 21
-1.345
 31
0.0
  0
LINE
  5
1CF
330
137
100
AcDbEntity
  8
AM_4
100
AcDbLine
 10
2.984966090589986
 20
-0.9716910067200846
 30
0.0
 11
3.75
 21
-1.345
 31
0.0
  0
LWPOLYLINE
  5
1D0
330
137
100
AcDbEntity
  8
AM_4
100
AcDbPolyline
 90
       32
 70
     0
 43
0.0
 10
-2.984966090589986
 20
-0.9716910067200845
 10
-2.903987604447169
 20
-0.9381159844298903
 10
-2.800908019158852
 20
-0.9055903427548295
 10
-2.676511832610233
 20
-0.8743616214675689
 10
-2.53174577489342
 20
-0.8446674899935219
 10
-2.367711603119773
 20
-0.8167339386030128
 10
-2.18565771638303
 20
-0.7907735584888627
 10
-1.986969654688399
 20
-0.7669839238190467
 10
-1.773159554156511
 20
-0.745546088077976
 10
-1.545854638754479
 20
-0.7266232061401593
 10
-1.306784836138975
 20
-0.710359292563092
 10
-1.057769611862195
 20
-0.6968781255495151
 10
-0.8007041221403896
 20
-0.686282304920553
 10
-0.5375447905707282
 20
-0.6786524712691235
 10
-0.2702944185664047
 20
-0.6740466922363338
 10
-0.0009869428285587
 20
-0.6725000205816686
 10
0.2683280441401451
 20
-0.6740242274103257
 10
0.5356008926720395
 20
-0.678607712587998
 10
0.7987974950060384
 20
-0.6862155930248993
 10
1.055914766075927
 20
-0.6967899681571409
 10
1.304995888197209
 20
-0.7102503606049844
 10
1.54414520363125
 20
-0.7264943286542941
 10
1.77154264168529
 20
-0.7453982458998392
 10
1.985457570549413
 20
-0.7668182421168832
 10
2.184261968449595
 20
-0.7905912982004676
 10
2.36644281387644
 20
-0.8165364868392324
 10
2.530613600592446
 20
-0.8444563494815033
 10
2.675524889781674
 20
-0.8741383991140987
 10
2.800073819033566
 20
-0.9053567374168029
 10
2.903312495791813
 20
-0.9378737739849844
 10
2.984455211389069
 20
-0.9714420345360357
 10
2.984966090589986
 20
-0.9716910067200843
  0
LINE
  5
1D1
330
137
100
AcDbEntity
  8
AM_4
100
AcDbLine
 10
-3.75
 20
-1.345
 30
0.0
 11
-2.984966090589986
 21
-0.9716910067200843
 31
0.0
  0
LINE
  5
1D2
330
137
100
AcDbEntity
  8
AM_4
100
AcDbLine
 10
-4.8375
 20
-1.345
 30
0.0
 11
-2.595024999999985
 21
-1.345
 31
0.0
  0
LINE
  5
1D3
330
137
100
AcDbEntity
  8
AM_4
100
AcDbLine
 10
-2.595024999999985
 20
-1.345
 30
0.0
 11
-2.595024999999986
 21
-1.076000000000001
 31
0.0
  0
LWPOLYLINE
  5
1D4
330
137
100
AcDbEntity
  8
AM_4
100
AcDbPolyline
 90
       37
 70
     0
 43
0.0
 10
2.46065
 20
-1.076
 10
2.451286483859453
 20
-1.047995300782789
 10
2.42326719744949
 20
-1.020203734236321
 10
2.376805384458196
 20
-0.9928368109630202
 10
2.312254647336846
 20
-0.9661028097735979
 10
2.230106256171733
 20
-0.940205192559536
 10
2.13098540982218
 20
-0.9153410558252428
 10
2.015646477779709
 20
-0.8916996306646422
 10
1.884967258960715
 20
-0.8694608425982893
 10
1.73994230112668
 20
-0.8487939422315163
 10
1.581675331775185
 20
-0.8298562171551302
 10
1.411370858107204
 20
-0.8127917948918731
 10
1.230325000000003
 20
-0.7977305459989485
 10
1.039915625752255
 20
-0.7847870956746621
 10
0.8415918656743104
 20
-0.7740599513914507
 10
0.6368630833315216
 20
-0.7656307531945364
 10
0.4272873883761366
 20
-0.7595636523718867
 10
0.2144597783920298
 20
-0.7559048232241778
 10
0.000000000000005
 20
-0.7546821116504853
 10
-0.2144597783920199
 20
-0.7559048232241778
 10
-0.4272873883761268
 20
-0.7595636523718866
 10
-0.6368630833315121
 20
-0.7656307531945361
 10
-0.841591865674301
 20
-0.7740599513914502
 10
-1.039915625752246
 20
-0.7847870956746615
 10
-1.230324999999994
 20
-0.7977305459989479
 10
-1.411370858107196
 20
-0.8127917948918724
 10
-1.581675331775178
 20
-0.8298562171551292
 10
-1.739942301126673
 20
-0.8487939422315154
 10
-1.884967258960708
 20
-0.8694608425982883
 10
-2.015646477779703
 20
-0.8916996306646411
 10
-2.130985409822175
 20
-0.9153410558252416
 10
-2.230106256171729
 20
-0.9402051925595349
 10
-2.312254647336843
 20
-0.9661028097735966
 10
-2.376805384458193
 20
-0.992836810963019
 10
-2.423267197449488
 20
-1.020203734236319
 10
-2.451286483859453
 20
-1.047995300782788
 10
-2.46065
 20
-1.075999999999999
  0
ENDBLK
  5
13A
330
137
100
AcDbEntity
  8
0
100
AcDbBlockEnd
  0
ENDSEC
  0
SECTION
  2
ENTITIES
  0
INSERT
  5
6F
330
1F
100
AcDbEntity
  8
0
100
AcDbBlockReference
  2
1_124872_4
 10
0.0
 20
0.0
 30
0.0
  0
POINT
  5
1D6
330
1F
100
AcDbEntity
  8
ConnectionPoints
100
AcDbPoint
 10
0.0
 20
1.06
 30
-0.0000000000000001
  0
POINT
  5
1D7
330
1F
100
AcDbEntity
  8
ConnectionPoints
100
AcDbPoint
 10
0.0
 20
-1.48
 30
0.0000000000000001
  0
POINT
  5
1D8
330
1F
100
AcDbEntity
  8
ConnectionPoints
100
AcDbPoint
 10
2.184959953866431
 20
0.0000000000000001
 30
2.184959953866432
  0
POINT
  5
1D9
330
1F
100
AcDbEntity
  8
ConnectionPoints
100
AcDbPoint
 10
0.0
 20
-1.48
 30
0.0000000000000001
  0
ENDSEC
  0
SECTION
  2
OBJECTS
  0
DICTIONARY
  5
C
330
0
100
AcDbDictionary
281
     1
  3
ACAD_DETAILVIEWSTYLE
350
1E1
  3
ACAD_GROUP
350
D
  3
ACAD_LAYOUT
350
1A
  3
ACAD_MATERIAL
350
43
  3
ACAD_MLEADERSTYLE
350
6B
  3
ACAD_MLINESTYLE
350
17
  3
ACAD_PLOTSETTINGS
350
19
  3
ACAD_PLOTSTYLENAME
350
E
  3
ACAD_SCALELIST
350
47
  3
ACAD_SECTIONVIEWSTYLE
350
1E2
  3
ACAD_TABLESTYLE
350
69
  3
ACAD_VISUALSTYLE
350
2A
  3
ACDB_RECOMPOSE_DATA
350
1DE
  3
AcDbVariableDictionary
350
1DA
  0
SUN
  5
6D
330
29
100
AcDbSun
 90
        1
290
     0
 63
     7
421
 16777215
 40
1.0
291
     1
 91
  2455826
 92
 54000000
292
     0
 70
     2
 71
   256
280
     1
  0
DICTIONARY
  5
1E1
102
{ACAD_REACTORS
330
C
102
}
330
C
100
AcDbDictionary
281
     1
  0
DICTIONARY
  5
D
102
{ACAD_REACTORS
330
C
102
}
330
C
100
AcDbDictionary
281
     1
  0
DICTIONARY
  5
1A
102
{ACAD_REACTORS
330
C
102
}
330
C
100
AcDbDictionary
281
     1
  3
Layout1
350
1E
  3
Layout2
350
26
  3
Model
350
22
  0
DICTIONARY
  5
43
102
{ACAD_REACTORS
330
C
102
}
330
C
100
AcDbDictionary
281
     1
  3
ByBlock
350
45
  3
ByLayer
350
44
  3
Global
350
46
  0
DICTIONARY
  5
6B
102
{ACAD_REACTORS
330
C
102
}
330
C
100
AcDbDictionary
281
     1
  3
Standard
350
6C
  0
DICTIONARY
  5
17
102
{ACAD_REACTORS
330
C
102
}
330
C
100
AcDbDictionary
281
     1
  3
Standard
350
18
  0
DICTIONARY
  5
19
102
{ACAD_REACTORS
330
C
102
}
330
C
100
AcDbDictionary
281
     1
  0
ACDBDICTIONARYWDFLT
  5
E
102
{ACAD_REACTORS
330
C
102
}
330
C
100
AcDbDictionary
281
     1
  3
Normal
350
F
100
AcDbDictionaryWithDefault
340
F
  0
DICTIONARY
  5
47
102
{ACAD_REACTORS
330
C
102
}
330
C
100
AcDbDictionary
281
     1
  3
A0
350
48
  3
A1
350
49
  3
A2
350
4A
  3
A3
350
4B
  3
A4
350
4C
  3
A5
350
4D
  3
A6
350
4E
  3
A7
350
4F
  3
A8
350
50
  3
A9
350
51
  3
B0
350
52
  3
B1
350
53
  3
B2
350
54
  3
B3
350
55
  3
B4
350
56
  3
B5
350
57
  3
B6
350
58
  3
B7
350
59
  3
B8
350
5A
  3
B9
350
5B
  3
C0
350
5C
  3
C1
350
5D
  3
C2
350
5E
  3
C3
350
5F
  3
C4
350
60
  3
C5
350
61
  3
C6
350
62
  3
C7
350
63
  3
C8
350
64
  3
C9
350
65
  3
D0
350
66
  3
D1
350
67
  3
D2
350
68
  0
DICTIONARY
  5
1E2
102
{ACAD_REACTORS
330
C
102
}
330
C
100
AcDbDictionary
281
     1
  0
DICTIONARY
  5
69
102
{ACAD_REACTORS
330
C
102
}
330
C
100
AcDbDictionary
281
     1
  3
Standard
350
6A
  0
DICTIONARY
  5
2A
102
{ACAD_REACTORS
330
C
102
}
330
C
100
AcDbDictionary
281
     1
  3
2dWireframe
350
2F
  3
Basic
350
32
  3
Brighten
350
36
  3
ColorChange
350
3A
  3
Conceptual
350
34
  3
Dim
350
35
  3
EdgeColorOff
350
3D
  3
Facepattern
350
39
  3
Flat
350
2B
  3
FlatWithEdges
350
2C
  3
Gouraud
350
2D
  3
GouraudWithEdges
350
2E
  3
Hidden
350
31
  3
JitterOff
350
3B
  3
Linepattern
350
38
  3
OverhangOff
350
3C
  3
Realistic
350
33
  3
Shaded
350
42
  3
Shaded with edges
350
41
  3
Shades of Gray
350
3E
  3
Sketchy
350
3F
  3
Thicken
350
37
  3
Wireframe
350
30
  3
X-Ray
350
40
  0
XRECORD
  5
1DE
102
{ACAD_REACTORS
330
C
102
}
330
C
100
AcDbXrecord
280
     1
 90
        1
330
6A
  0
DICTIONARY
  5
1DA
102
{ACAD_REACTORS
330
C
102
}
330
C
100
AcDbDictionary
281
     1
  3
CANNOSCALE
350
1DB
  3
CMLEADERSTYLE
350
1E0
  3
CTABLESTYLE
350
1DF
  0
LAYOUT
  5
1E
102
{ACAD_REACTORS
330
1A
102
}
330
1A
100
AcDbPlotSettings
  1

  2
none_device
  4

  6

 40
0.0
 41
0.0
 42
0.0
 43
0.0
 44
0.0
 45
0.0
 46
0.0
 47
0.0
 48
0.0
 49
0.0
140
0.0
141
0.0
142
1.0
143
1.0
 70
   688
 72
     0
 73
     0
 74
     5
  7

 75
    16
 76
     0
 77
     2
 78
   300
147
1.0
148
0.0
149
0.0
100
AcDbLayout
  1
Layout1
 70
     1
 71
     1
 10
0.0
 20
0.0
 11
12.0
 21
9.0
 12
0.0
 22
0.0
 32
0.0
 14
1.000000000000000E+20
 24
1.000000000000000E+20
 34
1.000000000000000E+20
 15
-1.000000000000000E+20
 25
-1.000000000000000E+20
 35
-1.000000000000000E+20
146
0.0
 13
0.0
 23
0.0
 33
0.0
 16
1.0
 26
0.0
 36
0.0
 17
0.0
 27
1.0
 37
0.0
 76
     0
330
1B
  0
LAYOUT
  5
26
102
{ACAD_REACTORS
330
1A
102
}
330
1A
100
AcDbPlotSettings
  1

  2
none_device
  4

  6

 40
0.0
 41
0.0
 42
0.0
 43
0.0
 44
0.0
 45
0.0
 46
0.0
 47
0.0
 48
0.0
 49
0.0
140
0.0
141
0.0
142
1.0
143
1.0
 70
   688
 72
     0
 73
     0
 74
     5
  7

 75
    16
 76
     0
 77
     2
 78
   300
147
1.0
148
0.0
149
0.0
100
AcDbLayout
  1
Layout2
 70
     1
 71
     2
 10
0.0
 20
0.0
 11
0.0
 21
0.0
 12
0.0
 22
0.0
 32
0.0
 14
0.0
 24
0.0
 34
0.0
 15
0.0
 25
0.0
 35
0.0
146
0.0
 13
0.0
 23
0.0
 33
0.0
 16
1.0
 26
0.0
 36
0.0
 17
0.0
 27
1.0
 37
0.0
 76
     0
330
23
  0
LAYOUT
  5
22
102
{ACAD_REACTORS
330
1A
102
}
330
1A
100
AcDbPlotSettings
  1

  2
none_device
  4
Letter_(8.50_x_11.00_Inches)
  6

 40
6.35
 41
6.35
 42
6.35000508
 43
6.35000508
 44
215.9
 45
279.4
 46
0.0
 47
0.0
 48
0.0
 49
0.0
140
0.0
141
0.0
142
1.0
143
1.0
 70
  1712
 72
     0
 73
     0
 74
     0
  7

 75
     0
 76
     0
 77
     2
 78
   300
147
1.0
148
0.0
149
0.0
100
AcDbLayout
  1
Model
 70
     1
 71
     0
 10
0.0
 20
0.0
 11
12.0
 21
9.0
 12
0.0
 22
0.0
 32
0.0
 14
1.000000000000000E+20
 24
1.000000000000000E+20
 34
1.000000000000000E+20
 15
-1.000000000000000E+20
 25
-1.000000000000000E+20
 35
-1.000000000000000E+20
146
0.0
 13
0.0
 23
0.0
 33
0.0
 16
1.0
 26
0.0
 36
0.0
 17
0.0
 27
1.0
 37
0.0
 76
     0
330
1F
331
29
  0
MATERIAL
  5
45
102
{ACAD_REACTORS
330
43
102
}
330
43
100
AcDbMaterial
  1
ByBlock
 72
     1
 94
      127
  0
MATERIAL
  5
44
102
{ACAD_REACTORS
330
43
102
}
330
43
100
AcDbMaterial
  1
ByLayer
 72
     1
 94
      127
  0
MATERIAL
  5
46
102
{ACAD_REACTORS
330
43
102
}
330
43
100
AcDbMaterial
  1
Global
 72
     1
 94
      127
  0
MLEADERSTYLE
  5
6C
102
{ACAD_REACTORS
330
6B
102
}
330
6B
100
AcDbMLeaderStyle
179
     2
170
     2
171
     1
172
     0
 90
        2
 40
0.0
 41
0.0
173
     1
 91
-1056964608
340
14
 92
       -2
290
     1
 42
0.09
291
     1
 43
0.36
  3
Standard
341
0
 44
0.18
300

342
11
174
     1
178
     6
175
     1
176
     0
 93
-1056964608
 45
0.18
292
     0
297
     0
 46
0.18
343
0
 94
-1056964608
 47
1.0
 49
1.0
140
1.0
293
     1
141
0.0
294
     1
177
     0
142
1.0
295
     0
296
     0
143
0.125
271
     0
272
     9
273
     9
298
     0
  0
MLINESTYLE
  5
18
102
{ACAD_REACTORS
330
17
102
}
330
17
100
AcDbMlineStyle
  2
Standard
 70
     0
  3

 62
   256
 51
90.0
 52
90.0
 71
     2
 49
0.5
 62
   256
  6
BYLAYER
 49
-0.5
 62
   256
  6
BYLAYER
  0
ACDBPLACEHOLDER
  5
F
102
{ACAD_REACTORS
330
E
102
}
330
E
  0
SCALE
  5
48
102
{ACAD_REACTORS
330
47
102
}
330
47
100
AcDbScale
 70
     0
300
1:1
140
1.0
141
1.0
290
     1
  0
SCALE
  5
49
102
{ACAD_REACTORS
330
47
102
}
330
47
100
AcDbScale
 70
     0
300
1:2
140
1.0
141
2.0
290
     0
  0
SCALE
  5
4A
102
{ACAD_REACTORS
330
47
102
}
330
47
100
AcDbScale
 70
     0
300
1:4
140
1.0
141
4.0
290
     0
  0
SCALE
  5
4B
102
{ACAD_REACTORS
330
47
102
}
330
47
100
AcDbScale
 70
     0
300
1:5
140
1.0
141
5.0
290
     0
  0
SCALE
  5
4C
102
{ACAD_REACTORS
330
47
102
}
330
47
100
AcDbScale
 70
     0
300
1:8
140
1.0
141
8.0
290
     0
  0
SCALE
  5
4D
102
{ACAD_REACTORS
330
47
102
}
330
47
100
AcDbScale
 70
     0
300
1:10
140
1.0
141
10.0
290
     0
  0
SCALE
  5
4E
102
{ACAD_REACTORS
330
47
102
}
330
47
100
AcDbScale
 70
     0
300
1:16
140
1.0
141
16.0
290
     0
  0
SCALE
  5
4F
102
{ACAD_REACTORS
330
47
102
}
330
47
100
AcDbScale
 70
     0
300
1:20
140
1.0
141
20.0
290
     0
  0
SCALE
  5
50
102
{ACAD_REACTORS
330
47
102
}
330
47
100
AcDbScale
 70
     0
300
1:30
140
1.0
141
30.0
290
     0
  0
SCALE
  5
51
102
{ACAD_REACTORS
330
47
102
}
330
47
100
AcDbScale
 70
     0
300
1:40
140
1.0
141
40.0
290
     0
  0
SCALE
  5
52
102
{ACAD_REACTORS
330
47
102
}
330
47
100
AcDbScale
 70
     0
300
1:50
140
1.0
141
50.0
290
     0
  0
SCALE
  5
53
102
{ACAD_REACTORS
330
47
102
}
330
47
100
AcDbScale
 70
     0
300
1:100
140
1.0
141
100.0
290
     0
  0
SCALE
  5
54
102
{ACAD_REACTORS
330
47
102
}
330
47
100
AcDbScale
 70
     0
300
2:1
140
2.0
141
1.0
290
     0
  0
SCALE
  5
55
102
{ACAD_REACTORS
330
47
102
}
330
47
100
AcDbScale
 70
     0
300
4:1
140
4.0
141
1.0
290
     0
  0
SCALE
  5
56
102
{ACAD_REACTORS
330
47
102
}
330
47
100
AcDbScale
 70
     0
300
8:1
140
8.0
141
1.0
290
     0
  0
SCALE
  5
57
102
{ACAD_REACTORS
330
47
102
}
330
47
100
AcDbScale
 70
     0
300
10:1
140
10.0
141
1.0
290
     0
  0
SCALE
  5
58
102
{ACAD_REACTORS
330
47
102
}
330
47
100
AcDbScale
 70
     0
300
100:1
140
100.0
141
1.0
290
     0
  0
SCALE
  5
59
102
{ACAD_REACTORS
330
47
102
}
330
47
100
AcDbScale
 70
     0
300
1/128" = 1'-0"
140
0.0078125
141
12.0
290
     0
  0
SCALE
  5
5A
102
{ACAD_REACTORS
330
47
102
}
330
47
100
AcDbScale
 70
     0
300
1/64" = 1'-0"
140
0.015625
141
12.0
290
     0
  0
SCALE
  5
5B
102
{ACAD_REACTORS
330
47
102
}
330
47
100
AcDbScale
 70
     0
300
1/32" = 1'-0"
140
0.03125
141
12.0
290
     0
  0
SCALE
  5
5C
102
{ACAD_REACTORS
330
47
102
}
330
47
100
AcDbScale
 70
     0
300
1/16" = 1'-0"
140
0.0625
141
12.0
290
     0
  0
SCALE
  5
5D
102
{ACAD_REACTORS
330
47
102
}
330
47
100
AcDbScale
 70
     0
300
3/32" = 1'-0"
140
0.09375
141
12.0
290
     0
  0
SCALE
  5
5E
102
{ACAD_REACTORS
330
47
102
}
330
47
100
AcDbScale
 70
     0
300
1/8" = 1'-0"
140
0.125
141
12.0
290
     0
  0
SCALE
  5
5F
102
{ACAD_REACTORS
330
47
102
}
330
47
100
AcDbScale
 70
     0
300
3/16" = 1'-0"
140
0.1875
141
12.0
290
     0
  0
SCALE
  5
60
102
{ACAD_REACTORS
330
47
102
}
330
47
100
AcDbScale
 70
     0
300
1/4" = 1'-0"
140
0.25
141
12.0
290
     0
  0
SCALE
  5
61
102
{ACAD_REACTORS
330
47
102
}
330
47
100
AcDbScale
 70
     0
300
3/8" = 1'-0"
140
0.375
141
12.0
290
     0
  0
SCALE
  5
62
102
{ACAD_REACTORS
330
47
102
}
330
47
100
AcDbScale
 70
     0
300
1/2" = 1'-0"
140
0.5
141
12.0
290
     0
  0
SCALE
  5
63
102
{ACAD_REACTORS
330
47
102
}
330
47
100
AcDbScale
 70
     0
300
3/4" = 1'-0"
140
0.75
141
12.0
290
     0
  0
SCALE
  5
64
102
{ACAD_REACTORS
330
47
102
}
330
47
100
AcDbScale
 70
     0
300
1" = 1'-0"
140
1.0
141
12.0
290
     0
  0
SCALE
  5
65
102
{ACAD_REACTORS
330
47
102
}
330
47
100
AcDbScale
 70
     0
300
1-1/2" = 1'-0"
140
1.5
141
12.0
290
     0
  0
SCALE
  5
66
102
{ACAD_REACTORS
330
47
102
}
330
47
100
AcDbScale
 70
     0
300
3" = 1'-0"
140
3.0
141
12.0
290
     0
  0
SCALE
  5
67
102
{ACAD_REACTORS
330
47
102
}
330
47
100
AcDbScale
 70
     0
300
6" = 1'-0"
140
6.0
141
12.0
290
     0
  0
SCALE
  5
68
102
{ACAD_REACTORS
330
47
102
}
330
47
100
AcDbScale
 70
     0
300
1'-0" = 1'-0"
140
12.0
141
12.0
290
     0
  0
TABLESTYLE
  5
6A
102
{ACAD_REACTORS
330
69
102
}
102
{ACAD_XDICTIONARY
360
1DC
102
}
330
69
100
AcDbTableStyle
  3
Standard
 70
     0
 71
     0
 40
0.06
 41
0.06
280
     0
281
     0
  7
Standard
140
0.18
170
     2
 62
     0
 63
   257
283
     0
 90
        4
 91
        0
  1

274
    -2
284
     1
 64
     0
275
    -2
285
     1
 65
     0
276
    -2
286
     1
 66
     0
277
    -2
287
     1
 67
     0
278
    -2
288
     1
 68
     0
279
    -2
289
     1
 69
     0
  7
Standard
140
0.25
170
     5
 62
     0
 63
   257
283
     0
 90
        4
 91
        0
  1

274
    -2
284
     1
 64
     0
275
    -2
285
     1
 65
     0
276
    -2
286
     1
 66
     0
277
    -2
287
     1
 67
     0
278
    -2
288
     1
 68
     0
279
    -2
289
     1
 69
     0
  7
Standard
140
0.18
170
     5
 62
     0
 63
   257
283
     0
 90
        4
 91
        0
  1

274
    -2
284
     1
 64
     0
275
    -2
285
     1
 65
     0
276
    -2
286
     1
 66
     0
277
    -2
287
     1
 67
     0
278
    -2
288
     1
 68
     0
279
    -2
289
     1
 69
     0
  0
VISUALSTYLE
  5
2F
102
{ACAD_REACTORS
330
2A
102
}
330
2A
100
AcDbVisualStyle
  2
2dWireframe
 70
     4
177
     3
291
     0
 70
    58
 90
        0
176
     1
 90
        2
176
     1
 90
        0
176
     1
 90
        0
176
     1
 40
0.6
176
     1
 40
30.0
176
     1
 62
     7
420
 16777215
176
     1
 90
        1
176
     1
 90
        4
176
     1
 62
     7
176
     1
 62
   257
176
     1
 90
        1
176
     1
 90
        1
176
     1
 40
1.0
176
     1
 90
        0
176
     1
 62
   257
176
     1
 40
1.0
176
     1
 90
        1
176
     1
 90
        6
176
     1
 90
        2
176
     1
 62
     7
176
     1
 90
        5
176
     1
 90
        0
176
     1
 90
        0
176
     1
290
     0
176
     1
 90
        1
176
     1
 40
0.0
176
     1
 90
        0
176
     1
290
     1
176
     1
290
     1
176
     1
290
     0
176
     1
290
     0
176
     1
290
     0
176
     1
290
     0
176
     1
290
     0
176
     1
290
     0
176
     1
290
     0
176
     1
 90
       50
176
     1
 40
0.0
176
     1
 40
1.0
176
     1
 90
        0
176
     1
 62
    18
420
        0
176
     1
 90
       50
176
     1
 90
        3
176
     1
 62
     5
420
      255
176
     1
290
     0
176
     1
 90
       50
176
     1
 90
       50
176
     1
 90
       50
176
     1
290
     0
176
     1
 90
       50
176
     1
 62
   256
176
     0
 40
1.0
176
     0
 90
        2
176
     1
  1
strokes_ogs.tif
176
     1
290
     0
176
     1
 40
1.0
176
     1
 40
1.0
176
     1
  0
VISUALSTYLE
  5
32
102
{ACAD_REACTORS
330
2A
102
}
330
2A
100
AcDbVisualStyle
  2
Basic
 70
     7
177
     3
291
     1
 70
    58
 90
        1
176
     1
 90
        0
176
     1
 90
        1
176
     1
 90
        0
176
     1
 40
0.6
176
     1
 40
30.0
176
     1
 62
     7
420
 16777215
176
     1
 90
        0
176
     1
 90
        4
176
     1
 62
     7
176
     1
 62
   257
176
     1
 90
        1
176
     1
 90
        1
176
     1
 40
1.0
176
     1
 90
        8
176
     1
 62
     7
176
     1
 40
1.0
176
     1
 90
        1
176
     1
 90
        6
176
     1
 90
        2
176
     1
 62
     7
176
     1
 90
        5
176
     1
 90
        0
176
     1
 90
        0
176
     1
290
     0
176
     1
 90
        1
176
     1
 40
0.0
176
     1
 90
        0
176
     1
290
     0
176
     1
290
     1
176
     1
290
     1
176
     1
290
     0
176
     1
290
     0
176
     1
290
     0
176
     1
290
     0
176
     1
290
     0
176
     1
290
     0
176
     1
 90
       50
176
     1
 40
0.0
176
     1
 40
1.0
176
     1
 90
        0
176
     1
 62
    18
420
        0
176
     1
 90
       50
176
     1
 90
        3
176
     1
 62
     5
420
      255
176
     1
290
     0
176
     1
 90
       50
176
     1
 90
       50
176
     1
 90
       50
176
     1
290
     0
176
     1
 90
       50
176
     1
 62
   256
176
     0
 40
1.0
176
     0
 90
        2
176
     1
  1
strokes_ogs.tif
176
     1
290
     0
176
     1
 40
1.0
176
     1
 40
1.0
176
     1
  0
VISUALSTYLE
  5
36
102
{ACAD_REACTORS
330
2A
102
}
330
2A
100
AcDbVisualStyle
  2
Brighten
 70
    12
177
     3
291
     1
 70
    58
 90
        2
176
     1
 90
        2
176
     1
 90
        0
176
     1
 90
        0
176
     1
 40
0.6
176
     1
 40
30.0
176
     1
 62
     7
420
 16777215
176
     1
 90
        1
176
     1
 90
        4
176
     1
 62
     7
176
     1
 62
   257
176
     1
 90
        1
176
     1
 90
        1
176
     1
 40
1.0
176
     1
 90
        8
176
     1
 62
     7
176
     1
 40
1.0
176
     1
 90
        1
176
     1
 90
        6
176
     1
 90
        2
176
     1
 62
     7
176
     1
 90
        5
176
     1
 90
        0
176
     1
 90
        0
176
     1
290
     0
176
     1
 90
        1
176
     1
 40
50.0
176
     1
 90
        0
176
     1
290
     0
176
     1
290
     1
176
     1
290
     1
176
     1
290
     0
176
     1
290
     0
176
     1
290
     0
176
     1
290
     0
176
     1
290
     0
176
     1
290
     0
176
     1
 90
       50
176
     1
 40
0.0
176
     1
 40
1.0
176
     1
 90
        0
176
     1
 62
    18
420
        0
176
     1
 90
       50
176
     1
 90
        3
176
     1
 62
     5
420
      255
176
     1
290
     0
176
     1
 90
       50
176
     1
 90
       50
176
     1
 90
       50
176
     1
290
     0
176
     1
 90
       50
176
     1
 62
   256
176
     0
 40
1.0
176
     0
 90
        2
176
     1
  1
strokes_ogs.tif
176
     1
290
     0
176
     1
 40
1.0
176
     1
 40
1.0
176
     1
  0
VISUALSTYLE
  5
3A
102
{ACAD_REACTORS
330
2A
102
}
330
2A
100
AcDbVisualStyle
  2
ColorChange
 70
    16
177
     3
291
     1
 70
    58
 90
        2
176
     1
 90
        2
176
     1
 90
        3
176
     1
 90
        0
176
     1
 40
0.6
176
     1
 40
30.0
176
     1
 62
     8
420
  8421504
176
     1
 90
        1
176
     1
 90
        4
176
     1
 62
     7
176
     1
 62
   257
176
     1
 90
        1
176
     1
 90
        1
176
     1
 40
1.0
176
     1
 90
        8
176
     1
 62
     8
420
  8421504
176
     1
 40
1.0
176
     1
 90
        1
176
     1
 90
        6
176
     1
 90
        2
176
     1
 62
     7
176
     1
 90
        5
176
     1
 90
        0
176
     1
 90
        0
176
     1
290
     0
176
     1
 90
        1
176
     1
 40
0.0
176
     1
 90
        0
176
     1
290
     0
176
     1
290
     1
176
     1
290
     1
176
     1
290
     0
176
     1
290
     0
176
     1
290
     0
176
     1
290
     0
176
     1
290
     0
176
     1
290
     0
176
     1
 90
       50
176
     1
 40
0.0
176
     1
 40
1.0
176
     1
 90
        0
176
     1
 62
    18
420
        0
176
     1
 90
       50
176
     1
 90
        3
176
     1
 62
     5
420
      255
176
     1
290
     0
176
     1
 90
       50
176
     1
 90
       50
176
     1
 90
       50
176
     1
290
     0
176
     1
 90
       50
176
     1
 62
   256
176
     0
 40
1.0
176
     0
 90
        2
176
     1
  1
strokes_ogs.tif
176
     1
290
     0
176
     1
 40
1.0
176
     1
 40
1.0
176
     1
  0
VISUALSTYLE
  5
34
102
{ACAD_REACTORS
330
2A
102
}
330
2A
100
AcDbVisualStyle
  2
Conceptual
 70
     9
177
     3
291
     0
 70
    58
 90
        3
176
     1
 90
        2
176
     1
 90
        0
176
     1
 90
        0
176
     1
 40
0.6
176
     1
 40
30.0
176
     1
 62
     7
420
 16777215
176
     1
 90
        2
176
     1
 90
        2
176
     1
 62
     7
176
     1
 62
   257
176
     1
 90
        1
176
     1
 90
        1
176
     1
 40
179.0
176
     1
 90
        8
176
     1
 62
     7
176
     1
 40
1.0
176
     1
 90
        1
176
     1
 90
        6
176
     1
 90
        2
176
     1
 62
     7
176
     1
 90
        3
176
     1
 90
        0
176
     1
 90
        0
176
     1
290
     0
176
     1
 90
        1
176
     1
 40
0.0
176
     1
 90
        0
176
     1
290
     0
176
     1
290
     1
176
     1
290
     1
176
     1
290
     0
176
     1
290
     0
176
     1
290
     0
176
     1
290
     0
176
     1
290
     0
176
     1
290
     0
176
     1
 90
       50
176
     1
 40
0.0
176
     1
 40
1.0
176
     1
 90
        0
176
     1
 62
    18
420
        0
176
     1
 90
       50
176
     1
 90
        3
176
     1
 62
     5
420
      255
176
     1
290
     0
176
     1
 90
       50
176
     1
 90
       50
176
     1
 90
       50
176
     1
290
     0
176
     1
 90
       50
176
     1
 62
   256
176
     0
 40
1.0
176
     0
 90
        2
176
     1
  1
strokes_ogs.tif
176
     1
290
     0
176
     1
 40
1.0
176
     1
 40
1.0
176
     1
  0
VISUALSTYLE
  5
35
102
{ACAD_REACTORS
330
2A
102
}
330
2A
100
AcDbVisualStyle
  2
Dim
 70
    11
177
     3
291
     1
 70
    58
 90
        2
176
     1
 90
        2
176
     1
 90
        0
176
     1
 90
        0
176
     1
 40
0.6
176
     1
 40
30.0
176
     1
 62
     7
420
 16777215
176
     1
 90
        1
176
     1
 90
        4
176
     1
 62
     7
176
     1
 62
   257
176
     1
 90
        1
176
     1
 90
        1
176
     1
 40
1.0
176
     1
 90
        8
176
     1
 62
     7
176
     1
 40
1.0
176
     1
 90
        1
176
     1
 90
        6
176
     1
 90
        2
176
     1
 62
     7
176
     1
 90
        5
176
     1
 90
        0
176
     1
 90
        0
176
     1
290
     0
176
     1
 90
        1
176
     1
 40
-50.0
176
     1
 90
        0
176
     1
290
     0
176
     1
290
     1
176
     1
290
     1
176
     1
290
     0
176
     1
290
     0
176
     1
290
     0
176
     1
290
     0
176
     1
290
     0
176
     1
290
     0
176
     1
 90
       50
176
     1
 40
0.0
176
     1
 40
1.0
176
     1
 90
        0
176
     1
 62
    18
420
        0
176
     1
 90
       50
176
     1
 90
        3
176
     1
 62
     5
420
      255
176
     1
290
     0
176
     1
 90
       50
176
     1
 90
       50
176
     1
 90
       50
176
     1
290
     0
176
     1
 90
       50
176
     1
 62
   256
176
     0
 40
1.0
176
     0
 90
        2
176
     1
  1
strokes_ogs.tif
176
     1
290
     0
176
     1
 40
1.0
176
     1
 40
1.0
176
     1
  0
VISUALSTYLE
  5
3D
102
{ACAD_REACTORS
330
2A
102
}
330
2A
100
AcDbVisualStyle
  2
EdgeColorOff
 70
    22
177
     3
291
     1
 70
    58
 90
        2
176
     0
 90
        2
176
     0
 90
        0
176
     0
 90
        0
176
     0
 40
0.6
176
     0
 40
30.0
176
     0
 62
     7
420
 16777215
176
     0
 90
        1
176
     0
 90
        4
176
     0
 62
     7
176
     0
 62
   257
176
     0
 90
        1
176
     0
 90
        1
176
     0
 40
1.0
176
     0
 90
        8
176
     2
 62
     7
176
     0
 40
1.0
176
     0
 90
        1
176
     0
 90
        6
176
     0
 90
        2
176
     0
 62
     7
176
     0
 90
        5
176
     0
 90
        0
176
     0
 90
        0
176
     0
290
     0
176
     0
 90
        1
176
     0
 40
0.0
176
     0
 90
        0
176
     0
290
     0
176
     0
290
     1
176
     0
290
     1
176
     0
290
     0
176
     0
290
     0
176
     0
290
     0
176
     0
290
     0
176
     0
290
     0
176
     0
290
     0
176
     0
 90
       50
176
     0
 40
0.0
176
     0
 40
1.0
176
     0
 90
        0
176
     0
 62
    18
420
        0
176
     0
 90
       50
176
     0
 90
        3
176
     0
 62
     5
420
      255
176
     0
290
     0
176
     0
 90
       50
176
     0
 90
       50
176
     0
 90
       50
176
     0
290
     0
176
     0
 90
       50
176
     0
 62
   256
176
     0
 40
1.0
176
     0
 90
        2
176
     0
  1
strokes_ogs.tif
176
     0
290
     0
176
     0
 40
1.0
176
     0
 40
1.0
176
     0
  0
VISUALSTYLE
  5
39
102
{ACAD_REACTORS
330
2A
102
}
330
2A
100
AcDbVisualStyle
  2
Facepattern
 70
    15
177
     3
291
     1
 70
    58
 90
        2
176
     1
 90
        2
176
     1
 90
        0
176
     1
 90
        0
176
     1
 40
0.6
176
     1
 40
30.0
176
     1
 62
     7
420
 16777215
176
     1
 90
        1
176
     1
 90
        4
176
     1
 62
     7
176
     1
 62
   257
176
     1
 90
        1
176
     1
 90
        1
176
     1
 40
1.0
176
     1
 90
        8
176
     1
 62
     7
176
     1
 40
1.0
176
     1
 90
        1
176
     1
 90
        6
176
     1
 90
        2
176
     1
 62
     7
176
     1
 90
        5
176
     1
 90
        0
176
     1
 90
        0
176
     1
290
     0
176
     1
 90
        1
176
     1
 40
0.0
176
     1
 90
        0
176
     1
290
     0
176
     1
290
     1
176
     1
290
     1
176
     1
290
     0
176
     1
290
     0
176
     1
290
     0
176
     1
290
     0
176
     1
290
     0
176
     1
290
     0
176
     1
 90
       50
176
     1
 40
0.0
176
     1
 40
1.0
176
     1
 90
        0
176
     1
 62
    18
420
        0
176
     1
 90
       50
176
     1
 90
        3
176
     1
 62
     5
420
      255
176
     1
290
     0
176
     1
 90
       50
176
     1
 90
       50
176
     1
 90
       50
176
     1
290
     0
176
     1
 90
       50
176
     1
 62
   256
176
     0
 40
1.0
176
     0
 90
        2
176
     1
  1
strokes_ogs.tif
176
     1
290
     0
176
     1
 40
1.0
176
     1
 40
1.0
176
     1
  0
VISUALSTYLE
  5
2B
102
{ACAD_REACTORS
330
2A
102
}
330
2A
100
AcDbVisualStyle
  2
Flat
 70
     0
177
     3
291
     1
 70
    58
 90
        2
176
     1
 90
        1
176
     1
 90
        1
176
     1
 90
        2
176
     1
 40
0.6
176
     1
 40
30.0
176
     1
 62
     7
420
 16777215
176
     1
 90
        0
176
     1
 90
        0
176
     1
 62
     7
176
     1
 62
   257
176
     1
 90
        1
176
     1
 90
        1
176
     1
 40
1.0
176
     1
 90
        8
176
     1
 62
     7
176
     1
 40
1.0
176
     1
 90
        1
176
     1
 90
        6
176
     1
 90
        2
176
     1
 62
     7
176
     1
 90
        5
176
     1
 90
        0
176
     1
 90
        0
176
     1
290
     0
176
     1
 90
       13
176
     1
 40
0.0
176
     1
 90
        0
176
     1
290
     0
176
     1
290
     1
176
     1
290
     1
176
     1
290
     0
176
     1
290
     0
176
     1
290
     0
176
     1
290
     0
176
     1
290
     0
176
     1
290
     0
176
     1
 90
       50
176
     1
 40
0.0
176
     1
 40
1.0
176
     1
 90
        0
176
     1
 62
    18
420
        0
176
     1
 90
       50
176
     1
 90
        3
176
     1
 62
     5
420
      255
176
     1
290
     0
176
     1
 90
       50
176
     1
 90
       50
176
     1
 90
       50
176
     1
290
     0
176
     1
 90
       50
176
     1
 62
   256
176
     0
 40
1.0
176
     0
 90
        2
176
     1
  1
strokes_ogs.tif
176
     1
290
     0
176
     1
 40
1.0
176
     1
 40
1.0
176
     1
  0
VISUALSTYLE
  5
2C
102
{ACAD_REACTORS
330
2A
102
}
330
2A
100
AcDbVisualStyle
  2
FlatWithEdges
 70
     1
177
     3
291
     1
 70
    58
 90
        2
176
     1
 90
        1
176
     1
 90
        1
176
     1
 90
        2
176
     1
 40
0.6
176
     1
 40
30.0
176
     1
 62
     7
420
 16777215
176
     1
 90
        1
176
     1
 90
        0
176
     1
 62
     7
176
     1
 62
   257
176
     1
 90
        1
176
     1
 90
        1
176
     1
 40
1.0
176
     1
 90
        0
176
     1
 62
   257
176
     1
 40
1.0
176
     1
 90
        1
176
     1
 90
        6
176
     1
 90
        2
176
     1
 62
     7
176
     1
 90
        5
176
     1
 90
        0
176
     1
 90
        0
176
     1
290
     0
176
     1
 90
       13
176
     1
 40
0.0
176
     1
 90
        0
176
     1
290
     0
176
     1
290
     1
176
     1
290
     1
176
     1
290
     0
176
     1
290
     0
176
     1
290
     0
176
     1
290
     0
176
     1
290
     0
176
     1
290
     0
176
     1
 90
       50
176
     1
 40
0.0
176
     1
 40
1.0
176
     1
 90
        0
176
     1
 62
    18
420
        0
176
     1
 90
       50
176
     1
 90
        3
176
     1
 62
     5
420
      255
176
     1
290
     0
176
     1
 90
       50
176
     1
 90
       50
176
     1
 90
       50
176
     1
290
     0
176
     1
 90
       50
176
     1
 62
   256
176
     0
 40
1.0
176
     0
 90
        2
176
     1
  1
strokes_ogs.tif
176
     1
290
     0
176
     1
 40
1.0
176
     1
 40
1.0
176
     1
  0
VISUALSTYLE
  5
2D
102
{ACAD_REACTORS
330
2A
102
}
330
2A
100
AcDbVisualStyle
  2
Gouraud
 70
     2
177
     3
291
     1
 70
    58
 90
        2
176
     1
 90
        2
176
     1
 90
        1
176
     1
 90
        2
176
     1
 40
0.6
176
     1
 40
30.0
176
     1
 62
     7
420
 16777215
176
     1
 90
        0
176
     1
 90
        0
176
     1
 62
     7
176
     1
 62
   257
176
     1
 90
        1
176
     1
 90
        1
176
     1
 40
1.0
176
     1
 90
        0
176
     1
 62
     7
176
     1
 40
1.0
176
     1
 90
        1
176
     1
 90
        6
176
     1
 90
        2
176
     1
 62
     7
176
     1
 90
        5
176
     1
 90
        0
176
     1
 90
        0
176
     1
290
     0
176
     1
 90
       13
176
     1
 40
0.0
176
     1
 90
        0
176
     1
290
     0
176
     1
290
     1
176
     1
290
     1
176
     1
290
     0
176
     1
290
     0
176
     1
290
     0
176
     1
290
     0
176
     1
290
     0
176
     1
290
     0
176
     1
 90
       50
176
     1
 40
0.0
176
     1
 40
1.0
176
     1
 90
        0
176
     1
 62
    18
420
        0
176
     1
 90
       50
176
     1
 90
        3
176
     1
 62
     5
420
      255
176
     1
290
     0
176
     1
 90
       50
176
     1
 90
       50
176
     1
 90
       50
176
     1
290
     0
176
     1
 90
       50
176
     1
 62
   256
176
     0
 40
1.0
176
     0
 90
        2
176
     1
  1
strokes_ogs.tif
176
     1
290
     0
176
     1
 40
1.0
176
     1
 40
1.0
176
     1
  0
VISUALSTYLE
  5
2E
102
{ACAD_REACTORS
330
2A
102
}
330
2A
100
AcDbVisualStyle
  2
GouraudWithEdges
 70
     3
177
     3
291
     1
 70
    58
 90
        2
176
     1
 90
        2
176
     1
 90
        1
176
     1
 90
        2
176
     1
 40
0.6
176
     1
 40
30.0
176
     1
 62
     7
420
 16777215
176
     1
 90
        1
176
     1
 90
        0
176
     1
 62
     7
176
     1
 62
   257
176
     1
 90
        1
176
     1
 90
        1
176
     1
 40
1.0
176
     1
 90
        0
176
     1
 62
   257
176
     1
 40
1.0
176
     1
 90
        1
176
     1
 90
        6
176
     1
 90
        2
176
     1
 62
     7
176
     1
 90
        5
176
     1
 90
        0
176
     1
 90
        0
176
     1
290
     0
176
     1
 90
       13
176
     1
 40
0.0
176
     1
 90
        0
176
     1
290
     0
176
     1
290
     1
176
     1
290
     1
176
     1
290
     0
176
     1
290
     0
176
     1
290
     0
176
     1
290
     0
176
     1
290
     0
176
     1
290
     0
176
     1
 90
       50
176
     1
 40
0.0
176
     1
 40
1.0
176
     1
 90
        0
176
     1
 62
    18
420
        0
176
     1
 90
       50
176
     1
 90
        3
176
     1
 62
     5
420
      255
176
     1
290
     0
176
     1
 90
       50
176
     1
 90
       50
176
     1
 90
       50
176
     1
290
     0
176
     1
 90
       50
176
     1
 62
   256
176
     0
 40
1.0
176
     0
 90
        2
176
     1
  1
strokes_ogs.tif
176
     1
290
     0
176
     1
 40
1.0
176
     1
 40
1.0
176
     1
  0
VISUALSTYLE
  5
31
102
{ACAD_REACTORS
330
2A
102
}
330
2A
100
AcDbVisualStyle
  2
Hidden
 70
     6
177
     3
291
     0
 70
    58
 90
        1
176
     1
 90
        2
176
     1
 90
        2
176
     1
 90
        0
176
     1
 40
0.6
176
     1
 40
30.0
176
     1
 62
     7
420
 16777215
176
     1
 90
        2
176
     1
 90
        2
176
     1
 62
     7
176
     1
 62
   257
176
     1
 90
        2
176
     1
 90
        1
176
     1
 40
40.0
176
     1
 90
        0
176
     1
 62
   257
176
     1
 40
1.0
176
     1
 90
        1
176
     1
 90
        6
176
     1
 90
        2
176
     1
 62
     7
176
     1
 90
        3
176
     1
 90
        0
176
     1
 90
        0
176
     1
290
     0
176
     1
 90
        1
176
     1
 40
0.0
176
     1
 90
        0
176
     1
290
     0
176
     1
290
     1
176
     1
290
     1
176
     1
290
     0
176
     1
290
     0
176
     1
290
     0
176
     1
290
     0
176
     1
290
     0
176
     1
290
     0
176
     1
 90
       50
176
     1
 40
0.0
176
     1
 40
1.0
176
     1
 90
        0
176
     1
 62
    18
420
        0
176
     1
 90
       50
176
     1
 90
        3
176
     1
 62
     5
420
      255
176
     1
290
     0
176
     1
 90
       50
176
     1
 90
       50
176
     1
 90
       50
176
     1
290
     0
176
     1
 90
       50
176
     1
 62
   256
176
     0
 40
1.0
176
     0
 90
        2
176
     1
  1
strokes_ogs.tif
176
     1
290
     0
176
     1
 40
1.0
176
     1
 40
1.0
176
     1
  0
VISUALSTYLE
  5
3B
102
{ACAD_REACTORS
330
2A
102
}
330
2A
100
AcDbVisualStyle
  2
JitterOff
 70
    20
177
     3
291
     1
 70
    58
 90
        2
176
     0
 90
        2
176
     0
 90
        0
176
     0
 90
        0
176
     0
 40
0.6
176
     0
 40
30.0
176
     0
 62
     7
420
 16777215
176
     0
 90
        1
176
     0
 90
        4
176
     0
 62
     7
176
     0
 62
   257
176
     0
 90
        1
176
     0
 90
        1
176
     0
 40
1.0
176
     0
 90
       10
176
     2
 62
     7
176
     0
 40
1.0
176
     0
 90
        1
176
     0
 90
        6
176
     0
 90
        2
176
     0
 62
     7
176
     0
 90
        5
176
     0
 90
        0
176
     0
 90
        0
176
     0
290
     0
176
     0
 90
        1
176
     0
 40
0.0
176
     0
 90
        0
176
     0
290
     0
176
     0
290
     1
176
     0
290
     1
176
     0
290
     0
176
     0
290
     0
176
     0
290
     0
176
     0
290
     0
176
     0
290
     0
176
     0
290
     0
176
     0
 90
       50
176
     0
 40
0.0
176
     0
 40
1.0
176
     0
 90
        0
176
     0
 62
    18
420
        0
176
     0
 90
       50
176
     0
 90
        3
176
     0
 62
     5
420
      255
176
     0
290
     0
176
     0
 90
       50
176
     0
 90
       50
176
     0
 90
       50
176
     0
290
     0
176
     0
 90
       50
176
     0
 62
   256
176
     0
 40
1.0
176
     0
 90
        2
176
     0
  1
strokes_ogs.tif
176
     0
290
     0
176
     0
 40
1.0
176
     0
 40
1.0
176
     0
  0
VISUALSTYLE
  5
38
102
{ACAD_REACTORS
330
2A
102
}
330
2A
100
AcDbVisualStyle
  2
Linepattern
 70
    14
177
     3
291
     1
 70
    58
 90
        2
176
     1
 90
        2
176
     1
 90
        0
176
     1
 90
        0
176
     1
 40
0.6
176
     1
 40
30.0
176
     1
 62
     7
420
 16777215
176
     1
 90
        1
176
     1
 90
        4
176
     1
 62
     7
176
     1
 62
   257
176
     1
 90
        7
176
     1
 90
        7
176
     1
 40
1.0
176
     1
 90
        8
176
     1
 62
     7
176
     1
 40
1.0
176
     1
 90
        1
176
     1
 90
        6
176
     1
 90
        2
176
     1
 62
     7
176
     1
 90
        5
176
     1
 90
        0
176
     1
 90
        0
176
     1
290
     0
176
     1
 90
        1
176
     1
 40
0.0
176
     1
 90
        0
176
     1
290
     0
176
     1
290
     1
176
     1
290
     1
176
     1
290
     0
176
     1
290
     0
176
     1
290
     0
176
     1
290
     0
176
     1
290
     0
176
     1
290
     0
176
     1
 90
       50
176
     1
 40
0.0
176
     1
 40
1.0
176
     1
 90
        0
176
     1
 62
    18
420
        0
176
     1
 90
       50
176
     1
 90
        3
176
     1
 62
     5
420
      255
176
     1
290
     0
176
     1
 90
       50
176
     1
 90
       50
176
     1
 90
       50
176
     1
290
     0
176
     1
 90
       50
176
     1
 62
   256
176
     0
 40
1.0
176
     0
 90
        2
176
     1
  1
strokes_ogs.tif
176
     1
290
     0
176
     1
 40
1.0
176
     1
 40
1.0
176
     1
  0
VISUALSTYLE
  5
3C
102
{ACAD_REACTORS
330
2A
102
}
330
2A
100
AcDbVisualStyle
  2
OverhangOff
 70
    21
177
     3
291
     1
 70
    58
 90
        2
176
     0
 90
        2
176
     0
 90
        0
176
     0
 90
        0
176
     0
 40
0.6
176
     0
 40
30.0
176
     0
 62
     7
420
 16777215
176
     0
 90
        1
176
     0
 90
        4
176
     0
 62
     7
176
     0
 62
   257
176
     0
 90
        1
176
     0
 90
        1
176
     0
 40
1.0
176
     0
 90
        9
176
     2
 62
     7
176
     0
 40
1.0
176
     0
 90
        1
176
     0
 90
        6
176
     0
 90
        2
176
     0
 62
     7
176
     0
 90
        5
176
     0
 90
        0
176
     0
 90
        0
176
     0
290
     0
176
     0
 90
        1
176
     0
 40
0.0
176
     0
 90
        0
176
     0
290
     0
176
     0
290
     1
176
     0
290
     1
176
     0
290
     0
176
     0
290
     0
176
     0
290
     0
176
     0
290
     0
176
     0
290
     0
176
     0
290
     0
176
     0
 90
       50
176
     0
 40
0.0
176
     0
 40
1.0
176
     0
 90
        0
176
     0
 62
    18
420
        0
176
     0
 90
       50
176
     0
 90
        3
176
     0
 62
     5
420
      255
176
     0
290
     0
176
     0
 90
       50
176
     0
 90
       50
176
     0
 90
       50
176
     0
290
     0
176
     0
 90
       50
176
     0
 62
   256
176
     0
 40
1.0
176
     0
 90
        2
176
     0
  1
strokes_ogs.tif
176
     0
290
     0
176
     0
 40
1.0
176
     0
 40
1.0
176
     0
  0
VISUALSTYLE
  5
33
102
{ACAD_REACTORS
330
2A
102
}
330
2A
100
AcDbVisualStyle
  2
Realistic
 70
     8
177
     3
291
     0
 70
    58
 90
        2
176
     1
 90
        3
176
     1
 90
        0
176
     1
 90
        2
176
     1
 40
0.6
176
     1
 40
30.0
176
     1
 62
     7
420
 16777215
176
     1
 90
        0
176
     1
 90
        0
176
     1
 62
     7
176
     1
 62
   257
176
     1
 90
        1
176
     1
 90
        1
176
     1
 40
1.0
176
     1
 90
        8
176
     1
 62
   257
176
     1
 40
1.0
176
     1
 90
        1
176
     1
 90
        6
176
     1
 90
        2
176
     1
 62
     7
176
     1
 90
        3
176
     1
 90
        0
176
     1
 90
        0
176
     1
290
     0
176
     1
 90
       13
176
     1
 40
0.0
176
     1
 90
        0
176
     1
290
     0
176
     1
290
     1
176
     1
290
     1
176
     1
290
     0
176
     1
290
     0
176
     1
290
     0
176
     1
290
     0
176
     1
290
     0
176
     1
290
     0
176
     1
 90
       50
176
     1
 40
0.0
176
     1
 40
1.0
176
     1
 90
        0
176
     1
 62
    18
420
        0
176
     1
 90
       50
176
     1
 90
        3
176
     1
 62
     5
420
      255
176
     1
290
     0
176
     1
 90
       50
176
     1
 90
       50
176
     1
 90
       50
176
     1
290
     0
176
     1
 90
       50
176
     1
 62
   256
176
     0
 40
1.0
176
     0
 90
        2
176
     1
  1
strokes_ogs.tif
176
     1
290
     0
176
     1
 40
1.0
176
     1
 40
1.0
176
     1
  0
VISUALSTYLE
  5
42
102
{ACAD_REACTORS
330
2A
102
}
330
2A
100
AcDbVisualStyle
  2
Shaded
 70
    27
177
     3
291
     0
 70
    58
 90
        2
176
     1
 90
        2
176
     1
 90
        1
176
     1
 90
        2
176
     1
 40
0.6
176
     1
 40
30.0
176
     1
 62
     7
420
 16777215
176
     1
 90
        0
176
     1
 90
        4
176
     1
 62
     7
176
     1
 62
   257
176
     1
 90
        1
176
     1
 90
        1
176
     1
 40
1.0
176
     1
 90
        8
176
     1
 62
   257
176
     1
 40
1.0
176
     1
 90
        1
176
     1
 90
        6
176
     1
 90
        2
176
     1
 62
     8
420
  7895160
176
     1
 90
        3
176
     1
 90
        0
176
     1
 90
        0
176
     1
290
     0
176
     1
 90
        5
176
     1
 40
0.0
176
     1
 90
        0
176
     1
290
     0
176
     1
290
     1
176
     1
290
     1
176
     1
290
     0
176
     1
290
     0
176
     1
290
     0
176
     1
290
     0
176
     1
290
     0
176
     1
290
     0
176
     1
 90
       50
176
     1
 40
0.0
176
     1
 40
1.0
176
     1
 90
        0
176
     1
 62
    18
420
        0
176
     1
 90
       50
176
     1
 90
        3
176
     1
 62
     5
420
      255
176
     1
290
     0
176
     1
 90
       50
176
     1
 90
       50
176
     1
 90
       50
176
     1
290
     0
176
     1
 90
       50
176
     1
 62
   256
176
     0
 40
1.0
176
     0
 90
        2
176
     1
  1
strokes_ogs.tif
176
     1
290
     0
176
     1
 40
1.0
176
     1
 40
1.0
176
     1
  0
VISUALSTYLE
  5
41
102
{ACAD_REACTORS
330
2A
102
}
330
2A
100
AcDbVisualStyle
  2
Shaded with edges
 70
    26
177
     3
291
     0
 70
    58
 90
        2
176
     1
 90
        2
176
     1
 90
        1
176
     1
 90
        2
176
     1
 40
0.6
176
     1
 40
30.0
176
     1
 62
     7
420
 16777215
176
     1
 90
        1
176
     1
 90
       10
176
     1
 62
     7
176
     1
 62
   257
176
     1
 90
        2
176
     1
 90
        1
176
     1
 40
1.0
176
     1
 90
        8
176
     1
 62
   257
176
     1
 40
1.0
176
     1
 90
        1
176
     1
 90
        6
176
     1
 90
        2
176
     1
 62
     7
176
     1
 90
        3
176
     1
 90
        0
176
     1
 90
        0
176
     1
290
     0
176
     1
 90
        5
176
     1
 40
0.0
176
     1
 90
        0
176
     1
290
     0
176
     1
290
     1
176
     1
290
     1
176
     1
290
     0
176
     1
290
     0
176
     1
290
     0
176
     1
290
     0
176
     1
290
     0
176
     1
290
     0
176
     1
 90
       50
176
     1
 40
0.0
176
     1
 40
1.0
176
     1
 90
        0
176
     1
 62
    18
420
        0
176
     1
 90
       50
176
     1
 90
        3
176
     1
 62
     5
420
      255
176
     1
290
     0
176
     1
 90
       50
176
     1
 90
       50
176
     1
 90
       50
176
     1
290
     0
176
     1
 90
       50
176
     1
 62
   256
176
     0
 40
1.0
176
     0
 90
        2
176
     1
  1
strokes_ogs.tif
176
     1
290
     0
176
     1
 40
1.0
176
     1
 40
1.0
176
     1
  0
VISUALSTYLE
  5
3E
102
{ACAD_REACTORS
330
2A
102
}
330
2A
100
AcDbVisualStyle
  2
Shades of Gray
 70
    23
177
     3
291
     0
 70
    58
 90
        2
176
     1
 90
        2
176
     1
 90
        3
176
     1
 90
        0
176
     1
 40
0.6
176
     1
 40
30.0
176
     1
 62
     7
420
 16777215
176
     1
 90
        2
176
     1
 90
        2
176
     1
 62
     7
176
     1
 62
     7
176
     1
 90
        1
176
     1
 90
        1
176
     1
 40
40.0
176
     1
 90
        8
176
     1
 62
     7
176
     1
 40
1.0
176
     1
 90
        1
176
     1
 90
        6
176
     1
 90
        2
176
     1
 62
     7
176
     1
 90
        3
176
     1
 90
        0
176
     1
 90
        0
176
     1
290
     0
176
     1
 90
        1
176
     1
 40
0.0
176
     1
 90
        0
176
     1
290
     0
176
     1
290
     1
176
     1
290
     1
176
     1
290
     0
176
     1
290
     0
176
     1
290
     0
176
     1
290
     0
176
     1
290
     0
176
     1
290
     0
176
     1
 90
       50
176
     1
 40
0.0
176
     1
 40
1.0
176
     1
 90
        0
176
     1
 62
    18
420
        0
176
     1
 90
       50
176
     1
 90
        3
176
     1
 62
     5
420
      255
176
     1
290
     0
176
     1
 90
       50
176
     1
 90
       50
176
     1
 90
       50
176
     1
290
     0
176
     1
 90
       50
176
     1
 62
   256
176
     0
 40
1.0
176
     0
 90
        2
176
     1
  1
strokes_ogs.tif
176
     1
290
     0
176
     1
 40
1.0
176
     1
 40
1.0
176
     1
  0
VISUALSTYLE
  5
3F
102
{ACAD_REACTORS
330
2A
102
}
330
2A
100
AcDbVisualStyle
  2
Sketchy
 70
    24
177
     3
291
     0
 70
    58
 90
        1
176
     1
 90
        2
176
     1
 90
        2
176
     1
 90
        0
176
     1
 40
0.6
176
     1
 40
30.0
176
     1
 62
     7
420
 16777215
176
     1
 90
        2
176
     1
 90
        2
176
     1
 62
     7
176
     1
 62
     7
176
     1
 90
        1
176
     1
 90
        1
176
     1
 40
40.0
176
     1
 90
       11
176
     1
 62
     7
176
     1
 40
1.0
176
     1
 90
        1
176
     1
 90
        6
176
     1
 90
        2
176
     1
 62
     7
176
     1
 90
        6
176
     1
 90
        0
176
     1
 90
        0
176
     1
290
     0
176
     1
 90
        1
176
     1
 40
0.0
176
     1
 90
        0
176
     1
290
     0
176
     1
290
     1
176
     1
290
     1
176
     1
290
     0
176
     1
290
     0
176
     1
290
     0
176
     1
290
     0
176
     1
290
     0
176
     1
290
     0
176
     1
 90
       50
176
     1
 40
0.0
176
     1
 40
1.0
176
     1
 90
        0
176
     1
 62
    18
420
        0
176
     1
 90
       50
176
     1
 90
        3
176
     1
 62
     5
420
      255
176
     1
290
     0
176
     1
 90
       50
176
     1
 90
       50
176
     1
 90
       50
176
     1
290
     0
176
     1
 90
       50
176
     1
 62
   256
176
     0
 40
1.0
176
     0
 90
        2
176
     1
  1
strokes_ogs.tif
176
     1
290
     0
176
     1
 40
1.0
176
     1
 40
1.0
176
     1
  0
VISUALSTYLE
  5
37
102
{ACAD_REACTORS
330
2A
102
}
330
2A
100
AcDbVisualStyle
  2
Thicken
 70
    13
177
     3
291
     1
 70
    58
 90
        2
176
     1
 90
        2
176
     1
 90
        0
176
     1
 90
        0
176
     1
 40
0.6
176
     1
 40
30.0
176
     1
 62
     7
420
 16777215
176
     1
 90
        1
176
     1
 90
        4
176
     1
 62
     7
176
     1
 62
   257
176
     1
 90
        1
176
     1
 90
        1
176
     1
 40
1.0
176
     1
 90
       12
176
     1
 62
     7
176
     1
 40
1.0
176
     1
 90
        1
176
     1
 90
        6
176
     1
 90
        2
176
     1
 62
     7
176
     1
 90
        5
176
     1
 90
        0
176
     1
 90
        0
176
     1
290
     0
176
     1
 90
        1
176
     1
 40
0.0
176
     1
 90
        0
176
     1
290
     0
176
     1
290
     1
176
     1
290
     1
176
     1
290
     0
176
     1
290
     0
176
     1
290
     0
176
     1
290
     0
176
     1
290
     0
176
     1
290
     0
176
     1
 90
       50
176
     1
 40
0.0
176
     1
 40
1.0
176
     1
 90
        0
176
     1
 62
    18
420
        0
176
     1
 90
       50
176
     1
 90
        3
176
     1
 62
     5
420
      255
176
     1
290
     0
176
     1
 90
       50
176
     1
 90
       50
176
     1
 90
       50
176
     1
290
     0
176
     1
 90
       50
176
     1
 62
   256
176
     0
 40
1.0
176
     0
 90
        2
176
     1
  1
strokes_ogs.tif
176
     1
290
     0
176
     1
 40
1.0
176
     1
 40
1.0
176
     1
  0
VISUALSTYLE
  5
30
102
{ACAD_REACTORS
330
2A
102
}
330
2A
100
AcDbVisualStyle
  2
Wireframe
 70
     5
177
     3
291
     0
 70
    58
 90
        0
176
     1
 90
        2
176
     1
 90
        0
176
     1
 90
        0
176
     1
 40
0.6
176
     1
 40
30.0
176
     1
 62
     7
420
 16777215
176
     1
 90
        1
176
     1
 90
        4
176
     1
 62
     7
176
     1
 62
   257
176
     1
 90
        1
176
     1
 90
        1
176
     1
 40
1.0
176
     1
 90
        0
176
     1
 62
   257
176
     1
 40
1.0
176
     1
 90
        1
176
     1
 90
        6
176
     1
 90
        2
176
     1
 62
     7
176
     1
 90
        3
176
     1
 90
        0
176
     1
 90
        0
176
     1
290
     0
176
     1
 90
        1
176
     1
 40
0.0
176
     1
 90
        0
176
     1
290
     0
176
     1
290
     1
176
     1
290
     1
176
     1
290
     0
176
     1
290
     0
176
     1
290
     0
176
     1
290
     0
176
     1
290
     0
176
     1
290
     0
176
     1
 90
       50
176
     1
 40
0.0
176
     1
 40
1.0
176
     1
 90
        0
176
     1
 62
    18
420
        0
176
     1
 90
       50
176
     1
 90
        3
176
     1
 62
     5
420
      255
176
     1
290
     0
176
     1
 90
       50
176
     1
 90
       50
176
     1
 90
       50
176
     1
290
     0
176
     1
 90
       50
176
     1
 62
   256
176
     0
 40
1.0
176
     0
 90
        2
176
     1
  1
strokes_ogs.tif
176
     1
290
     0
176
     1
 40
1.0
176
     1
 40
1.0
176
     1
  0
VISUALSTYLE
  5
40
102
{ACAD_REACTORS
330
2A
102
}
330
2A
100
AcDbVisualStyle
  2
X-Ray
 70
    25
177
     3
291
     0
 70
    58
 90
        2
176
     1
 90
        2
176
     1
 90
        1
176
     1
 90
        1
176
     1
 40
0.5
176
     1
 40
30.0
176
     1
 62
     7
420
 16777215
176
     1
 90
        1
176
     1
 90
        0
176
     1
 62
     7
176
     1
 62
   257
176
     1
 90
        1
176
     1
 90
        1
176
     1
 40
1.0
176
     1
 90
        8
176
     1
 62
     7
176
     1
 40
1.0
176
     1
 90
        1
176
     1
 90
        6
176
     1
 90
        2
176
     1
 62
     7
176
     1
 90
        3
176
     1
 90
        0
176
     1
 90
        0
176
     1
290
     0
176
     1
 90
       13
176
     1
 40
0.0
176
     1
 90
        0
176
     1
290
     0
176
     1
290
     1
176
     1
290
     1
176
     1
290
     0
176
     1
290
     0
176
     1
290
     0
176
     1
290
     0
176
     1
290
     0
176
     1
290
     0
176
     1
 90
       50
176
     1
 40
0.0
176
     1
 40
1.0
176
     1
 90
        0
176
     1
 62
    18
420
        0
176
     1
 90
       50
176
     1
 90
        3
176
     1
 62
     5
420
      255
176
     1
290
     0
176
     1
 90
       50
176
     1
 90
       50
176
     1
 90
       50
176
     1
290
     0
176
     1
 90
       50
176
     1
 62
   256
176
     0
 40
1.0
176
     0
 90
        2
176
     1
  1
strokes_ogs.tif
176
     1
290
     0
176
     1
 40
1.0
176
     1
 40
1.0
176
     1
  0
DICTIONARYVAR
  5
1DB
102
{ACAD_REACTORS
330
1DA
102
}
330
1DA
100
DictionaryVariables
280
     0
  1
1:1
  0
DICTIONARYVAR
  5
1E0
102
{ACAD_REACTORS
330
1DA
102
}
330
1DA
100
DictionaryVariables
280
     0
  1
Standard
  0
DICTIONARYVAR
  5
1DF
102
{ACAD_REACTORS
330
1DA
102
}
330
1DA
100
DictionaryVariables
280
     0
  1
Standard
  0
DICTIONARY
  5
1DC
330
6A
100
AcDbDictionary
280
     1
281
     1
  3
ACAD_ROUNDTRIP_2008_TABLESTYLE_CELLSTYLEMAP
360
1DD
  0
CELLSTYLEMAP
  5
1DD
102
{ACAD_REACTORS
330
1DC
102
}
330
1DC
100
AcDbCellStyleMap
 90
        3
300
CELLSTYLE
  1
TABLEFORMAT_BEGIN
 90
        5
170
     1
 91
        0
 92
    32768
 62
   257
 93
        1
300
CONTENTFORMAT
  1
CONTENTFORMAT_BEGIN
 90
        0
 91
        0
 92
        4
 93
        0
300

 40
0.0
140
1.0
 94
        5
 62
     0
340
11
144
0.25
309
CONTENTFORMAT_END
171
     1
301
MARGIN
  1
CELLMARGIN_BEGIN
 40
0.06
 40
0.06
 40
0.06
 40
0.06
 40
0.06
 40
0.06
309
CELLMARGIN_END
 94
        6
 95
        1
302
GRIDFORMAT
  1
GRIDFORMAT_BEGIN
 90
        0
 91
        1
 62
     0
 92
       -2
340
14
 93
        0
 40
0.045
309
GRIDFORMAT_END
 95
        2
302
GRIDFORMAT
  1
GRIDFORMAT_BEGIN
 90
        0
 91
        1
 62
     0
 92
       -2
340
14
 93
        0
 40
0.045
309
GRIDFORMAT_END
 95
        4
302
GRIDFORMAT
  1
GRIDFORMAT_BEGIN
 90
        0
 91
        1
 62
     0
 92
       -2
340
14
 93
        0
 40
0.045
309
GRIDFORMAT_END
 95
        8
302
GRIDFORMAT
  1
GRIDFORMAT_BEGIN
 90
        0
 91
        1
 62
     0
 92
       -2
340
14
 93
        0
 40
0.045
309
GRIDFORMAT_END
 95
       16
302
GRIDFORMAT
  1
GRIDFORMAT_BEGIN
 90
        0
 91
        1
 62
     0
 92
       -2
340
14
 93
        0
 40
0.045
309
GRIDFORMAT_END
 95
       32
302
GRIDFORMAT
  1
GRIDFORMAT_BEGIN
 90
        0
 91
        1
 62
     0
 92
       -2
340
14
 93
        0
 40
0.045
309
GRIDFORMAT_END
309
TABLEFORMAT_END
  1
CELLSTYLE_BEGIN
 90
        1
 91
        1
300
_TITLE
309
CELLSTYLE_END
300
CELLSTYLE
  1
TABLEFORMAT_BEGIN
 90
        5
170
     1
 91
        0
 92
        0
 62
   257
 93
        1
300
CONTENTFORMAT
  1
CONTENTFORMAT_BEGIN
 90
        0
 91
        0
 92
        4
 93
        0
300

 40
0.0
140
1.0
 94
        5
 62
     0
340
11
144
0.18
309
CONTENTFORMAT_END
171
     1
301
MARGIN
  1
CELLMARGIN_BEGIN
 40
0.06
 40
0.06
 40
0.06
 40
0.06
 40
0.06
 40
0.06
309
CELLMARGIN_END
 94
        6
 95
        1
302
GRIDFORMAT
  1
GRIDFORMAT_BEGIN
 90
        0
 91
        1
 62
     0
 92
       -2
340
14
 93
        0
 40
0.045
309
GRIDFORMAT_END
 95
        2
302
GRIDFORMAT
  1
GRIDFORMAT_BEGIN
 90
        0
 91
        1
 62
     0
 92
       -2
340
14
 93
        0
 40
0.045
309
GRIDFORMAT_END
 95
        4
302
GRIDFORMAT
  1
GRIDFORMAT_BEGIN
 90
        0
 91
        1
 62
     0
 92
       -2
340
14
 93
        0
 40
0.045
309
GRIDFORMAT_END
 95
        8
302
GRIDFORMAT
  1
GRIDFORMAT_BEGIN
 90
        0
 91
        1
 62
     0
 92
       -2
340
14
 93
        0
 40
0.045
309
GRIDFORMAT_END
 95
       16
302
GRIDFORMAT
  1
GRIDFORMAT_BEGIN
 90
        0
 91
        1
 62
     0
 92
       -2
340
14
 93
        0
 40
0.045
309
GRIDFORMAT_END
 95
       32
302
GRIDFORMAT
  1
GRIDFORMAT_BEGIN
 90
        0
 91
        1
 62
     0
 92
       -2
340
14
 93
        0
 40
0.045
309
GRIDFORMAT_END
309
TABLEFORMAT_END
  1
CELLSTYLE_BEGIN
 90
        2
 91
        1
300
_HEADER
309
CELLSTYLE_END
300
CELLSTYLE
  1
TABLEFORMAT_BEGIN
 90
        5
170
     1
 91
        0
 92
        0
 62
   257
 93
        1
300
CONTENTFORMAT
  1
CONTENTFORMAT_BEGIN
 90
        0
 91
        0
 92
        4
 93
        0
300

 40
0.0
140
1.0
 94
        2
 62
     0
340
11
144
0.18
309
CONTENTFORMAT_END
171
     1
301
MARGIN
  1
CELLMARGIN_BEGIN
 40
0.06
 40
0.06
 40
0.06
 40
0.06
 40
0.06
 40
0.06
309
CELLMARGIN_END
 94
        6
 95
        1
302
GRIDFORMAT
  1
GRIDFORMAT_BEGIN
 90
        0
 91
        1
 62
     0
 92
       -2
340
14
 93
        0
 40
0.045
309
GRIDFORMAT_END
 95
        2
302
GRIDFORMAT
  1
GRIDFORMAT_BEGIN
 90
        0
 91
        1
 62
     0
 92
       -2
340
14
 93
        0
 40
0.045
309
GRIDFORMAT_END
 95
        4
302
GRIDFORMAT
  1
GRIDFORMAT_BEGIN
 90
        0
 91
        1
 62
     0
 92
       -2
340
14
 93
        0
 40
0.045
309
GRIDFORMAT_END
 95
        8
302
GRIDFORMAT
  1
GRIDFORMAT_BEGIN
 90
        0
 91
        1
 62
     0
 92
       -2
340
14
 93
        0
 40
0.045
309
GRIDFORMAT_END
 95
       16
302
GRIDFORMAT
  1
GRIDFORMAT_BEGIN
 90
        0
 91
        1
 62
     0
 92
       -2
340
14
 93
        0
 40
0.045
309
GRIDFORMAT_END
 95
       32
302
GRIDFORMAT
  1
GRIDFORMAT_BEGIN
 90
        0
 91
        1
 62
     0
 92
       -2
340
14
 93
        0
 40
0.045
309
GRIDFORMAT_END
309
TABLEFORMAT_END
  1
CELLSTYLE_BEGIN
 90
        3
 91
        2
300
_DATA
309
CELLSTYLE_END
  0
ENDSEC
  0
EOF