0
SECTION
  2
HEADER
  9
$ACADVER
  1
AC1027
  9
$ACADMAINTVER
 70
     8
  9
$DWGCODEPAGE
  3
ANSI_1252
  9
$REQUIREDVERSIONS
160
                 0
  9
$COMMENTS
  1
File was created by Cadenas
  9
$CUSTOMPROPERTYTAG
  1
NN
  9
$CUSTOMPROPERTY
  1
Set Screw Flange Cartridge Inch Bore
  9
$CUSTOMPROPERTYTAG
  1
NT
  9
$CUSTOMPROPERTY
  1
SC Piloted Flange Bearings -(Normal Duty)
  9
$CUSTOMPROPERTYTAG
  1
NB
  9
$CUSTOMPROPERTY
  1
124729
  9
$CUSTOMPROPERTYTAG
  1
NBSYN
  9
$CUSTOMPROPERTY
  1
$PN.
  9
$CUSTOMPROPERTYTAG
  1
LINA
  9
$CUSTOMPROPERTY
  1
124729
  9
$CUSTOMPROPERTYTAG
  1
SERIES
  9
$CUSTOMPROPERTY
  1
214
  9
$CUSTOMPROPERTYTAG
  1
SS
  9
$CUSTOMPROPERTY
  1
2-11/16
  9
$CUSTOMPROPERTYTAG
  1
PN
  9
$CUSTOMPROPERTY
  1
124729
  9
$CUSTOMPROPERTYTAG
  1
DESCRIPTION
  9
$CUSTOMPROPERTY
  1
FC-SC-211
  9
$CUSTOMPROPERTYTAG
  1
WEIGHT
  9
$CUSTOMPROPERTY
  1
12.9
  9
$CUSTOMPROPERTYTAG
  1
A
  9
$CUSTOMPROPERTY
  1
2.54
  9
$CUSTOMPROPERTYTAG
  1
B
  9
$CUSTOMPROPERTY
  1
7.63
  9
$CUSTOMPROPERTYTAG
  1
C
  9
$CUSTOMPROPERTY
  1
2.80
  9
$CUSTOMPROPERTYTAG
  1
D
  9
$CUSTOMPROPERTY
  1
6.50
  9
$CUSTOMPROPERTYTAG
  1
E
  9
$CUSTOMPROPERTY
  1
1.13
  9
$CUSTOMPROPERTYTAG
  1
F
  9
$CUSTOMPROPERTY
  1
1/2
  9
$CUSTOMPROPERTYTAG
  1
G
  9
$CUSTOMPROPERTY
  1
1.67
  9
$CUSTOMPROPERTYTAG
  1
H
  9
$CUSTOMPROPERTY
  1
1.06
  9
$CUSTOMPROPERTYTAG
  1
K
  9
$CUSTOMPROPERTY
  1
5.500 / 5.498
  9
$CUSTOMPROPERTYTAG
  1
L
  9
$CUSTOMPROPERTY
  1
3.31
  9
$CUSTOMPROPERTYTAG
  1
COMPANY
  9
$CUSTOMPROPERTY
  1
baldor
  9
$INSBASE
 10
0.0
 20
0.0
 30
0.0
  9
$EXTMIN
 10
1.000000000000000E+20
 20
1.000000000000000E+20
 30
1.000000000000000E+20
  9
$EXTMAX
 10
-1.000000000000000E+20
 20
-1.000000000000000E+20
 30
-1.000000000000000E+20
  9
$LIMMIN
 10
0.0
 20
0.0
  9
$LIMMAX
 10
12.0
 20
9.0
  9
$ORTHOMODE
 70
     0
  9
$REGENMODE
 70
     1
  9
$FILLMODE
 70
     1
  9
$QTEXTMODE
 70
     0
  9
$MIRRTEXT
 70
     1
  9
$LTSCALE
 40
1.0
  9
$ATTMODE
 70
     1
  9
$TEXTSIZE
 40
0.2
  9
$TRACEWID
 40
0.05
  9
$TEXTSTYLE
  7
Standard
  9
$CLAYER
  8
0
  9
$CELTYPE
  6
ByLayer
  9
$CECOLOR
 62
   256
  9
$CELTSCALE
 40
1.0
  9
$DISPSILH
 70
     0
  9
$DIMSCALE
 40
1.0
  9
$DIMASZ
 40
0.18
  9
$DIMEXO
 40
0.0625
  9
$DIMDLI
 40
0.38
  9
$DIMRND
 40
0.0
  9
$DIMDLE
 40
0.0
  9
$DIMEXE
 40
0.18
  9
$DIMTP
 40
0.0
  9
$DIMTM
 40
0.0
  9
$DIMTXT
 40
0.18
  9
$DIMCEN
 40
0.09
  9
$DIMTSZ
 40
0.0
  9
$DIMTOL
 70
     0
  9
$DIMLIM
 70
     0
  9
$DIMTIH
 70
     1
  9
$DIMTOH
 70
     1
  9
$DIMSE1
 70
     0
  9
$DIMSE2
 70
     0
  9
$DIMTAD
 70
     0
  9
$DIMZIN
 70
     0
  9
$DIMBLK
  1

  9
$DIMASO
 70
     1
  9
$DIMSHO
 70
     1
  9
$DIMPOST
  1

  9
$DIMAPOST
  1

  9
$DIMALT
 70
     0
  9
$DIMALTD
 70
     2
  9
$DIMALTF
 40
25.4
  9
$DIMLFAC
 40
1.0
  9
$DIMTOFL
 70
     0
  9
$DIMTVP
 40
0.0
  9
$DIMTIX
 70
     0
  9
$DIMSOXD
 70
     0
  9
$DIMSAH
 70
     0
  9
$DIMBLK1
  1

  9
$DIMBLK2
  1

  9
$DIMSTYLE
  2
Standard
  9
$DIMCLRD
 70
     0
  9
$DIMCLRE
 70
     0
  9
$DIMCLRT
 70
     0
  9
$DIMTFAC
 40
1.0
  9
$DIMGAP
 40
0.09
  9
$DIMJUST
 70
     0
  9
$DIMSD1
 70
     0
  9
$DIMSD2
 70
     0
  9
$DIMTOLJ
 70
     1
  9
$DIMTZIN
 70
     0
  9
$DIMALTZ
 70
     0
  9
$DIMALTTZ
 70
     0
  9
$DIMUPT
 70
     0
  9
$DIMDEC
 70
     4
  9
$DIMTDEC
 70
     4
  9
$DIMALTU
 70
     2
  9
$DIMALTTD
 70
     2
  9
$DIMTXSTY
  7
Standard
  9
$DIMAUNIT
 70
     0
  9
$DIMADEC
 70
     0
  9
$DIMALTRND
 40
0.0
  9
$DIMAZIN
 70
     0
  9
$DIMDSEP
 70
    46
  9
$DIMATFIT
 70
     3
  9
$DIMFRAC
 70
     0
  9
$DIMLDRBLK
  1

  9
$DIMLUNIT
 70
     2
  9
$DIMLWD
 70
    -2
  9
$DIMLWE
 70
    -2
  9
$DIMTMOVE
 70
     0
  9
$DIMFXL
 40
1.0
  9
$DIMFXLON
 70
     0
  9
$DIMJOGANG
 40
0.7853981633974483
  9
$DIMTFILL
 70
     0
  9
$DIMTFILLCLR
 70
     0
  9
$DIMARCSYM
 70
     0
  9
$DIMLTYPE
  6

  9
$DIMLTEX1
  6

  9
$DIMLTEX2
  6

  9
$DIMTXTDIRECTION
 70
     0
  9
$LUNITS
 70
     2
  9
$LUPREC
 70
     4
  9
$SKETCHINC
 40
0.1
  9
$FILLETRAD
 40
0.5
  9
$AUNITS
 70
     0
  9
$AUPREC
 70
     0
  9
$MENU
  1
.
  9
$ELEVATION
 40
0.0
  9
$PELEVATION
 40
0.0
  9
$THICKNESS
 40
0.0
  9
$LIMCHECK
 70
     0
  9
$CHAMFERA
 40
0.0
  9
$CHAMFERB
 40
0.0
  9
$CHAMFERC
 40
0.0
  9
$CHAMFERD
 40
0.0
  9
$SKPOLY
 70
     0
  9
$TDCREATE
 40
2458169.010708877
  9
$TDUCREATE
 40
2458168.969042211
  9
$TDUPDATE
 40
2458169.010708877
  9
$TDUUPDATE
 40
2458168.969042211
  9
$TDINDWG
 40
0.0000000116
  9
$TDUSRTIMER
 40
0.0000000116
  9
$USRTIMER
 70
     1
  9
$ANGBASE
 50
0.0
  9
$ANGDIR
 70
     0
  9
$PDMODE
 70
     0
  9
$PDSIZE
 40
0.0
  9
$PLINEWID
 40
0.0
  9
$SPLFRAME
 70
     0
  9
$SPLINETYPE
 70
     6
  9
$SPLINESEGS
 70
     8
  9
$HANDSEED
  5
1B6
  9
$SURFTAB1
 70
     6
  9
$SURFTAB2
 70
     6
  9
$SURFTYPE
 70
     6
  9
$SURFU
 70
     6
  9
$SURFV
 70
     6
  9
$UCSBASE
  2

  9
$UCSNAME
  2

  9
$UCSORG
 10
0.0
 20
0.0
 30
0.0
  9
$UCSXDIR
 10
1.0
 20
0.0
 30
0.0
  9
$UCSYDIR
 10
0.0
 20
1.0
 30
0.0
  9
$UCSORTHOREF
  2

  9
$UCSORTHOVIEW
 70
     0
  9
$UCSORGTOP
 10
0.0
 20
0.0
 30
0.0
  9
$UCSORGBOTTOM
 10
0.0
 20
0.0
 30
0.0
  9
$UCSORGLEFT
 10
0.0
 20
0.0
 30
0.0
  9
$UCSORGRIGHT
 10
0.0
 20
0.0
 30
0.0
  9
$UCSORGFRONT
 10
0.0
 20
0.0
 30
0.0
  9
$UCSORGBACK
 10
0.0
 20
0.0
 30
0.0
  9
$PUCSBASE
  2

  9
$PUCSNAME
  2

  9
$PUCSORG
 10
0.0
 20
0.0
 30
0.0
  9
$PUCSXDIR
 10
1.0
 20
0.0
 30
0.0
  9
$PUCSYDIR
 10
0.0
 20
1.0
 30
0.0
  9
$PUCSORTHOREF
  2

  9
$PUCSORTHOVIEW
 70
     0
  9
$PUCSORGTOP
 10
0.0
 20
0.0
 30
0.0
  9
$PUCSORGBOTTOM
 10
0.0
 20
0.0
 30
0.0
  9
$PUCSORGLEFT
 10
0.0
 20
0.0
 30
0.0
  9
$PUCSORGRIGHT
 10
0.0
 20
0.0
 30
0.0
  9
$PUCSORGFRONT
 10
0.0
 20
0.0
 30
0.0
  9
$PUCSORGBACK
 10
0.0
 20
0.0
 30
0.0
  9
$USERI1
 70
     0
  9
$USERI2
 70
     0
  9
$USERI3
 70
     0
  9
$USERI4
 70
     0
  9
$USERI5
 70
     0
  9
$USERR1
 40
0.0
  9
$USERR2
 40
0.0
  9
$USERR3
 40
0.0
  9
$USERR4
 40
0.0
  9
$USERR5
 40
0.0
  9
$WORLDVIEW
 70
     1
  9
$SHADEDGE
 70
     3
  9
$SHADEDIF
 70
    70
  9
$TILEMODE
 70
     1
  9
$MAXACTVP
 70
    64
  9
$PINSBASE
 10
0.0
 20
0.0
 30
0.0
  9
$PLIMCHECK
 70
     0
  9
$PEXTMIN
 10
1.000000000000000E+20
 20
1.000000000000000E+20
 30
1.000000000000000E+20
  9
$PEXTMAX
 10
-1.000000000000000E+20
 20
-1.000000000000000E+20
 30
-1.000000000000000E+20
  9
$PLIMMIN
 10
0.0
 20
0.0
  9
$PLIMMAX
 10
12.0
 20
9.0
  9
$UNITMODE
 70
     0
  9
$VISRETAIN
 70
     1
  9
$PLINEGEN
 70
     0
  9
$PSLTSCALE
 70
     1
  9
$TREEDEPTH
 70
  3020
  9
$CMLSTYLE
  2
Standard
  9
$CMLJUST
 70
     0
  9
$CMLSCALE
 40
1.0
  9
$PROXYGRAPHICS
 70
     1
  9
$MEASUREMENT
 70
     0
  9
$CELWEIGHT
370
    -1
  9
$ENDCAPS
280
     0
  9
$JOINSTYLE
280
     0
  9
$LWDISPLAY
290
     0
  9
$INSUNITS
 70
     1
  9
$HYPERLINKBASE
  1

  9
$STYLESHEET
  1

  9
$XEDIT
290
     1
  9
$CEPSNTYPE
380
     0
  9
$PSTYLEMODE
290
     1
  9
$FINGERPRINTGUID
  2
{FC5F560B-EA93-4504-8B84-26C641108439}
  9
$VERSIONGUID
  2
{FAEB1C32-E019-11D5-929B-00C0DF256EC4}
  9
$EXTNAMES
290
     1
  9
$PSVPSCALE
 40
0.0
  9
$OLESTARTUP
290
     0
  9
$SORTENTS
280
   127
  9
$INDEXCTL
280
     0
  9
$HIDETEXT
280
     1
  9
$XCLIPFRAME
280
     2
  9
$HALOGAP
280
     0
  9
$OBSCOLOR
 70
   257
  9
$OBSLTYPE
280
     0
  9
$INTERSECTIONDISPLAY
280
     0
  9
$INTERSECTIONCOLOR
 70
   257
  9
$DIMASSOC
280
     2
  9
$PROJECTNAME
  1

  9
$CAMERADISPLAY
290
     0
  9
$LENSLENGTH
 40
50.0
  9
$CAMERAHEIGHT
 40
0.0
  9
$STEPSPERSEC
 40
2.0
  9
$STEPSIZE
 40
6.0
  9
$3DDWFPREC
 40
2.0
  9
$PSOLWIDTH
 40
0.25
  9
$PSOLHEIGHT
 40
4.0
  9
$LOFTANG1
 40
1.570796326794897
  9
$LOFTANG2
 40
1.570796326794897
  9
$LOFTMAG1
 40
0.0
  9
$LOFTMAG2
 40
0.0
  9
$LOFTPARAM
 70
     7
  9
$LOFTNORMALS
280
     1
  9
$LATITUDE
 40
37.795
  9
$LONGITUDE
 40
-122.394
  9
$NORTHDIRECTION
 40
0.0
  9
$TIMEZONE
 70
 -8000
  9
$LIGHTGLYPHDISPLAY
280
     1
  9
$TILEMODELIGHTSYNCH
280
     1
  9
$CMATERIAL
347
44
  9
$SOLIDHIST
280
     0
  9
$SHOWHIST
280
     1
  9
$DWFFRAME
280
     2
  9
$DGNFRAME
280
     2
  9
$REALWORLDSCALE
290
     1
  9
$INTERFERECOLOR
 62
   256
  9
$CSHADOW
280
     0
  9
$SHADOWPLANELOCATION
 40
0.0
  0
ENDSEC
  0
SECTION
  2
CLASSES
  0
CLASS
  1
ACDBDICTIONARYWDFLT
  2
AcDbDictionaryWithDefault
  3
ObjectDBX Classes
 90
        0
 91
        4
280
     0
281
     0
  0
CLASS
  1
VISUALSTYLE
  2
AcDbVisualStyle
  3
ObjectDBX Classes
 90
     4095
 91
        4
280
     0
281
     0
  0
CLASS
  1
MATERIAL
  2
AcDbMaterial
  3
ObjectDBX Classes
 90
     1153
 91
        4
280
     0
281
     0
  0
CLASS
  1
SCALE
  2
AcDbScale
  3
ObjectDBX Classes
 90
     1153
 91
        4
280
     0
281
     0
  0
CLASS
  1
TABLESTYLE
  2
AcDbTableStyle
  3
ObjectDBX Classes
 90
     4095
 91
        4
280
     0
281
     0
  0
CLASS
  1
MLEADERSTYLE
  2
AcDbMLeaderStyle
  3
ACDB_MLEADERSTYLE_CLASS
 90
     4095
 91
        4
280
     0
281
     0
  0
CLASS
  1
SUN
  2
AcDbSun
  3
SCENEOE
 90
     1153
 91
        4
280
     0
281
     0
  0
CLASS
  1
DICTIONARYVAR
  2
AcDbDictionaryVar
  3
ObjectDBX Classes
 90
        0
 91
        4
280
     0
281
     0
  0
CLASS
  1
CELLSTYLEMAP
  2
AcDbCellStyleMap
  3
ObjectDBX Classes
 90
     1152
 91
        4
280
     0
281
     0
  0
ENDSEC
  0
SECTION
  2
TABLES
  0
TABLE
  2
VPORT
  5
8
330
0
100
AcDbSymbolTable
 70
     1
  0
VPORT
  5
29
330
8
100
AcDbSymbolTableRecord
100
AcDbViewportTableRecord
  2
*Active
 70
     0
 10
0.0
 20
0.0
 11
1.0
 21
1.0
 12
-0.2787500000000005
 22
0.0
 13
0.0
 23
0.0
 14
0.5
 24
0.5
 15
0.5
 25
0.5
 16
0.0
 26
0.0
 36
1.0
 17
0.0
 27
0.0
 37
0.0
 40
7.7826
 41
0.3979685452162517
 42
50.0
 43
0.0
 44
0.0
 50
0.0
 51
0.0
 71
     0
 72
   100
 73
     1
 74
     3
 75
     0
 76
     0
 77
     0
 78
     0
281
     0
 65
     1
110
0.0
120
0.0
130
0.0
111
1.0
121
0.0
131
0.0
112
0.0
122
1.0
132
0.0
 79
     0
146
0.0
348
2F
 60
     3
 61
     5
292
     1
282
     1
141
0.0
142
0.0
 63
   250
361
6D
  0
ENDTAB
  0
TABLE
  2
LTYPE
  5
5
330
0
100
AcDbSymbolTable
 70
     3
  0
LTYPE
  5
14
330
5
100
AcDbSymbolTableRecord
100
AcDbLinetypeTableRecord
  2
ByBlock
 70
     0
  3

 72
    65
 73
     0
 40
0.0
  0
LTYPE
  5
15
330
5
100
AcDbSymbolTableRecord
100
AcDbLinetypeTableRecord
  2
ByLayer
 70
     0
  3

 72
    65
 73
     0
 40
0.0
  0
LTYPE
  5
16
330
5
100
AcDbSymbolTableRecord
100
AcDbLinetypeTableRecord
  2
Continuous
 70
     0
  3
Solid line
 72
    65
 73
     0
 40
0.0
  0
LTYPE
  5
94
330
5
100
AcDbSymbolTableRecord
100
AcDbLinetypeTableRecord
  2
Dashed
 70
     0
  3

 72
    65
 73
     2
 40
2.0
 49
1.0
 74
     0
 49
-1.0
 74
     0
  0
LTYPE
  5
187
330
5
100
AcDbSymbolTableRecord
100
AcDbLinetypeTableRecord
  2
Center
 70
     0
  3

 72
    65
 73
     4
 40
1.5
 49
0.45
 74
     0
 49
-0.5
 74
     0
 49
0.05
 74
     0
 49
-0.5
 74
     0
  0
ENDTAB
  0
TABLE
  2
LAYER
  5
2
330
0
100
AcDbSymbolTable
 70
     6
  0
LAYER
  5
10
330
2
100
AcDbSymbolTableRecord
100
AcDbLayerTableRecord
  2
0
 70
     0
 62
     7
  6
Continuous
370
    -3
390
F
347
46
348
0
  0
LAYER
  5
72
330
2
100
AcDbSymbolTableRecord
100
AcDbLayerTableRecord
  2
AM_6
 70
     0
 62
    -2
  6
Continuous
370
    35
390
F
347
46
348
0
  0
LAYER
  5
95
330
2
100
AcDbSymbolTableRecord
100
AcDbLayerTableRecord
  2
AM_9
 70
     0
 62
     6
  6
Dashed
370
    25
390
F
347
46
348
0
  0
LAYER
  5
C7
330
2
100
AcDbSymbolTableRecord
100
AcDbLayerTableRecord
  2
AM_4
 70
     0
 62
     7
  6
Continuous
370
    50
390
F
347
46
348
0
  0
LAYER
  5
188
330
2
100
AcDbSymbolTableRecord
100
AcDbLayerTableRecord
  2
AM_7
 70
     0
 62
     7
  6
Center
370
    25
390
F
347
46
348
0
  0
LAYER
  5
1A8
330
2
100
AcDbSymbolTableRecord
100
AcDbLayerTableRecord
  2
ConnectionPoints
 70
     0
 62
     7
  6
Continuous
370
    50
390
F
347
46
348
0
  0
ENDTAB
  0
TABLE
  2
STYLE
  5
3
330
0
100
AcDbSymbolTable
 70
     1
  0
STYLE
  5
11
330
3
100
AcDbSymbolTableRecord
100
AcDbTextStyleTableRecord
  2
Standard
 70
     0
 40
0.0
 41
1.0
 50
0.0
 71
     0
 42
0.2
  3
txt
  4

  0
ENDTAB
  0
TABLE
  2
VIEW
  5
6
330
0
100
AcDbSymbolTable
 70
     0
  0
ENDTAB
  0
TABLE
  2
UCS
  5
7
330
0
100
AcDbSymbolTable
 70
     0
  0
ENDTAB
  0
TABLE
  2
APPID
  5
9
330
0
100
AcDbSymbolTable
 70
     1
  0
APPID
  5
12
330
9
100
AcDbSymbolTableRecord
100
AcDbRegAppTableRecord
  2
ACAD
 70
     0
  0
ENDTAB
  0
TABLE
  2
DIMSTYLE
  5
A
330
0
100
AcDbSymbolTable
 70
     1
100
AcDbDimStyleTable
  0
DIMSTYLE
105
27
330
A
100
AcDbSymbolTableRecord
100
AcDbDimStyleTableRecord
  2
Standard
 70
     0
178
     0
340
11
  0
ENDTAB
  0
TABLE
  2
BLOCK_RECORD
  5
1
330
0
100
AcDbSymbolTable
 70
     5
  0
BLOCK_RECORD
  5
1F
330
1
100
AcDbSymbolTableRecord
100
AcDbBlockTableRecord
  2
*Model_Space
340
22
 70
     0
280
     1
281
     0
  0
BLOCK_RECORD
  5
1B
330
1
100
AcDbSymbolTableRecord
100
AcDbBlockTableRecord
  2
*Paper_Space
340
1E
 70
     0
280
     1
281
     0
  0
BLOCK_RECORD
  5
23
330
1
100
AcDbSymbolTableRecord
100
AcDbBlockTableRecord
  2
*Paper_Space0
340
26
 70
     0
280
     1
281
     0
  0
BLOCK_RECORD
  5
6E
330
1
100
AcDbSymbolTableRecord
100
AcDbBlockTableRecord
  2
1_124729_2
340
0
102
{BLKREFS
331
6F
102
}
 70
     0
280
     1
281
     0
  0
BLOCK_RECORD
  5
88
330
1
100
AcDbSymbolTableRecord
100
AcDbBlockTableRecord
  2
2_405015E_Inch_0_in_124729_2
340
0
102
{BLKREFS
331
89
102
}
 70
     0
280
     1
281
     0
  0
BLOCK_RECORD
  5
EA
330
1
100
AcDbSymbolTableRecord
100
AcDbBlockTableRecord
  2
3_123326_0_in_124729_2
340
0
102
{BLKREFS
331
EB
102
}
 70
     0
280
     1
281
     0
  0
BLOCK_RECORD
  5
153
330
1
100
AcDbSymbolTableRecord
100
AcDbBlockTableRecord
  2
4_124729H_0_in_124729_2
340
0
102
{BLKREFS
331
154
102
}
 70
     0
280
     1
281
     0
  0
ENDTAB
  0
ENDSEC
  0
SECTION
  2
BLOCKS
  0
BLOCK
  5
20
330
1F
100
AcDbEntity
  8
0
100
AcDbBlockBegin
  2
*Model_Space
 70
     0
 10
0.0
 20
0.0
 30
0.0
  3
*Model_Space
  1

  0
ENDBLK
  5
21
330
1F
100
AcDbEntity
  8
0
100
AcDbBlockEnd
  0
BLOCK
  5
1C
330
1B
100
AcDbEntity
 67
     1
  8
0
100
AcDbBlockBegin
  2
*Paper_Space
 70
     0
 10
0.0
 20
0.0
 30
0.0
  3
*Paper_Space
  1

  0
ENDBLK
  5
1D
330
1B
100
AcDbEntity
 67
     1
  8
0
100
AcDbBlockEnd
  0
BLOCK
  5
24
330
23
100
AcDbEntity
  8
0
100
AcDbBlockBegin
  2
*Paper_Space0
 70
     0
 10
0.0
 20
0.0
 30
0.0
  3
*Paper_Space0
  1

  0
ENDBLK
  5
25
330
23
100
AcDbEntity
  8
0
100
AcDbBlockEnd
  0
BLOCK
  5
70
330
6E
100
AcDbEntity
  8
0
100
AcDbBlockBegin
  2
1_124729_2
 70
     2
 10
0.0
 20
0.0
 30
0.0
  3
1_124729_2
  1

  0
ATTDEF
  5
73
330
6E
100
AcDbEntity
  8
AM_6
100
AcDbText
 10
6.2395
 20
3.815
 30
0.0
 40
0.5
  1
Set Screw Flange Cartridge Inch Bore
100
AcDbAttributeDefinition
  3

  2
NN
 70
     8
280
     0
  0
ATTDEF
  5
74
330
6E
100
AcDbEntity
  8
AM_6
100
AcDbText
 10
6.2395
 20
3.315
 30
0.0
 40
0.5
  1
SC Piloted Flange Bearings -(Normal Duty)
100
AcDbAttributeDefinition
  3

  2
NT
 70
     8
280
     0
  0
ATTDEF
  5
75
330
6E
100
AcDbEntity
  8
AM_6
100
AcDbText
 10
6.2395
 20
2.815
 30
0.0
 40
0.5
  1
124729
100
AcDbAttributeDefinition
  3

  2
NB
 70
     8
280
     0
  0
ATTDEF
  5
76
330
6E
100
AcDbEntity
  8
AM_6
100
AcDbText
 10
6.2395
 20
2.315
 30
0.0
 40
0.5
  1
$PN.
100
AcDbAttributeDefinition
  3

  2
NBSYN
 70
     8
280
     0
  0
ATTDEF
  5
77
330
6E
100
AcDbEntity
  8
AM_6
100
AcDbText
 10
6.2395
 20
1.815
 30
0.0
 40
0.5
  1
124729
100
AcDbAttributeDefinition
  3

  2
LINA
 70
     8
280
     0
  0
ATTDEF
  5
78
330
6E
100
AcDbEntity
  8
AM_6
100
AcDbText
 10
6.2395
 20
1.315
 30
0.0
 40
0.5
  1
214
100
AcDbAttributeDefinition
  3

  2
SERIES
 70
     8
280
     0
  0
ATTDEF
  5
79
330
6E
100
AcDbEntity
  8
AM_6
100
AcDbText
 10
6.2395
 20
0.815
 30
0.0
 40
0.5
  1
2-11/16
100
AcDbAttributeDefinition
  3

  2
SS
 70
     8
280
     0
  0
ATTDEF
  5
7A
330
6E
100
AcDbEntity
  8
AM_6
100
AcDbText
 10
6.2395
 20
0.3149999999999999
 30
0.0
 40
0.5
  1
124729
100
AcDbAttributeDefinition
  3

  2
PN
 70
     8
280
     0
  0
ATTDEF
  5
7B
330
6E
100
AcDbEntity
  8
AM_6
100
AcDbText
 10
6.2395
 20
-0.1850000000000001
 30
0.0
 40
0.5
  1
FC-SC-211
100
AcDbAttributeDefinition
  3

  2
DESCRIPTION
 70
     8
280
     0
  0
ATTDEF
  5
7C
330
6E
100
AcDbEntity
  8
AM_6
100
AcDbText
 10
6.2395
 20
-0.685
 30
0.0
 40
0.5
  1
12.9
100
AcDbAttributeDefinition
  3

  2
WEIGHT
 70
     8
280
     0
  0
ATTDEF
  5
7D
330
6E
100
AcDbEntity
  8
AM_6
100
AcDbText
 10
6.2395
 20
-1.185
 30
0.0
 40
0.5
  1
2.54
100
AcDbAttributeDefinition
  3

  2
A
 70
     8
280
     0
  0
ATTDEF
  5
7E
330
6E
100
AcDbEntity
  8
AM_6
100
AcDbText
 10
6.2395
 20
-1.685
 30
0.0
 40
0.5
  1
7.63
100
AcDbAttributeDefinition
  3

  2
B
 70
     8
280
     0
  0
ATTDEF
  5
7F
330
6E
100
AcDbEntity
  8
AM_6
100
AcDbText
 10
6.2395
 20
-2.185
 30
0.0
 40
0.5
  1
2.80
100
AcDbAttributeDefinition
  3

  2
C
 70
     8
280
     0
  0
ATTDEF
  5
80
330
6E
100
AcDbEntity
  8
AM_6
100
AcDbText
 10
6.2395
 20
-2.685
 30
0.0
 40
0.5
  1
6.50
100
AcDbAttributeDefinition
  3

  2
D
 70
     8
280
     0
  0
ATTDEF
  5
81
330
6E
100
AcDbEntity
  8
AM_6
100
AcDbText
 10
6.2395
 20
-3.185
 30
0.0
 40
0.5
  1
1.13
100
AcDbAttributeDefinition
  3

  2
E
 70
     8
280
     0
  0
ATTDEF
  5
82
330
6E
100
AcDbEntity
  8
AM_6
100
AcDbText
 10
6.2395
 20
-3.685
 30
0.0
 40
0.5
  1
1/2
100
AcDbAttributeDefinition
  3

  2
F
 70
     8
280
     0
  0
ATTDEF
  5
83
330
6E
100
AcDbEntity
  8
AM_6
100
AcDbText
 10
6.2395
 20
-4.185
 30
0.0
 40
0.5
  1
1.67
100
AcDbAttributeDefinition
  3

  2
G
 70
     8
280
     0
  0
ATTDEF
  5
84
330
6E
100
AcDbEntity
  8
AM_6
100
AcDbText
 10
6.2395
 20
-4.685
 30
0.0
 40
0.5
  1
1.06
100
AcDbAttributeDefinition
  3

  2
H
 70
     8
280
     0
  0
ATTDEF
  5
85
330
6E
100
AcDbEntity
  8
AM_6
100
AcDbText
 10
6.2395
 20
-5.185
 30
0.0
 40
0.5
  1
5.500 / 5.498
100
AcDbAttributeDefinition
  3

  2
K
 70
     8
280
     0
  0
ATTDEF
  5
86
330
6E
100
AcDbEntity
  8
AM_6
100
AcDbText
 10
6.2395
 20
-5.685
 30
0.0
 40
0.5
  1
3.31
100
AcDbAttributeDefinition
  3

  2
L
 70
     8
280
     0
  0
ATTDEF
  5
87
330
6E
100
AcDbEntity
  8
AM_6
100
AcDbText
 10
6.2395
 20
-6.185
 30
0.0
 40
0.5
  1
baldor
100
AcDbAttributeDefinition
  3

  2
COMPANY
 70
     8
280
     0
  0
INSERT
  5
89
330
6E
100
AcDbEntity
  8
0
100
AcDbBlockReference
  2
2_405015E_Inch_0_in_124729_2
 10
0.0
 20
0.0
 30
0.0
  0
INSERT
  5
EB
330
6E
100
AcDbEntity
  8
0
100
AcDbBlockReference
  2
3_123326_0_in_124729_2
 10
0.0
 20
0.0
 30
0.0
  0
INSERT
  5
154
330
6E
100
AcDbEntity
  8
0
100
AcDbBlockReference
  2
4_124729H_0_in_124729_2
 10
0.0
 20
0.0
 30
0.0
  0
ENDBLK
  5
71
330
6E
100
AcDbEntity
  8
0
100
AcDbBlockEnd
  0
BLOCK
  5
8A
330
88
100
AcDbEntity
  8
0
100
AcDbBlockBegin
  2
2_405015E_Inch_0_in_124729_2
 70
     2
 10
0.0
 20
0.0
 30
0.0
  3
2_405015E_Inch_0_in_124729_2
  1

  0
ATTDEF
  5
8C
330
88
100
AcDbEntity
  8
AM_6
100
AcDbText
 10
4.426594153801661
 20
3.621475313432182
 30
0.0
 40
0.5
  1
405015E -Inch
100
AcDbAttributeDefinition
  3

  2
NN
 70
     8
280
     0
  0
ATTDEF
  5
8D
330
88
100
AcDbEntity
  8
AM_6
100
AcDbText
 10
4.426594153801661
 20
3.121475313432182
 30
0.0
 40
0.5
  1
Grease Fitting
100
AcDbAttributeDefinition
  3

  2
NT
 70
     8
280
     0
  0
ATTDEF
  5
8E
330
88
100
AcDbEntity
  8
AM_6
100
AcDbText
 10
4.426594153801661
 20
2.621475313432182
 30
0.0
 40
0.5
  1
405015E-Inch
100
AcDbAttributeDefinition
  3

  2
NB
 70
     8
280
     0
  0
ATTDEF
  5
8F
330
88
100
AcDbEntity
  8
AM_6
100
AcDbText
 10
4.426594153801661
 20
2.121475313432182
 30
0.0
 40
0.5
  1
$MN.-Inch
100
AcDbAttributeDefinition
  3

  2
NBSYN
 70
     8
280
     0
  0
ATTDEF
  5
90
330
88
100
AcDbEntity
  8
AM_6
100
AcDbText
 10
4.426594153801661
 20
1.621475313432182
 30
0.0
 40
0.5
  1
405015E
100
AcDbAttributeDefinition
  3

  2
LINA
 70
     8
280
     0
  0
ATTDEF
  5
91
330
88
100
AcDbEntity
  8
AM_6
100
AcDbText
 10
4.426594153801661
 20
1.121475313432182
 30
0.0
 40
0.5
  1
405015E
100
AcDbAttributeDefinition
  3

  2
MN
 70
     8
280
     0
  0
ATTDEF
  5
92
330
88
100
AcDbEntity
  8
AM_6
100
AcDbText
 10
4.426594153801661
 20
0.6214753134321818
 30
0.0
 40
0.5
  1
1/8 x 27PTF
100
AcDbAttributeDefinition
  3

  2
T
 70
     8
280
     0
  0
ATTDEF
  5
93
330
88
100
AcDbEntity
  8
AM_6
100
AcDbText
 10
4.426594153801661
 20
0.1214753134321818
 30
0.0
 40
0.5
  1
baldor
100
AcDbAttributeDefinition
  3

  2
COMPANY
 70
     8
280
     0
  0
LWPOLYLINE
  5
96
330
88
100
AcDbEntity
  8
AM_9
100
AcDbPolyline
 90
        4
 70
     0
 43
0.0
 10
-0.9578207949339567
 20
3.352889842303622
 10
-0.9945148921920993
 20
3.314984790414004
 10
-1.011703821665464
 20
3.295030724348633
 10
-1.027983460488128
 20
3.274320876291871
  0
LWPOLYLINE
  5
97
330
88
100
AcDbEntity
  8
AM_9
100
AcDbPolyline
 90
        4
 70
     0
 43
0.0
 10
-0.902513615036337
 20
3.452828515796933
 10
-0.9176997812947052
 20
3.428792067397606
 10
-0.9319370982942374
 20
3.404052071304474
 10
-0.9578207949339567
 20
3.352889842303622
  0
LWPOLYLINE
  5
98
330
88
100
AcDbEntity
  8
AM_9
100
AcDbPolyline
 90
        3
 70
     0
 43
0.0
 10
-0.9284171844195178
 20
3.242124101508796
 10
-0.9166447728013286
 20
3.26045094437713
 10
-0.8907610761616094
 20
3.306112802402184
  0
LWPOLYLINE
  5
99
330
88
100
AcDbEntity
  8
AM_9
100
AcDbPolyline
 90
        3
 70
     0
 43
0.0
 10
-0.946068256059229
 20
3.217181495807544
 10
-0.9308820898008608
 20
3.238466102482203
 10
-0.9284171844195178
 20
3.242124101508796
  0
LWPOLYLINE
  5
9A
330
88
100
AcDbEntity
  8
AM_9
100
AcDbPolyline
 90
        3
 70
     0
 43
0.0
 10
-0.8389488611910988
 20
3.369371698879421
 10
-0.8368780494301024
 20
3.372211217637179
 10
-0.8205984106074378
 20
3.395689135312606
  0
LWPOLYLINE
  5
9B
330
88
100
AcDbEntity
  8
AM_9
100
AcDbPolyline
 90
        3
 70
     0
 43
0.0
 10
-0.8907610761616094
 20
3.306112802402184
 10
-0.8629768977806591
 20
3.338409690666909
 10
-0.8389488611910988
 20
3.369371698879421
  0
LINE
  5
9C
330
88
100
AcDbEntity
  8
AM_9
100
AcDbLine
 10
-0.8323509494821653
 20
3.542404848707355
 30
0.0
 11
-0.765291230709818
 21
3.495627808805916
 31
0.0
  0
LWPOLYLINE
  5
9D
330
88
100
AcDbEntity
  8
AM_9
100
AcDbPolyline
 90
        4
 70
     0
 43
0.0
 10
-0.8323509494821653
 20
3.542404848707355
 10
-0.8510354847046697
 20
3.521031995322335
 10
-0.8862339762136723
 20
3.476306433472359
 10
-0.902513615036337
 20
3.452828515796933
  0
LINE
  5
9E
330
88
100
AcDbEntity
  8
AM_9
100
AcDbLine
 10
-0.9578207949339567
 20
3.352889842303622
 30
0.0
 11
-0.8907610761616094
 21
3.306112802402184
 31
0.0
  0
LWPOLYLINE
  5
9F
330
88
100
AcDbEntity
  8
AM_9
100
AcDbPolyline
 90
        4
 70
     0
 43
0.0
 10
-1.027983460488128
 20
3.274320876291871
 10
-1.043169626746496
 20
3.253036269617212
 10
-1.070740869811644
 20
3.208478085927606
 10
-1.083290640385748
 20
3.185389569697232
  0
LWPOLYLINE
  5
A0
330
88
100
AcDbEntity
  8
AM_9
100
AcDbPolyline
 90
        4
 70
     0
 43
0.0
 10
-0.8397786923104412
 20
3.55859338589747
 10
-0.8386174945510944
 20
3.553565078568507
 10
-0.8352877628888139
 20
3.547024125514775
 10
-0.8323509494821653
 20
3.542404848707355
  0
LWPOLYLINE
  5
A1
330
88
100
AcDbEntity
  8
AM_9
100
AcDbPolyline
 90
        3
 70
     0
 43
0.0
 10
-0.765291230709818
 20
3.495627808805916
 10
-0.7623544173031692
 20
3.49614997812703
 10
-0.7590314580016594
 20
3.498037962316272
  0
LWPOLYLINE
  5
A2
330
88
100
AcDbEntity
  8
AM_9
100
AcDbPolyline
 90
        3
 70
     0
 43
0.0
 10
-0.8011060517178601
 20
3.42696990833945
 10
-0.791191492007313
 20
3.444435449866738
 10
-0.765291230709818
 20
3.495627808805916
  0
LWPOLYLINE
  5
A3
330
88
100
AcDbEntity
  8
AM_9
100
AcDbPolyline
 90
        3
 70
     0
 43
0.0
 10
-0.8205984106074378
 20
3.395689135312606
 10
-0.8054122443490694
 20
3.419725583711932
 10
-0.8011060517178601
 20
3.42696990833945
  0
LINE
  5
A4
330
88
100
AcDbEntity
  8
AM_9
100
AcDbLine
 10
-0.7587119413735571
 20
3.498033458121963
 30
0.0
 11
-0.7581903770099988
 21
3.499453513912789
 31
0.0
  0
LINE
  5
A5
330
88
100
AcDbEntity
  8
AM_9
100
AcDbLine
 10
-0.7581888935026004
 20
3.499457558748436
 30
0.0
 11
-0.757863487881542
 21
3.501454005413143
 31
0.0
  0
LWPOLYLINE
  5
A6
330
88
100
AcDbEntity
  8
AM_9
100
AcDbPolyline
 90
        3
 70
     0
 43
0.0
 10
-0.9670941907436178
 20
3.190784683143539
 10
-0.9623478948818938
 20
3.196471647750783
 10
-0.946068256059229
 20
3.217181495807544
  0
LINE
  5
A7
330
88
100
AcDbEntity
  8
AM_9
100
AcDbLine
 10
-1.016230921613401
 20
3.138612529795794
 30
0.0
 11
-1.000483994325125
 21
3.154239457615543
 31
0.0
  0
LINE
  5
A8
330
88
100
AcDbEntity
  8
AM_9
100
AcDbLine
 10
-1.010465764471671
 20
3.140537921414424
 30
0.0
 11
-1.004603902778231
 21
3.145521930780294
 31
0.0
  0
LWPOLYLINE
  5
A9
330
88
100
AcDbEntity
  8
AM_9
100
AcDbPolyline
 90
        3
 70
     0
 43
0.0
 10
-1.010457343229772
 20
3.140545097241742
 10
-1.013294108206752
 20
3.139134699116908
 10
-1.016230921613401
 20
3.138612529795794
  0
ELLIPSE
  5
AA
330
88
100
AcDbEntity
  8
AM_9
100
AcDbEllipse
 10
-1.051259502412577
 20
3.440082095900952
 30
0.0
 11
0.06007145719352622
 21
0.0861186392753996
 31
0.0
210
0.0
220
0.0
230
1.0
 40
0.0499904803327288
 41
3.141592653589793
 42
6.283185307179586
  0
ELLIPSE
  5
AB
330
88
100
AcDbEntity
  8
AM_9
100
AcDbEllipse
 10
-1.024844406064492
 20
3.42165642936827
 30
0.0
 11
0.06797805708868862
 21
0.09745356697779914
 31
0.0
210
0.0
220
0.0
230
1.0
 40
0.0499904803327338
 41
3.120139695811594
 42
6.304638264957754
  0
ELLIPSE
  5
AC
330
88
100
AcDbEntity
  8
AM_9
100
AcDbEllipse
 10
-1.190515349941705
 20
3.537219042724308
 30
0.0
 11
0.05874296372095753
 21
0.08421410664894324
 31
0.0
210
0.0
220
0.0
230
1.0
 40
0.0499904803328286
 41
3.121368525239138
 42
6.303409435530202
  0
ELLIPSE
  5
AD
330
88
100
AcDbEntity
  8
AM_9
100
AcDbEllipse
 10
-1.124983186398586
 20
3.491507538336846
 30
0.0
 11
0.07723473067739063
 21
0.1107239647826566
 31
0.0
210
0.0
220
0.0
230
1.0
 40
0.0499904803327947
 41
3.166621797773317
 42
6.258156162996004
  0
ELLIPSE
  5
AE
330
88
100
AcDbEntity
  8
AM_9
100
AcDbEllipse
 10
-1.075834063741246
 20
3.45722391004625
 30
0.0
 11
0.06007145719352615
 21
0.08611863927539963
 31
0.0
210
0.0
220
0.0
230
1.0
 40
0.0499904803326848
 41
3.166621797773352
 42
6.258156162996036
  0
LINE
  5
AF
330
88
100
AcDbEntity
  8
AM_9
100
AcDbLine
 10
-1.030437195137133
 20
3.148522016975814
 30
0.0
 11
-1.016230921613401
 21
3.138612529795794
 31
0.0
  0
LWPOLYLINE
  5
B0
330
88
100
AcDbEntity
  8
AM_9
100
AcDbPolyline
 90
        3
 70
     0
 43
0.0
 10
-1.008803178785125
 20
3.14443872640302
 10
-1.009964376544471
 20
3.14103038989758
 10
-1.010457343229772
 20
3.140545097241742
  0
LWPOLYLINE
  5
B1
330
88
100
AcDbEntity
  8
AM_9
100
AcDbPolyline
 90
        3
 70
     0
 43
0.0
 10
-0.8381244167030834
 20
3.562487109986955
 10
-0.8392752727439748
 20
3.561010298702792
 10
-0.8397786923104412
 20
3.55859338589747
  0
ELLIPSE
  5
B2
330
88
100
AcDbEntity
  8
AM_9
100
AcDbEllipse
 10
-0.9802539275446875
 20
3.390552651554557
 30
0.0
 11
0.09870830472586863
 21
0.1415085514038336
 31
0.0
210
0.0
220
0.0
230
1.0
 40
0.049990480332746
 41
3.028733834118686
 42
6.332595546284033
  0
LWPOLYLINE
  5
B3
330
88
100
AcDbEntity
  8
AM_9
100
AcDbPolyline
 90
        5
 70
     0
 43
0.0
 10
-0.757863487881542
 20
3.501454005413143
 10
-0.7583610523046477
 20
3.504552919736671
 10
-0.7598240306443652
 20
3.508325251815678
 10
-0.7621745347722736
 20
3.512719700471501
 10
-0.765291230709818
 20
3.517642542603258
  0
ELLIPSE
  5
B4
330
88
100
AcDbEntity
  8
AM_9
100
AcDbEllipse
 10
-0.9652485377622078
 20
3.380085746392539
 30
0.0
 11
0.1251488691532041
 21
0.1794138318238799
 31
0.0
210
0.0
220
0.0
230
1.0
 40
0.0499904803326876
 41
2.953688277413034
 42
6.471089683346925
  0
LWPOLYLINE
  5
B5
330
88
100
AcDbEntity
  8
AM_9
100
AcDbPolyline
 90
        5
 70
     0
 43
0.0
 10
-1.016230921613401
 20
3.160627263593136
 10
-1.013128969631546
 20
3.155729424026495
 10
-1.010781041833593
 20
3.151346800492988
 10
-1.009306598351591
 20
3.147557952835028
 10
-1.008803178785125
 20
3.14443872640302
  0
LINE
  5
B6
330
88
100
AcDbEntity
  8
AM_9
100
AcDbLine
 10
-1.086644216355802
 20
3.212193450203352
 30
0.0
 11
-1.087745881400541
 21
3.206576578697812
 31
0.0
  0
LINE
  5
B7
330
88
100
AcDbEntity
  8
AM_9
100
AcDbLine
 10
-0.8447251818918519
 20
3.5549718555099
 30
0.0
 11
-0.849615907116289
 21
3.551998016549969
 31
0.0
  0
LINE
  5
B8
330
88
100
AcDbEntity
  8
AM_9
100
AcDbLine
 10
-0.573415771834226
 20
3.303917893492631
 30
0.0
 11
-0.5824368734769375
 21
3.354918790481396
 31
0.0
  0
LINE
  5
B9
330
88
100
AcDbEntity
  8
AM_9
100
AcDbLine
 10
-0.8094139241054613
 20
3.029523741649811
 30
0.0
 11
-0.7584357878196205
 21
3.038672587988505
 31
0.0
  0
LINE
  5
BA
330
88
100
AcDbEntity
  8
AM_9
100
AcDbLine
 10
-0.5826894533440623
 20
3.355398217842369
 30
0.0
 11
-0.7656077453106607
 21
3.491690034857541
 31
0.0
  0
LINE
  5
BB
330
88
100
AcDbEntity
  8
AM_9
100
AcDbLine
 10
-1.001032529411523
 20
3.154184287441512
 30
0.0
 11
-0.8099510851184623
 21
3.029595192540905
 31
0.0
  0
LINE
  5
BC
330
88
100
AcDbEntity
  8
AM_9
100
AcDbLine
 10
-0.7691144521366272
 20
3.520309404088929
 30
0.0
 11
-0.765291230709818
 21
3.517642542603258
 31
0.0
  0
LWPOLYLINE
  5
BD
330
88
100
AcDbEntity
  8
AM_9
100
AcDbPolyline
 90
        4
 70
     0
 43
0.0
 10
-0.765291230709818
 20
3.517642542603258
 10
-0.7910816698939409
 20
3.472131719944878
 10
-0.8053256109177056
 20
3.450123397692066
 10
-0.8205984106074378
 20
3.428711236008619
  0
LWPOLYLINE
  5
BE
330
88
100
AcDbEntity
  8
AM_9
100
AcDbPolyline
 90
        4
 70
     0
 43
0.0
 10
-0.8205984106074378
 20
3.428711236008619
 10
-0.8367797057120173
 20
3.40812077453168
 10
-0.8719779137124166
 20
3.368882727127081
 10
-0.8838604764391474
 20
3.356889180458484
  0
LINE
  5
BF
330
88
100
AcDbEntity
  8
AM_9
100
AcDbLine
 10
-1.02005414304021
 20
3.163294125078807
 30
0.0
 11
-1.016230921613401
 21
3.160627263593136
 31
0.0
  0
LWPOLYLINE
  5
C0
330
88
100
AcDbEntity
  8
AM_9
100
AcDbPolyline
 90
        4
 70
     0
 43
0.0
 10
-0.946068256059229
 20
3.250203596503558
 10
-0.9622495511638085
 20
3.226861293301952
 10
-0.979396260185
 20
3.204192407855824
 10
-1.016230921613401
 20
3.160627263593136
  0
LWPOLYLINE
  5
C1
330
88
100
AcDbEntity
  8
AM_9
100
AcDbPolyline
 90
        4
 70
     0
 43
0.0
 10
-0.8954659124793659
 20
3.340226806318579
 10
-0.9097865747060032
 20
3.311735825597716
 10
-0.9307954563694969
 20
3.27438382780567
 10
-0.946068256059229
 20
3.250203596503558
  0
ELLIPSE
  5
C2
330
88
100
AcDbEntity
  8
AM_9
100
AcDbEllipse
 10
-0.9652485377622343
 20
3.380085746392431
 30
0.0
 11
0.1222883235725509
 21
0.1753129442392422
 31
0.0
210
0.0
220
0.0
230
1.0
 40
0.0499904803326646
 41
0.0
 42
6.283185307179586
  0
ELLIPSE
  5
C3
330
88
100
AcDbEntity
  8
AM_9
100
AcDbEllipse
 10
-0.6662580415967471
 20
3.171527007624617
 30
0.0
 11
0.09262610926883039
 21
0.1327890959246716
 31
0.0
210
0.0
220
0.0
230
1.0
 40
0.0499904803327229
 41
0.0
 42
6.283185307179586
  0
ELLIPSE
  5
C4
330
88
100
AcDbEntity
  8
AM_9
100
AcDbEllipse
 10
-0.6963330076443557
 20
3.192505590782995
 30
0.0
 11
0.1136309549053919
 21
0.1629017119476761
 31
0.0
210
0.0
220
0.0
230
1.0
 40
0.049990480333573
 41
0.0
 42
6.283185307179586
  0
ELLIPSE
  5
C5
330
88
100
AcDbEntity
  8
AM_9
100
AcDbEllipse
 10
-0.8833333333333334
 20
3.322946365908082
 30
0.0
 11
0.1177125360621179
 21
0.1687530801636439
 31
0.0
210
0.0
220
0.0
230
1.0
 40
0.0499904803327294
 41
0.0
 42
6.283185307179586
  0
ELLIPSE
  5
C6
330
88
100
AcDbEntity
  8
AM_9
100
AcDbEllipse
 10
-0.8833333333333322
 20
3.322946365908083
 30
0.0
 11
0.1251488691531779
 21
0.1794138318237475
 31
0.0
210
0.0
220
0.0
230
1.0
 40
0.0499904803327321
 41
0.0
 42
6.283185307179586
  0
LINE
  5
C8
330
88
100
AcDbEntity
  8
AM_4
100
AcDbLine
 10
-0.9912342256847152
 20
3.526232948038627
 30
0.0
 11
-1.01576260654772
 21
3.543342549321649
 31
0.0
  0
LINE
  5
C9
330
88
100
AcDbEntity
  8
AM_4
100
AcDbLine
 10
-1.135905520934773
 20
3.371105270770851
 30
0.0
 11
-1.111377140071767
 21
3.353995669487828
 31
0.0
  0
ELLIPSE
  5
CA
330
88
100
AcDbEntity
  8
AM_4
100
AcDbEllipse
 10
-1.075834063741246
 20
3.45722391004625
 30
0.0
 11
0.0600714571935268
 21
0.08611863927539963
 31
0.0
210
0.0
220
0.0
230
1.0
 40
0.0499904803327346
 41
0.0
 42
3.141592653589793
  0
ELLIPSE
  5
CB
330
88
100
AcDbEntity
  8
AM_4
100
AcDbEllipse
 10
-1.051259502412576
 20
3.440082095900952
 30
0.0
 11
0.06007145719352581
 21
0.08611863927539919
 31
0.0
210
0.0
220
0.0
230
1.0
 40
0.0499904803327291
 41
0.0214529577781581
 42
3.120139695811702
  0
LINE
  5
CC
330
88
100
AcDbEntity
  8
AM_4
100
AcDbLine
 10
-1.111409487115912
 20
3.35404769134244
 30
0.0
 11
-1.092959030422309
 21
3.32437490358016
 31
0.0
  0
LINE
  5
CD
330
88
100
AcDbEntity
  8
AM_4
100
AcDbLine
 10
-0.9570749710265921
 20
3.519178739562981
 30
0.0
 11
-0.9912942183191061
 21
3.526245337083828
 31
0.0
  0
ELLIPSE
  5
CE
330
88
100
AcDbEntity
  8
AM_4
100
AcDbEllipse
 10
-1.190515349941705
 20
3.537219042724308
 30
0.0
 11
0.05874296372095753
 21
0.08421410664894324
 31
0.0
210
0.0
220
0.0
230
1.0
 40
0.0499904803327308
 41
0.0202241283506881
 42
3.121368525239056
  0
LINE
  5
CF
330
88
100
AcDbEntity
  8
AM_4
100
AcDbLine
 10
-1.249331436512363
 20
3.453081543824055
 30
0.0
 11
-1.202314058353931
 21
3.380884296746604
 31
0.0
  0
LINE
  5
D0
330
88
100
AcDbEntity
  8
AM_4
100
AcDbLine
 10
-1.04787618611418
 20
3.602286940052362
 30
0.0
 11
-1.131869535026413
 21
3.621475313432181
 31
0.0
  0
ELLIPSE
  5
D1
330
88
100
AcDbEntity
  8
AM_4
100
AcDbEllipse
 10
-1.124983186398586
 20
3.491507538336847
 30
0.0
 11
0.07723473067739084
 21
0.110723964782657
 31
0.0
210
0.0
220
0.0
230
1.0
 40
0.0499904803327306
 41
0.020224128350633
 42
3.121368525239144
  0
LINE
  5
D2
330
88
100
AcDbEntity
  8
AM_4
100
AcDbLine
 10
-1.015708727098647
 20
3.543304966087105
 30
0.0
 11
-1.047634121160592
 21
3.60210019550175
 31
0.0
  0
LINE
  5
D3
330
88
100
AcDbEntity
  8
AM_4
100
AcDbLine
 10
-1.202055200721783
 20
3.380721626235395
 30
0.0
 11
-1.135851641485699
 21
3.371067687536305
 31
0.0
  0
LWPOLYLINE
  5
D4
330
88
100
AcDbEntity
  8
AM_4
100
AcDbPolyline
 90
        4
 70
     0
 43
0.0
 10
-1.083290640385748
 20
3.185389569697232
 10
-1.086227453792397
 20
3.190008846504653
 10
-1.089550413093907
 20
3.196532644940753
 10
-1.090718383214024
 20
3.201578106887347
  0
LINE
  5
D5
330
88
100
AcDbEntity
  8
AM_4
100
AcDbLine
 10
-1.083290640385748
 20
3.185389569697232
 30
0.0
 11
-1.030437195137133
 21
3.148522016975814
 31
0.0
  0
LWPOLYLINE
  5
D6
330
88
100
AcDbEntity
  8
AM_4
100
AcDbPolyline
 90
        4
 70
     0
 43
0.0
 10
-0.8323509494821653
 20
3.564419582504697
 10
-0.83545290146402
 20
3.563849232950955
 10
-0.8378008292619732
 20
3.562742170791733
 10
-0.8381244167030834
 20
3.562487109986955
  0
LINE
  5
D7
330
88
100
AcDbEntity
  8
AM_4
100
AcDbLine
 10
-0.8381161066238947
 20
3.562494190886066
 30
0.0
 11
-0.8439779683173348
 21
3.557510181520196
 31
0.0
  0
ELLIPSE
  5
D8
330
88
100
AcDbEntity
  8
AM_4
100
AcDbEllipse
 10
-1.024844406064492
 20
3.42165642936827
 30
0.0
 11
0.06797805708868833
 21
0.09745356697779872
 31
0.0
210
0.0
220
0.0
230
1.0
 40
0.0499904803327288
 41
0.04941023910441
 42
3.092182414485453
  0
LINE
  5
D9
330
88
100
AcDbEntity
  8
AM_4
100
AcDbLine
 10
-1.092980116610072
 20
3.32448963869696
 30
0.0
 11
-1.079260661572777
 21
3.249838720576989
 31
0.0
  0
LINE
  5
DA
330
88
100
AcDbEntity
  8
AM_4
100
AcDbLine
 10
-0.8823944161520557
 20
3.532066819693526
 30
0.0
 11
-0.9571899283780565
 21
3.519158900669713
 31
0.0
  0
LINE
  5
DB
330
88
100
AcDbEntity
  8
AM_4
100
AcDbLine
 10
-1.089869929722009
 20
3.204998654178527
 30
0.0
 11
-1.090391494085567
 21
3.203578598387701
 31
0.0
  0
ELLIPSE
  5
DC
330
88
100
AcDbEntity
  8
AM_4
100
AcDbEllipse
 10
-0.9652485377622327
 20
3.380085746392409
 30
0.0
 11
0.1251488691531791
 21
0.1794138318237502
 31
0.0
210
0.0
220
0.0
230
1.0
 40
0.0499904803327302
 41
0.1879043761766477
 42
2.953688277412978
  0
LWPOLYLINE
  5
DD
330
88
100
AcDbEntity
  8
AM_4
100
AcDbPolyline
 90
        5
 70
     0
 43
0.0
 10
-1.090393105104668
 20
3.203574205352437
 10
-1.090220818790918
 20
3.203982876013155
 10
-1.088757840451201
 20
3.205714227383483
 10
-1.086407336323292
 20
3.206829520462978
 10
-1.083290640385748
 20
3.207404303494574
  0
ELLIPSE
  5
DE
330
88
100
AcDbEntity
  8
AM_4
100
AcDbEllipse
 10
-0.9802539275446884
 20
3.390552651554557
 30
0.0
 11
0.09870830472586944
 21
0.1415085514038341
 31
0.0
210
0.0
220
0.0
230
1.0
 40
0.0499904803327272
 41
0.1128588194711959
 42
3.028733834118748
  0
LINE
  5
DF
330
88
100
AcDbEntity
  8
AM_4
100
AcDbLine
 10
-1.079130948430394
 20
3.250500066833569
 30
0.0
 11
-1.086644216355802
 21
3.212193450203352
 31
0.0
  0
LINE
  5
E0
330
88
100
AcDbEntity
  8
AM_4
100
AcDbLine
 10
-0.849615907116289
 20
3.551998016549969
 30
0.0
 11
-0.8829702639021704
 21
3.531716671526191
 31
0.0
  0
LINE
  5
E1
330
88
100
AcDbEntity
  8
AM_4
100
AcDbLine
 10
-0.8323509494821653
 20
3.564419582504697
 30
0.0
 11
-0.7691144521366272
 21
3.520309404088929
 31
0.0
  0
LWPOLYLINE
  5
E2
330
88
100
AcDbEntity
  8
AM_4
100
AcDbPolyline
 90
        4
 70
     0
 43
0.0
 10
-0.9025136150363369
 20
3.485850616492946
 10
-0.8863323199317573
 20
3.506441077969884
 10
-0.8691644176243656
 20
3.526381710488603
 10
-0.8323509494821653
 20
3.564419582504697
  0
LWPOLYLINE
  5
E3
330
88
100
AcDbEntity
  8
AM_4
100
AcDbPolyline
 90
        4
 70
     0
 43
0.0
 10
-0.9578207949339567
 20
3.396919309898306
 10
-0.9453401636751616
 20
3.419885558736033
 10
-0.9177864147260689
 20
3.464438454809499
 10
-0.9025136150363369
 20
3.485850616492946
  0
LINE
  5
E4
330
88
100
AcDbEntity
  8
AM_4
100
AcDbLine
 10
-0.8838604764391474
 20
3.356889180458484
 30
0.0
 11
-0.8907610761616094
 21
3.350142269996868
 31
0.0
  0
LINE
  5
E5
330
88
100
AcDbEntity
  8
AM_4
100
AcDbLine
 10
-0.9578207949339567
 20
3.396919309898306
 30
0.0
 11
-0.8907610761616094
 21
3.350142269996868
 31
0.0
  0
LWPOLYLINE
  5
E6
330
88
100
AcDbEntity
  8
AM_4
100
AcDbPolyline
 90
        4
 70
     0
 43
0.0
 10
-1.027983460488128
 20
3.307342976987885
 10
-1.011802165383549
 20
3.330685280189491
 10
-0.9766039573831492
 20
3.375430040186417
 10
-0.9578207949339567
 20
3.396919309898306
  0
LWPOLYLINE
  5
E7
330
88
100
AcDbEntity
  8
AM_4
100
AcDbPolyline
 90
        4
 70
     0
 43
0.0
 10
-1.083290640385748
 20
3.207404303494574
 10
-1.057500201201625
 20
3.25839684341846
 10
-1.04325626017786
 20
3.283162745685772
 10
-1.027983460488128
 20
3.307342976987885
  0
LINE
  5
E8
330
88
100
AcDbEntity
  8
AM_4
100
AcDbLine
 10
-1.083290640385748
 20
3.207404303494574
 30
0.0
 11
-1.02005414304021
 21
3.163294125078807
 31
0.0
  0
LINE
  5
E9
330
88
100
AcDbEntity
  8
AM_4
100
AcDbLine
 10
-0.8907610761616094
 20
3.350142269996868
 30
0.0
 11
-0.8954659124793659
 21
3.340226806318579
 31
0.0
  0
ENDBLK
  5
8B
330
88
100
AcDbEntity
  8
0
100
AcDbBlockEnd
  0
BLOCK
  5
EC
330
EA
100
AcDbEntity
  8
0
100
AcDbBlockBegin
  2
3_123326_0_in_124729_2
 70
     2
 10
0.0
 20
0.0
 30
0.0
  3
3_123326_0_in_124729_2
  1

  0
ATTDEF
  5
EE
330
EA
100
AcDbEntity
  8
AM_6
100
AcDbText
 10
5.87
 20
2.46048984515693
 30
0.0
 40
0.5
  1
Set Screw Insert Inch Bore
100
AcDbAttributeDefinition
  3

  2
NN
 70
     8
280
     0
  0
ATTDEF
  5
EF
330
EA
100
AcDbEntity
  8
AM_6
100
AcDbText
 10
5.87
 20
1.96048984515693
 30
0.0
 40
0.5
  1
SC Normal Duty Bearing Inserts
100
AcDbAttributeDefinition
  3

  2
NT
 70
     8
280
     0
  0
ATTDEF
  5
F0
330
EA
100
AcDbEntity
  8
AM_6
100
AcDbText
 10
5.87
 20
1.46048984515693
 30
0.0
 40
0.5
  1
123326
100
AcDbAttributeDefinition
  3

  2
NB
 70
     8
280
     0
  0
ATTDEF
  5
F1
330
EA
100
AcDbEntity
  8
AM_6
100
AcDbText
 10
5.87
 20
0.9604898451569301
 30
0.0
 40
0.5
  1
$PN.
100
AcDbAttributeDefinition
  3

  2
NBSYN
 70
     8
280
     0
  0
ATTDEF
  5
F2
330
EA
100
AcDbEntity
  8
AM_6
100
AcDbText
 10
5.87
 20
0.4604898451569301
 30
0.0
 40
0.5
  1
123326
100
AcDbAttributeDefinition
  3

  2
LINA
 70
     8
280
     0
  0
ATTDEF
  5
F3
330
EA
100
AcDbEntity
  8
AM_6
100
AcDbText
 10
5.87
 20
-0.0395101548430699
 30
0.0
 40
0.5
  1
214
100
AcDbAttributeDefinition
  3

  2
SERIES
 70
     8
280
     0
  0
ATTDEF
  5
F4
330
EA
100
AcDbEntity
  8
AM_6
100
AcDbText
 10
5.87
 20
-0.5395101548430699
 30
0.0
 40
0.5
  1
2-11/16
100
AcDbAttributeDefinition
  3

  2
SS
 70
     8
280
     0
  0
ATTDEF
  5
F5
330
EA
100
AcDbEntity
  8
AM_6
100
AcDbText
 10
5.87
 20
-1.03951015484307
 30
0.0
 40
0.5
  1
123326
100
AcDbAttributeDefinition
  3

  2
PN
 70
     8
280
     0
  0
ATTDEF
  5
F6
330
EA
100
AcDbEntity
  8
AM_6
100
AcDbText
 10
5.87
 20
-1.53951015484307
 30
0.0
 40
0.5
  1
INS-SC-211
100
AcDbAttributeDefinition
  3

  2
DESCRIPTION
 70
     8
280
     0
  0
ATTDEF
  5
F7
330
EA
100
AcDbEntity
  8
AM_6
100
AcDbText
 10
5.87
 20
-2.03951015484307
 30
0.0
 40
0.5
  1
2.54
100
AcDbAttributeDefinition
  3

  2
A
 70
     8
280
     0
  0
ATTDEF
  5
F8
330
EA
100
AcDbEntity
  8
AM_6
100
AcDbText
 10
5.87
 20
-2.53951015484307
 30
0.0
 40
0.5
  1
1.10
100
AcDbAttributeDefinition
  3

  2
C
 70
     8
280
     0
  0
ATTDEF
  5
F9
330
EA
100
AcDbEntity
  8
AM_6
100
AcDbText
 10
5.87
 20
-3.03951015484307
 30
0.0
 40
0.5
  1
4.9213
100
AcDbAttributeDefinition
  3

  2
D
 70
     8
280
     0
  0
ATTDEF
  5
FA
330
EA
100
AcDbEntity
  8
AM_6
100
AcDbText
 10
5.87
 20
-3.53951015484307
 30
0.0
 40
0.5
  1
0.26
100
AcDbAttributeDefinition
  3

  2
J
 70
     8
280
     0
  0
ATTDEF
  5
FB
330
EA
100
AcDbEntity
  8
AM_6
100
AcDbText
 10
5.87
 20
-4.03951015484307
 30
0.0
 40
0.5
  1
3.31
100
AcDbAttributeDefinition
  3

  2
L
 70
     8
280
     0
  0
ATTDEF
  5
FC
330
EA
100
AcDbEntity
  8
AM_6
100
AcDbText
 10
5.87
 20
-4.53951015484307
 30
0.0
 40
0.5
  1
3/8 - 24
100
AcDbAttributeDefinition
  3

  2
N
 70
     8
280
     0
  0
ATTDEF
  5
FD
330
EA
100
AcDbEntity
  8
AM_6
100
AcDbText
 10
5.87
 20
-5.03951015484307
 30
0.0
 40
0.5
  1
1.06
100
AcDbAttributeDefinition
  3

  2
W
 70
     8
280
     0
  0
ATTDEF
  5
FE
330
EA
100
AcDbEntity
  8
AM_6
100
AcDbText
 10
5.87
 20
-5.53951015484307
 30
0.0
 40
0.5
  1
1.48
100
AcDbAttributeDefinition
  3

  2
Y
 70
     8
280
     0
  0
ATTDEF
  5
FF
330
EA
100
AcDbEntity
  8
AM_6
100
AcDbText
 10
5.87
 20
-6.03951015484307
 30
0.0
 40
0.5
  1
baldor
100
AcDbAttributeDefinition
  3

  2
COMPANY
 70
     8
280
     0
  0
ELLIPSE
  5
100
330
EA
100
AcDbEntity
  8
AM_9
100
AcDbEllipse
 10
0.0699999999999999
 20
-1.83495977484862
 30
0.0
 11
-0.02499999999999716
 21
3.061616997868036E-18
 31
0.0
210
0.0
220
0.0
230
1.0
 40
0.7071067811865465
 41
0.0
 42
6.283185307179586
  0
LWPOLYLINE
  5
101
330
EA
100
AcDbEntity
  8
AM_9
100
AcDbPolyline
 90
       19
 70
     0
 43
0.0
 10
-0.0000255200643767
 20
-1.861999689186824
 10
0.005168911380395
 20
-1.865104807427447
 10
0.0185702252518797
 20
-1.871671433330382
 10
0.0329118927209204
 20
-1.87672000826555
 10
0.0480495509812746
 20
-1.880131946469979
 10
0.0638007863649696
 20
-1.881784711663367
 10
0.0799485806942927
 20
-1.881560532647325
 10
0.0962457189773986
 20
-1.879351401393217
 10
0.1123999794012865
 20
-1.875068363042909
 10
0.1264637579652108
 20
-1.869431890078879
 10
0.1396208765427867
 20
-1.862254018362484
 10
0.1516856428925498
 20
-1.853653726772755
 10
0.1625052859077026
 20
-1.843760729792582
 10
0.1719489406561814
 20
-1.832714241085661
 10
0.1799004948737062
 20
-1.820665762882275
 10
0.1862571298683227
 20
-1.807781889276434
 10
0.1913269424684169
 20
-1.792774648029403
 10
0.1942217987509578
 20
-1.777459828418721
 10
0.1949999685688467
 20
-1.764333191964925
  0
LWPOLYLINE
  5
102
330
EA
100
AcDbEntity
  8
AM_9
100
AcDbPolyline
 90
       10
 70
     0
 43
0.0
 10
-0.0549394446430961
 20
-1.767939827297264
 10
-0.0548417898058692
 20
-1.770213462133325
 10
-0.0530517783096139
 20
-1.785100159230997
 10
-0.04936915365449
 20
-1.799420607016405
 10
-0.0439265074182969
 20
-1.812993646705914
 10
-0.036859035806388
 20
-1.825667877987932
 10
-0.0282982847463244
 20
-1.837317055849306
 10
-0.0183671405690912
 20
-1.847834811380934
 10
-0.0071772924680434
 20
-1.857127413160913
 10
-0.0000255200643767
 20
-1.861999689186824
  0
LINE
  5
103
330
EA
100
AcDbEntity
  8
AM_9
100
AcDbLine
 10
-0.0550000000000001
 20
-1.737291566857828
 30
0.0
 11
-0.0549759066153633
 21
-1.766577285576398
 31
0.0
  0
ELLIPSE
  5
104
330
EA
100
AcDbEntity
  8
AM_9
100
AcDbEllipse
 10
0.0699999999999998
 20
-1.764249096729966
 30
0.0
 11
0.1249999999999999
 21
0.0
 31
0.0
210
0.0
220
0.0
230
1.0
 40
0.7071067811865469
 41
1.570796326794897
 42
4.11800318038363
  0
LINE
  5
105
330
EA
100
AcDbEntity
  8
AM_9
100
AcDbLine
 10
0.1949999999999999
 20
-1.764249096729966
 30
0.0
 11
0.1949999999999999
 21
-1.71854004794596
 31
0.0
  0
LWPOLYLINE
  5
106
330
EA
100
AcDbEntity
  8
AM_9
100
AcDbPolyline
 90
       21
 70
     0
 43
0.0
 10
0.1949999992533894
 20
-1.718503275515866
 10
0.1948632656731474
 20
-1.714390188315569
 10
0.1921216467830316
 20
-1.69991362077121
 10
0.1859776941054583
 20
-1.686224303110988
 10
0.1765596054758156
 20
-1.673717757206043
 10
0.1641851347127004
 20
-1.662729752133502
 10
0.1491096048148615
 20
-1.653557235473522
 10
0.1318382496790397
 20
-1.646469483810189
 10
0.1127248862746968
 20
-1.641669847746523
 10
0.0924197861988535
 20
-1.639300333415414
 10
0.07138083709662
 20
-1.639464891043889
 10
0.0503028994204804
 20
-1.642140080759897
 10
0.0297452972664372
 20
-1.647298622884037
 10
0.010325312156992
 20
-1.654760928087015
 10
-0.0073530380689116
 20
-1.664332621700578
 10
-0.0228391163346035
 20
-1.67572779015986
 10
-0.0355955467997151
 20
-1.688586122873935
 10
-0.0453651980575766
 20
-1.702572153522054
 10
-0.0517894332122215
 20
-1.717217728480328
 10
-0.0547889227176545
 20
-1.732171480620336
 10
-0.0549999995432544
 20
-1.737314150160483
  0
LWPOLYLINE
  5
107
330
EA
100
AcDbEntity
  8
AM_9
100
AcDbPolyline
 90
       14
 70
     0
 43
0.0
 10
-0.0549999995432544
 20
-1.737314150160483
 10
-0.054234772664141
 20
-1.746948587906441
 10
-0.0502117781788407
 20
-1.761192784773096
 10
-0.0427963147876362
 20
-1.774479808233838
 10
-0.032247825621654
 20
-1.786463149996437
 10
-0.0187883101782473
 20
-1.796813459334787
 10
-0.0028655245966527
 20
-1.805234085708499
 10
0.0151947006385917
 20
-1.811491372185837
 10
0.0347804353382096
 20
-1.815397968912249
 10
0.0554665586473367
 20
-1.81681600695816
 10
0.0765596940871527
 20
-1.815715888580258
 10
0.0975308169020749
 20
-1.81207916911924
 10
0.1177250609552704
 20
-1.806041097006416
 10
0.1412448482088547
 20
-1.795200885128555
  0
ELLIPSE
  5
108
330
EA
100
AcDbEntity
  8
AM_9
100
AcDbEllipse
 10
0.07
 20
-1.764249096729966
 30
0.0
 11
0.1249999999999999
 21
0.0
 31
0.0
210
0.0
220
0.0
230
1.0
 40
0.7071067811865469
 41
4.118003180383628
 42
6.283185307179586
  0
ELLIPSE
  5
109
330
EA
100
AcDbEntity
  8
AM_9
100
AcDbEllipse
 10
-1.205
 20
1.154736821722146
 30
0.0
 11
0.1536500000000001
 21
0.0
 31
0.0
210
0.0
220
0.0
230
1.0
 40
0.707106781186548
 41
0.0
 42
3.141592653589793
  0
ELLIPSE
  5
10A
330
EA
100
AcDbEntity
  8
AM_9
100
AcDbEllipse
 10
-1.205
 20
0.9488696327101954
 30
0.0
 11
0.1536500000000001
 21
0.0
 31
0.0
210
0.0
220
0.0
230
1.0
 40
0.7071067811865472
 41
3.617582533291603
 42
5.807195427477776
  0
LINE
  5
10B
330
EA
100
AcDbEntity
  8
AM_9
100
AcDbLine
 10
-1.05135
 20
0.9501528077828368
 30
0.0
 11
-1.05135
 21
1.154736821722146
 31
0.0
  0
LINE
  5
10C
330
EA
100
AcDbEntity
  8
AM_9
100
AcDbLine
 10
-1.35865
 20
1.154736821722146
 30
0.0
 11
-1.35865
 21
0.9501528077828368
 31
0.0
  0
ELLIPSE
  5
10D
330
EA
100
AcDbEntity
  8
AM_9
100
AcDbEllipse
 10
-1.204999999999998
 20
1.154736821722144
 30
0.0
 11
0.1536499999999967
 21
0.0
 31
0.0
210
0.0
220
0.0
230
1.0
 40
0.7071067811865445
 41
3.141592653589793
 42
6.283185307179586
  0
LWPOLYLINE
  5
10E
330
EA
100
AcDbEntity
  8
AM_9
100
AcDbPolyline
 90
        5
 70
     0
 43
0.0
 10
-1.35864999919886
 20
0.9501858319792503
 10
-1.35860066104592
 20
0.9529238765028291
 10
-1.355715789751467
 20
0.9710711449774156
 10
-1.350133638484287
 20
0.9851739665058323
 10
-1.341570200846165
 20
0.9986536800589099
  0
LINE
  5
10F
330
EA
100
AcDbEntity
  8
AM_9
100
AcDbLine
 10
-1.059977760264156
 20
0.9136017014568016
 30
0.0
 11
-1.068429799153835
 21
0.8990855853614808
 31
0.0
  0
LWPOLYLINE
  5
110
330
EA
100
AcDbEntity
  8
AM_9
100
AcDbPolyline
 90
        5
 70
     0
 43
0.0
 10
-1.05135000080114
 20
0.9501636423300464
 10
-1.05139933895408
 20
0.94741762074115
 10
-1.054284210248533
 20
0.9288083192415165
 10
-1.059866361515712
 20
0.9138360455897798
 10
-1.059977760264156
 20
0.9136017014568016
  0
ELLIPSE
  5
111
330
EA
100
AcDbEntity
  8
AM_9
100
AcDbEllipse
 10
-1.205
 20
0.948869632710195
 30
0.0
 11
0.1536500000000003
 21
0.0
 31
0.0
210
0.0
220
0.0
230
1.0
 40
0.7071067811865477
 41
0.4759898797018129
 42
2.665602773887981
  0
LINE
  5
112
330
EA
100
AcDbEntity
  8
AM_9
100
AcDbLine
 10
-1.061888764380339
 20
1.515432698311757
 30
0.0
 11
-1.042746942371004
 21
1.532186379887742
 31
0.0
  0
LINE
  5
113
330
EA
100
AcDbEntity
  8
AM_9
100
AcDbLine
 10
-1.36733431169801
 20
1.532257496670583
 30
0.0
 11
-1.348111235619662
 21
1.515432698311757
 31
0.0
  0
LWPOLYLINE
  5
114
330
EA
100
AcDbEntity
  8
AM_9
100
AcDbPolyline
 90
        3
 70
     0
 43
0.0
 10
-1.042575352100267
 20
1.532336562573877
 10
-1.052437614699756
 20
1.524971133189229
 10
-1.059555726249785
 20
1.520690956187177
  0
LWPOLYLINE
  5
115
330
EA
100
AcDbEntity
  8
AM_9
100
AcDbPolyline
 90
        5
 70
     0
 43
0.0
 10
-1.059450106353711
 20
1.584670806245373
 10
-1.052177398024246
 20
1.581406235471602
 10
-1.039751313517305
 20
1.573587437122855
 10
-1.032031991035062
 20
1.564816072134638
 10
-1.029579862005423
 20
1.552551186667911
  0
ELLIPSE
  5
116
330
EA
100
AcDbEntity
  8
AM_9
100
AcDbEllipse
 10
-1.205
 20
1.534559841868926
 30
0.0
 11
0.1536500000000001
 21
0.0
 31
0.0
210
0.0
220
0.0
230
1.0
 40
0.3420201433256695
 41
3.372963136536015
 42
5.910658341326926
  0
ELLIPSE
  5
117
330
EA
100
AcDbEntity
  8
AM_9
100
AcDbEllipse
 10
-1.205000000000935
 20
1.534559841869247
 30
0.0
 11
0.1536500000009977
 21
0.0
 31
0.0
210
0.0
220
0.0
230
1.0
 40
0.3420201433260933
 41
5.91065834132388
 42
6.620329418610529
  0
ELLIPSE
  5
118
330
EA
100
AcDbEntity
  8
AM_9
100
AcDbEllipse
 10
-1.205
 20
1.260977571802374
 30
0.0
 11
0.1536499999999998
 21
0.0
 31
0.0
210
0.0
220
0.0
230
1.0
 40
0.3420201433256656
 41
3.617582533291593
 42
5.807195427477785
  0
ELLIPSE
  5
119
330
EA
100
AcDbEntity
  8
AM_9
100
AcDbEllipse
 10
-1.205
 20
1.260977571802375
 30
0.0
 11
0.1536500000000001
 21
0.0
 31
0.0
210
0.0
220
0.0
230
1.0
 40
0.3420201433256738
 41
0.4759898797018076
 42
2.665602773887986
  0
LINE
  5
11A
330
EA
100
AcDbEntity
  8
AM_9
100
AcDbLine
 10
-1.05135
 20
1.262682816581549
 30
0.0
 11
-1.05135
 21
1.534559841868926
 31
0.0
  0
LINE
  5
11B
330
EA
100
AcDbEntity
  8
AM_9
100
AcDbLine
 10
-1.35865
 20
1.534559841868926
 30
0.0
 11
-1.35865
 21
1.262682816581549
 31
0.0
  0
LWPOLYLINE
  5
11C
330
EA
100
AcDbEntity
  8
AM_9
100
AcDbPolyline
 90
        5
 70
     0
 43
0.0
 10
-1.35864999919886
 20
1.262706592644538
 10
-1.35860066104592
 20
1.261374999512274
 10
-1.355715789751467
 20
1.252178611709916
 10
-1.350133638484287
 20
1.244569233429681
 10
-1.341570200846165
 20
1.236897549572964
  0
LINE
  5
11D
330
EA
100
AcDbEntity
  8
AM_9
100
AcDbLine
 10
-1.059977760264156
 20
1.279172562024404
 30
0.0
 11
-1.068429799153835
 21
1.285057594031786
 31
0.0
  0
LWPOLYLINE
  5
11E
330
EA
100
AcDbEntity
  8
AM_9
100
AcDbPolyline
 90
        5
 70
     0
 43
0.0
 10
-1.05135000080114
 20
1.262717325545428
 10
-1.05139933895408
 20
1.264038317747799
 10
-1.054284210248533
 20
1.272620697827778
 10
-1.059866361515713
 20
1.279074638533167
 10
-1.059977760264156
 20
1.279172562024404
  0
LWPOLYLINE
  5
11F
330
EA
100
AcDbEntity
  8
AM_9
100
AcDbPolyline
 90
       16
 70
     0
 43
0.0
 10
-1.068429799153835
 20
0.8990855853614809
 10
-1.071026933788109
 20
0.8950391309615856
 10
-1.082903922318967
 20
0.8799842683654179
 10
-1.097507512966979
 20
0.8661840089093275
 10
-1.114600802714814
 20
0.8540541940363593
 10
-1.133862553206611
 20
0.8439429937739535
 10
-1.157483383112954
 20
0.8355123623802734
 10
-1.182635695992486
 20
0.8304522495120512
 10
-1.207033507195548
 20
0.8290763586843709
 10
-1.231371110117553
 20
0.8310036915010888
 10
-1.254285208907158
 20
0.8360080166366316
 10
-1.27586635146945
 20
0.8438231422418375
 10
-1.296058731374353
 20
0.8544628387478723
 10
-1.313850171918343
 20
0.86731064263897
 10
-1.329337251447748
 20
0.882497245033335
 10
-1.341570200846165
 20
0.8990855853614809
  0
LWPOLYLINE
  5
120
330
EA
100
AcDbEntity
  8
AM_9
100
AcDbPolyline
 90
        4
 70
     0
 43
0.0
 10
-1.341570200846165
 20
0.8990855853614811
 10
-1.351300184491306
 20
0.9163937726692117
 10
-1.357141686710527
 20
0.9348673677776944
 10
-1.35864999919886
 20
0.9501858319792503
  0
LWPOLYLINE
  5
121
330
EA
100
AcDbEntity
  8
AM_9
100
AcDbPolyline
 90
       15
 70
     0
 43
0.0
 10
-1.341570200846165
 20
0.9986536800589099
 10
-1.329659659422809
 20
1.013030401219869
 10
-1.312340202877227
 20
1.027407990497426
 10
-1.291427055528036
 20
1.039371370671339
 10
-1.268636850790332
 20
1.04815794790797
 10
-1.243730625945868
 20
1.054171493966576
 10
-1.21922200779485
 20
1.057061942886215
 10
-1.194276933120396
 20
1.057264592707429
 10
-1.170727028695349
 20
1.054898989746406
 10
-1.14812676308756
 20
1.050136410030163
 10
-1.126896777502585
 20
1.043003399824656
 10
-1.107726643655003
 20
1.033743277880454
 10
-1.090248849448874
 20
1.021908905659516
 10
-1.075857373695237
 20
1.008226032343757
 10
-1.068429799153835
 20
0.9986536800589099
  0
LWPOLYLINE
  5
122
330
EA
100
AcDbEntity
  8
AM_9
100
AcDbPolyline
 90
        4
 70
     0
 43
0.0
 10
-1.059770493038236
 20
0.9849856548839012
 10
-1.058699815508694
 20
0.9827952563545928
 10
-1.052858313289473
 20
0.96523938334716
 10
-1.05135000080114
 20
0.9501636423300464
  0
LINE
  5
123
330
EA
100
AcDbEntity
  8
AM_9
100
AcDbLine
 10
-1.068429799153835
 20
0.9986536800589099
 30
0.0
 11
-1.059770493038236
 21
0.9849856548839012
 31
0.0
  0
LWPOLYLINE
  5
124
330
EA
100
AcDbEntity
  8
AM_9
100
AcDbPolyline
 90
       17
 70
     0
 43
0.0
 10
-1.341570200846165
 20
1.236897549572964
 10
-1.340611723691076
 20
1.236089079179762
 10
-1.32632431669418
 20
1.226269545930723
 10
-1.308024873120146
 20
1.217252833959885
 10
-1.286947961241824
 20
1.209768419425919
 10
-1.263115414737105
 20
1.203878084435664
 10
-1.238867259215048
 20
1.200168907624508
 10
-1.213538587522667
 20
1.198416745252131
 10
-1.189402810287117
 20
1.19870006572851
 10
-1.165715559608139
 20
1.200808232216963
 10
-1.143434980353995
 20
1.204590624578346
 10
-1.122795418210415
 20
1.209834986722802
 10
-1.108154436354952
 20
1.214792047735556
 10
-1.094982940055707
 20
1.220356987263797
 10
-1.080859971615597
 20
1.22794660832062
 10
-1.069472298776026
 20
1.236019424367047
 10
-1.068429799153835
 20
1.236897549572964
  0
LWPOLYLINE
  5
125
330
EA
100
AcDbEntity
  8
AM_9
100
AcDbPolyline
 90
        4
 70
     0
 43
0.0
 10
-1.068429799153835
 20
1.236897549572964
 10
-1.058699815508694
 20
1.245882035049583
 10
-1.052858313289473
 20
1.255205365617222
 10
-1.05135000080114
 20
1.262717325545428
  0
LWPOLYLINE
  5
126
330
EA
100
AcDbEntity
  8
AM_9
100
AcDbPolyline
 90
       15
 70
     0
 43
0.0
 10
-1.068429799153835
 20
1.285057594031786
 10
-1.078338424606853
 20
1.29035230911943
 10
-1.095181612510689
 20
1.296457817479357
 10
-1.115695315888119
 20
1.301385276002476
 10
-1.138242850957738
 20
1.304933172876378
 10
-1.163016252081003
 20
1.307348220706217
 10
-1.187513579609694
 20
1.308557006829251
 10
-1.212551245759895
 20
1.308761021089354
 10
-1.236212993026563
 20
1.308008735453298
 10
-1.259004993712298
 20
1.306344566031249
 10
-1.280423428854732
 20
1.30374860052281
 10
-1.299850769992043
 20
1.300248179230235
 10
-1.317633289424917
 20
1.295605215485619
 10
-1.332395272307146
 20
1.290018093639702
 10
-1.341570200846165
 20
1.285057594031786
  0
LWPOLYLINE
  5
127
330
EA
100
AcDbEntity
  8
AM_9
100
AcDbPolyline
 90
        4
 70
     0
 43
0.0
 10
-1.341570200846165
 20
1.285057594031786
 10
-1.351300184491306
 20
1.277999737172312
 10
-1.357141686710527
 20
1.269895991410297
 10
-1.35864999919886
 20
1.262706592644538
  0
LINE
  5
128
330
EA
100
AcDbEntity
  8
AM_9
100
AcDbLine
 10
-1.603799999999999
 20
-1.34375
 30
0.0
 11
0.8037999999999997
 21
-1.34375
 31
0.0
  0
LINE
  5
129
330
EA
100
AcDbEntity
  8
AM_9
100
AcDbLine
 10
0.8037999999999997
 20
1.34375
 30
0.0
 11
-1.603799999999999
 21
1.34375
 31
0.0
  0
LINE
  5
12A
330
EA
100
AcDbEntity
  8
AM_9
100
AcDbLine
 10
0.8037999999999997
 20
-1.34375
 30
0.0
 11
0.87
 21
-1.40995
 31
0.0
  0
LINE
  5
12B
330
EA
100
AcDbEntity
  8
AM_9
100
AcDbLine
 10
0.87
 20
1.40995
 30
0.0
 11
0.8037999999999997
 21
1.34375
 31
0.0
  0
LINE
  5
12C
330
EA
100
AcDbEntity
  8
AM_9
100
AcDbLine
 10
-1.603799999999999
 20
1.34375
 30
0.0
 11
-1.67
 21
1.40995
 31
0.0
  0
LINE
  5
12D
330
EA
100
AcDbEntity
  8
AM_9
100
AcDbLine
 10
-1.67
 20
-1.40995
 30
0.0
 11
-1.603799999999999
 21
-1.34375
 31
0.0
  0
LINE
  5
12E
330
EA
100
AcDbEntity
  8
AM_9
100
AcDbLine
 10
0.87
 20
1.5888
 30
0.0
 11
0.8038000000000001
 21
1.655
 31
0.0
  0
LINE
  5
12F
330
EA
100
AcDbEntity
  8
AM_9
100
AcDbLine
 10
0.8038000000000001
 20
-1.655
 30
0.0
 11
0.87
 21
-1.5888
 31
0.0
  0
LINE
  5
130
330
EA
100
AcDbEntity
  8
AM_9
100
AcDbLine
 10
0.87
 20
1.5888
 30
0.0
 11
0.87
 21
-1.5888
 31
0.0
  0
LINE
  5
131
330
EA
100
AcDbEntity
  8
AM_9
100
AcDbLine
 10
0.36
 20
-1.655
 30
0.0
 11
0.8038000000000001
 21
-1.655
 31
0.0
  0
LINE
  5
132
330
EA
100
AcDbEntity
  8
AM_9
100
AcDbLine
 10
0.8038000000000001
 20
1.655
 30
0.0
 11
0.36
 21
1.655
 31
0.0
  0
LINE
  5
133
330
EA
100
AcDbEntity
  8
AM_9
100
AcDbLine
 10
0.8038000000000001
 20
1.655
 30
0.0
 11
0.8038000000000001
 21
-1.655
 31
0.0
  0
LWPOLYLINE
  5
134
330
EA
100
AcDbEntity
  8
AM_9
100
AcDbPolyline
 90
       39
 70
     0
 43
0.0
 10
-1.083075098007991
 20
1.082155095512266
 10
-1.065704444249017
 20
1.09614141737112
 10
-1.051297691106817
 20
1.11175267642668
 10
-1.039204271613486
 20
1.130743527126999
 10
-1.03178430276951
 20
1.150688110072731
 10
-1.029413995874619
 20
1.170041842559386
 10
-1.031679234108821
 20
1.18909162870211
 10
-1.038366178607511
 20
1.206892527903495
 10
-1.049171649904325
 20
1.22344005496453
 10
-1.064075625573129
 20
1.238591416406958
 10
-1.082401072181449
 20
1.251775964843076
 10
-1.104658744904194
 20
1.263188246387281
 10
-1.129429640883456
 20
1.272054698849312
 10
-1.157361709657009
 20
1.278459455563788
 10
-1.186553709843291
 20
1.281877865497152
 10
-1.217142098098515
 20
1.282203001558473
 10
-1.247392569539478
 20
1.279314435352741
 10
-1.276664147875499
 20
1.273147069915614
 10
-1.303864896244325
 20
1.263826706442783
 10
-1.32775102619227
 20
1.251664958262677
 10
-1.348020352573021
 20
1.236784524078107
 10
-1.363337398647402
 20
1.220178776407157
 10
-1.374074876513963
 20
1.201727936715611
 10
-1.379559439440736
 20
1.18293299592555
 10
-1.380314179055401
 20
1.163443728324945
 10
-1.376444179705485
 20
1.144483453942469
 10
-1.368263128751739
 20
1.125966115794761
 10
-1.355926928517854
 20
1.108352035456062
 10
-1.33992758422619
 20
1.092220628631792
 10
-1.319913455012734
 20
1.077530883915196
 10
-1.297061370559945
 20
1.065312177914116
 10
-1.270693959253831
 20
1.055541147433903
 10
-1.242620408865093
 20
1.049115251572279
 10
-1.212483784443874
 20
1.046222088422588
 10
-1.182142000069065
 20
1.047199317479379
 10
-1.151988617234958
 20
1.052177238751875
 10
-1.123350922221697
 20
1.060964016000894
 10
-1.102246271623085
 20
1.07053183997963
 10
-1.083075097989094
 20
1.082155095427118
  0
LWPOLYLINE
  5
135
330
EA
100
AcDbEntity
  8
AM_9
100
AcDbPolyline
 90
        4
 70
     0
 43
0.0
 10
-1.029579862005423
 20
1.552551186667911
 10
-1.033001759921041
 20
1.543377826400055
 10
-1.040570859715682
 20
1.534165036710434
 10
-1.042575352100267
 20
1.532336562573877
  0
LINE
  5
136
330
EA
100
AcDbEntity
  8
AM_9
100
AcDbLine
 10
-1.06
 20
-1.655
 30
0.0
 11
-0.74
 21
-1.655
 31
0.0
  0
LINE
  5
137
330
EA
100
AcDbEntity
  8
AM_9
100
AcDbLine
 10
-0.74
 20
1.655
 30
0.0
 11
-1.06
 21
1.655
 31
0.0
  0
LINE
  5
138
330
EA
100
AcDbEntity
  8
AM_9
100
AcDbLine
 10
-0.5019999999999999
 20
-2.373983333333333
 30
0.0
 11
-0.3979999999999999
 21
-2.373983333333333
 31
0.0
  0
LINE
  5
139
330
EA
100
AcDbEntity
  8
AM_9
100
AcDbLine
 10
-0.3979999999999999
 20
2.373983333333333
 30
0.0
 11
-0.5019999999999999
 21
2.373983333333333
 31
0.0
  0
LINE
  5
13A
330
EA
100
AcDbEntity
  8
AM_9
100
AcDbLine
 10
0.36
 20
2.356605784279585
 30
0.0
 11
0.36
 21
-2.356605784279585
 31
0.0
  0
ARC
  5
13B
330
EA
100
AcDbEntity
  8
AM_9
100
AcDbCircle
 10
0.3080000000000002
 20
-2.356605784279585
 30
0.0
 40
0.0519999999999999
100
AcDbArc
 50
281.9322439329657
 51
0.0
  0
ARC
  5
13C
330
EA
100
AcDbEntity
  8
AM_9
100
AcDbCircle
 10
0.3080000000000007
 20
2.356605784279586
 30
0.0
 40
0.0519999999999993
100
AcDbArc
 50
0.0
 51
78.06775606703472
  0
LINE
  5
13D
330
EA
100
AcDbEntity
  8
AM_9
100
AcDbLine
 10
-0.74
 20
2.356605785054445
 30
0.0
 11
-0.74
 21
-2.356605785054445
 31
0.0
  0
ARC
  5
13E
330
EA
100
AcDbEntity
  8
AM_9
100
AcDbCircle
 10
-0.6880000000000099
 20
-2.356605784279594
 30
0.0
 40
0.0519999999999901
100
AcDbArc
 50
180.0
 51
258.0677560670426
  0
ARC
  5
13F
330
EA
100
AcDbEntity
  8
AM_9
100
AcDbCircle
 10
-0.6880000000000003
 20
2.356605784279586
 30
0.0
 40
0.0519999999999999
100
AcDbArc
 50
101.932243932966
 51
180.0
  0
ARC
  5
140
330
EA
100
AcDbEntity
  8
AM_9
100
AcDbCircle
 10
-0.1899999999869224
 20
-0.0000000000773341
 30
0.0
 40
2.460650000078303
100
AcDbArc
 50
97.28447081070402
 51
101.9322439328917
  0
ARC
  5
141
330
EA
100
AcDbEntity
  8
AM_9
100
AcDbCircle
 10
-0.1899999999236883
 20
0.0000000004512142
 30
0.0
 40
2.460650000456869
100
AcDbArc
 50
258.0677560674662
 51
262.7155291889384
  0
LINE
  5
142
330
EA
100
AcDbEntity
  8
AM_9
100
AcDbLine
 10
-0.6987512507006004
 20
2.40748220915758
 30
0.0
 11
-0.6987512507006004
 21
-2.407482209157263
 31
0.0
  0
LINE
  5
143
330
EA
100
AcDbEntity
  8
AM_9
100
AcDbLine
 10
-0.5019999999999999
 20
2.440789712879764
 30
0.0
 11
-0.5019999999999999
 21
-2.440789712879447
 31
0.0
  0
LWPOLYLINE
  5
144
330
EA
100
AcDbEntity
  8
AM_9
100
AcDbPolyline
 90
        7
 70
     0
 43
0.0
 10
0.1412448482088547
 20
-1.795200885128555
 10
0.1574411860198851
 20
-1.784502053102461
 10
0.1711928061377918
 20
-1.772202313592277
 10
0.1820673472982661
 20
-1.75862351619928
 10
0.1897860415711736
 20
-1.744168983012375
 10
0.1940650440617004
 20
-1.729299932268851
 10
0.1949999992533894
 20
-1.718503275515866
  0
ARC
  5
145
330
EA
100
AcDbEntity
  8
AM_9
100
AcDbCircle
 10
-0.1900000000000218
 20
0.0000000000003437
 30
0.0
 40
2.460650000000341
100
AcDbArc
 50
265.150972076309
 51
281.9322439329646
  0
ARC
  5
146
330
EA
100
AcDbEntity
  8
AM_9
100
AcDbCircle
 10
-0.1899999999999978
 20
0.0000000000000426
 30
0.0
 40
2.460649999999958
100
AcDbArc
 50
78.06775606703408
 51
94.8490279236923
  0
LINE
  5
147
330
EA
100
AcDbEntity
  8
AM_9
100
AcDbLine
 10
-0.3980000000000005
 20
2.451843066450216
 30
0.0
 11
-0.3980000000000005
 21
-2.451843066450217
 31
0.0
  0
LINE
  5
148
330
EA
100
AcDbEntity
  8
AM_9
100
AcDbLine
 10
0.3187512507006001
 20
2.407482209157645
 30
0.0
 11
0.3187512507006001
 21
-2.407482209157645
 31
0.0
  0
LWPOLYLINE
  5
149
330
EA
100
AcDbEntity
  8
AM_4
100
AcDbPolyline
 90
       15
 70
     0
 43
0.0
 10
-1.059555726249785
 20
1.520690956187177
 10
-1.068010824285433
 20
1.51634329672669
 10
-1.08760572578286
 20
1.508314600913615
 10
-1.110093461697799
 20
1.501486198559312
 10
-1.136148876482563
 20
1.49589368626924
 10
-1.163986574995567
 20
1.492093090650267
 10
-1.193998767388478
 20
1.490225810771039
 10
-1.224311683420202
 20
1.490517322184098
 10
-1.254577636241555
 20
1.493049236581403
 10
-1.283429005722139
 20
1.497694195722769
 10
-1.309811835238336
 20
1.504240519318088
 10
-1.333119693609372
 20
1.512407768579471
 10
-1.351965245234847
 20
1.521562387092995
 10
-1.366504635370565
 20
1.531545419532205
 10
-1.367421692727218
 20
1.532333976454748
  0
LWPOLYLINE
  5
14A
330
EA
100
AcDbEntity
  8
AM_4
100
AcDbPolyline
 90
       19
 70
     0
 43
0.0
 10
-1.367421692727218
 20
1.532333976454748
 10
-1.375741231342049
 20
1.541437992655779
 10
-1.380215865183841
 20
1.551353943079582
 10
-1.379794588544777
 20
1.56053669178512
 10
-1.374862585708882
 20
1.569168075441306
 10
-1.365654241154435
 20
1.576949293346476
 10
-1.352519130691933
 20
1.583848566332021
 10
-1.335318794980665
 20
1.58991721796917
 10
-1.314938585452926
 20
1.594924209323767
 10
-1.290760394591002
 20
1.599012652981351
 10
-1.264401348055706
 20
1.601943530094988
 10
-1.235306044038663
 20
1.603782426765218
 10
-1.205396015007814
 20
1.604406187955374
 10
-1.174762882368308
 20
1.603785055947244
 10
-1.14498194062541
 20
1.60188987384694
 10
-1.116905227303389
 20
1.598682765243465
 10
-1.091395298589966
 20
1.59414986734053
 10
-1.069795371939659
 20
1.588409150959043
 10
-1.059450106353711
 20
1.584670806245373
  0
ELLIPSE
  5
14B
330
EA
100
AcDbEntity
  8
AM_4
100
AcDbEllipse
 10
-1.205000000000001
 20
1.534559841868926
 30
0.0
 11
0.1536499999999994
 21
0.0
 31
0.0
210
0.0
220
0.0
230
1.0
 40
0.3420201433256695
 41
1.570796326794897
 42
3.37296313653601
  0
ELLIPSE
  5
14C
330
EA
100
AcDbEntity
  8
AM_4
100
AcDbEllipse
 10
-1.205
 20
1.534559841868927
 30
0.0
 11
0.1536500000000003
 21
0.0
 31
0.0
210
0.0
220
0.0
230
1.0
 40
0.3420201433256632
 41
0.3371441114390938
 42
1.570796326794897
  0
LINE
  5
14D
330
EA
100
AcDbEntity
  8
AM_4
100
AcDbLine
 10
-1.67
 20
-1.5888
 30
0.0
 11
-1.603799999999999
 21
-1.655
 31
0.0
  0
LINE
  5
14E
330
EA
100
AcDbEntity
  8
AM_4
100
AcDbLine
 10
-1.603799999999999
 20
1.655
 30
0.0
 11
-1.67
 21
1.5888
 31
0.0
  0
LINE
  5
14F
330
EA
100
AcDbEntity
  8
AM_4
100
AcDbLine
 10
-1.67
 20
1.5888
 30
0.0
 11
-1.67
 21
-1.5888
 31
0.0
  0
LINE
  5
150
330
EA
100
AcDbEntity
  8
AM_4
100
AcDbLine
 10
-1.603799999999999
 20
-1.655
 30
0.0
 11
-1.06
 21
-1.655
 31
0.0
  0
LINE
  5
151
330
EA
100
AcDbEntity
  8
AM_4
100
AcDbLine
 10
-1.06
 20
1.655
 30
0.0
 11
-1.603799999999999
 21
1.655
 31
0.0
  0
LINE
  5
152
330
EA
100
AcDbEntity
  8
AM_4
100
AcDbLine
 10
-1.603799999999999
 20
1.655
 30
0.0
 11
-1.603799999999999
 21
-1.655
 31
0.0
  0
ENDBLK
  5
ED
330
EA
100
AcDbEntity
  8
0
100
AcDbBlockEnd
  0
BLOCK
  5
155
330
153
100
AcDbEntity
  8
0
100
AcDbBlockBegin
  2
4_124729H_0_in_124729_2
 70
     2
 10
0.0
 20
0.0
 30
0.0
  3
4_124729H_0_in_124729_2
  1

  0
ATTDEF
  5
157
330
153
100
AcDbEntity
  8
AM_6
100
AcDbText
 10
6.2395
 20
3.815
 30
0.0
 40
0.5
  1
FC-SC -I-Housing
100
AcDbAttributeDefinition
  3

  2
NN
 70
     8
280
     0
  0
ATTDEF
  5
158
330
153
100
AcDbEntity
  8
AM_6
100
AcDbText
 10
6.2395
 20
3.315
 30
0.0
 40
0.5
  1
SC Piloted Flange Bearings -(Normal Duty)
100
AcDbAttributeDefinition
  3

  2
NT
 70
     8
280
     0
  0
ATTDEF
  5
159
330
153
100
AcDbEntity
  8
AM_6
100
AcDbText
 10
6.2395
 20
2.815
 30
0.0
 40
0.5
  1
124729H
100
AcDbAttributeDefinition
  3

  2
NB
 70
     8
280
     0
  0
ATTDEF
  5
15A
330
153
100
AcDbEntity
  8
AM_6
100
AcDbText
 10
6.2395
 20
2.315
 30
0.0
 40
0.5
  1
$PN.H
100
AcDbAttributeDefinition
  3

  2
NBSYN
 70
     8
280
     0
  0
ATTDEF
  5
15B
330
153
100
AcDbEntity
  8
AM_6
100
AcDbText
 10
6.2395
 20
1.815
 30
0.0
 40
0.5
  1
124729
100
AcDbAttributeDefinition
  3

  2
LINA
 70
     8
280
     0
  0
ATTDEF
  5
15C
330
153
100
AcDbEntity
  8
AM_6
100
AcDbText
 10
6.2395
 20
1.315
 30
0.0
 40
0.5
  1
214
100
AcDbAttributeDefinition
  3

  2
SERIES
 70
     8
280
     0
  0
ATTDEF
  5
15D
330
153
100
AcDbEntity
  8
AM_6
100
AcDbText
 10
6.2395
 20
0.815
 30
0.0
 40
0.5
  1
2-11/16
100
AcDbAttributeDefinition
  3

  2
SS
 70
     8
280
     0
  0
ATTDEF
  5
15E
330
153
100
AcDbEntity
  8
AM_6
100
AcDbText
 10
6.2395
 20
0.3149999999999999
 30
0.0
 40
0.5
  1
124729
100
AcDbAttributeDefinition
  3

  2
PN
 70
     8
280
     0
  0
ATTDEF
  5
15F
330
153
100
AcDbEntity
  8
AM_6
100
AcDbText
 10
6.2395
 20
-0.1850000000000001
 30
0.0
 40
0.5
  1
FC-SC-211
100
AcDbAttributeDefinition
  3

  2
DESCRIPTION
 70
     8
280
     0
  0
ATTDEF
  5
160
330
153
100
AcDbEntity
  8
AM_6
100
AcDbText
 10
6.2395
 20
-0.685
 30
0.0
 40
0.5
  1
2.54
100
AcDbAttributeDefinition
  3

  2
A
 70
     8
280
     0
  0
ATTDEF
  5
161
330
153
100
AcDbEntity
  8
AM_6
100
AcDbText
 10
6.2395
 20
-1.185
 30
0.0
 40
0.5
  1
7.63
100
AcDbAttributeDefinition
  3

  2
B
 70
     8
280
     0
  0
ATTDEF
  5
162
330
153
100
AcDbEntity
  8
AM_6
100
AcDbText
 10
6.2395
 20
-1.685
 30
0.0
 40
0.5
  1
2.8
100
AcDbAttributeDefinition
  3

  2
C
 70
     8
280
     0
  0
ATTDEF
  5
163
330
153
100
AcDbEntity
  8
AM_6
100
AcDbText
 10
6.2395
 20
-2.185
 30
0.0
 40
0.5
  1
6.5
100
AcDbAttributeDefinition
  3

  2
D
 70
     8
280
     0
  0
ATTDEF
  5
164
330
153
100
AcDbEntity
  8
AM_6
100
AcDbText
 10
6.2395
 20
-2.685
 30
0.0
 40
0.5
  1
1.13
100
AcDbAttributeDefinition
  3

  2
E
 70
     8
280
     0
  0
ATTDEF
  5
165
330
153
100
AcDbEntity
  8
AM_6
100
AcDbText
 10
6.2395
 20
-3.185
 30
0.0
 40
0.5
  1
1/2
100
AcDbAttributeDefinition
  3

  2
F
 70
     8
280
     0
  0
ATTDEF
  5
166
330
153
100
AcDbEntity
  8
AM_6
100
AcDbText
 10
6.2395
 20
-3.685
 30
0.0
 40
0.5
  1
1.67
100
AcDbAttributeDefinition
  3

  2
G
 70
     8
280
     0
  0
ATTDEF
  5
167
330
153
100
AcDbEntity
  8
AM_6
100
AcDbText
 10
6.2395
 20
-4.185
 30
0.0
 40
0.5
  1
1.06
100
AcDbAttributeDefinition
  3

  2
H
 70
     8
280
     0
  0
ATTDEF
  5
168
330
153
100
AcDbEntity
  8
AM_6
100
AcDbText
 10
6.2395
 20
-4.685
 30
0.0
 40
0.5
  1
5.500 / 5.498
100
AcDbAttributeDefinition
  3

  2
K
 70
     8
280
     0
  0
ATTDEF
  5
169
330
153
100
AcDbEntity
  8
AM_6
100
AcDbText
 10
6.2395
 20
-5.185
 30
0.0
 40
0.5
  1
3.31
100
AcDbAttributeDefinition
  3

  2
L
 70
     8
280
     0
  0
ATTDEF
  5
16A
330
153
100
AcDbEntity
  8
AM_6
100
AcDbText
 10
6.2395
 20
-5.685
 30
0.0
 40
0.5
  1
baldor
100
AcDbAttributeDefinition
  3

  2
COMPANY
 70
     8
280
     0
  0
LINE
  5
16B
330
153
100
AcDbEntity
  8
AM_9
100
AcDbLine
 10
-0.2935000000000002
 20
-2.355605071809265
 30
0.0
 11
1.13
 21
-2.355605071809265
 31
0.0
  0
LINE
  5
16C
330
153
100
AcDbEntity
  8
AM_9
100
AcDbLine
 10
-0.2935000000000003
 20
-1.088705422183366
 30
0.0
 11
1.13
 21
-1.088705422183366
 31
0.0
  0
LINE
  5
16D
330
153
100
AcDbEntity
  8
AM_9
100
AcDbLine
 10
-0.2935000000000002
 20
-2.355605071809265
 30
0.0
 11
-0.2935000000000003
 21
-0.9870872869788319
 31
0.0
  0
LINE
  5
16E
330
153
100
AcDbEntity
  8
AM_9
100
AcDbLine
 10
-1.06
 20
2.927037476410154
 30
0.0
 11
-0.7066666666666668
 21
2.927037476410154
 31
0.0
  0
LINE
  5
16F
330
153
100
AcDbEntity
  8
AM_9
100
AcDbLine
 10
-0.7066666666666668
 20
3.539430115600884
 30
0.0
 11
-1.06
 21
3.036738022017153
 31
0.0
  0
LINE
  5
170
330
153
100
AcDbEntity
  8
AM_9
100
AcDbLine
 10
-0.2935000000000001
 20
2.355605071809265
 30
0.0
 11
1.129999999999999
 21
2.355605071809265
 31
0.0
  0
LINE
  5
171
330
153
100
AcDbEntity
  8
AM_9
100
AcDbLine
 10
-0.7066666666666666
 20
-2.618099284650561
 30
0.0
 11
-1.06
 21
-2.618099284650561
 31
0.0
  0
LINE
  5
172
330
153
100
AcDbEntity
  8
AM_9
100
AcDbLine
 10
-0.7066666666666666
 20
-2.624753904404877
 30
0.0
 11
-1.06
 21
-2.624753904404877
 31
0.0
  0
LINE
  5
173
330
153
100
AcDbEntity
  8
AM_9
100
AcDbLine
 10
-0.7066666666666666
 20
-2.59823653550233
 30
0.0
 11
-1.06
 21
-2.59823653550233
 31
0.0
  0
LINE
  5
174
330
153
100
AcDbEntity
  8
AM_9
100
AcDbLine
 10
-0.7066666666666666
 20
2.618099284650561
 30
0.0
 11
-1.06
 21
2.618099284650561
 31
0.0
  0
LINE
  5
175
330
153
100
AcDbEntity
  8
AM_9
100
AcDbLine
 10
-0.7066666666666666
 20
2.624753924815377
 30
0.0
 11
-1.06
 21
2.624753924815377
 31
0.0
  0
LINE
  5
176
330
153
100
AcDbEntity
  8
AM_9
100
AcDbLine
 10
-1.06
 20
2.598236535502331
 30
0.0
 11
-0.7066666666666666
 21
2.598236535502331
 31
0.0
  0
LINE
  5
177
330
153
100
AcDbEntity
  8
AM_9
100
AcDbLine
 10
-0.7066666666666666
 20
2.723253550343558
 30
0.0
 11
-0.7066666666666666
 21
2.671725116949948
 31
0.0
  0
LINE
  5
178
330
153
100
AcDbEntity
  8
AM_9
100
AcDbLine
 10
-0.7066666666666666
 20
-2.671725116949948
 30
0.0
 11
-0.7066666666666666
 21
-2.723253550343558
 31
0.0
  0
LINE
  5
179
330
153
100
AcDbEntity
  8
AM_9
100
AcDbLine
 10
-0.2935
 20
0.9870872869788319
 30
0.0
 11
-0.2935000000000001
 21
2.355605071809265
 31
0.0
  0
LINE
  5
17A
330
153
100
AcDbEntity
  8
AM_9
100
AcDbLine
 10
-0.2935
 20
1.088705422183367
 30
0.0
 11
1.13
 21
1.088705422183367
 31
0.0
  0
LINE
  5
17B
330
153
100
AcDbEntity
  8
AM_9
100
AcDbLine
 10
-0.2935000000000003
 20
-0.9870872869788319
 30
0.0
 11
1.13
 21
-0.9870872869788313
 31
0.0
  0
LINE
  5
17C
330
153
100
AcDbEntity
  8
AM_9
100
AcDbLine
 10
1.13
 20
2.253986936604729
 30
0.0
 11
-0.2935000000000001
 21
2.253986936604729
 31
0.0
  0
LINE
  5
17D
330
153
100
AcDbEntity
  8
AM_9
100
AcDbLine
 10
-0.2935
 20
0.9870872869788319
 30
0.0
 11
1.13
 21
0.9870872869788313
 31
0.0
  0
LINE
  5
17E
330
153
100
AcDbEntity
  8
AM_9
100
AcDbLine
 10
1.129999999999999
 20
-2.253986936604729
 30
0.0
 11
-0.2935000000000002
 21
-2.253986936604729
 31
0.0
  0
LINE
  5
17F
330
153
100
AcDbEntity
  8
AM_9
100
AcDbLine
 10
-1.06
 20
-2.46065
 30
0.0
 11
1.129999999999999
 21
-2.46065
 31
0.0
  0
LINE
  5
180
330
153
100
AcDbEntity
  8
AM_9
100
AcDbLine
 10
1.129999999999999
 20
2.46065
 30
0.0
 11
-1.06
 21
2.46065
 31
0.0
  0
LINE
  5
181
330
153
100
AcDbEntity
  8
AM_9
100
AcDbLine
 10
0.0000000000000001
 20
2.54809703885628
 30
0.0
 11
-1.06
 21
2.54809703885628
 31
0.0
  0
LINE
  5
182
330
153
100
AcDbEntity
  8
AM_9
100
AcDbLine
 10
-1.06
 20
2.04809703885628
 30
0.0
 11
0.0000000000000001
 21
2.04809703885628
 31
0.0
  0
LINE
  5
183
330
153
100
AcDbEntity
  8
AM_9
100
AcDbLine
 10
0.0000000000000001
 20
-2.048097038856279
 30
0.0
 11
-1.06
 21
-2.048097038856279
 31
0.0
  0
LINE
  5
184
330
153
100
AcDbEntity
  8
AM_9
100
AcDbLine
 10
-1.06
 20
-2.548097038856279
 30
0.0
 11
0.0000000000000001
 21
-2.548097038856279
 31
0.0
  0
LINE
  5
185
330
153
100
AcDbEntity
  8
AM_9
100
AcDbLine
 10
-0.7066666666666666
 20
2.811067246319023
 30
0.0
 11
-1.06
 21
2.811067246319023
 31
0.0
  0
LINE
  5
186
330
153
100
AcDbEntity
  8
AM_9
100
AcDbLine
 10
-0.7066666666666666
 20
-2.811067246319023
 30
0.0
 11
-1.06
 21
-2.811067246319023
 31
0.0
  0
LINE
  5
189
330
153
100
AcDbEntity
  8
AM_7
100
AcDbLine
 10
-1.797
 20
0.0
 30
0.0
 11
1.239499999999999
 21
0.0
 31
0.0
  0
LINE
  5
18A
330
153
100
AcDbEntity
  8
AM_7
100
AcDbLine
 10
-1.113
 20
2.29809703885628
 30
0.0
 11
0.0529999999999999
 21
2.29809703885628
 31
0.0
  0
LINE
  5
18B
330
153
100
AcDbEntity
  8
AM_7
100
AcDbLine
 10
-1.113
 20
-2.298097038856279
 30
0.0
 11
0.0529999999999999
 21
-2.298097038856279
 31
0.0
  0
LINE
  5
18C
330
153
100
AcDbEntity
  8
AM_4
100
AcDbLine
 10
-0.7066666666666668
 20
3.609154709799011
 30
0.0
 11
-1.06
 21
3.106462616215279
 31
0.0
  0
LINE
  5
18D
330
153
100
AcDbEntity
  8
AM_4
100
AcDbLine
 10
-1.06
 20
2.996762070608282
 30
0.0
 11
-0.7066666666666668
 21
2.996762070608282
 31
0.0
  0
LINE
  5
18E
330
153
100
AcDbEntity
  8
AM_4
100
AcDbLine
 10
-1.06
 20
-3.0
 30
0.0
 11
-0.7066666666666668
 21
-3.0
 31
0.0
  0
LINE
  5
18F
330
153
100
AcDbEntity
  8
AM_4
100
AcDbLine
 10
-0.7066666666666666
 20
2.864097038856279
 30
0.0
 11
-1.06
 21
2.864097038856279
 31
0.0
  0
LINE
  5
190
330
153
100
AcDbEntity
  8
AM_4
100
AcDbLine
 10
-1.06
 20
-2.864097038856279
 30
0.0
 11
-0.7066666666666666
 21
-2.864097038856279
 31
0.0
  0
LINE
  5
191
330
153
100
AcDbEntity
  8
AM_4
100
AcDbLine
 10
0.0
 20
-2.75
 30
0.0
 11
1.0848
 21
-2.75
 31
0.0
  0
LINE
  5
192
330
153
100
AcDbEntity
  8
AM_4
100
AcDbLine
 10
1.0848
 20
2.75
 30
0.0
 11
0.0
 21
2.75
 31
0.0
  0
LINE
  5
193
330
153
100
AcDbEntity
  8
AM_4
100
AcDbLine
 10
1.13
 20
2.7048
 30
0.0
 11
1.13
 21
-2.7048
 31
0.0
  0
ARC
  5
194
330
153
100
AcDbEntity
  8
AM_4
100
AcDbCircle
 10
1.0848
 20
-2.7048
 30
0.0
 40
0.0451999999999999
100
AcDbArc
 50
270.0
 51
0.0
  0
ARC
  5
195
330
153
100
AcDbEntity
  8
AM_4
100
AcDbCircle
 10
1.0848
 20
2.7048
 30
0.0
 40
0.0451999999999999
100
AcDbArc
 50
0.0
 51
90.0
  0
LINE
  5
196
330
153
100
AcDbEntity
  8
AM_4
100
AcDbLine
 10
1.0848
 20
2.75
 30
0.0
 11
1.0848
 21
-2.75
 31
0.0
  0
LINE
  5
197
330
153
100
AcDbEntity
  8
AM_4
100
AcDbLine
 10
-0.7066666666666666
 20
-1.645073973476405
 30
0.0
 11
-1.06
 21
-1.645073973476405
 31
0.0
  0
LINE
  5
198
330
153
100
AcDbEntity
  8
AM_4
100
AcDbLine
 10
-0.7066666666666666
 20
1.645073973476404
 30
0.0
 11
-1.06
 21
1.645073973476404
 31
0.0
  0
LINE
  5
199
330
153
100
AcDbEntity
  8
AM_4
100
AcDbLine
 10
-0.7066666666666666
 20
2.058895102711044
 30
0.0
 11
-1.06
 21
2.058895102711044
 31
0.0
  0
LINE
  5
19A
330
153
100
AcDbEntity
  8
AM_4
100
AcDbLine
 10
-0.7066666666666666
 20
-2.058895102711043
 30
0.0
 11
-1.06
 21
-2.058895102711043
 31
0.0
  0
LINE
  5
19B
330
153
100
AcDbEntity
  8
AM_4
100
AcDbLine
 10
-0.7066666666666666
 20
-1.452813420287089
 30
0.0
 11
-1.06
 21
-1.452813420287089
 31
0.0
  0
LINE
  5
19C
330
153
100
AcDbEntity
  8
AM_4
100
AcDbLine
 10
-0.7066666666666666
 20
1.452813420287088
 30
0.0
 11
-1.06
 21
1.452813420287088
 31
0.0
  0
LINE
  5
19D
330
153
100
AcDbEntity
  8
AM_4
100
AcDbLine
 10
-0.7066666666666666
 20
2.723253550343558
 30
0.0
 11
-1.06
 21
2.723253550343586
 31
0.0
  0
LINE
  5
19E
330
153
100
AcDbEntity
  8
AM_4
100
AcDbLine
 10
-1.06
 20
2.671725116949915
 30
0.0
 11
-0.7066666666666666
 21
2.671725116949947
 31
0.0
  0
LINE
  5
19F
330
153
100
AcDbEntity
  8
AM_4
100
AcDbLine
 10
-0.7066666666666666
 20
2.671725116949947
 30
0.0
 11
-0.7066666666666666
 21
-2.671725116949947
 31
0.0
  0
LINE
  5
1A0
330
153
100
AcDbEntity
  8
AM_4
100
AcDbLine
 10
-0.7066666666666666
 20
-2.671725116949947
 30
0.0
 11
-1.06
 21
-2.671725116949915
 31
0.0
  0
LINE
  5
1A1
330
153
100
AcDbEntity
  8
AM_4
100
AcDbLine
 10
-1.06
 20
3.106462616215279
 30
0.0
 11
-1.06
 21
-3.0
 31
0.0
  0
LINE
  5
1A2
330
153
100
AcDbEntity
  8
AM_4
100
AcDbLine
 10
-1.06
 20
-2.723253550343586
 30
0.0
 11
-0.7066666666666666
 21
-2.723253550343558
 31
0.0
  0
LINE
  5
1A3
330
153
100
AcDbEntity
  8
AM_4
100
AcDbLine
 10
-0.7066666666666666
 20
-2.723253550343558
 30
0.0
 11
-0.7066666666666668
 21
-3.815
 31
0.0
  0
LINE
  5
1A4
330
153
100
AcDbEntity
  8
AM_4
100
AcDbLine
 10
-0.7066666666666668
 20
-3.815
 30
0.0
 11
0.0
 21
-3.815
 31
0.0
  0
LINE
  5
1A5
330
153
100
AcDbEntity
  8
AM_4
100
AcDbLine
 10
0.0
 20
3.815
 30
0.0
 11
-0.7066666666666668
 21
3.815
 31
0.0
  0
LINE
  5
1A6
330
153
100
AcDbEntity
  8
AM_4
100
AcDbLine
 10
-0.7066666666666668
 20
3.815
 30
0.0
 11
-0.7066666666666666
 21
2.723253550343558
 31
0.0
  0
LINE
  5
1A7
330
153
100
AcDbEntity
  8
AM_4
100
AcDbLine
 10
0.0
 20
3.815
 30
0.0
 11
0.0
 21
-3.815
 31
0.0
  0
ENDBLK
  5
156
330
153
100
AcDbEntity
  8
0
100
AcDbBlockEnd
  0
ENDSEC
  0
SECTION
  2
ENTITIES
  0
INSERT
  5
6F
330
1F
100
AcDbEntity
  8
0
100
AcDbBlockReference
  2
1_124729_2
 10
0.0
 20
0.0
 30
0.0
  0
POINT
  5
1A9
330
1F
100
AcDbEntity
  8
ConnectionPoints
100
AcDbPoint
 10
0.8700000000000001
 20
0.0
 30
-0.0000000000000001
  0
POINT
  5
1AA
330
1F
100
AcDbEntity
  8
ConnectionPoints
100
AcDbPoint
 10
-1.67
 20
0.0
 30
0.0000000000000001
  0
POINT
  5
1AB
330
1F
100
AcDbEntity
  8
ConnectionPoints
100
AcDbPoint
 10
-1.67
 20
0.0
 30
0.0000000000000001
  0
POINT
  5
1AC
330
1F
100
AcDbEntity
  8
ConnectionPoints
100
AcDbPoint
 10
-0.8833333333333334
 20
3.322946365908082
 30
-0.290720136521624
  0
ENDSEC
  0
SECTION
  2
OBJECTS
  0
DICTIONARY
  5
C
330
0
100
AcDbDictionary
281
     1
  3
ACAD_DETAILVIEWSTYLE
350
1B4
  3
ACAD_GROUP
350
D
  3
ACAD_LAYOUT
350
1A
  3
ACAD_MATERIAL
350
43
  3
ACAD_MLEADERSTYLE
350
6B
  3
ACAD_MLINESTYLE
350
17
  3
ACAD_PLOTSETTINGS
350
19
  3
ACAD_PLOTSTYLENAME
350
E
  3
ACAD_SCALELIST
350
47
  3
ACAD_SECTIONVIEWSTYLE
350
1B5
  3
ACAD_TABLESTYLE
350
69
  3
ACAD_VISUALSTYLE
350
2A
  3
ACDB_RECOMPOSE_DATA
350
1B1
  3
AcDbVariableDictionary
350
1AD
  0
SUN
  5
6D
330
29
100
AcDbSun
 90
        1
290
     0
 63
     7
421
 16777215
 40
1.0
291
     1
 91
  2455826
 92
 54000000
292
     0
 70
     2
 71
   256
280
     1
  0
DICTIONARY
  5
1B4
102
{ACAD_REACTORS
330
C
102
}
330
C
100
AcDbDictionary
281
     1
  0
DICTIONARY
  5
D
102
{ACAD_REACTORS
330
C
102
}
330
C
100
AcDbDictionary
281
     1
  0
DICTIONARY
  5
1A
102
{ACAD_REACTORS
330
C
102
}
330
C
100
AcDbDictionary
281
     1
  3
Layout1
350
1E
  3
Layout2
350
26
  3
Model
350
22
  0
DICTIONARY
  5
43
102
{ACAD_REACTORS
330
C
102
}
330
C
100
AcDbDictionary
281
     1
  3
ByBlock
350
45
  3
ByLayer
350
44
  3
Global
350
46
  0
DICTIONARY
  5
6B
102
{ACAD_REACTORS
330
C
102
}
330
C
100
AcDbDictionary
281
     1
  3
Standard
350
6C
  0
DICTIONARY
  5
17
102
{ACAD_REACTORS
330
C
102
}
330
C
100
AcDbDictionary
281
     1
  3
Standard
350
18
  0
DICTIONARY
  5
19
102
{ACAD_REACTORS
330
C
102
}
330
C
100
AcDbDictionary
281
     1
  0
ACDBDICTIONARYWDFLT
  5
E
102
{ACAD_REACTORS
330
C
102
}
330
C
100
AcDbDictionary
281
     1
  3
Normal
350
F
100
AcDbDictionaryWithDefault
340
F
  0
DICTIONARY
  5
47
102
{ACAD_REACTORS
330
C
102
}
330
C
100
AcDbDictionary
281
     1
  3
A0
350
48
  3
A1
350
49
  3
A2
350
4A
  3
A3
350
4B
  3
A4
350
4C
  3
A5
350
4D
  3
A6
350
4E
  3
A7
350
4F
  3
A8
350
50
  3
A9
350
51
  3
B0
350
52
  3
B1
350
53
  3
B2
350
54
  3
B3
350
55
  3
B4
350
56
  3
B5
350
57
  3
B6
350
58
  3
B7
350
59
  3
B8
350
5A
  3
B9
350
5B
  3
C0
350
5C
  3
C1
350
5D
  3
C2
350
5E
  3
C3
350
5F
  3
C4
350
60
  3
C5
350
61
  3
C6
350
62
  3
C7
350
63
  3
C8
350
64
  3
C9
350
65
  3
D0
350
66
  3
D1
350
67
  3
D2
350
68
  0
DICTIONARY
  5
1B5
102
{ACAD_REACTORS
330
C
102
}
330
C
100
AcDbDictionary
281
     1
  0
DICTIONARY
  5
69
102
{ACAD_REACTORS
330
C
102
}
330
C
100
AcDbDictionary
281
     1
  3
Standard
350
6A
  0
DICTIONARY
  5
2A
102
{ACAD_REACTORS
330
C
102
}
330
C
100
AcDbDictionary
281
     1
  3
2dWireframe
350
2F
  3
Basic
350
32
  3
Brighten
350
36
  3
ColorChange
350
3A
  3
Conceptual
350
34
  3
Dim
350
35
  3
EdgeColorOff
350
3D
  3
Facepattern
350
39
  3
Flat
350
2B
  3
FlatWithEdges
350
2C
  3
Gouraud
350
2D
  3
GouraudWithEdges
350
2E
  3
Hidden
350
31
  3
JitterOff
350
3B
  3
Linepattern
350
38
  3
OverhangOff
350
3C
  3
Realistic
350
33
  3
Shaded
350
42
  3
Shaded with edges
350
41
  3
Shades of Gray
350
3E
  3
Sketchy
350
3F
  3
Thicken
350
37
  3
Wireframe
350
30
  3
X-Ray
350
40
  0
XRECORD
  5
1B1
102
{ACAD_REACTORS
330
C
102
}
330
C
100
AcDbXrecord
280
     1
 90
        1
330
6A
  0
DICTIONARY
  5
1AD
102
{ACAD_REACTORS
330
C
102
}
330
C
100
AcDbDictionary
281
     1
  3
CANNOSCALE
350
1AE
  3
CMLEADERSTYLE
350
1B3
  3
CTABLESTYLE
350
1B2
  0
LAYOUT
  5
1E
102
{ACAD_REACTORS
330
1A
102
}
330
1A
100
AcDbPlotSettings
  1

  2
none_device
  4

  6

 40
0.0
 41
0.0
 42
0.0
 43
0.0
 44
0.0
 45
0.0
 46
0.0
 47
0.0
 48
0.0
 49
0.0
140
0.0
141
0.0
142
1.0
143
1.0
 70
   688
 72
     0
 73
     0
 74
     5
  7

 75
    16
 76
     0
 77
     2
 78
   300
147
1.0
148
0.0
149
0.0
100
AcDbLayout
  1
Layout1
 70
     1
 71
     1
 10
0.0
 20
0.0
 11
12.0
 21
9.0
 12
0.0
 22
0.0
 32
0.0
 14
1.000000000000000E+20
 24
1.000000000000000E+20
 34
1.000000000000000E+20
 15
-1.000000000000000E+20
 25
-1.000000000000000E+20
 35
-1.000000000000000E+20
146
0.0
 13
0.0
 23
0.0
 33
0.0
 16
1.0
 26
0.0
 36
0.0
 17
0.0
 27
1.0
 37
0.0
 76
     0
330
1B
  0
LAYOUT
  5
26
102
{ACAD_REACTORS
330
1A
102
}
330
1A
100
AcDbPlotSettings
  1

  2
none_device
  4

  6

 40
0.0
 41
0.0
 42
0.0
 43
0.0
 44
0.0
 45
0.0
 46
0.0
 47
0.0
 48
0.0
 49
0.0
140
0.0
141
0.0
142
1.0
143
1.0
 70
   688
 72
     0
 73
     0
 74
     5
  7

 75
    16
 76
     0
 77
     2
 78
   300
147
1.0
148
0.0
149
0.0
100
AcDbLayout
  1
Layout2
 70
     1
 71
     2
 10
0.0
 20
0.0
 11
0.0
 21
0.0
 12
0.0
 22
0.0
 32
0.0
 14
0.0
 24
0.0
 34
0.0
 15
0.0
 25
0.0
 35
0.0
146
0.0
 13
0.0
 23
0.0
 33
0.0
 16
1.0
 26
0.0
 36
0.0
 17
0.0
 27
1.0
 37
0.0
 76
     0
330
23
  0
LAYOUT
  5
22
102
{ACAD_REACTORS
330
1A
102
}
330
1A
100
AcDbPlotSettings
  1

  2
none_device
  4
Letter_(8.50_x_11.00_Inches)
  6

 40
6.35
 41
6.35
 42
6.35000508
 43
6.35000508
 44
215.9
 45
279.4
 46
0.0
 47
0.0
 48
0.0
 49
0.0
140
0.0
141
0.0
142
1.0
143
1.0
 70
  1712
 72
     0
 73
     0
 74
     0
  7

 75
     0
 76
     0
 77
     2
 78
   300
147
1.0
148
0.0
149
0.0
100
AcDbLayout
  1
Model
 70
     1
 71
     0
 10
0.0
 20
0.0
 11
12.0
 21
9.0
 12
0.0
 22
0.0
 32
0.0
 14
1.000000000000000E+20
 24
1.000000000000000E+20
 34
1.000000000000000E+20
 15
-1.000000000000000E+20
 25
-1.000000000000000E+20
 35
-1.000000000000000E+20
146
0.0
 13
0.0
 23
0.0
 33
0.0
 16
1.0
 26
0.0
 36
0.0
 17
0.0
 27
1.0
 37
0.0
 76
     0
330
1F
331
29
  0
MATERIAL
  5
45
102
{ACAD_REACTORS
330
43
102
}
330
43
100
AcDbMaterial
  1
ByBlock
 72
     1
 94
      127
  0
MATERIAL
  5
44
102
{ACAD_REACTORS
330
43
102
}
330
43
100
AcDbMaterial
  1
ByLayer
 72
     1
 94
      127
  0
MATERIAL
  5
46
102
{ACAD_REACTORS
330
43
102
}
330
43
100
AcDbMaterial
  1
Global
 72
     1
 94
      127
  0
MLEADERSTYLE
  5
6C
102
{ACAD_REACTORS
330
6B
102
}
330
6B
100
AcDbMLeaderStyle
179
     2
170
     2
171
     1
172
     0
 90
        2
 40
0.0
 41
0.0
173
     1
 91
-1056964608
340
14
 92
       -2
290
     1
 42
0.09
291
     1
 43
0.36
  3
Standard
341
0
 44
0.18
300

342
11
174
     1
178
     6
175
     1
176
     0
 93
-1056964608
 45
0.18
292
     0
297
     0
 46
0.18
343
0
 94
-1056964608
 47
1.0
 49
1.0
140
1.0
293
     1
141
0.0
294
     1
177
     0
142
1.0
295
     0
296
     0
143
0.125
271
     0
272
     9
273
     9
298
     0
  0
MLINESTYLE
  5
18
102
{ACAD_REACTORS
330
17
102
}
330
17
100
AcDbMlineStyle
  2
Standard
 70
     0
  3

 62
   256
 51
90.0
 52
90.0
 71
     2
 49
0.5
 62
   256
  6
BYLAYER
 49
-0.5
 62
   256
  6
BYLAYER
  0
ACDBPLACEHOLDER
  5
F
102
{ACAD_REACTORS
330
E
102
}
330
E
  0
SCALE
  5
48
102
{ACAD_REACTORS
330
47
102
}
330
47
100
AcDbScale
 70
     0
300
1:1
140
1.0
141
1.0
290
     1
  0
SCALE
  5
49
102
{ACAD_REACTORS
330
47
102
}
330
47
100
AcDbScale
 70
     0
300
1:2
140
1.0
141
2.0
290
     0
  0
SCALE
  5
4A
102
{ACAD_REACTORS
330
47
102
}
330
47
100
AcDbScale
 70
     0
300
1:4
140
1.0
141
4.0
290
     0
  0
SCALE
  5
4B
102
{ACAD_REACTORS
330
47
102
}
330
47
100
AcDbScale
 70
     0
300
1:5
140
1.0
141
5.0
290
     0
  0
SCALE
  5
4C
102
{ACAD_REACTORS
330
47
102
}
330
47
100
AcDbScale
 70
     0
300
1:8
140
1.0
141
8.0
290
     0
  0
SCALE
  5
4D
102
{ACAD_REACTORS
330
47
102
}
330
47
100
AcDbScale
 70
     0
300
1:10
140
1.0
141
10.0
290
     0
  0
SCALE
  5
4E
102
{ACAD_REACTORS
330
47
102
}
330
47
100
AcDbScale
 70
     0
300
1:16
140
1.0
141
16.0
290
     0
  0
SCALE
  5
4F
102
{ACAD_REACTORS
330
47
102
}
330
47
100
AcDbScale
 70
     0
300
1:20
140
1.0
141
20.0
290
     0
  0
SCALE
  5
50
102
{ACAD_REACTORS
330
47
102
}
330
47
100
AcDbScale
 70
     0
300
1:30
140
1.0
141
30.0
290
     0
  0
SCALE
  5
51
102
{ACAD_REACTORS
330
47
102
}
330
47
100
AcDbScale
 70
     0
300
1:40
140
1.0
141
40.0
290
     0
  0
SCALE
  5
52
102
{ACAD_REACTORS
330
47
102
}
330
47
100
AcDbScale
 70
     0
300
1:50
140
1.0
141
50.0
290
     0
  0
SCALE
  5
53
102
{ACAD_REACTORS
330
47
102
}
330
47
100
AcDbScale
 70
     0
300
1:100
140
1.0
141
100.0
290
     0
  0
SCALE
  5
54
102
{ACAD_REACTORS
330
47
102
}
330
47
100
AcDbScale
 70
     0
300
2:1
140
2.0
141
1.0
290
     0
  0
SCALE
  5
55
102
{ACAD_REACTORS
330
47
102
}
330
47
100
AcDbScale
 70
     0
300
4:1
140
4.0
141
1.0
290
     0
  0
SCALE
  5
56
102
{ACAD_REACTORS
330
47
102
}
330
47
100
AcDbScale
 70
     0
300
8:1
140
8.0
141
1.0
290
     0
  0
SCALE
  5
57
102
{ACAD_REACTORS
330
47
102
}
330
47
100
AcDbScale
 70
     0
300
10:1
140
10.0
141
1.0
290
     0
  0
SCALE
  5
58
102
{ACAD_REACTORS
330
47
102
}
330
47
100
AcDbScale
 70
     0
300
100:1
140
100.0
141
1.0
290
     0
  0
SCALE
  5
59
102
{ACAD_REACTORS
330
47
102
}
330
47
100
AcDbScale
 70
     0
300
1/128" = 1'-0"
140
0.0078125
141
12.0
290
     0
  0
SCALE
  5
5A
102
{ACAD_REACTORS
330
47
102
}
330
47
100
AcDbScale
 70
     0
300
1/64" = 1'-0"
140
0.015625
141
12.0
290
     0
  0
SCALE
  5
5B
102
{ACAD_REACTORS
330
47
102
}
330
47
100
AcDbScale
 70
     0
300
1/32" = 1'-0"
140
0.03125
141
12.0
290
     0
  0
SCALE
  5
5C
102
{ACAD_REACTORS
330
47
102
}
330
47
100
AcDbScale
 70
     0
300
1/16" = 1'-0"
140
0.0625
141
12.0
290
     0
  0
SCALE
  5
5D
102
{ACAD_REACTORS
330
47
102
}
330
47
100
AcDbScale
 70
     0
300
3/32" = 1'-0"
140
0.09375
141
12.0
290
     0
  0
SCALE
  5
5E
102
{ACAD_REACTORS
330
47
102
}
330
47
100
AcDbScale
 70
     0
300
1/8" = 1'-0"
140
0.125
141
12.0
290
     0
  0
SCALE
  5
5F
102
{ACAD_REACTORS
330
47
102
}
330
47
100
AcDbScale
 70
     0
300
3/16" = 1'-0"
140
0.1875
141
12.0
290
     0
  0
SCALE
  5
60
102
{ACAD_REACTORS
330
47
102
}
330
47
100
AcDbScale
 70
     0
300
1/4" = 1'-0"
140
0.25
141
12.0
290
     0
  0
SCALE
  5
61
102
{ACAD_REACTORS
330
47
102
}
330
47
100
AcDbScale
 70
     0
300
3/8" = 1'-0"
140
0.375
141
12.0
290
     0
  0
SCALE
  5
62
102
{ACAD_REACTORS
330
47
102
}
330
47
100
AcDbScale
 70
     0
300
1/2" = 1'-0"
140
0.5
141
12.0
290
     0
  0
SCALE
  5
63
102
{ACAD_REACTORS
330
47
102
}
330
47
100
AcDbScale
 70
     0
300
3/4" = 1'-0"
140
0.75
141
12.0
290
     0
  0
SCALE
  5
64
102
{ACAD_REACTORS
330
47
102
}
330
47
100
AcDbScale
 70
     0
300
1" = 1'-0"
140
1.0
141
12.0
290
     0
  0
SCALE
  5
65
102
{ACAD_REACTORS
330
47
102
}
330
47
100
AcDbScale
 70
     0
300
1-1/2" = 1'-0"
140
1.5
141
12.0
290
     0
  0
SCALE
  5
66
102
{ACAD_REACTORS
330
47
102
}
330
47
100
AcDbScale
 70
     0
300
3" = 1'-0"
140
3.0
141
12.0
290
     0
  0
SCALE
  5
67
102
{ACAD_REACTORS
330
47
102
}
330
47
100
AcDbScale
 70
     0
300
6" = 1'-0"
140
6.0
141
12.0
290
     0
  0
SCALE
  5
68
102
{ACAD_REACTORS
330
47
102
}
330
47
100
AcDbScale
 70
     0
300
1'-0" = 1'-0"
140
12.0
141
12.0
290
     0
  0
TABLESTYLE
  5
6A
102
{ACAD_REACTORS
330
69
102
}
102
{ACAD_XDICTIONARY
360
1AF
102
}
330
69
100
AcDbTableStyle
  3
Standard
 70
     0
 71
     0
 40
0.06
 41
0.06
280
     0
281
     0
  7
Standard
140
0.18
170
     2
 62
     0
 63
   257
283
     0
 90
        4
 91
        0
  1

274
    -2
284
     1
 64
     0
275
    -2
285
     1
 65
     0
276
    -2
286
     1
 66
     0
277
    -2
287
     1
 67
     0
278
    -2
288
     1
 68
     0
279
    -2
289
     1
 69
     0
  7
Standard
140
0.25
170
     5
 62
     0
 63
   257
283
     0
 90
        4
 91
        0
  1

274
    -2
284
     1
 64
     0
275
    -2
285
     1
 65
     0
276
    -2
286
     1
 66
     0
277
    -2
287
     1
 67
     0
278
    -2
288
     1
 68
     0
279
    -2
289
     1
 69
     0
  7
Standard
140
0.18
170
     5
 62
     0
 63
   257
283
     0
 90
        4
 91
        0
  1

274
    -2
284
     1
 64
     0
275
    -2
285
     1
 65
     0
276
    -2
286
     1
 66
     0
277
    -2
287
     1
 67
     0
278
    -2
288
     1
 68
     0
279
    -2
289
     1
 69
     0
  0
VISUALSTYLE
  5
2F
102
{ACAD_REACTORS
330
2A
102
}
330
2A
100
AcDbVisualStyle
  2
2dWireframe
 70
     4
177
     3
291
     0
 70
    58
 90
        0
176
     1
 90
        2
176
     1
 90
        0
176
     1
 90
        0
176
     1
 40
0.6
176
     1
 40
30.0
176
     1
 62
     7
420
 16777215
176
     1
 90
        1
176
     1
 90
        4
176
     1
 62
     7
176
     1
 62
   257
176
     1
 90
        1
176
     1
 90
        1
176
     1
 40
1.0
176
     1
 90
        0
176
     1
 62
   257
176
     1
 40
1.0
176
     1
 90
        1
176
     1
 90
        6
176
     1
 90
        2
176
     1
 62
     7
176
     1
 90
        5
176
     1
 90
        0
176
     1
 90
        0
176
     1
290
     0
176
     1
 90
        1
176
     1
 40
0.0
176
     1
 90
        0
176
     1
290
     1
176
     1
290
     1
176
     1
290
     0
176
     1
290
     0
176
     1
290
     0
176
     1
290
     0
176
     1
290
     0
176
     1
290
     0
176
     1
290
     0
176
     1
 90
       50
176
     1
 40
0.0
176
     1
 40
1.0
176
     1
 90
        0
176
     1
 62
    18
420
        0
176
     1
 90
       50
176
     1
 90
        3
176
     1
 62
     5
420
      255
176
     1
290
     0
176
     1
 90
       50
176
     1
 90
       50
176
     1
 90
       50
176
     1
290
     0
176
     1
 90
       50
176
     1
 62
   256
176
     0
 40
1.0
176
     0
 90
        2
176
     1
  1
strokes_ogs.tif
176
     1
290
     0
176
     1
 40
1.0
176
     1
 40
1.0
176
     1
  0
VISUALSTYLE
  5
32
102
{ACAD_REACTORS
330
2A
102
}
330
2A
100
AcDbVisualStyle
  2
Basic
 70
     7
177
     3
291
     1
 70
    58
 90
        1
176
     1
 90
        0
176
     1
 90
        1
176
     1
 90
        0
176
     1
 40
0.6
176
     1
 40
30.0
176
     1
 62
     7
420
 16777215
176
     1
 90
        0
176
     1
 90
        4
176
     1
 62
     7
176
     1
 62
   257
176
     1
 90
        1
176
     1
 90
        1
176
     1
 40
1.0
176
     1
 90
        8
176
     1
 62
     7
176
     1
 40
1.0
176
     1
 90
        1
176
     1
 90
        6
176
     1
 90
        2
176
     1
 62
     7
176
     1
 90
        5
176
     1
 90
        0
176
     1
 90
        0
176
     1
290
     0
176
     1
 90
        1
176
     1
 40
0.0
176
     1
 90
        0
176
     1
290
     0
176
     1
290
     1
176
     1
290
     1
176
     1
290
     0
176
     1
290
     0
176
     1
290
     0
176
     1
290
     0
176
     1
290
     0
176
     1
290
     0
176
     1
 90
       50
176
     1
 40
0.0
176
     1
 40
1.0
176
     1
 90
        0
176
     1
 62
    18
420
        0
176
     1
 90
       50
176
     1
 90
        3
176
     1
 62
     5
420
      255
176
     1
290
     0
176
     1
 90
       50
176
     1
 90
       50
176
     1
 90
       50
176
     1
290
     0
176
     1
 90
       50
176
     1
 62
   256
176
     0
 40
1.0
176
     0
 90
        2
176
     1
  1
strokes_ogs.tif
176
     1
290
     0
176
     1
 40
1.0
176
     1
 40
1.0
176
     1
  0
VISUALSTYLE
  5
36
102
{ACAD_REACTORS
330
2A
102
}
330
2A
100
AcDbVisualStyle
  2
Brighten
 70
    12
177
     3
291
     1
 70
    58
 90
        2
176
     1
 90
        2
176
     1
 90
        0
176
     1
 90
        0
176
     1
 40
0.6
176
     1
 40
30.0
176
     1
 62
     7
420
 16777215
176
     1
 90
        1
176
     1
 90
        4
176
     1
 62
     7
176
     1
 62
   257
176
     1
 90
        1
176
     1
 90
        1
176
     1
 40
1.0
176
     1
 90
        8
176
     1
 62
     7
176
     1
 40
1.0
176
     1
 90
        1
176
     1
 90
        6
176
     1
 90
        2
176
     1
 62
     7
176
     1
 90
        5
176
     1
 90
        0
176
     1
 90
        0
176
     1
290
     0
176
     1
 90
        1
176
     1
 40
50.0
176
     1
 90
        0
176
     1
290
     0
176
     1
290
     1
176
     1
290
     1
176
     1
290
     0
176
     1
290
     0
176
     1
290
     0
176
     1
290
     0
176
     1
290
     0
176
     1
290
     0
176
     1
 90
       50
176
     1
 40
0.0
176
     1
 40
1.0
176
     1
 90
        0
176
     1
 62
    18
420
        0
176
     1
 90
       50
176
     1
 90
        3
176
     1
 62
     5
420
      255
176
     1
290
     0
176
     1
 90
       50
176
     1
 90
       50
176
     1
 90
       50
176
     1
290
     0
176
     1
 90
       50
176
     1
 62
   256
176
     0
 40
1.0
176
     0
 90
        2
176
     1
  1
strokes_ogs.tif
176
     1
290
     0
176
     1
 40
1.0
176
     1
 40
1.0
176
     1
  0
VISUALSTYLE
  5
3A
102
{ACAD_REACTORS
330
2A
102
}
330
2A
100
AcDbVisualStyle
  2
ColorChange
 70
    16
177
     3
291
     1
 70
    58
 90
        2
176
     1
 90
        2
176
     1
 90
        3
176
     1
 90
        0
176
     1
 40
0.6
176
     1
 40
30.0
176
     1
 62
     8
420
  8421504
176
     1
 90
        1
176
     1
 90
        4
176
     1
 62
     7
176
     1
 62
   257
176
     1
 90
        1
176
     1
 90
        1
176
     1
 40
1.0
176
     1
 90
        8
176
     1
 62
     8
420
  8421504
176
     1
 40
1.0
176
     1
 90
        1
176
     1
 90
        6
176
     1
 90
        2
176
     1
 62
     7
176
     1
 90
        5
176
     1
 90
        0
176
     1
 90
        0
176
     1
290
     0
176
     1
 90
        1
176
     1
 40
0.0
176
     1
 90
        0
176
     1
290
     0
176
     1
290
     1
176
     1
290
     1
176
     1
290
     0
176
     1
290
     0
176
     1
290
     0
176
     1
290
     0
176
     1
290
     0
176
     1
290
     0
176
     1
 90
       50
176
     1
 40
0.0
176
     1
 40
1.0
176
     1
 90
        0
176
     1
 62
    18
420
        0
176
     1
 90
       50
176
     1
 90
        3
176
     1
 62
     5
420
      255
176
     1
290
     0
176
     1
 90
       50
176
     1
 90
       50
176
     1
 90
       50
176
     1
290
     0
176
     1
 90
       50
176
     1
 62
   256
176
     0
 40
1.0
176
     0
 90
        2
176
     1
  1
strokes_ogs.tif
176
     1
290
     0
176
     1
 40
1.0
176
     1
 40
1.0
176
     1
  0
VISUALSTYLE
  5
34
102
{ACAD_REACTORS
330
2A
102
}
330
2A
100
AcDbVisualStyle
  2
Conceptual
 70
     9
177
     3
291
     0
 70
    58
 90
        3
176
     1
 90
        2
176
     1
 90
        0
176
     1
 90
        0
176
     1
 40
0.6
176
     1
 40
30.0
176
     1
 62
     7
420
 16777215
176
     1
 90
        2
176
     1
 90
        2
176
     1
 62
     7
176
     1
 62
   257
176
     1
 90
        1
176
     1
 90
        1
176
     1
 40
179.0
176
     1
 90
        8
176
     1
 62
     7
176
     1
 40
1.0
176
     1
 90
        1
176
     1
 90
        6
176
     1
 90
        2
176
     1
 62
     7
176
     1
 90
        3
176
     1
 90
        0
176
     1
 90
        0
176
     1
290
     0
176
     1
 90
        1
176
     1
 40
0.0
176
     1
 90
        0
176
     1
290
     0
176
     1
290
     1
176
     1
290
     1
176
     1
290
     0
176
     1
290
     0
176
     1
290
     0
176
     1
290
     0
176
     1
290
     0
176
     1
290
     0
176
     1
 90
       50
176
     1
 40
0.0
176
     1
 40
1.0
176
     1
 90
        0
176
     1
 62
    18
420
        0
176
     1
 90
       50
176
     1
 90
        3
176
     1
 62
     5
420
      255
176
     1
290
     0
176
     1
 90
       50
176
     1
 90
       50
176
     1
 90
       50
176
     1
290
     0
176
     1
 90
       50
176
     1
 62
   256
176
     0
 40
1.0
176
     0
 90
        2
176
     1
  1
strokes_ogs.tif
176
     1
290
     0
176
     1
 40
1.0
176
     1
 40
1.0
176
     1
  0
VISUALSTYLE
  5
35
102
{ACAD_REACTORS
330
2A
102
}
330
2A
100
AcDbVisualStyle
  2
Dim
 70
    11
177
     3
291
     1
 70
    58
 90
        2
176
     1
 90
        2
176
     1
 90
        0
176
     1
 90
        0
176
     1
 40
0.6
176
     1
 40
30.0
176
     1
 62
     7
420
 16777215
176
     1
 90
        1
176
     1
 90
        4
176
     1
 62
     7
176
     1
 62
   257
176
     1
 90
        1
176
     1
 90
        1
176
     1
 40
1.0
176
     1
 90
        8
176
     1
 62
     7
176
     1
 40
1.0
176
     1
 90
        1
176
     1
 90
        6
176
     1
 90
        2
176
     1
 62
     7
176
     1
 90
        5
176
     1
 90
        0
176
     1
 90
        0
176
     1
290
     0
176
     1
 90
        1
176
     1
 40
-50.0
176
     1
 90
        0
176
     1
290
     0
176
     1
290
     1
176
     1
290
     1
176
     1
290
     0
176
     1
290
     0
176
     1
290
     0
176
     1
290
     0
176
     1
290
     0
176
     1
290
     0
176
     1
 90
       50
176
     1
 40
0.0
176
     1
 40
1.0
176
     1
 90
        0
176
     1
 62
    18
420
        0
176
     1
 90
       50
176
     1
 90
        3
176
     1
 62
     5
420
      255
176
     1
290
     0
176
     1
 90
       50
176
     1
 90
       50
176
     1
 90
       50
176
     1
290
     0
176
     1
 90
       50
176
     1
 62
   256
176
     0
 40
1.0
176
     0
 90
        2
176
     1
  1
strokes_ogs.tif
176
     1
290
     0
176
     1
 40
1.0
176
     1
 40
1.0
176
     1
  0
VISUALSTYLE
  5
3D
102
{ACAD_REACTORS
330
2A
102
}
330
2A
100
AcDbVisualStyle
  2
EdgeColorOff
 70
    22
177
     3
291
     1
 70
    58
 90
        2
176
     0
 90
        2
176
     0
 90
        0
176
     0
 90
        0
176
     0
 40
0.6
176
     0
 40
30.0
176
     0
 62
     7
420
 16777215
176
     0
 90
        1
176
     0
 90
        4
176
     0
 62
     7
176
     0
 62
   257
176
     0
 90
        1
176
     0
 90
        1
176
     0
 40
1.0
176
     0
 90
        8
176
     2
 62
     7
176
     0
 40
1.0
176
     0
 90
        1
176
     0
 90
        6
176
     0
 90
        2
176
     0
 62
     7
176
     0
 90
        5
176
     0
 90
        0
176
     0
 90
        0
176
     0
290
     0
176
     0
 90
        1
176
     0
 40
0.0
176
     0
 90
        0
176
     0
290
     0
176
     0
290
     1
176
     0
290
     1
176
     0
290
     0
176
     0
290
     0
176
     0
290
     0
176
     0
290
     0
176
     0
290
     0
176
     0
290
     0
176
     0
 90
       50
176
     0
 40
0.0
176
     0
 40
1.0
176
     0
 90
        0
176
     0
 62
    18
420
        0
176
     0
 90
       50
176
     0
 90
        3
176
     0
 62
     5
420
      255
176
     0
290
     0
176
     0
 90
       50
176
     0
 90
       50
176
     0
 90
       50
176
     0
290
     0
176
     0
 90
       50
176
     0
 62
   256
176
     0
 40
1.0
176
     0
 90
        2
176
     0
  1
strokes_ogs.tif
176
     0
290
     0
176
     0
 40
1.0
176
     0
 40
1.0
176
     0
  0
VISUALSTYLE
  5
39
102
{ACAD_REACTORS
330
2A
102
}
330
2A
100
AcDbVisualStyle
  2
Facepattern
 70
    15
177
     3
291
     1
 70
    58
 90
        2
176
     1
 90
        2
176
     1
 90
        0
176
     1
 90
        0
176
     1
 40
0.6
176
     1
 40
30.0
176
     1
 62
     7
420
 16777215
176
     1
 90
        1
176
     1
 90
        4
176
     1
 62
     7
176
     1
 62
   257
176
     1
 90
        1
176
     1
 90
        1
176
     1
 40
1.0
176
     1
 90
        8
176
     1
 62
     7
176
     1
 40
1.0
176
     1
 90
        1
176
     1
 90
        6
176
     1
 90
        2
176
     1
 62
     7
176
     1
 90
        5
176
     1
 90
        0
176
     1
 90
        0
176
     1
290
     0
176
     1
 90
        1
176
     1
 40
0.0
176
     1
 90
        0
176
     1
290
     0
176
     1
290
     1
176
     1
290
     1
176
     1
290
     0
176
     1
290
     0
176
     1
290
     0
176
     1
290
     0
176
     1
290
     0
176
     1
290
     0
176
     1
 90
       50
176
     1
 40
0.0
176
     1
 40
1.0
176
     1
 90
        0
176
     1
 62
    18
420
        0
176
     1
 90
       50
176
     1
 90
        3
176
     1
 62
     5
420
      255
176
     1
290
     0
176
     1
 90
       50
176
     1
 90
       50
176
     1
 90
       50
176
     1
290
     0
176
     1
 90
       50
176
     1
 62
   256
176
     0
 40
1.0
176
     0
 90
        2
176
     1
  1
strokes_ogs.tif
176
     1
290
     0
176
     1
 40
1.0
176
     1
 40
1.0
176
     1
  0
VISUALSTYLE
  5
2B
102
{ACAD_REACTORS
330
2A
102
}
330
2A
100
AcDbVisualStyle
  2
Flat
 70
     0
177
     3
291
     1
 70
    58
 90
        2
176
     1
 90
        1
176
     1
 90
        1
176
     1
 90
        2
176
     1
 40
0.6
176
     1
 40
30.0
176
     1
 62
     7
420
 16777215
176
     1
 90
        0
176
     1
 90
        0
176
     1
 62
     7
176
     1
 62
   257
176
     1
 90
        1
176
     1
 90
        1
176
     1
 40
1.0
176
     1
 90
        8
176
     1
 62
     7
176
     1
 40
1.0
176
     1
 90
        1
176
     1
 90
        6
176
     1
 90
        2
176
     1
 62
     7
176
     1
 90
        5
176
     1
 90
        0
176
     1
 90
        0
176
     1
290
     0
176
     1
 90
       13
176
     1
 40
0.0
176
     1
 90
        0
176
     1
290
     0
176
     1
290
     1
176
     1
290
     1
176
     1
290
     0
176
     1
290
     0
176
     1
290
     0
176
     1
290
     0
176
     1
290
     0
176
     1
290
     0
176
     1
 90
       50
176
     1
 40
0.0
176
     1
 40
1.0
176
     1
 90
        0
176
     1
 62
    18
420
        0
176
     1
 90
       50
176
     1
 90
        3
176
     1
 62
     5
420
      255
176
     1
290
     0
176
     1
 90
       50
176
     1
 90
       50
176
     1
 90
       50
176
     1
290
     0
176
     1
 90
       50
176
     1
 62
   256
176
     0
 40
1.0
176
     0
 90
        2
176
     1
  1
strokes_ogs.tif
176
     1
290
     0
176
     1
 40
1.0
176
     1
 40
1.0
176
     1
  0
VISUALSTYLE
  5
2C
102
{ACAD_REACTORS
330
2A
102
}
330
2A
100
AcDbVisualStyle
  2
FlatWithEdges
 70
     1
177
     3
291
     1
 70
    58
 90
        2
176
     1
 90
        1
176
     1
 90
        1
176
     1
 90
        2
176
     1
 40
0.6
176
     1
 40
30.0
176
     1
 62
     7
420
 16777215
176
     1
 90
        1
176
     1
 90
        0
176
     1
 62
     7
176
     1
 62
   257
176
     1
 90
        1
176
     1
 90
        1
176
     1
 40
1.0
176
     1
 90
        0
176
     1
 62
   257
176
     1
 40
1.0
176
     1
 90
        1
176
     1
 90
        6
176
     1
 90
        2
176
     1
 62
     7
176
     1
 90
        5
176
     1
 90
        0
176
     1
 90
        0
176
     1
290
     0
176
     1
 90
       13
176
     1
 40
0.0
176
     1
 90
        0
176
     1
290
     0
176
     1
290
     1
176
     1
290
     1
176
     1
290
     0
176
     1
290
     0
176
     1
290
     0
176
     1
290
     0
176
     1
290
     0
176
     1
290
     0
176
     1
 90
       50
176
     1
 40
0.0
176
     1
 40
1.0
176
     1
 90
        0
176
     1
 62
    18
420
        0
176
     1
 90
       50
176
     1
 90
        3
176
     1
 62
     5
420
      255
176
     1
290
     0
176
     1
 90
       50
176
     1
 90
       50
176
     1
 90
       50
176
     1
290
     0
176
     1
 90
       50
176
     1
 62
   256
176
     0
 40
1.0
176
     0
 90
        2
176
     1
  1
strokes_ogs.tif
176
     1
290
     0
176
     1
 40
1.0
176
     1
 40
1.0
176
     1
  0
VISUALSTYLE
  5
2D
102
{ACAD_REACTORS
330
2A
102
}
330
2A
100
AcDbVisualStyle
  2
Gouraud
 70
     2
177
     3
291
     1
 70
    58
 90
        2
176
     1
 90
        2
176
     1
 90
        1
176
     1
 90
        2
176
     1
 40
0.6
176
     1
 40
30.0
176
     1
 62
     7
420
 16777215
176
     1
 90
        0
176
     1
 90
        0
176
     1
 62
     7
176
     1
 62
   257
176
     1
 90
        1
176
     1
 90
        1
176
     1
 40
1.0
176
     1
 90
        0
176
     1
 62
     7
176
     1
 40
1.0
176
     1
 90
        1
176
     1
 90
        6
176
     1
 90
        2
176
     1
 62
     7
176
     1
 90
        5
176
     1
 90
        0
176
     1
 90
        0
176
     1
290
     0
176
     1
 90
       13
176
     1
 40
0.0
176
     1
 90
        0
176
     1
290
     0
176
     1
290
     1
176
     1
290
     1
176
     1
290
     0
176
     1
290
     0
176
     1
290
     0
176
     1
290
     0
176
     1
290
     0
176
     1
290
     0
176
     1
 90
       50
176
     1
 40
0.0
176
     1
 40
1.0
176
     1
 90
        0
176
     1
 62
    18
420
        0
176
     1
 90
       50
176
     1
 90
        3
176
     1
 62
     5
420
      255
176
     1
290
     0
176
     1
 90
       50
176
     1
 90
       50
176
     1
 90
       50
176
     1
290
     0
176
     1
 90
       50
176
     1
 62
   256
176
     0
 40
1.0
176
     0
 90
        2
176
     1
  1
strokes_ogs.tif
176
     1
290
     0
176
     1
 40
1.0
176
     1
 40
1.0
176
     1
  0
VISUALSTYLE
  5
2E
102
{ACAD_REACTORS
330
2A
102
}
330
2A
100
AcDbVisualStyle
  2
GouraudWithEdges
 70
     3
177
     3
291
     1
 70
    58
 90
        2
176
     1
 90
        2
176
     1
 90
        1
176
     1
 90
        2
176
     1
 40
0.6
176
     1
 40
30.0
176
     1
 62
     7
420
 16777215
176
     1
 90
        1
176
     1
 90
        0
176
     1
 62
     7
176
     1
 62
   257
176
     1
 90
        1
176
     1
 90
        1
176
     1
 40
1.0
176
     1
 90
        0
176
     1
 62
   257
176
     1
 40
1.0
176
     1
 90
        1
176
     1
 90
        6
176
     1
 90
        2
176
     1
 62
     7
176
     1
 90
        5
176
     1
 90
        0
176
     1
 90
        0
176
     1
290
     0
176
     1
 90
       13
176
     1
 40
0.0
176
     1
 90
        0
176
     1
290
     0
176
     1
290
     1
176
     1
290
     1
176
     1
290
     0
176
     1
290
     0
176
     1
290
     0
176
     1
290
     0
176
     1
290
     0
176
     1
290
     0
176
     1
 90
       50
176
     1
 40
0.0
176
     1
 40
1.0
176
     1
 90
        0
176
     1
 62
    18
420
        0
176
     1
 90
       50
176
     1
 90
        3
176
     1
 62
     5
420
      255
176
     1
290
     0
176
     1
 90
       50
176
     1
 90
       50
176
     1
 90
       50
176
     1
290
     0
176
     1
 90
       50
176
     1
 62
   256
176
     0
 40
1.0
176
     0
 90
        2
176
     1
  1
strokes_ogs.tif
176
     1
290
     0
176
     1
 40
1.0
176
     1
 40
1.0
176
     1
  0
VISUALSTYLE
  5
31
102
{ACAD_REACTORS
330
2A
102
}
330
2A
100
AcDbVisualStyle
  2
Hidden
 70
     6
177
     3
291
     0
 70
    58
 90
        1
176
     1
 90
        2
176
     1
 90
        2
176
     1
 90
        0
176
     1
 40
0.6
176
     1
 40
30.0
176
     1
 62
     7
420
 16777215
176
     1
 90
        2
176
     1
 90
        2
176
     1
 62
     7
176
     1
 62
   257
176
     1
 90
        2
176
     1
 90
        1
176
     1
 40
40.0
176
     1
 90
        0
176
     1
 62
   257
176
     1
 40
1.0
176
     1
 90
        1
176
     1
 90
        6
176
     1
 90
        2
176
     1
 62
     7
176
     1
 90
        3
176
     1
 90
        0
176
     1
 90
        0
176
     1
290
     0
176
     1
 90
        1
176
     1
 40
0.0
176
     1
 90
        0
176
     1
290
     0
176
     1
290
     1
176
     1
290
     1
176
     1
290
     0
176
     1
290
     0
176
     1
290
     0
176
     1
290
     0
176
     1
290
     0
176
     1
290
     0
176
     1
 90
       50
176
     1
 40
0.0
176
     1
 40
1.0
176
     1
 90
        0
176
     1
 62
    18
420
        0
176
     1
 90
       50
176
     1
 90
        3
176
     1
 62
     5
420
      255
176
     1
290
     0
176
     1
 90
       50
176
     1
 90
       50
176
     1
 90
       50
176
     1
290
     0
176
     1
 90
       50
176
     1
 62
   256
176
     0
 40
1.0
176
     0
 90
        2
176
     1
  1
strokes_ogs.tif
176
     1
290
     0
176
     1
 40
1.0
176
     1
 40
1.0
176
     1
  0
VISUALSTYLE
  5
3B
102
{ACAD_REACTORS
330
2A
102
}
330
2A
100
AcDbVisualStyle
  2
JitterOff
 70
    20
177
     3
291
     1
 70
    58
 90
        2
176
     0
 90
        2
176
     0
 90
        0
176
     0
 90
        0
176
     0
 40
0.6
176
     0
 40
30.0
176
     0
 62
     7
420
 16777215
176
     0
 90
        1
176
     0
 90
        4
176
     0
 62
     7
176
     0
 62
   257
176
     0
 90
        1
176
     0
 90
        1
176
     0
 40
1.0
176
     0
 90
       10
176
     2
 62
     7
176
     0
 40
1.0
176
     0
 90
        1
176
     0
 90
        6
176
     0
 90
        2
176
     0
 62
     7
176
     0
 90
        5
176
     0
 90
        0
176
     0
 90
        0
176
     0
290
     0
176
     0
 90
        1
176
     0
 40
0.0
176
     0
 90
        0
176
     0
290
     0
176
     0
290
     1
176
     0
290
     1
176
     0
290
     0
176
     0
290
     0
176
     0
290
     0
176
     0
290
     0
176
     0
290
     0
176
     0
290
     0
176
     0
 90
       50
176
     0
 40
0.0
176
     0
 40
1.0
176
     0
 90
        0
176
     0
 62
    18
420
        0
176
     0
 90
       50
176
     0
 90
        3
176
     0
 62
     5
420
      255
176
     0
290
     0
176
     0
 90
       50
176
     0
 90
       50
176
     0
 90
       50
176
     0
290
     0
176
     0
 90
       50
176
     0
 62
   256
176
     0
 40
1.0
176
     0
 90
        2
176
     0
  1
strokes_ogs.tif
176
     0
290
     0
176
     0
 40
1.0
176
     0
 40
1.0
176
     0
  0
VISUALSTYLE
  5
38
102
{ACAD_REACTORS
330
2A
102
}
330
2A
100
AcDbVisualStyle
  2
Linepattern
 70
    14
177
     3
291
     1
 70
    58
 90
        2
176
     1
 90
        2
176
     1
 90
        0
176
     1
 90
        0
176
     1
 40
0.6
176
     1
 40
30.0
176
     1
 62
     7
420
 16777215
176
     1
 90
        1
176
     1
 90
        4
176
     1
 62
     7
176
     1
 62
   257
176
     1
 90
        7
176
     1
 90
        7
176
     1
 40
1.0
176
     1
 90
        8
176
     1
 62
     7
176
     1
 40
1.0
176
     1
 90
        1
176
     1
 90
        6
176
     1
 90
        2
176
     1
 62
     7
176
     1
 90
        5
176
     1
 90
        0
176
     1
 90
        0
176
     1
290
     0
176
     1
 90
        1
176
     1
 40
0.0
176
     1
 90
        0
176
     1
290
     0
176
     1
290
     1
176
     1
290
     1
176
     1
290
     0
176
     1
290
     0
176
     1
290
     0
176
     1
290
     0
176
     1
290
     0
176
     1
290
     0
176
     1
 90
       50
176
     1
 40
0.0
176
     1
 40
1.0
176
     1
 90
        0
176
     1
 62
    18
420
        0
176
     1
 90
       50
176
     1
 90
        3
176
     1
 62
     5
420
      255
176
     1
290
     0
176
     1
 90
       50
176
     1
 90
       50
176
     1
 90
       50
176
     1
290
     0
176
     1
 90
       50
176
     1
 62
   256
176
     0
 40
1.0
176
     0
 90
        2
176
     1
  1
strokes_ogs.tif
176
     1
290
     0
176
     1
 40
1.0
176
     1
 40
1.0
176
     1
  0
VISUALSTYLE
  5
3C
102
{ACAD_REACTORS
330
2A
102
}
330
2A
100
AcDbVisualStyle
  2
OverhangOff
 70
    21
177
     3
291
     1
 70
    58
 90
        2
176
     0
 90
        2
176
     0
 90
        0
176
     0
 90
        0
176
     0
 40
0.6
176
     0
 40
30.0
176
     0
 62
     7
420
 16777215
176
     0
 90
        1
176
     0
 90
        4
176
     0
 62
     7
176
     0
 62
   257
176
     0
 90
        1
176
     0
 90
        1
176
     0
 40
1.0
176
     0
 90
        9
176
     2
 62
     7
176
     0
 40
1.0
176
     0
 90
        1
176
     0
 90
        6
176
     0
 90
        2
176
     0
 62
     7
176
     0
 90
        5
176
     0
 90
        0
176
     0
 90
        0
176
     0
290
     0
176
     0
 90
        1
176
     0
 40
0.0
176
     0
 90
        0
176
     0
290
     0
176
     0
290
     1
176
     0
290
     1
176
     0
290
     0
176
     0
290
     0
176
     0
290
     0
176
     0
290
     0
176
     0
290
     0
176
     0
290
     0
176
     0
 90
       50
176
     0
 40
0.0
176
     0
 40
1.0
176
     0
 90
        0
176
     0
 62
    18
420
        0
176
     0
 90
       50
176
     0
 90
        3
176
     0
 62
     5
420
      255
176
     0
290
     0
176
     0
 90
       50
176
     0
 90
       50
176
     0
 90
       50
176
     0
290
     0
176
     0
 90
       50
176
     0
 62
   256
176
     0
 40
1.0
176
     0
 90
        2
176
     0
  1
strokes_ogs.tif
176
     0
290
     0
176
     0
 40
1.0
176
     0
 40
1.0
176
     0
  0
VISUALSTYLE
  5
33
102
{ACAD_REACTORS
330
2A
102
}
330
2A
100
AcDbVisualStyle
  2
Realistic
 70
     8
177
     3
291
     0
 70
    58
 90
        2
176
     1
 90
        3
176
     1
 90
        0
176
     1
 90
        2
176
     1
 40
0.6
176
     1
 40
30.0
176
     1
 62
     7
420
 16777215
176
     1
 90
        0
176
     1
 90
        0
176
     1
 62
     7
176
     1
 62
   257
176
     1
 90
        1
176
     1
 90
        1
176
     1
 40
1.0
176
     1
 90
        8
176
     1
 62
   257
176
     1
 40
1.0
176
     1
 90
        1
176
     1
 90
        6
176
     1
 90
        2
176
     1
 62
     7
176
     1
 90
        3
176
     1
 90
        0
176
     1
 90
        0
176
     1
290
     0
176
     1
 90
       13
176
     1
 40
0.0
176
     1
 90
        0
176
     1
290
     0
176
     1
290
     1
176
     1
290
     1
176
     1
290
     0
176
     1
290
     0
176
     1
290
     0
176
     1
290
     0
176
     1
290
     0
176
     1
290
     0
176
     1
 90
       50
176
     1
 40
0.0
176
     1
 40
1.0
176
     1
 90
        0
176
     1
 62
    18
420
        0
176
     1
 90
       50
176
     1
 90
        3
176
     1
 62
     5
420
      255
176
     1
290
     0
176
     1
 90
       50
176
     1
 90
       50
176
     1
 90
       50
176
     1
290
     0
176
     1
 90
       50
176
     1
 62
   256
176
     0
 40
1.0
176
     0
 90
        2
176
     1
  1
strokes_ogs.tif
176
     1
290
     0
176
     1
 40
1.0
176
     1
 40
1.0
176
     1
  0
VISUALSTYLE
  5
42
102
{ACAD_REACTORS
330
2A
102
}
330
2A
100
AcDbVisualStyle
  2
Shaded
 70
    27
177
     3
291
     0
 70
    58
 90
        2
176
     1
 90
        2
176
     1
 90
        1
176
     1
 90
        2
176
     1
 40
0.6
176
     1
 40
30.0
176
     1
 62
     7
420
 16777215
176
     1
 90
        0
176
     1
 90
        4
176
     1
 62
     7
176
     1
 62
   257
176
     1
 90
        1
176
     1
 90
        1
176
     1
 40
1.0
176
     1
 90
        8
176
     1
 62
   257
176
     1
 40
1.0
176
     1
 90
        1
176
     1
 90
        6
176
     1
 90
        2
176
     1
 62
     8
420
  7895160
176
     1
 90
        3
176
     1
 90
        0
176
     1
 90
        0
176
     1
290
     0
176
     1
 90
        5
176
     1
 40
0.0
176
     1
 90
        0
176
     1
290
     0
176
     1
290
     1
176
     1
290
     1
176
     1
290
     0
176
     1
290
     0
176
     1
290
     0
176
     1
290
     0
176
     1
290
     0
176
     1
290
     0
176
     1
 90
       50
176
     1
 40
0.0
176
     1
 40
1.0
176
     1
 90
        0
176
     1
 62
    18
420
        0
176
     1
 90
       50
176
     1
 90
        3
176
     1
 62
     5
420
      255
176
     1
290
     0
176
     1
 90
       50
176
     1
 90
       50
176
     1
 90
       50
176
     1
290
     0
176
     1
 90
       50
176
     1
 62
   256
176
     0
 40
1.0
176
     0
 90
        2
176
     1
  1
strokes_ogs.tif
176
     1
290
     0
176
     1
 40
1.0
176
     1
 40
1.0
176
     1
  0
VISUALSTYLE
  5
41
102
{ACAD_REACTORS
330
2A
102
}
330
2A
100
AcDbVisualStyle
  2
Shaded with edges
 70
    26
177
     3
291
     0
 70
    58
 90
        2
176
     1
 90
        2
176
     1
 90
        1
176
     1
 90
        2
176
     1
 40
0.6
176
     1
 40
30.0
176
     1
 62
     7
420
 16777215
176
     1
 90
        1
176
     1
 90
       10
176
     1
 62
     7
176
     1
 62
   257
176
     1
 90
        2
176
     1
 90
        1
176
     1
 40
1.0
176
     1
 90
        8
176
     1
 62
   257
176
     1
 40
1.0
176
     1
 90
        1
176
     1
 90
        6
176
     1
 90
        2
176
     1
 62
     7
176
     1
 90
        3
176
     1
 90
        0
176
     1
 90
        0
176
     1
290
     0
176
     1
 90
        5
176
     1
 40
0.0
176
     1
 90
        0
176
     1
290
     0
176
     1
290
     1
176
     1
290
     1
176
     1
290
     0
176
     1
290
     0
176
     1
290
     0
176
     1
290
     0
176
     1
290
     0
176
     1
290
     0
176
     1
 90
       50
176
     1
 40
0.0
176
     1
 40
1.0
176
     1
 90
        0
176
     1
 62
    18
420
        0
176
     1
 90
       50
176
     1
 90
        3
176
     1
 62
     5
420
      255
176
     1
290
     0
176
     1
 90
       50
176
     1
 90
       50
176
     1
 90
       50
176
     1
290
     0
176
     1
 90
       50
176
     1
 62
   256
176
     0
 40
1.0
176
     0
 90
        2
176
     1
  1
strokes_ogs.tif
176
     1
290
     0
176
     1
 40
1.0
176
     1
 40
1.0
176
     1
  0
VISUALSTYLE
  5
3E
102
{ACAD_REACTORS
330
2A
102
}
330
2A
100
AcDbVisualStyle
  2
Shades of Gray
 70
    23
177
     3
291
     0
 70
    58
 90
        2
176
     1
 90
        2
176
     1
 90
        3
176
     1
 90
        0
176
     1
 40
0.6
176
     1
 40
30.0
176
     1
 62
     7
420
 16777215
176
     1
 90
        2
176
     1
 90
        2
176
     1
 62
     7
176
     1
 62
     7
176
     1
 90
        1
176
     1
 90
        1
176
     1
 40
40.0
176
     1
 90
        8
176
     1
 62
     7
176
     1
 40
1.0
176
     1
 90
        1
176
     1
 90
        6
176
     1
 90
        2
176
     1
 62
     7
176
     1
 90
        3
176
     1
 90
        0
176
     1
 90
        0
176
     1
290
     0
176
     1
 90
        1
176
     1
 40
0.0
176
     1
 90
        0
176
     1
290
     0
176
     1
290
     1
176
     1
290
     1
176
     1
290
     0
176
     1
290
     0
176
     1
290
     0
176
     1
290
     0
176
     1
290
     0
176
     1
290
     0
176
     1
 90
       50
176
     1
 40
0.0
176
     1
 40
1.0
176
     1
 90
        0
176
     1
 62
    18
420
        0
176
     1
 90
       50
176
     1
 90
        3
176
     1
 62
     5
420
      255
176
     1
290
     0
176
     1
 90
       50
176
     1
 90
       50
176
     1
 90
       50
176
     1
290
     0
176
     1
 90
       50
176
     1
 62
   256
176
     0
 40
1.0
176
     0
 90
        2
176
     1
  1
strokes_ogs.tif
176
     1
290
     0
176
     1
 40
1.0
176
     1
 40
1.0
176
     1
  0
VISUALSTYLE
  5
3F
102
{ACAD_REACTORS
330
2A
102
}
330
2A
100
AcDbVisualStyle
  2
Sketchy
 70
    24
177
     3
291
     0
 70
    58
 90
        1
176
     1
 90
        2
176
     1
 90
        2
176
     1
 90
        0
176
     1
 40
0.6
176
     1
 40
30.0
176
     1
 62
     7
420
 16777215
176
     1
 90
        2
176
     1
 90
        2
176
     1
 62
     7
176
     1
 62
     7
176
     1
 90
        1
176
     1
 90
        1
176
     1
 40
40.0
176
     1
 90
       11
176
     1
 62
     7
176
     1
 40
1.0
176
     1
 90
        1
176
     1
 90
        6
176
     1
 90
        2
176
     1
 62
     7
176
     1
 90
        6
176
     1
 90
        0
176
     1
 90
        0
176
     1
290
     0
176
     1
 90
        1
176
     1
 40
0.0
176
     1
 90
        0
176
     1
290
     0
176
     1
290
     1
176
     1
290
     1
176
     1
290
     0
176
     1
290
     0
176
     1
290
     0
176
     1
290
     0
176
     1
290
     0
176
     1
290
     0
176
     1
 90
       50
176
     1
 40
0.0
176
     1
 40
1.0
176
     1
 90
        0
176
     1
 62
    18
420
        0
176
     1
 90
       50
176
     1
 90
        3
176
     1
 62
     5
420
      255
176
     1
290
     0
176
     1
 90
       50
176
     1
 90
       50
176
     1
 90
       50
176
     1
290
     0
176
     1
 90
       50
176
     1
 62
   256
176
     0
 40
1.0
176
     0
 90
        2
176
     1
  1
strokes_ogs.tif
176
     1
290
     0
176
     1
 40
1.0
176
     1
 40
1.0
176
     1
  0
VISUALSTYLE
  5
37
102
{ACAD_REACTORS
330
2A
102
}
330
2A
100
AcDbVisualStyle
  2
Thicken
 70
    13
177
     3
291
     1
 70
    58
 90
        2
176
     1
 90
        2
176
     1
 90
        0
176
     1
 90
        0
176
     1
 40
0.6
176
     1
 40
30.0
176
     1
 62
     7
420
 16777215
176
     1
 90
        1
176
     1
 90
        4
176
     1
 62
     7
176
     1
 62
   257
176
     1
 90
        1
176
     1
 90
        1
176
     1
 40
1.0
176
     1
 90
       12
176
     1
 62
     7
176
     1
 40
1.0
176
     1
 90
        1
176
     1
 90
        6
176
     1
 90
        2
176
     1
 62
     7
176
     1
 90
        5
176
     1
 90
        0
176
     1
 90
        0
176
     1
290
     0
176
     1
 90
        1
176
     1
 40
0.0
176
     1
 90
        0
176
     1
290
     0
176
     1
290
     1
176
     1
290
     1
176
     1
290
     0
176
     1
290
     0
176
     1
290
     0
176
     1
290
     0
176
     1
290
     0
176
     1
290
     0
176
     1
 90
       50
176
     1
 40
0.0
176
     1
 40
1.0
176
     1
 90
        0
176
     1
 62
    18
420
        0
176
     1
 90
       50
176
     1
 90
        3
176
     1
 62
     5
420
      255
176
     1
290
     0
176
     1
 90
       50
176
     1
 90
       50
176
     1
 90
       50
176
     1
290
     0
176
     1
 90
       50
176
     1
 62
   256
176
     0
 40
1.0
176
     0
 90
        2
176
     1
  1
strokes_ogs.tif
176
     1
290
     0
176
     1
 40
1.0
176
     1
 40
1.0
176
     1
  0
VISUALSTYLE
  5
30
102
{ACAD_REACTORS
330
2A
102
}
330
2A
100
AcDbVisualStyle
  2
Wireframe
 70
     5
177
     3
291
     0
 70
    58
 90
        0
176
     1
 90
        2
176
     1
 90
        0
176
     1
 90
        0
176
     1
 40
0.6
176
     1
 40
30.0
176
     1
 62
     7
420
 16777215
176
     1
 90
        1
176
     1
 90
        4
176
     1
 62
     7
176
     1
 62
   257
176
     1
 90
        1
176
     1
 90
        1
176
     1
 40
1.0
176
     1
 90
        0
176
     1
 62
   257
176
     1
 40
1.0
176
     1
 90
        1
176
     1
 90
        6
176
     1
 90
        2
176
     1
 62
     7
176
     1
 90
        3
176
     1
 90
        0
176
     1
 90
        0
176
     1
290
     0
176
     1
 90
        1
176
     1
 40
0.0
176
     1
 90
        0
176
     1
290
     0
176
     1
290
     1
176
     1
290
     1
176
     1
290
     0
176
     1
290
     0
176
     1
290
     0
176
     1
290
     0
176
     1
290
     0
176
     1
290
     0
176
     1
 90
       50
176
     1
 40
0.0
176
     1
 40
1.0
176
     1
 90
        0
176
     1
 62
    18
420
        0
176
     1
 90
       50
176
     1
 90
        3
176
     1
 62
     5
420
      255
176
     1
290
     0
176
     1
 90
       50
176
     1
 90
       50
176
     1
 90
       50
176
     1
290
     0
176
     1
 90
       50
176
     1
 62
   256
176
     0
 40
1.0
176
     0
 90
        2
176
     1
  1
strokes_ogs.tif
176
     1
290
     0
176
     1
 40
1.0
176
     1
 40
1.0
176
     1
  0
VISUALSTYLE
  5
40
102
{ACAD_REACTORS
330
2A
102
}
330
2A
100
AcDbVisualStyle
  2
X-Ray
 70
    25
177
     3
291
     0
 70
    58
 90
        2
176
     1
 90
        2
176
     1
 90
        1
176
     1
 90
        1
176
     1
 40
0.5
176
     1
 40
30.0
176
     1
 62
     7
420
 16777215
176
     1
 90
        1
176
     1
 90
        0
176
     1
 62
     7
176
     1
 62
   257
176
     1
 90
        1
176
     1
 90
        1
176
     1
 40
1.0
176
     1
 90
        8
176
     1
 62
     7
176
     1
 40
1.0
176
     1
 90
        1
176
     1
 90
        6
176
     1
 90
        2
176
     1
 62
     7
176
     1
 90
        3
176
     1
 90
        0
176
     1
 90
        0
176
     1
290
     0
176
     1
 90
       13
176
     1
 40
0.0
176
     1
 90
        0
176
     1
290
     0
176
     1
290
     1
176
     1
290
     1
176
     1
290
     0
176
     1
290
     0
176
     1
290
     0
176
     1
290
     0
176
     1
290
     0
176
     1
290
     0
176
     1
 90
       50
176
     1
 40
0.0
176
     1
 40
1.0
176
     1
 90
        0
176
     1
 62
    18
420
        0
176
     1
 90
       50
176
     1
 90
        3
176
     1
 62
     5
420
      255
176
     1
290
     0
176
     1
 90
       50
176
     1
 90
       50
176
     1
 90
       50
176
     1
290
     0
176
     1
 90
       50
176
     1
 62
   256
176
     0
 40
1.0
176
     0
 90
        2
176
     1
  1
strokes_ogs.tif
176
     1
290
     0
176
     1
 40
1.0
176
     1
 40
1.0
176
     1
  0
DICTIONARYVAR
  5
1AE
102
{ACAD_REACTORS
330
1AD
102
}
330
1AD
100
DictionaryVariables
280
     0
  1
1:1
  0
DICTIONARYVAR
  5
1B3
102
{ACAD_REACTORS
330
1AD
102
}
330
1AD
100
DictionaryVariables
280
     0
  1
Standard
  0
DICTIONARYVAR
  5
1B2
102
{ACAD_REACTORS
330
1AD
102
}
330
1AD
100
DictionaryVariables
280
     0
  1
Standard
  0
DICTIONARY
  5
1AF
330
6A
100
AcDbDictionary
280
     1
281
     1
  3
ACAD_ROUNDTRIP_2008_TABLESTYLE_CELLSTYLEMAP
360
1B0
  0
CELLSTYLEMAP
  5
1B0
102
{ACAD_REACTORS
330
1AF
102
}
330
1AF
100
AcDbCellStyleMap
 90
        3
300
CELLSTYLE
  1
TABLEFORMAT_BEGIN
 90
        5
170
     1
 91
        0
 92
    32768
 62
   257
 93
        1
300
CONTENTFORMAT
  1
CONTENTFORMAT_BEGIN
 90
        0
 91
        0
 92
        4
 93
        0
300

 40
0.0
140
1.0
 94
        5
 62
     0
340
11
144
0.25
309
CONTENTFORMAT_END
171
     1
301
MARGIN
  1
CELLMARGIN_BEGIN
 40
0.06
 40
0.06
 40
0.06
 40
0.06
 40
0.06
 40
0.06
309
CELLMARGIN_END
 94
        6
 95
        1
302
GRIDFORMAT
  1
GRIDFORMAT_BEGIN
 90
        0
 91
        1
 62
     0
 92
       -2
340
14
 93
        0
 40
0.045
309
GRIDFORMAT_END
 95
        2
302
GRIDFORMAT
  1
GRIDFORMAT_BEGIN
 90
        0
 91
        1
 62
     0
 92
       -2
340
14
 93
        0
 40
0.045
309
GRIDFORMAT_END
 95
        4
302
GRIDFORMAT
  1
GRIDFORMAT_BEGIN
 90
        0
 91
        1
 62
     0
 92
       -2
340
14
 93
        0
 40
0.045
309
GRIDFORMAT_END
 95
        8
302
GRIDFORMAT
  1
GRIDFORMAT_BEGIN
 90
        0
 91
        1
 62
     0
 92
       -2
340
14
 93
        0
 40
0.045
309
GRIDFORMAT_END
 95
       16
302
GRIDFORMAT
  1
GRIDFORMAT_BEGIN
 90
        0
 91
        1
 62
     0
 92
       -2
340
14
 93
        0
 40
0.045
309
GRIDFORMAT_END
 95
       32
302
GRIDFORMAT
  1
GRIDFORMAT_BEGIN
 90
        0
 91
        1
 62
     0
 92
       -2
340
14
 93
        0
 40
0.045
309
GRIDFORMAT_END
309
TABLEFORMAT_END
  1
CELLSTYLE_BEGIN
 90
        1
 91
        1
300
_TITLE
309
CELLSTYLE_END
300
CELLSTYLE
  1
TABLEFORMAT_BEGIN
 90
        5
170
     1
 91
        0
 92
        0
 62
   257
 93
        1
300
CONTENTFORMAT
  1
CONTENTFORMAT_BEGIN
 90
        0
 91
        0
 92
        4
 93
        0
300

 40
0.0
140
1.0
 94
        5
 62
     0
340
11
144
0.18
309
CONTENTFORMAT_END
171
     1
301
MARGIN
  1
CELLMARGIN_BEGIN
 40
0.06
 40
0.06
 40
0.06
 40
0.06
 40
0.06
 40
0.06
309
CELLMARGIN_END
 94
        6
 95
        1
302
GRIDFORMAT
  1
GRIDFORMAT_BEGIN
 90
        0
 91
        1
 62
     0
 92
       -2
340
14
 93
        0
 40
0.045
309
GRIDFORMAT_END
 95
        2
302
GRIDFORMAT
  1
GRIDFORMAT_BEGIN
 90
        0
 91
        1
 62
     0
 92
       -2
340
14
 93
        0
 40
0.045
309
GRIDFORMAT_END
 95
        4
302
GRIDFORMAT
  1
GRIDFORMAT_BEGIN
 90
        0
 91
        1
 62
     0
 92
       -2
340
14
 93
        0
 40
0.045
309
GRIDFORMAT_END
 95
        8
302
GRIDFORMAT
  1
GRIDFORMAT_BEGIN
 90
        0
 91
        1
 62
     0
 92
       -2
340
14
 93
        0
 40
0.045
309
GRIDFORMAT_END
 95
       16
302
GRIDFORMAT
  1
GRIDFORMAT_BEGIN
 90
        0
 91
        1
 62
     0
 92
       -2
340
14
 93
        0
 40
0.045
309
GRIDFORMAT_END
 95
       32
302
GRIDFORMAT
  1
GRIDFORMAT_BEGIN
 90
        0
 91
        1
 62
     0
 92
       -2
340
14
 93
        0
 40
0.045
309
GRIDFORMAT_END
309
TABLEFORMAT_END
  1
CELLSTYLE_BEGIN
 90
        2
 91
        1
300
_HEADER
309
CELLSTYLE_END
300
CELLSTYLE
  1
TABLEFORMAT_BEGIN
 90
        5
170
     1
 91
        0
 92
        0
 62
   257
 93
        1
300
CONTENTFORMAT
  1
CONTENTFORMAT_BEGIN
 90
        0
 91
        0
 92
        4
 93
        0
300

 40
0.0
140
1.0
 94
        2
 62
     0
340
11
144
0.18
309
CONTENTFORMAT_END
171
     1
301
MARGIN
  1
CELLMARGIN_BEGIN
 40
0.06
 40
0.06
 40
0.06
 40
0.06
 40
0.06
 40
0.06
309
CELLMARGIN_END
 94
        6
 95
        1
302
GRIDFORMAT
  1
GRIDFORMAT_BEGIN
 90
        0
 91
        1
 62
     0
 92
       -2
340
14
 93
        0
 40
0.045
309
GRIDFORMAT_END
 95
        2
302
GRIDFORMAT
  1
GRIDFORMAT_BEGIN
 90
        0
 91
        1
 62
     0
 92
       -2
340
14
 93
        0
 40
0.045
309
GRIDFORMAT_END
 95
        4
302
GRIDFORMAT
  1
GRIDFORMAT_BEGIN
 90
        0
 91
        1
 62
     0
 92
       -2
340
14
 93
        0
 40
0.045
309
GRIDFORMAT_END
 95
        8
302
GRIDFORMAT
  1
GRIDFORMAT_BEGIN
 90
        0
 91
        1
 62
     0
 92
       -2
340
14
 93
        0
 40
0.045
309
GRIDFORMAT_END
 95
       16
302
GRIDFORMAT
  1
GRIDFORMAT_BEGIN
 90
        0
 91
        1
 62
     0
 92
       -2
340
14
 93
        0
 40
0.045
309
GRIDFORMAT_END
 95
       32
302
GRIDFORMAT
  1
GRIDFORMAT_BEGIN
 90
        0
 91
        1
 62
     0
 92
       -2
340
14
 93
        0
 40
0.045
309
GRIDFORMAT_END
309
TABLEFORMAT_END
  1
CELLSTYLE_BEGIN
 90
        3
 91
        2
300
_DATA
309
CELLSTYLE_END
  0
ENDSEC
  0
EOF