0
SECTION
  2
HEADER
  9
$ACADVER
  1
AC1027
  9
$ACADMAINTVER
 70
     8
  9
$DWGCODEPAGE
  3
ANSI_1252
  9
$REQUIREDVERSIONS
160
                 0
  9
$COMMENTS
  1
File was created by Cadenas
  9
$CUSTOMPROPERTYTAG
  1
NN
  9
$CUSTOMPROPERTY
  1
Set Screw LFT Duty 2-Bolt Flange Inch Bore
  9
$CUSTOMPROPERTYTAG
  1
NT
  9
$CUSTOMPROPERTY
  1
SC 2 Bolt Flange Bearings -(Normal Duty) -Re-Lube and No-Lube
  9
$CUSTOMPROPERTYTAG
  1
NB
  9
$CUSTOMPROPERTY
  1
124672
  9
$CUSTOMPROPERTYTAG
  1
NBSYN
  9
$CUSTOMPROPERTY
  1
$PN.
  9
$CUSTOMPROPERTYTAG
  1
LINA
  9
$CUSTOMPROPERTY
  1
124672
  9
$CUSTOMPROPERTYTAG
  1
SERIES
  9
$CUSTOMPROPERTY
  1
207
  9
$CUSTOMPROPERTYTAG
  1
SS
  9
$CUSTOMPROPERTY
  1
1-3/8
  9
$CUSTOMPROPERTYTAG
  1
PN
  9
$CUSTOMPROPERTY
  1
124672
  9
$CUSTOMPROPERTYTAG
  1
DESCRIPTION
  9
$CUSTOMPROPERTY
  1
LFT-SC-106-NL
  9
$CUSTOMPROPERTYTAG
  1
W
  9
$CUSTOMPROPERTY
  1
1.75
  9
$CUSTOMPROPERTYTAG
  1
LF
  9
$CUSTOMPROPERTY
  1
NO-LUBE
  9
$CUSTOMPROPERTYTAG
  1
A
  9
$CUSTOMPROPERTY
  1
1.40
  9
$CUSTOMPROPERTYTAG
  1
B
  9
$CUSTOMPROPERTY
  1
4.82
  9
$CUSTOMPROPERTYTAG
  1
C
  9
$CUSTOMPROPERTY
  1
1.59
  9
$CUSTOMPROPERTYTAG
  1
D
  9
$CUSTOMPROPERTY
  1
3.94
  9
$CUSTOMPROPERTYTAG
  1
G
  9
$CUSTOMPROPERTY
  1
0.41
  9
$CUSTOMPROPERTYTAG
  1
H
  9
$CUSTOMPROPERTY
  1
0.50
  9
$CUSTOMPROPERTYTAG
  1
J
  9
$CUSTOMPROPERTY
  1
0.52
  9
$CUSTOMPROPERTYTAG
  1
L
  9
$CUSTOMPROPERTY
  1
1.84
  9
$CUSTOMPROPERTYTAG
  1
M
  9
$CUSTOMPROPERTY
  1
3.50
  9
$CUSTOMPROPERTYTAG
  1
N
  9
$CUSTOMPROPERTY
  1
1.83
  9
$CUSTOMPROPERTYTAG
  1
COMPANY
  9
$CUSTOMPROPERTY
  1
baldor
  9
$INSBASE
 10
0.0
 20
0.0
 30
0.0
  9
$EXTMIN
 10
1.000000000000000E+20
 20
1.000000000000000E+20
 30
1.000000000000000E+20
  9
$EXTMAX
 10
-1.000000000000000E+20
 20
-1.000000000000000E+20
 30
-1.000000000000000E+20
  9
$LIMMIN
 10
0.0
 20
0.0
  9
$LIMMAX
 10
12.0
 20
9.0
  9
$ORTHOMODE
 70
     0
  9
$REGENMODE
 70
     1
  9
$FILLMODE
 70
     1
  9
$QTEXTMODE
 70
     0
  9
$MIRRTEXT
 70
     1
  9
$LTSCALE
 40
1.0
  9
$ATTMODE
 70
     1
  9
$TEXTSIZE
 40
0.2
  9
$TRACEWID
 40
0.05
  9
$TEXTSTYLE
  7
Standard
  9
$CLAYER
  8
0
  9
$CELTYPE
  6
ByLayer
  9
$CECOLOR
 62
   256
  9
$CELTSCALE
 40
1.0
  9
$DISPSILH
 70
     0
  9
$DIMSCALE
 40
1.0
  9
$DIMASZ
 40
0.18
  9
$DIMEXO
 40
0.0625
  9
$DIMDLI
 40
0.38
  9
$DIMRND
 40
0.0
  9
$DIMDLE
 40
0.0
  9
$DIMEXE
 40
0.18
  9
$DIMTP
 40
0.0
  9
$DIMTM
 40
0.0
  9
$DIMTXT
 40
0.18
  9
$DIMCEN
 40
0.09
  9
$DIMTSZ
 40
0.0
  9
$DIMTOL
 70
     0
  9
$DIMLIM
 70
     0
  9
$DIMTIH
 70
     1
  9
$DIMTOH
 70
     1
  9
$DIMSE1
 70
     0
  9
$DIMSE2
 70
     0
  9
$DIMTAD
 70
     0
  9
$DIMZIN
 70
     0
  9
$DIMBLK
  1

  9
$DIMASO
 70
     1
  9
$DIMSHO
 70
     1
  9
$DIMPOST
  1

  9
$DIMAPOST
  1

  9
$DIMALT
 70
     0
  9
$DIMALTD
 70
     2
  9
$DIMALTF
 40
25.4
  9
$DIMLFAC
 40
1.0
  9
$DIMTOFL
 70
     0
  9
$DIMTVP
 40
0.0
  9
$DIMTIX
 70
     0
  9
$DIMSOXD
 70
     0
  9
$DIMSAH
 70
     0
  9
$DIMBLK1
  1

  9
$DIMBLK2
  1

  9
$DIMSTYLE
  2
Standard
  9
$DIMCLRD
 70
     0
  9
$DIMCLRE
 70
     0
  9
$DIMCLRT
 70
     0
  9
$DIMTFAC
 40
1.0
  9
$DIMGAP
 40
0.09
  9
$DIMJUST
 70
     0
  9
$DIMSD1
 70
     0
  9
$DIMSD2
 70
     0
  9
$DIMTOLJ
 70
     1
  9
$DIMTZIN
 70
     0
  9
$DIMALTZ
 70
     0
  9
$DIMALTTZ
 70
     0
  9
$DIMUPT
 70
     0
  9
$DIMDEC
 70
     4
  9
$DIMTDEC
 70
     4
  9
$DIMALTU
 70
     2
  9
$DIMALTTD
 70
     2
  9
$DIMTXSTY
  7
Standard
  9
$DIMAUNIT
 70
     0
  9
$DIMADEC
 70
     0
  9
$DIMALTRND
 40
0.0
  9
$DIMAZIN
 70
     0
  9
$DIMDSEP
 70
    46
  9
$DIMATFIT
 70
     3
  9
$DIMFRAC
 70
     0
  9
$DIMLDRBLK
  1

  9
$DIMLUNIT
 70
     2
  9
$DIMLWD
 70
    -2
  9
$DIMLWE
 70
    -2
  9
$DIMTMOVE
 70
     0
  9
$DIMFXL
 40
1.0
  9
$DIMFXLON
 70
     0
  9
$DIMJOGANG
 40
0.7853981633974483
  9
$DIMTFILL
 70
     0
  9
$DIMTFILLCLR
 70
     0
  9
$DIMARCSYM
 70
     0
  9
$DIMLTYPE
  6

  9
$DIMLTEX1
  6

  9
$DIMLTEX2
  6

  9
$DIMTXTDIRECTION
 70
     0
  9
$LUNITS
 70
     2
  9
$LUPREC
 70
     4
  9
$SKETCHINC
 40
0.1
  9
$FILLETRAD
 40
0.5
  9
$AUNITS
 70
     0
  9
$AUPREC
 70
     0
  9
$MENU
  1
.
  9
$ELEVATION
 40
0.0
  9
$PELEVATION
 40
0.0
  9
$THICKNESS
 40
0.0
  9
$LIMCHECK
 70
     0
  9
$CHAMFERA
 40
0.0
  9
$CHAMFERB
 40
0.0
  9
$CHAMFERC
 40
0.0
  9
$CHAMFERD
 40
0.0
  9
$SKPOLY
 70
     0
  9
$TDCREATE
 40
2458169.00441022
  9
$TDUCREATE
 40
2458168.962743553
  9
$TDUPDATE
 40
2458169.004410394
  9
$TDUUPDATE
 40
2458168.962743727
  9
$TDINDWG
 40
0.0000000116
  9
$TDUSRTIMER
 40
0.0000000116
  9
$USRTIMER
 70
     1
  9
$ANGBASE
 50
0.0
  9
$ANGDIR
 70
     0
  9
$PDMODE
 70
     0
  9
$PDSIZE
 40
0.0
  9
$PLINEWID
 40
0.0
  9
$SPLFRAME
 70
     0
  9
$SPLINETYPE
 70
     6
  9
$SPLINESEGS
 70
     8
  9
$HANDSEED
  5
18D
  9
$SURFTAB1
 70
     6
  9
$SURFTAB2
 70
     6
  9
$SURFTYPE
 70
     6
  9
$SURFU
 70
     6
  9
$SURFV
 70
     6
  9
$UCSBASE
  2

  9
$UCSNAME
  2

  9
$UCSORG
 10
0.0
 20
0.0
 30
0.0
  9
$UCSXDIR
 10
1.0
 20
0.0
 30
0.0
  9
$UCSYDIR
 10
0.0
 20
1.0
 30
0.0
  9
$UCSORTHOREF
  2

  9
$UCSORTHOVIEW
 70
     0
  9
$UCSORGTOP
 10
0.0
 20
0.0
 30
0.0
  9
$UCSORGBOTTOM
 10
0.0
 20
0.0
 30
0.0
  9
$UCSORGLEFT
 10
0.0
 20
0.0
 30
0.0
  9
$UCSORGRIGHT
 10
0.0
 20
0.0
 30
0.0
  9
$UCSORGFRONT
 10
0.0
 20
0.0
 30
0.0
  9
$UCSORGBACK
 10
0.0
 20
0.0
 30
0.0
  9
$PUCSBASE
  2

  9
$PUCSNAME
  2

  9
$PUCSORG
 10
0.0
 20
0.0
 30
0.0
  9
$PUCSXDIR
 10
1.0
 20
0.0
 30
0.0
  9
$PUCSYDIR
 10
0.0
 20
1.0
 30
0.0
  9
$PUCSORTHOREF
  2

  9
$PUCSORTHOVIEW
 70
     0
  9
$PUCSORGTOP
 10
0.0
 20
0.0
 30
0.0
  9
$PUCSORGBOTTOM
 10
0.0
 20
0.0
 30
0.0
  9
$PUCSORGLEFT
 10
0.0
 20
0.0
 30
0.0
  9
$PUCSORGRIGHT
 10
0.0
 20
0.0
 30
0.0
  9
$PUCSORGFRONT
 10
0.0
 20
0.0
 30
0.0
  9
$PUCSORGBACK
 10
0.0
 20
0.0
 30
0.0
  9
$USERI1
 70
     0
  9
$USERI2
 70
     0
  9
$USERI3
 70
     0
  9
$USERI4
 70
     0
  9
$USERI5
 70
     0
  9
$USERR1
 40
0.0
  9
$USERR2
 40
0.0
  9
$USERR3
 40
0.0
  9
$USERR4
 40
0.0
  9
$USERR5
 40
0.0
  9
$WORLDVIEW
 70
     1
  9
$SHADEDGE
 70
     3
  9
$SHADEDIF
 70
    70
  9
$TILEMODE
 70
     1
  9
$MAXACTVP
 70
    64
  9
$PINSBASE
 10
0.0
 20
0.0
 30
0.0
  9
$PLIMCHECK
 70
     0
  9
$PEXTMIN
 10
1.000000000000000E+20
 20
1.000000000000000E+20
 30
1.000000000000000E+20
  9
$PEXTMAX
 10
-1.000000000000000E+20
 20
-1.000000000000000E+20
 30
-1.000000000000000E+20
  9
$PLIMMIN
 10
0.0
 20
0.0
  9
$PLIMMAX
 10
12.0
 20
9.0
  9
$UNITMODE
 70
     0
  9
$VISRETAIN
 70
     1
  9
$PLINEGEN
 70
     0
  9
$PSLTSCALE
 70
     1
  9
$TREEDEPTH
 70
  3020
  9
$CMLSTYLE
  2
Standard
  9
$CMLJUST
 70
     0
  9
$CMLSCALE
 40
1.0
  9
$PROXYGRAPHICS
 70
     1
  9
$MEASUREMENT
 70
     0
  9
$CELWEIGHT
370
    -1
  9
$ENDCAPS
280
     0
  9
$JOINSTYLE
280
     0
  9
$LWDISPLAY
290
     0
  9
$INSUNITS
 70
     1
  9
$HYPERLINKBASE
  1

  9
$STYLESHEET
  1

  9
$XEDIT
290
     1
  9
$CEPSNTYPE
380
     0
  9
$PSTYLEMODE
290
     1
  9
$FINGERPRINTGUID
  2
{488FE6ED-0206-4D22-8704-51B0EAEAD430}
  9
$VERSIONGUID
  2
{FAEB1C32-E019-11D5-929B-00C0DF256EC4}
  9
$EXTNAMES
290
     1
  9
$PSVPSCALE
 40
0.0
  9
$OLESTARTUP
290
     0
  9
$SORTENTS
280
   127
  9
$INDEXCTL
280
     0
  9
$HIDETEXT
280
     1
  9
$XCLIPFRAME
280
     2
  9
$HALOGAP
280
     0
  9
$OBSCOLOR
 70
   257
  9
$OBSLTYPE
280
     0
  9
$INTERSECTIONDISPLAY
280
     0
  9
$INTERSECTIONCOLOR
 70
   257
  9
$DIMASSOC
280
     2
  9
$PROJECTNAME
  1

  9
$CAMERADISPLAY
290
     0
  9
$LENSLENGTH
 40
50.0
  9
$CAMERAHEIGHT
 40
0.0
  9
$STEPSPERSEC
 40
2.0
  9
$STEPSIZE
 40
6.0
  9
$3DDWFPREC
 40
2.0
  9
$PSOLWIDTH
 40
0.25
  9
$PSOLHEIGHT
 40
4.0
  9
$LOFTANG1
 40
1.570796326794897
  9
$LOFTANG2
 40
1.570796326794897
  9
$LOFTMAG1
 40
0.0
  9
$LOFTMAG2
 40
0.0
  9
$LOFTPARAM
 70
     7
  9
$LOFTNORMALS
280
     1
  9
$LATITUDE
 40
37.795
  9
$LONGITUDE
 40
-122.394
  9
$NORTHDIRECTION
 40
0.0
  9
$TIMEZONE
 70
 -8000
  9
$LIGHTGLYPHDISPLAY
280
     1
  9
$TILEMODELIGHTSYNCH
280
     1
  9
$CMATERIAL
347
44
  9
$SOLIDHIST
280
     0
  9
$SHOWHIST
280
     1
  9
$DWFFRAME
280
     2
  9
$DGNFRAME
280
     2
  9
$REALWORLDSCALE
290
     1
  9
$INTERFERECOLOR
 62
   256
  9
$CSHADOW
280
     0
  9
$SHADOWPLANELOCATION
 40
0.0
  0
ENDSEC
  0
SECTION
  2
CLASSES
  0
CLASS
  1
ACDBDICTIONARYWDFLT
  2
AcDbDictionaryWithDefault
  3
ObjectDBX Classes
 90
        0
 91
        4
280
     0
281
     0
  0
CLASS
  1
VISUALSTYLE
  2
AcDbVisualStyle
  3
ObjectDBX Classes
 90
     4095
 91
        4
280
     0
281
     0
  0
CLASS
  1
MATERIAL
  2
AcDbMaterial
  3
ObjectDBX Classes
 90
     1153
 91
        4
280
     0
281
     0
  0
CLASS
  1
SCALE
  2
AcDbScale
  3
ObjectDBX Classes
 90
     1153
 91
        4
280
     0
281
     0
  0
CLASS
  1
TABLESTYLE
  2
AcDbTableStyle
  3
ObjectDBX Classes
 90
     4095
 91
        4
280
     0
281
     0
  0
CLASS
  1
MLEADERSTYLE
  2
AcDbMLeaderStyle
  3
ACDB_MLEADERSTYLE_CLASS
 90
     4095
 91
        4
280
     0
281
     0
  0
CLASS
  1
SUN
  2
AcDbSun
  3
SCENEOE
 90
     1153
 91
        4
280
     0
281
     0
  0
CLASS
  1
DICTIONARYVAR
  2
AcDbDictionaryVar
  3
ObjectDBX Classes
 90
        0
 91
        4
280
     0
281
     0
  0
CLASS
  1
CELLSTYLEMAP
  2
AcDbCellStyleMap
  3
ObjectDBX Classes
 90
     1152
 91
        4
280
     0
281
     0
  0
ENDSEC
  0
SECTION
  2
TABLES
  0
TABLE
  2
VPORT
  5
8
330
0
100
AcDbSymbolTable
 70
     1
  0
VPORT
  5
29
330
8
100
AcDbSymbolTableRecord
100
AcDbViewportTableRecord
  2
*Active
 70
     0
 10
0.0
 20
0.0
 11
1.0
 21
1.0
 12
0.0
 22
-0.803375
 13
0.0
 23
0.0
 14
0.5
 24
0.5
 15
0.5
 25
0.5
 16
0.0
 26
0.0
 36
1.0
 17
0.0
 27
0.0
 37
0.0
 40
1.748024999999999
 41
2.042304886943838
 42
50.0
 43
0.0
 44
0.0
 50
0.0
 51
0.0
 71
     0
 72
   100
 73
     1
 74
     3
 75
     0
 76
     0
 77
     0
 78
     0
281
     0
 65
     1
110
0.0
120
0.0
130
0.0
111
1.0
121
0.0
131
0.0
112
0.0
122
1.0
132
0.0
 79
     0
146
0.0
348
2F
 60
     3
 61
     5
292
     1
282
     1
141
0.0
142
0.0
 63
   250
361
6D
  0
ENDTAB
  0
TABLE
  2
LTYPE
  5
5
330
0
100
AcDbSymbolTable
 70
     3
  0
LTYPE
  5
14
330
5
100
AcDbSymbolTableRecord
100
AcDbLinetypeTableRecord
  2
ByBlock
 70
     0
  3

 72
    65
 73
     0
 40
0.0
  0
LTYPE
  5
15
330
5
100
AcDbSymbolTableRecord
100
AcDbLinetypeTableRecord
  2
ByLayer
 70
     0
  3

 72
    65
 73
     0
 40
0.0
  0
LTYPE
  5
16
330
5
100
AcDbSymbolTableRecord
100
AcDbLinetypeTableRecord
  2
Continuous
 70
     0
  3
Solid line
 72
    65
 73
     0
 40
0.0
  0
LTYPE
  5
9F
330
5
100
AcDbSymbolTableRecord
100
AcDbLinetypeTableRecord
  2
Dashed
 70
     0
  3

 72
    65
 73
     2
 40
2.0
 49
1.0
 74
     0
 49
-1.0
 74
     0
  0
LTYPE
  5
158
330
5
100
AcDbSymbolTableRecord
100
AcDbLinetypeTableRecord
  2
Center
 70
     0
  3

 72
    65
 73
     4
 40
1.5
 49
0.45
 74
     0
 49
-0.5
 74
     0
 49
0.05
 74
     0
 49
-0.5
 74
     0
  0
ENDTAB
  0
TABLE
  2
LAYER
  5
2
330
0
100
AcDbSymbolTable
 70
     6
  0
LAYER
  5
10
330
2
100
AcDbSymbolTableRecord
100
AcDbLayerTableRecord
  2
0
 70
     0
 62
     7
  6
Continuous
370
    -3
390
F
347
46
348
0
  0
LAYER
  5
72
330
2
100
AcDbSymbolTableRecord
100
AcDbLayerTableRecord
  2
AM_6
 70
     0
 62
    -2
  6
Continuous
370
    35
390
F
347
46
348
0
  0
LAYER
  5
A0
330
2
100
AcDbSymbolTableRecord
100
AcDbLayerTableRecord
  2
AM_9
 70
     0
 62
     6
  6
Dashed
370
    25
390
F
347
46
348
0
  0
LAYER
  5
E1
330
2
100
AcDbSymbolTableRecord
100
AcDbLayerTableRecord
  2
AM_4
 70
     0
 62
     7
  6
Continuous
370
    50
390
F
347
46
348
0
  0
LAYER
  5
159
330
2
100
AcDbSymbolTableRecord
100
AcDbLayerTableRecord
  2
AM_7
 70
     0
 62
     7
  6
Center
370
    25
390
F
347
46
348
0
  0
LAYER
  5
180
330
2
100
AcDbSymbolTableRecord
100
AcDbLayerTableRecord
  2
ConnectionPoints
 70
     0
 62
     7
  6
Continuous
370
    50
390
F
347
46
348
0
  0
ENDTAB
  0
TABLE
  2
STYLE
  5
3
330
0
100
AcDbSymbolTable
 70
     1
  0
STYLE
  5
11
330
3
100
AcDbSymbolTableRecord
100
AcDbTextStyleTableRecord
  2
Standard
 70
     0
 40
0.0
 41
1.0
 50
0.0
 71
     0
 42
0.2
  3
txt
  4

  0
ENDTAB
  0
TABLE
  2
VIEW
  5
6
330
0
100
AcDbSymbolTable
 70
     0
  0
ENDTAB
  0
TABLE
  2
UCS
  5
7
330
0
100
AcDbSymbolTable
 70
     0
  0
ENDTAB
  0
TABLE
  2
APPID
  5
9
330
0
100
AcDbSymbolTable
 70
     1
  0
APPID
  5
12
330
9
100
AcDbSymbolTableRecord
100
AcDbRegAppTableRecord
  2
ACAD
 70
     0
  0
ENDTAB
  0
TABLE
  2
DIMSTYLE
  5
A
330
0
100
AcDbSymbolTable
 70
     1
100
AcDbDimStyleTable
  0
DIMSTYLE
105
27
330
A
100
AcDbSymbolTableRecord
100
AcDbDimStyleTableRecord
  2
Standard
 70
     0
178
     0
340
11
  0
ENDTAB
  0
TABLE
  2
BLOCK_RECORD
  5
1
330
0
100
AcDbSymbolTable
 70
     5
  0
BLOCK_RECORD
  5
1F
330
1
100
AcDbSymbolTableRecord
100
AcDbBlockTableRecord
  2
*Model_Space
340
22
 70
     0
280
     1
281
     0
  0
BLOCK_RECORD
  5
1B
330
1
100
AcDbSymbolTableRecord
100
AcDbBlockTableRecord
  2
*Paper_Space
340
1E
 70
     0
280
     1
281
     0
  0
BLOCK_RECORD
  5
23
330
1
100
AcDbSymbolTableRecord
100
AcDbBlockTableRecord
  2
*Paper_Space0
340
26
 70
     0
280
     1
281
     0
  0
BLOCK_RECORD
  5
6E
330
1
100
AcDbSymbolTableRecord
100
AcDbBlockTableRecord
  2
1_124672_4
340
0
102
{BLKREFS
331
6F
102
}
 70
     0
280
     1
281
     0
  0
BLOCK_RECORD
  5
89
330
1
100
AcDbSymbolTableRecord
100
AcDbBlockTableRecord
  2
2_077985_0_in_124672_4
340
0
102
{BLKREFS
331
8A
102
}
 70
     0
280
     1
281
     0
  0
BLOCK_RECORD
  5
ED
330
1
100
AcDbSymbolTableRecord
100
AcDbBlockTableRecord
  2
3_430026_0_in_124672_4
340
0
102
{BLKREFS
331
EE
102
}
 70
     0
280
     1
281
     0
  0
BLOCK_RECORD
  5
11F
330
1
100
AcDbSymbolTableRecord
100
AcDbBlockTableRecord
  2
4_124672H_0_in_124672_4
340
0
102
{BLKREFS
331
120
102
}
 70
     0
280
     1
281
     0
  0
ENDTAB
  0
ENDSEC
  0
SECTION
  2
BLOCKS
  0
BLOCK
  5
20
330
1F
100
AcDbEntity
  8
0
100
AcDbBlockBegin
  2
*Model_Space
 70
     0
 10
0.0
 20
0.0
 30
0.0
  3
*Model_Space
  1

  0
ENDBLK
  5
21
330
1F
100
AcDbEntity
  8
0
100
AcDbBlockEnd
  0
BLOCK
  5
1C
330
1B
100
AcDbEntity
 67
     1
  8
0
100
AcDbBlockBegin
  2
*Paper_Space
 70
     0
 10
0.0
 20
0.0
 30
0.0
  3
*Paper_Space
  1

  0
ENDBLK
  5
1D
330
1B
100
AcDbEntity
 67
     1
  8
0
100
AcDbBlockEnd
  0
BLOCK
  5
24
330
23
100
AcDbEntity
  8
0
100
AcDbBlockBegin
  2
*Paper_Space0
 70
     0
 10
0.0
 20
0.0
 30
0.0
  3
*Paper_Space0
  1

  0
ENDBLK
  5
25
330
23
100
AcDbEntity
  8
0
100
AcDbBlockEnd
  0
BLOCK
  5
70
330
6E
100
AcDbEntity
  8
0
100
AcDbBlockBegin
  2
1_124672_4
 70
     2
 10
0.0
 20
0.0
 30
0.0
  3
1_124672_4
  1

  0
ATTDEF
  5
73
330
6E
100
AcDbEntity
  8
AM_6
100
AcDbText
 10
6.75
 20
0.0535
 30
0.0
 40
0.5
  1
Set Screw LFT Duty 2-Bolt Flange Inch Bore
100
AcDbAttributeDefinition
  3

  2
NN
 70
     8
280
     0
  0
ATTDEF
  5
74
330
6E
100
AcDbEntity
  8
AM_6
100
AcDbText
 10
6.75
 20
-0.4465
 30
0.0
 40
0.5
  1
SC 2 Bolt Flange Bearings -(Normal Duty) -Re-Lube and No-Lube
100
AcDbAttributeDefinition
  3

  2
NT
 70
     8
280
     0
  0
ATTDEF
  5
75
330
6E
100
AcDbEntity
  8
AM_6
100
AcDbText
 10
6.75
 20
-0.9465
 30
0.0
 40
0.5
  1
124672
100
AcDbAttributeDefinition
  3

  2
NB
 70
     8
280
     0
  0
ATTDEF
  5
76
330
6E
100
AcDbEntity
  8
AM_6
100
AcDbText
 10
6.75
 20
-1.4465
 30
0.0
 40
0.5
  1
$PN.
100
AcDbAttributeDefinition
  3

  2
NBSYN
 70
     8
280
     0
  0
ATTDEF
  5
77
330
6E
100
AcDbEntity
  8
AM_6
100
AcDbText
 10
6.75
 20
-1.9465
 30
0.0
 40
0.5
  1
124672
100
AcDbAttributeDefinition
  3

  2
LINA
 70
     8
280
     0
  0
ATTDEF
  5
78
330
6E
100
AcDbEntity
  8
AM_6
100
AcDbText
 10
6.75
 20
-2.4465
 30
0.0
 40
0.5
  1
207
100
AcDbAttributeDefinition
  3

  2
SERIES
 70
     8
280
     0
  0
ATTDEF
  5
79
330
6E
100
AcDbEntity
  8
AM_6
100
AcDbText
 10
6.75
 20
-2.9465
 30
0.0
 40
0.5
  1
1-3/8
100
AcDbAttributeDefinition
  3

  2
SS
 70
     8
280
     0
  0
ATTDEF
  5
7A
330
6E
100
AcDbEntity
  8
AM_6
100
AcDbText
 10
6.75
 20
-3.4465
 30
0.0
 40
0.5
  1
124672
100
AcDbAttributeDefinition
  3

  2
PN
 70
     8
280
     0
  0
ATTDEF
  5
7B
330
6E
100
AcDbEntity
  8
AM_6
100
AcDbText
 10
6.75
 20
-3.9465
 30
0.0
 40
0.5
  1
LFT-SC-106-NL
100
AcDbAttributeDefinition
  3

  2
DESCRIPTION
 70
     8
280
     0
  0
ATTDEF
  5
7C
330
6E
100
AcDbEntity
  8
AM_6
100
AcDbText
 10
6.75
 20
-4.4465
 30
0.0
 40
0.5
  1
1.75
100
AcDbAttributeDefinition
  3

  2
W
 70
     8
280
     0
  0
ATTDEF
  5
7D
330
6E
100
AcDbEntity
  8
AM_6
100
AcDbText
 10
6.75
 20
-4.9465
 30
0.0
 40
0.5
  1
NO-LUBE
100
AcDbAttributeDefinition
  3

  2
LF
 70
     8
280
     0
  0
ATTDEF
  5
7E
330
6E
100
AcDbEntity
  8
AM_6
100
AcDbText
 10
6.75
 20
-5.4465
 30
0.0
 40
0.5
  1
1.40
100
AcDbAttributeDefinition
  3

  2
A
 70
     8
280
     0
  0
ATTDEF
  5
7F
330
6E
100
AcDbEntity
  8
AM_6
100
AcDbText
 10
6.75
 20
-5.9465
 30
0.0
 40
0.5
  1
4.82
100
AcDbAttributeDefinition
  3

  2
B
 70
     8
280
     0
  0
ATTDEF
  5
80
330
6E
100
AcDbEntity
  8
AM_6
100
AcDbText
 10
6.75
 20
-6.4465
 30
0.0
 40
0.5
  1
1.59
100
AcDbAttributeDefinition
  3

  2
C
 70
     8
280
     0
  0
ATTDEF
  5
81
330
6E
100
AcDbEntity
  8
AM_6
100
AcDbText
 10
6.75
 20
-6.9465
 30
0.0
 40
0.5
  1
3.94
100
AcDbAttributeDefinition
  3

  2
D
 70
     8
280
     0
  0
ATTDEF
  5
82
330
6E
100
AcDbEntity
  8
AM_6
100
AcDbText
 10
6.75
 20
-7.4465
 30
0.0
 40
0.5
  1
0.41
100
AcDbAttributeDefinition
  3

  2
G
 70
     8
280
     0
  0
ATTDEF
  5
83
330
6E
100
AcDbEntity
  8
AM_6
100
AcDbText
 10
6.75
 20
-7.9465
 30
0.0
 40
0.5
  1
0.50
100
AcDbAttributeDefinition
  3

  2
H
 70
     8
280
     0
  0
ATTDEF
  5
84
330
6E
100
AcDbEntity
  8
AM_6
100
AcDbText
 10
6.75
 20
-8.4465
 30
0.0
 40
0.5
  1
0.52
100
AcDbAttributeDefinition
  3

  2
J
 70
     8
280
     0
  0
ATTDEF
  5
85
330
6E
100
AcDbEntity
  8
AM_6
100
AcDbText
 10
6.75
 20
-8.9465
 30
0.0
 40
0.5
  1
1.84
100
AcDbAttributeDefinition
  3

  2
L
 70
     8
280
     0
  0
ATTDEF
  5
86
330
6E
100
AcDbEntity
  8
AM_6
100
AcDbText
 10
6.75
 20
-9.4465
 30
0.0
 40
0.5
  1
3.50
100
AcDbAttributeDefinition
  3

  2
M
 70
     8
280
     0
  0
ATTDEF
  5
87
330
6E
100
AcDbEntity
  8
AM_6
100
AcDbText
 10
6.75
 20
-9.9465
 30
0.0
 40
0.5
  1
1.83
100
AcDbAttributeDefinition
  3

  2
N
 70
     8
280
     0
  0
ATTDEF
  5
88
330
6E
100
AcDbEntity
  8
AM_6
100
AcDbText
 10
6.75
 20
-10.4465
 30
0.0
 40
0.5
  1
baldor
100
AcDbAttributeDefinition
  3

  2
COMPANY
 70
     8
280
     0
  0
INSERT
  5
8A
330
6E
100
AcDbEntity
  8
0
100
AcDbBlockReference
  2
2_077985_0_in_124672_4
 10
0.0
 20
0.0
 30
0.0
  0
INSERT
  5
EE
330
6E
100
AcDbEntity
  8
0
100
AcDbBlockReference
  2
3_430026_0_in_124672_4
 10
0.0
 20
0.0
 30
0.0
  0
INSERT
  5
120
330
6E
100
AcDbEntity
  8
0
100
AcDbBlockReference
  2
4_124672H_0_in_124672_4
 10
0.0
 20
0.0
 30
0.0
  0
ENDBLK
  5
71
330
6E
100
AcDbEntity
  8
0
100
AcDbBlockEnd
  0
BLOCK
  5
8B
330
89
100
AcDbEntity
  8
0
100
AcDbBlockBegin
  2
2_077985_0_in_124672_4
 70
     2
 10
0.0
 20
0.0
 30
0.0
  3
2_077985_0_in_124672_4
  1

  0
ATTDEF
  5
8D
330
89
100
AcDbEntity
  8
AM_6
100
AcDbText
 10
6.416645210866026
 20
-0.1849999999999999
 30
0.0
 40
0.5
  1
Set Screw Light Duty Insert with Pin Inch Bore
100
AcDbAttributeDefinition
  3

  2
NN
 70
     8
280
     0
  0
ATTDEF
  5
8E
330
89
100
AcDbEntity
  8
AM_6
100
AcDbText
 10
6.416645210866026
 20
-0.6849999999999999
 30
0.0
 40
0.5
  1
SCP Bearing Inserts
100
AcDbAttributeDefinition
  3

  2
NT
 70
     8
280
     0
  0
ATTDEF
  5
8F
330
89
100
AcDbEntity
  8
AM_6
100
AcDbText
 10
6.416645210866026
 20
-1.185
 30
0.0
 40
0.5
  1
077985
100
AcDbAttributeDefinition
  3

  2
NB
 70
     8
280
     0
  0
ATTDEF
  5
90
330
89
100
AcDbEntity
  8
AM_6
100
AcDbText
 10
6.416645210866026
 20
-1.685
 30
0.0
 40
0.5
  1
$PN.
100
AcDbAttributeDefinition
  3

  2
NBSYN
 70
     8
280
     0
  0
ATTDEF
  5
91
330
89
100
AcDbEntity
  8
AM_6
100
AcDbText
 10
6.416645210866026
 20
-2.185
 30
0.0
 40
0.5
  1
077985
100
AcDbAttributeDefinition
  3

  2
LINA
 70
     8
280
     0
  0
ATTDEF
  5
92
330
89
100
AcDbEntity
  8
AM_6
100
AcDbText
 10
6.416645210866026
 20
-2.685
 30
0.0
 40
0.5
  1
207
100
AcDbAttributeDefinition
  3

  2
SERIES
 70
     8
280
     0
  0
ATTDEF
  5
93
330
89
100
AcDbEntity
  8
AM_6
100
AcDbText
 10
6.416645210866026
 20
-3.185
 30
0.0
 40
0.5
  1
1-3/8
100
AcDbAttributeDefinition
  3

  2
SS
 70
     8
280
     0
  0
ATTDEF
  5
94
330
89
100
AcDbEntity
  8
AM_6
100
AcDbText
 10
6.416645210866026
 20
-3.685
 30
0.0
 40
0.5
  1
077985
100
AcDbAttributeDefinition
  3

  2
PN
 70
     8
280
     0
  0
ATTDEF
  5
95
330
89
100
AcDbEntity
  8
AM_6
100
AcDbText
 10
6.416645210866026
 20
-4.185
 30
0.0
 40
0.5
  1
INS-SCP-106
100
AcDbAttributeDefinition
  3

  2
DESCRIPTION
 70
     8
280
     0
  0
ATTDEF
  5
96
330
89
100
AcDbEntity
  8
AM_6
100
AcDbText
 10
6.416645210866026
 20
-4.685
 30
0.0
 40
0.5
  1
1.40
100
AcDbAttributeDefinition
  3

  2
A
 70
     8
280
     0
  0
ATTDEF
  5
97
330
89
100
AcDbEntity
  8
AM_6
100
AcDbText
 10
6.416645210866026
 20
-5.185
 30
0.0
 40
0.5
  1
0.75
100
AcDbAttributeDefinition
  3

  2
C
 70
     8
280
     0
  0
ATTDEF
  5
98
330
89
100
AcDbEntity
  8
AM_6
100
AcDbText
 10
6.416645210866026
 20
-5.685
 30
0.0
 40
0.5
  1
2.8346
100
AcDbAttributeDefinition
  3

  2
D
 70
     8
280
     0
  0
ATTDEF
  5
99
330
89
100
AcDbEntity
  8
AM_6
100
AcDbText
 10
6.416645210866026
 20
-6.185
 30
0.0
 40
0.5
  1
0.20
100
AcDbAttributeDefinition
  3

  2
J
 70
     8
280
     0
  0
ATTDEF
  5
9A
330
89
100
AcDbEntity
  8
AM_6
100
AcDbText
 10
6.416645210866026
 20
-6.685
 30
0.0
 40
0.5
  1
1.84
100
AcDbAttributeDefinition
  3

  2
L
 70
     8
280
     0
  0
ATTDEF
  5
9B
330
89
100
AcDbEntity
  8
AM_6
100
AcDbText
 10
6.416645210866026
 20
-7.185
 30
0.0
 40
0.5
  1
5/16 - 24
100
AcDbAttributeDefinition
  3

  2
N
 70
     8
280
     0
  0
ATTDEF
  5
9C
330
89
100
AcDbEntity
  8
AM_6
100
AcDbText
 10
6.416645210866026
 20
-7.685
 30
0.0
 40
0.5
  1
0.37
100
AcDbAttributeDefinition
  3

  2
W
 70
     8
280
     0
  0
ATTDEF
  5
9D
330
89
100
AcDbEntity
  8
AM_6
100
AcDbText
 10
6.416645210866026
 20
-8.185
 30
0.0
 40
0.5
  1
1.03
100
AcDbAttributeDefinition
  3

  2
Y
 70
     8
280
     0
  0
ATTDEF
  5
9E
330
89
100
AcDbEntity
  8
AM_6
100
AcDbText
 10
6.416645210866026
 20
-8.685
 30
0.0
 40
0.5
  1
baldor
100
AcDbAttributeDefinition
  3

  2
COMPANY
 70
     8
280
     0
  0
LINE
  5
A1
330
89
100
AcDbEntity
  8
AM_9
100
AcDbLine
 10
0.8291999357905829
 20
-1.380044015198186
 30
0.0
 11
0.8449386277025734
 21
-1.398026166635928
 31
0.0
  0
LINE
  5
A2
330
89
100
AcDbEntity
  8
AM_9
100
AcDbLine
 10
0.8447836287918212
 20
-1.127150926473297
 30
0.0
 11
0.829199935790583
 21
-1.144955984801814
 31
0.0
  0
LWPOLYLINE
  5
A3
330
89
100
AcDbEntity
  8
AM_9
100
AcDbPolyline
 90
       25
 70
     0
 43
0.0
 10
0.8449635242342669
 20
-1.398054611915077
 10
0.853129000753417
 20
-1.405509271021249
 10
0.8614253344163577
 20
-1.409251428214753
 10
0.8687663529341103
 20
-1.408915272804937
 10
0.8755249066820366
 20
-1.404962702658041
 10
0.8814436709923525
 20
-1.397653817021674
 10
0.886577844215152
 20
-1.387272845786924
 10
0.8910582076691073
 20
-1.373515392485013
 10
0.8946811770929464
 20
-1.357229582829812
 10
0.8976587327300495
 20
-1.337457133478137
 10
0.8997768844093675
 20
-1.315860593716519
 10
0.9011549420907274
 20
-1.291518136157758
 10
0.9016916154744746
 20
-1.266409107381795
 10
0.9013859237435012
 20
-1.240379765203141
 10
0.9001935392859132
 20
-1.214971790725203
 10
0.8980491304906886
 20
-1.190858343108491
 10
0.8948770243511178
 20
-1.168847016853461
 10
0.8907036540154474
 20
-1.150195986554995
 10
0.8853999284438112
 20
-1.134921853000828
 10
0.8793666317119545
 20
-1.124312161668641
 10
0.8723785983149225
 20
-1.117691392977301
 10
0.8651718893492234
 20
-1.115466099925212
 10
0.8574614326209619
 20
-1.117025016981392
 10
0.8497832829700162
 20
-1.122098738103953
 10
0.8449557868955614
 20
-1.126954230885897
  0
LINE
  5
A4
330
89
100
AcDbEntity
  8
AM_9
100
AcDbLine
 10
0.8359840403884929
 20
-1.139576193124645
 30
0.0
 11
0.8313292417685766
 21
-1.148181044691258
 31
0.0
  0
LWPOLYLINE
  5
A5
330
89
100
AcDbEntity
  8
AM_9
100
AcDbPolyline
 90
        4
 70
     0
 43
0.0
 10
0.8449557868955614
 20
-1.126954230885897
 10
0.8421205267573078
 20
-1.13042433990247
 10
0.8365968282219041
 20
-1.138558780618553
 10
0.8359840403884929
 20
-1.139576193124645
  0
ELLIPSE
  5
A6
330
89
100
AcDbEntity
  8
AM_9
100
AcDbEllipse
 10
0.6361802817970607
 20
-1.2625
 30
0.0
 11
-2.318256390785982E-17
 21
-0.1262000000000023
 31
0.0
210
0.0
220
0.0
230
1.0
 40
0.3420201433256479
 41
1.247102550681671
 42
1.894490102908124
  0
ELLIPSE
  5
A7
330
89
100
AcDbEntity
  8
AM_9
100
AcDbEllipse
 10
0.6361802817970575
 20
-1.2625
 30
0.0
 11
-2.318256390785929E-17
 21
-0.1261999999999994
 31
0.0
210
0.0
220
0.0
230
1.0
 40
0.3420201433256592
 41
4.388695204271457
 42
5.036082756497922
  0
LINE
  5
A8
330
89
100
AcDbEntity
  8
AM_9
100
AcDbLine
 10
0.6459632671276107
 20
-1.3887
 30
0.0
 11
0.8449099619338616
 21
-1.3887
 31
0.0
  0
LINE
  5
A9
330
89
100
AcDbEntity
  8
AM_9
100
AcDbLine
 10
0.8449099619338616
 20
-1.1363
 30
0.0
 11
0.6459632671276105
 21
-1.1363
 31
0.0
  0
LWPOLYLINE
  5
AA
330
89
100
AcDbEntity
  8
AM_9
100
AcDbPolyline
 90
        8
 70
     0
 43
0.0
 10
0.6553068059266035
 20
-1.139618580767911
 10
0.6567433340547321
 20
-1.140857122708639
 10
0.6622926426778573
 20
-1.148053806224534
 10
0.6669641500926008
 20
-1.158456525473751
 10
0.670744754027386
 20
-1.17170334946454
 10
0.6737029506725909
 20
-1.187720620647812
 10
0.6758592312025228
 20
-1.205861717996251
 10
0.6771016430985799
 20
-1.222359481472725
  0
LWPOLYLINE
  5
AB
330
89
100
AcDbEntity
  8
AM_9
100
AcDbPolyline
 90
        3
 70
     0
 43
0.0
 10
0.6460359414882063
 20
-1.136300000253399
 10
0.6503696628110491
 20
-1.136971431711195
 10
0.6553068059266035
 20
-1.139618580767911
  0
LWPOLYLINE
  5
AC
330
89
100
AcDbEntity
  8
AM_9
100
AcDbPolyline
 90
        9
 70
     0
 43
0.0
 10
0.6460414120049986
 20
-1.388699999746601
 10
0.6414766512361478
 20
-1.388028568288805
 10
0.6337862448594566
 20
-1.384142877291362
 10
0.6259128313770234
 20
-1.376946193775466
 10
0.6181212810611298
 20
-1.36654347452625
 10
0.6107890687143691
 20
-1.35329665053546
 10
0.6041747288820711
 20
-1.337279379352188
 10
0.598715543438453
 20
-1.31913828200375
 10
0.5952589204955381
 20
-1.302640518527275
  0
ELLIPSE
  5
AD
330
89
100
AcDbEntity
  8
AM_9
100
AcDbEllipse
 10
0.4787175948446213
 20
-1.2625
 30
0.0
 11
-2.318256390785949E-17
 21
-0.1262000000000005
 31
0.0
210
0.0
220
0.0
230
1.0
 40
0.7071067811865428
 41
4.388695204271457
 42
5.03608275649792
  0
LINE
  5
AE
330
89
100
AcDbEntity
  8
AM_9
100
AcDbLine
 10
0.4860791672508155
 20
-1.3887
 30
0.0
 11
0.6357840323103028
 21
-1.3887
 31
0.0
  0
LINE
  5
AF
330
89
100
AcDbEntity
  8
AM_9
100
AcDbLine
 10
0.6357840323103028
 20
-1.1363
 30
0.0
 11
0.4860791672508155
 21
-1.1363
 31
0.0
  0
LWPOLYLINE
  5
B0
330
89
100
AcDbEntity
  8
AM_9
100
AcDbPolyline
 90
        9
 70
     0
 43
0.0
 10
0.4861415670207259
 20
-1.136300000253399
 10
0.4768560924515938
 20
-1.136971431711195
 10
0.461822347399638
 20
-1.140857122708639
 10
0.447072568513141
 20
-1.148053806224534
 10
0.433015348162991
 20
-1.158456525473751
 10
0.4201915269114517
 20
-1.17170334946454
 10
0.4089205946298928
 20
-1.187720620647812
 10
0.3998056308074409
 20
-1.205861717996251
 10
0.3941150571392977
 20
-1.222359481472725
  0
LWPOLYLINE
  5
B1
330
89
100
AcDbEntity
  8
AM_9
100
AcDbPolyline
 90
        8
 70
     0
 43
0.0
 10
0.486130257044995
 20
-1.388699999746602
 10
0.4952418773607469
 20
-1.388028568288805
 10
0.5092847959222295
 20
-1.384142877291361
 10
0.5222857153733604
 20
-1.376946193775466
 10
0.5339951430047052
 20
-1.366543474526249
 10
0.5441464239630934
 20
-1.35329665053546
 10
0.5526661548587988
 20
-1.337279379352188
 10
0.5580961785860092
 20
-1.323013433820117
  0
LWPOLYLINE
  5
B2
330
89
100
AcDbEntity
  8
AM_9
100
AcDbPolyline
 90
        7
 70
     0
 43
0.0
 10
0.5633201325499453
 20
-1.302640518527276
 10
0.5635375319141092
 20
-1.301722731698172
 10
0.5667334832057197
 20
-1.28331412436145
 10
0.5679464951171781
 20
-1.264196978307478
 10
0.5672536909764481
 20
-1.246711577728733
 10
0.5648958215272609
 20
-1.229678303683465
 10
0.5633201325499453
 20
-1.222359481472725
  0
LWPOLYLINE
  5
B3
330
89
100
AcDbEntity
  8
AM_9
100
AcDbPolyline
 90
        8
 70
     0
 43
0.0
 10
0.5579984640261962
 20
-1.201685357922709
 10
0.5514324577095063
 20
-1.184994055879708
 10
0.5426179002434662
 20
-1.169395376320667
 10
0.5320608791451723
 20
-1.156414441652878
 10
0.5198521501497273
 20
-1.146413426449515
 10
0.5063076355305073
 20
-1.139711569834165
 10
0.491889577095062
 20
-1.136579412993964
 10
0.4861415670207259
 20
-1.136300000253399
  0
LWPOLYLINE
  5
B4
330
89
100
AcDbEntity
  8
AM_9
100
AcDbPolyline
 90
        7
 70
     0
 43
0.0
 10
0.3941150571392977
 20
-1.222359481472725
 10
0.3938041392928144
 20
-1.223277268301828
 10
0.3891940489450876
 20
-1.24168587563855
 10
0.3874184155201105
 20
-1.260803021692522
 10
0.3884346471801042
 20
-1.278288422271266
 10
0.391853238880376
 20
-1.295321696316535
 10
0.3941150571392977
 20
-1.302640518527276
  0
LWPOLYLINE
  5
B5
330
89
100
AcDbEntity
  8
AM_9
100
AcDbPolyline
 90
        9
 70
     0
 43
0.0
 10
0.3941150571392977
 20
-1.302640518527276
 10
0.4011178189924601
 20
-1.322176760241014
 10
0.4105831153182672
 20
-1.340005944120292
 10
0.4221610877171875
 20
-1.355604623679333
 10
0.4353934667438938
 20
-1.368585558347122
 10
0.4498944049003096
 20
-1.378586573550485
 10
0.4650901291185474
 20
-1.385288430165835
 10
0.4803067262489181
 20
-1.388420587006036
 10
0.486130257044995
 20
-1.388699999746602
  0
LWPOLYLINE
  5
B6
330
89
100
AcDbEntity
  8
AM_9
100
AcDbPolyline
 90
        7
 70
     0
 43
0.0
 10
0.6771016430985798
 20
-1.222359481472725
 10
0.6771062851916784
 20
-1.222423526266108
 10
0.6780926289759786
 20
-1.241031321523397
 10
0.6784631721812878
 20
-1.260387797655966
 10
0.6782758335263709
 20
-1.277899420275877
 10
0.6775937343639897
 20
-1.294968732093898
 10
0.6771016430985798
 20
-1.302640518527276
  0
LWPOLYLINE
  5
B7
330
89
100
AcDbEntity
  8
AM_9
100
AcDbPolyline
 90
        9
 70
     0
 43
0.0
 10
0.6771016430985798
 20
-1.302640518527276
 10
0.6755622912444096
 20
-1.322176760241014
 10
0.673287452942771
 20
-1.340005944120292
 10
0.6701918134417304
 20
-1.355604623679333
 10
0.6662161480353972
 20
-1.368585558347122
 10
0.661279643154279
 20
-1.378586573550485
 10
0.6554261346382507
 20
-1.385288430165835
 10
0.6487897478331032
 20
-1.388420587006036
 10
0.6460414120049986
 20
-1.388699999746601
  0
LWPOLYLINE
  5
B8
330
89
100
AcDbEntity
  8
AM_9
100
AcDbPolyline
 90
        6
 70
     0
 43
0.0
 10
0.5952589204955381
 20
-1.302640518527275
 10
0.5931054569041333
 20
-1.290363161569314
 10
0.5917154002967684
 20
-1.2776541780037
 10
0.5911546395890876
 20
-1.259898869639758
 10
0.5922327830820616
 20
-1.241660507366809
 10
0.5952589204955381
 20
-1.222359481472725
  0
LWPOLYLINE
  5
B9
330
89
100
AcDbEntity
  8
AM_9
100
AcDbPolyline
 90
        9
 70
     0
 43
0.0
 10
0.5952589204955382
 20
-1.222359481472725
 10
0.5995077313333798
 20
-1.202823239758986
 10
0.6051601013833057
 20
-1.184994055879709
 10
0.6119281149722312
 20
-1.169395376320667
 10
0.6194591332194349
 20
-1.156414441652878
 10
0.627441814563813
 20
-1.146413426449515
 10
0.6354896585279669
 20
-1.139711569834166
 10
0.6431872442057577
 20
-1.136579412993964
 10
0.6460359414882063
 20
-1.136300000253399
  0
LINE
  5
BA
330
89
100
AcDbEntity
  8
AM_9
100
AcDbLine
 10
-0.6875
 20
-0.2268
 30
0.0
 11
-0.6875
 21
-1.5532
 31
0.0
  0
LINE
  5
BB
330
89
100
AcDbEntity
  8
AM_9
100
AcDbLine
 10
0.6875
 20
-1.5532
 30
0.0
 11
0.6875
 21
-0.2268
 31
0.0
  0
LINE
  5
BC
330
89
100
AcDbEntity
  8
AM_9
100
AcDbLine
 10
0.6874999999999999
 20
-0.2268
 30
0.0
 11
0.7242999999999988
 21
-0.19
 31
0.0
  0
LINE
  5
BD
330
89
100
AcDbEntity
  8
AM_9
100
AcDbLine
 10
-0.7242999999999988
 20
-0.19
 30
0.0
 11
-0.6874999999999999
 21
-0.2268
 31
0.0
  0
LINE
  5
BE
330
89
100
AcDbEntity
  8
AM_9
100
AcDbLine
 10
0.6874999999999999
 20
-0.2268
 30
0.0
 11
-0.6874999999999999
 21
-0.2268
 31
0.0
  0
LINE
  5
BF
330
89
100
AcDbEntity
  8
AM_9
100
AcDbLine
 10
-0.6875
 20
-1.5532
 30
0.0
 11
-0.7242999999999991
 21
-1.59
 31
0.0
  0
LINE
  5
C0
330
89
100
AcDbEntity
  8
AM_9
100
AcDbLine
 10
0.7242999999999991
 20
-1.59
 30
0.0
 11
0.6875
 21
-1.5532
 31
0.0
  0
LINE
  5
C1
330
89
100
AcDbEntity
  8
AM_9
100
AcDbLine
 10
-1.002584206192277
 20
-0.4641666666666618
 30
0.0
 11
-0.9998580243528175
 21
-0.4641666666666618
 31
0.0
  0
LINE
  5
C2
330
89
100
AcDbEntity
  8
AM_9
100
AcDbLine
 10
-0.9788654088802519
 20
-0.2558333333333381
 30
0.0
 11
-1.002584206192277
 21
-0.2558333333333381
 31
0.0
  0
LWPOLYLINE
  5
C3
330
89
100
AcDbEntity
  8
AM_9
100
AcDbPolyline
 90
       21
 70
     0
 43
0.0
 10
-0.9788251103394471
 20
-0.2558333337165063
 10
-0.9747032316402957
 20
-0.2560091029342094
 10
-0.9627563724899418
 20
-0.2584288872707985
 10
-0.9515964595575189
 20
-0.2636858513678661
 10
-0.9414912746335005
 20
-0.2715876174276403
 10
-0.9327022283853805
 20
-0.2819857322216682
 10
-0.9254914784717616
 20
-0.2945193109069446
 10
-0.9200332747838387
 20
-0.3089932064560327
 10
-0.9165171813681886
 20
-0.3248710560530696
 10
-0.9150560939515978
 20
-0.3418922960368829
 10
-0.9157015230226964
 20
-0.3594181461769228
 10
-0.9184864528248695
 20
-0.3770713286422499
 10
-0.9233079989920704
 20
-0.3942438149098417
 10
-0.9300629100256849
 20
-0.4104377906203448
 10
-0.9385387695311614
 20
-0.4251982138552245
 10
-0.9484575893804893
 20
-0.437996735963943
 10
-0.9595676456671738
 20
-0.4485770483858941
 10
-0.9714490202992064
 20
-0.456522617149478
 10
-0.9838533572457828
 20
-0.4617440336083896
 10
-0.9963171400530839
 20
-0.4640343521576011
 10
-0.9998811748446039
 20
-0.4641666661071241
  0
LWPOLYLINE
  5
C4
330
89
100
AcDbEntity
  8
AM_9
100
AcDbPolyline
 90
       15
 70
     0
 43
0.0
 10
-0.9998811748446039
 20
-0.4641666661071241
 10
-1.008591916366588
 20
-0.4634244214923167
 10
-1.020272531126732
 20
-0.4599123432611259
 10
-1.031092848588296
 20
-0.4536466984678635
 10
-1.040754454690979
 20
-0.4447547330153514
 10
-1.048986688837121
 20
-0.4335405131180174
 10
-1.055587509663198
 20
-0.4201916227816002
 10
-1.060337701841783
 20
-0.4051901169161866
 10
-1.063103419954292
 20
-0.3887761025325621
 10
-1.063785911389874
 20
-0.3715650526448192
 10
-1.062321508100184
 20
-0.3538923539177054
 10
-1.058767468154544
 20
-0.3363916690672912
 10
-1.053176517821377
 20
-0.3195215599144208
 10
-1.045736793938548
 20
-0.3038000319653296
 10
-1.033884777713398
 20
-0.2861678851622453
  0
ELLIPSE
  5
C5
330
89
100
AcDbEntity
  8
AM_9
100
AcDbEllipse
 10
-1.050796032182269
 20
-0.36
 30
0.0
 11
2.203436475738950E-18
 21
0.03598484848485406
 31
0.0
210
0.0
220
0.0
230
1.0
 40
0.7071067811865467
 41
0.0
 42
6.283185307179586
  0
LWPOLYLINE
  5
C6
330
89
100
AcDbEntity
  8
AM_9
100
AcDbPolyline
 90
       32
 70
     0
 43
0.0
 10
-1.002550748585313
 20
-0.2558333398283851
 10
-1.002902384328798
 20
-0.2558339207341248
 10
-1.012828701369421
 20
-0.2564442106838319
 10
-1.0225326706931
 20
-0.2581706193070122
 10
-1.031918445270277
 20
-0.2609624397472967
 10
-1.040905046485081
 20
-0.2647664576564442
 10
-1.049421842558258
 20
-0.2695294807429073
 10
-1.057406858609889
 20
-0.275200350268524
 10
-1.064804274719215
 20
-0.2817309668229805
 10
-1.071561214964486
 20
-0.2890756745880347
 10
-1.077624288944532
 20
-0.2971883179170839
 10
-1.082936878055201
 20
-0.3060167472182773
 10
-1.087438573226637
 20
-0.3154958244195019
 10
-1.091067817398595
 20
-0.3255417822514328
 10
-1.093767156678053
 20
-0.3360515647259547
 10
-1.095488354391399
 20
-0.3469085626539924
 10
-1.096194216589671
 20
-0.3579916882087517
 10
-1.095856402001078
 20
-0.3691816529943283
 10
-1.094451386570232
 20
-0.3803634305680327
 10
-1.09195856550013
 20
-0.391417680222667
 10
-1.088364702550726
 20
-0.4022097641593481
 10
-1.08367369906624
 20
-0.4125848996564091
 10
-1.077918585721916
 20
-0.4223712008432934
 10
-1.071923491741115
 20
-0.4304851192005133
 10
-1.065236209655526
 20
-0.4378429841397381
 10
-1.057927474603192
 20
-0.4443836014014195
 10
-1.050069370850853
 20
-0.4500570862624106
 10
-1.040798202158239
 20
-0.4552857901262494
 10
-1.03111340558088
 20
-0.4593225503880428
 10
-1.021181248539353
 20
-0.4621386271108484
 10
-1.011136329754386
 20
-0.4637413610314684
 10
-1.002570603393085
 20
-0.4641666655930454
  0
LWPOLYLINE
  5
C7
330
89
100
AcDbEntity
  8
AM_9
100
AcDbPolyline
 90
        3
 70
     0
 43
0.0
 10
0.8362369106481158
 20
-1.385847899694594
 10
0.8447181280244614
 20
-1.397772507269628
 10
0.8449635242342669
 20
-1.398054611915077
  0
LWPOLYLINE
  5
C8
330
89
100
AcDbEntity
  8
AM_9
100
AcDbPolyline
 90
       13
 70
     0
 43
0.0
 10
0.8313292417685766
 20
-1.148181044691258
 10
0.8248081062460255
 20
-1.1632430278298
 10
0.8191376627917413
 20
-1.180321311136059
 10
0.813928628571227
 20
-1.201893936589426
 10
0.8102872178902237
 20
-1.224990016206058
 10
0.8083402942927865
 20
-1.250271436111227
 10
0.8083774668169861
 20
-1.275883513758397
 10
0.8104980404651039
 20
-1.301682551788673
 10
0.8145889205898139
 20
-1.326363488785777
 10
0.8204458699559036
 20
-1.349029612987298
 10
0.827782162447308
 20
-1.369126402177821
 10
0.8359151182494944
 20
-1.385288382379949
 10
0.8362369106481158
 20
-1.385847899694594
  0
LINE
  5
C9
330
89
100
AcDbEntity
  8
AM_9
100
AcDbLine
 10
-0.9200000000000033
 20
-0.9350000000000002
 30
0.0
 11
-0.9200000000000033
 21
-1.07
 31
0.0
  0
LINE
  5
CA
330
89
100
AcDbEntity
  8
AM_9
100
AcDbLine
 10
0.9200000000000033
 20
-1.07
 30
0.0
 11
0.9200000000000033
 21
-0.9350000000000002
 31
0.0
  0
LINE
  5
CB
330
89
100
AcDbEntity
  8
AM_9
100
AcDbLine
 10
-0.9200000000000033
 20
-0.1849999999999999
 30
0.0
 11
-0.9200000000000033
 21
-0.19
 31
0.0
  0
LINE
  5
CC
330
89
100
AcDbEntity
  8
AM_9
100
AcDbLine
 10
0.9200000000000033
 20
-0.19
 30
0.0
 11
0.9200000000000033
 21
-0.1849999999999999
 31
0.0
  0
LINE
  5
CD
330
89
100
AcDbEntity
  8
AM_9
100
AcDbLine
 10
0.9200000000000033
 20
-0.19
 30
0.0
 11
-0.9200000000000033
 21
-0.19
 31
0.0
  0
LINE
  5
CE
330
89
100
AcDbEntity
  8
AM_9
100
AcDbLine
 10
-1.350633333333336
 20
-0.7200000000000001
 30
0.0
 11
-1.350633333333336
 21
-0.8
 31
0.0
  0
LINE
  5
CF
330
89
100
AcDbEntity
  8
AM_9
100
AcDbLine
 10
1.350633333333336
 20
-0.8
 30
0.0
 11
1.350633333333336
 21
-0.7200000000000001
 31
0.0
  0
LINE
  5
D0
330
89
100
AcDbEntity
  8
AM_9
100
AcDbLine
 10
1.335937981344939
 20
-0.1849999999999999
 30
0.0
 11
-1.335937981344939
 21
-0.1849999999999999
 31
0.0
  0
ARC
  5
D1
330
89
100
AcDbEntity
  8
AM_9
100
AcDbCircle
 10
-1.335937981344943
 20
-0.2249999999999997
 30
0.0
 40
0.0399999999999997
100
AcDbArc
 50
90.0
 51
165.9227727932854
  0
ARC
  5
D2
330
89
100
AcDbEntity
  8
AM_9
100
AcDbCircle
 10
1.335937981344943
 20
-0.2249999999999997
 30
0.0
 40
0.0399999999999998
100
AcDbArc
 50
14.07722720671463
 51
90.0
  0
LINE
  5
D3
330
89
100
AcDbEntity
  8
AM_9
100
AcDbLine
 10
1.335937981344939
 20
-0.935
 30
0.0
 11
-1.335937981344939
 21
-0.935
 31
0.0
  0
ARC
  5
D4
330
89
100
AcDbEntity
  8
AM_9
100
AcDbCircle
 10
-1.335937981344942
 20
-0.8949999999999994
 30
0.0
 40
0.0400000000000008
100
AcDbArc
 50
194.0772272067153
 51
270.0
  0
ARC
  5
D5
330
89
100
AcDbEntity
  8
AM_9
100
AcDbCircle
 10
1.335937981344942
 20
-0.8949999999999994
 30
0.0
 40
0.0400000000000007
100
AcDbArc
 50
270.0
 51
345.9227727932848
  0
ARC
  5
D6
330
89
100
AcDbEntity
  8
AM_9
100
AcDbCircle
 10
-0.0000000001414793
 20
-0.5600000000298335
 30
0.0
 40
1.417299999855615
100
AcDbArc
 50
189.7492185246932
 51
194.0772272069336
  0
ARC
  5
D7
330
89
100
AcDbEntity
  8
AM_9
100
AcDbCircle
 10
0.0000000000269564
 20
-0.5600000000056875
 30
0.0
 40
1.417299999972487
100
AcDbArc
 50
345.9227727932449
 51
350.2507814751282
  0
LINE
  5
D8
330
89
100
AcDbEntity
  8
AM_9
100
AcDbLine
 10
1.396831876068143
 20
-0.8
 30
0.0
 11
-1.39683187606823
 21
-0.8
 31
0.0
  0
LINE
  5
D9
330
89
100
AcDbEntity
  8
AM_9
100
AcDbLine
 10
1.374736731983018
 20
-0.9047291802802594
 30
0.0
 11
-1.374736731983106
 21
-0.9047291802802594
 31
0.0
  0
LWPOLYLINE
  5
DA
330
89
100
AcDbEntity
  8
AM_9
100
AcDbPolyline
 90
        6
 70
     0
 43
0.0
 10
-1.033884777713398
 20
-0.2861678851622453
 10
-1.023300325979763
 20
-0.2749526908339482
 10
-1.011754254992459
 20
-0.2660924580383723
 10
-0.9995552122189056
 20
-0.2598828066401594
 10
-0.9870622426694717
 20
-0.2564753527041174
 10
-0.9788251103394471
 20
-0.2558333337165063
  0
ARC
  5
DB
330
89
100
AcDbEntity
  8
AM_9
100
AcDbCircle
 10
0.0000000000000238
 20
-0.5599999999999998
 30
0.0
 40
1.417300000000026
100
AcDbArc
 50
165.922772793287
 51
186.4819792005179
  0
ARC
  5
DC
330
89
100
AcDbEntity
  8
AM_9
100
AcDbCircle
 10
-0.0000000000003619
 20
-0.5600000000000227
 30
0.0
 40
1.417300000000357
100
AcDbArc
 50
353.5180207994845
 51
14.0772272067106
  0
LINE
  5
DD
330
89
100
AcDbEntity
  8
AM_9
100
AcDbLine
 10
1.374736731983001
 20
-0.2152708197197403
 30
0.0
 11
-1.374736731983004
 21
-0.2152708197197403
 31
0.0
  0
LINE
  5
DE
330
89
100
AcDbEntity
  8
AM_9
100
AcDbLine
 10
1.407914404837777
 20
-0.7200000000000001
 30
0.0
 11
-1.408239784269713
 21
-0.7200000000000001
 31
0.0
  0
ELLIPSE
  5
DF
330
89
100
AcDbEntity
  8
AM_9
100
AcDbEllipse
 10
0.8449099619338615
 20
-1.2625
 30
0.0
 11
-2.318256390785937E-17
 21
-0.1261999999999999
 31
0.0
210
0.0
220
0.0
230
1.0
 40
0.3420201433256686
 41
0.0
 42
6.283185307179586
  0
ELLIPSE
  5
E0
330
89
100
AcDbEntity
  8
AM_9
100
AcDbEllipse
 10
-1.002584206192277
 20
-0.3599999999999999
 30
0.0
 11
-1.913510623667651E-17
 21
-0.1041666666666619
 31
0.0
210
0.0
220
0.0
230
1.0
 40
0.7071067811865461
 41
0.0
 42
6.283185307179586
  0
ELLIPSE
  5
E2
330
89
100
AcDbEntity
  8
AM_4
100
AcDbEllipse
 10
0.4787175948446217
 20
-1.2625
 30
0.0
 11
-2.318256390785961E-17
 21
-0.1262000000000012
 31
0.0
210
0.0
220
0.0
230
1.0
 40
0.7071067811865386
 41
1.247102550681668
 42
1.894490102908127
  0
LWPOLYLINE
  5
E3
330
89
100
AcDbEntity
  8
AM_4
100
AcDbPolyline
 90
        3
 70
     0
 43
0.0
 10
0.5580961785860092
 20
-1.323013433820117
 10
0.5592957246168292
 20
-1.319138282003749
 10
0.5633201325499453
 20
-1.302640518527276
  0
LWPOLYLINE
  5
E4
330
89
100
AcDbEntity
  8
AM_4
100
AcDbPolyline
 90
        3
 70
     0
 43
0.0
 10
0.5633201325499453
 20
-1.222359481472725
 10
0.558356204224175
 20
-1.202823239758986
 10
0.5579984640261962
 20
-1.201685357922709
  0
LINE
  5
E5
330
89
100
AcDbEntity
  8
AM_4
100
AcDbLine
 10
0.8832000000000186
 20
-1.59
 30
0.0
 11
0.9200000000000033
 21
-1.5532
 31
0.0
  0
LINE
  5
E6
330
89
100
AcDbEntity
  8
AM_4
100
AcDbLine
 10
-0.9200000000000033
 20
-1.5532
 30
0.0
 11
-0.8832000000000186
 21
-1.59
 31
0.0
  0
LINE
  5
E7
330
89
100
AcDbEntity
  8
AM_4
100
AcDbLine
 10
0.8832000000000186
 20
-1.59
 30
0.0
 11
-0.8832000000000186
 21
-1.59
 31
0.0
  0
LWPOLYLINE
  5
E8
330
89
100
AcDbEntity
  8
AM_4
100
AcDbPolyline
 90
       39
 70
     0
 43
0.0
 10
0.7168169542044421
 20
-1.161181437004228
 10
0.724775957457179
 20
-1.17784652772706
 10
0.7310992430091876
 20
-1.196148849922973
 10
0.736428748189322
 20
-1.219482746823622
 10
0.7393974401271308
 20
-1.243934510606998
 10
0.7399492901953258
 20
-1.269835613420554
 10
0.7379444470832094
 20
-1.295533746749209
 10
0.7332966116541175
 20
-1.320569920502205
 10
0.7260584402032586
 20
-1.343921619890414
 10
0.7164368536578506
 20
-1.364468810035155
 10
0.704450763343596
 20
-1.381958485962769
 10
0.6910534609973565
 20
-1.395012595939714
 10
0.6759610063337919
 20
-1.404160962320536
 10
0.6608336971249853
 20
-1.408694965698017
 10
0.6450127843294983
 20
-1.409326647142134
 10
0.6298181033714684
 20
-1.406232935544017
 10
0.6148830051878208
 20
-1.399730272048443
 10
0.6005422921550799
 20
-1.389935317439313
 10
0.5873020113285826
 20
-1.377270190060705
 10
0.5748878455304364
 20
-1.361141637329701
 10
0.5644266483069582
 20
-1.342721135452214
 10
0.5557112221555899
 20
-1.320957688507626
 10
0.5497936361138701
 20
-1.297725281770429
 10
0.5468096380378485
 20
-1.272339631882972
 10
0.5471948414367499
 20
-1.246687086117893
 10
0.5510997279637819
 20
-1.220953187089769
 10
0.5583770894598492
 20
-1.196407337733952
 10
0.5687501576291267
 20
-1.173975615397851
 10
0.5818761401597519
 20
-1.15417633127902
 10
0.596668149980323
 20
-1.138383688356996
 10
0.6130743465930941
 20
-1.126303943834206
 10
0.6292148654026096
 20
-1.118967433368573
 10
0.6456802780514499
 20
-1.1156192615517
 10
0.6608427155501482
 20
-1.116303659637787
 10
0.675366015673782
 20
-1.120579453697294
 10
0.6886855821601708
 20
-1.128197235299089
 10
0.7007490316227798
 20
-1.138862165043329
 10
0.7092727498612681
 20
-1.149269564580207
 10
0.716816954090077
 20
-1.161181436933214
  0
LINE
  5
E9
330
89
100
AcDbEntity
  8
AM_4
100
AcDbLine
 10
-0.9200000000000033
 20
-1.07
 30
0.0
 11
-0.9200000000000033
 21
-1.5532
 31
0.0
  0
LINE
  5
EA
330
89
100
AcDbEntity
  8
AM_4
100
AcDbLine
 10
0.9200000000000033
 20
-1.5532
 30
0.0
 11
0.9200000000000033
 21
-1.07
 31
0.0
  0
LINE
  5
EB
330
89
100
AcDbEntity
  8
AM_4
100
AcDbLine
 10
0.9200000000000033
 20
-1.5532
 30
0.0
 11
-0.9200000000000033
 21
-1.5532
 31
0.0
  0
ELLIPSE
  5
EC
330
89
100
AcDbEntity
  8
AM_4
100
AcDbEllipse
 10
0.6357840323103028
 20
-1.2625
 30
0.0
 11
-2.318256390785941E-17
 21
-0.1262000000000001
 31
0.0
210
0.0
220
0.0
230
1.0
 40
0.7071067811865475
 41
0.0
 42
6.283185307179586
  0
ENDBLK
  5
8C
330
89
100
AcDbEntity
  8
0
100
AcDbBlockEnd
  0
BLOCK
  5
EF
330
ED
100
AcDbEntity
  8
0
100
AcDbBlockBegin
  2
3_430026_0_in_124672_4
 70
     2
 10
0.0
 20
0.0
 30
0.0
  3
3_430026_0_in_124672_4
  1

  0
ATTDEF
  5
F1
330
ED
100
AcDbEntity
  8
AM_6
100
AcDbText
 10
6.650580556921397
 20
-0.4906471816532137
 30
0.0
 40
0.5
  1
430026 Plug
100
AcDbAttributeDefinition
  3

  2
NN
 70
     8
280
     0
  0
ATTDEF
  5
F2
330
ED
100
AcDbEntity
  8
AM_6
100
AcDbText
 10
6.650580556921397
 20
-0.9906471816532137
 30
0.0
 40
0.5
  1
Plug
100
AcDbAttributeDefinition
  3

  2
NT
 70
     8
280
     0
  0
ATTDEF
  5
F3
330
ED
100
AcDbEntity
  8
AM_6
100
AcDbText
 10
6.650580556921397
 20
-1.490647181653214
 30
0.0
 40
0.5
  1
430026
100
AcDbAttributeDefinition
  3

  2
NB
 70
     8
280
     0
  0
ATTDEF
  5
F4
330
ED
100
AcDbEntity
  8
AM_6
100
AcDbText
 10
6.650580556921397
 20
-1.990647181653214
 30
0.0
 40
0.5
  1
$PN.
100
AcDbAttributeDefinition
  3

  2
NBSYN
 70
     8
280
     0
  0
ATTDEF
  5
F5
330
ED
100
AcDbEntity
  8
AM_6
100
AcDbText
 10
6.650580556921397
 20
-2.490647181653214
 30
0.0
 40
0.5
  1
430026
100
AcDbAttributeDefinition
  3

  2
LINA
 70
     8
280
     0
  0
ATTDEF
  5
F6
330
ED
100
AcDbEntity
  8
AM_6
100
AcDbText
 10
6.650580556921397
 20
-2.990647181653214
 30
0.0
 40
0.5
  1
430026
100
AcDbAttributeDefinition
  3

  2
PN
 70
     8
280
     0
  0
ATTDEF
  5
F7
330
ED
100
AcDbEntity
  8
AM_6
100
AcDbText
 10
6.650580556921397
 20
-3.490647181653214
 30
0.0
 40
0.5
  1
baldor
100
AcDbAttributeDefinition
  3

  2
COMPANY
 70
     8
280
     0
  0
LINE
  5
F8
330
ED
100
AcDbEntity
  8
AM_9
100
AcDbLine
 10
1.506081538541462
 20
-0.6887194901906338
 30
0.0
 11
1.479387896014768
 21
-0.5962500000000001
 31
0.0
  0
LINE
  5
F9
330
ED
100
AcDbEntity
  8
AM_9
100
AcDbLine
 10
1.479387896014768
 20
-0.7837500000000001
 30
0.0
 11
1.506081538541462
 21
-0.6912805098093665
 31
0.0
  0
LINE
  5
FA
330
ED
100
AcDbEntity
  8
AM_9
100
AcDbLine
 10
1.398198014409976
 20
-0.6900000000000001
 30
0.0
 11
1.42526130827824
 21
-0.7837500000000001
 31
0.0
  0
LINE
  5
FB
330
ED
100
AcDbEntity
  8
AM_9
100
AcDbLine
 10
1.42526130827824
 20
-0.5962500000000001
 30
0.0
 11
1.398198014409976
 21
-0.6900000000000001
 31
0.0
  0
LINE
  5
FC
330
ED
100
AcDbEntity
  8
AM_9
100
AcDbLine
 10
1.390737908841756
 20
-0.7594165072154486
 30
0.0
 11
1.442474368737257
 21
-0.7816567188324643
 31
0.0
  0
LINE
  5
FD
330
ED
100
AcDbEntity
  8
AM_9
100
AcDbLine
 10
1.442474368737257
 20
-0.5983432811675357
 30
0.0
 11
1.390737908841756
 21
-0.6205834927845514
 31
0.0
  0
LINE
  5
FE
330
ED
100
AcDbEntity
  8
AM_9
100
AcDbLine
 10
1.23923977060714
 20
-0.8267510877807696
 30
0.0
 11
1.250409411760611
 21
-0.8433171693263528
 31
0.0
  0
LINE
  5
FF
330
ED
100
AcDbEntity
  8
AM_9
100
AcDbLine
 10
1.250409411760611
 20
-0.5366828306736472
 30
0.0
 11
1.23923977060714
 21
-0.5532489122192304
 31
0.0
  0
LINE
  5
100
330
ED
100
AcDbEntity
  8
AM_9
100
AcDbLine
 10
1.42526130827824
 20
-0.5962500000000001
 30
0.0
 11
1.532867714738791
 21
-0.5962500000000001
 31
0.0
  0
LINE
  5
101
330
ED
100
AcDbEntity
  8
AM_9
100
AcDbLine
 10
1.42526130827824
 20
-0.7837500000000001
 30
0.0
 11
1.532867714738791
 21
-0.7837500000000001
 31
0.0
  0
LINE
  5
102
330
ED
100
AcDbEntity
  8
AM_9
100
AcDbLine
 10
1.398198014409976
 20
-0.6900000000000001
 30
0.0
 11
1.505804420870527
 21
-0.6900000000000001
 31
0.0
  0
LINE
  5
103
330
ED
100
AcDbEntity
  8
AM_9
100
AcDbLine
 10
1.527864252663837
 20
-0.7771791557334286
 30
0.0
 11
1.5258878671392
 21
-0.7744380847621454
 31
0.0
  0
LWPOLYLINE
  5
104
330
ED
100
AcDbEntity
  8
AM_9
100
AcDbPolyline
 90
        8
 70
     0
 43
0.0
 10
1.505804420870527
 20
-0.6900000000000001
 10
1.503363105987902
 20
-0.6704604790331714
 10
1.503645234018676
 20
-0.659935504419161
 10
1.505289553919977
 20
-0.6490125339528988
 10
1.50992671640618
 20
-0.633986434300393
 10
1.517386461759012
 20
-0.6187603644739311
 10
1.524635060672467
 20
-0.6073509620107465
 10
1.525791751950823
 20
-0.6056976817490273
  0
LINE
  5
105
330
ED
100
AcDbEntity
  8
AM_9
100
AcDbLine
 10
1.525922861724159
 20
-0.7744877389195106
 30
0.0
 11
1.529112187948724
 21
-0.7789981273211222
 31
0.0
  0
LINE
  5
106
330
ED
100
AcDbEntity
  8
AM_9
100
AcDbLine
 10
1.529112187948724
 20
-0.6010018726788778
 30
0.0
 11
1.525797947924609
 21
-0.6056889158699413
 31
0.0
  0
LWPOLYLINE
  5
107
330
ED
100
AcDbEntity
  8
AM_9
100
AcDbPolyline
 90
        8
 70
     0
 43
0.0
 10
1.5258878671392
 20
-0.7744380847621454
 10
1.519145252166131
 20
-0.7642104790331715
 10
1.513350783270292
 20
-0.753685504419161
 10
1.508688723232546
 20
-0.7427625339528987
 10
1.504650563039506
 20
-0.7277364343003931
 10
1.503319532879329
 20
-0.7125103644739311
 10
1.503980910209371
 20
-0.7011009620107465
 10
1.505804420870527
 20
-0.6900000000000001
  0
LINE
  5
108
330
ED
100
AcDbEntity
  8
AM_9
100
AcDbLine
 10
1.305536701743823
 20
-0.8808425298951831
 30
0.0
 11
1.513756576158488
 21
-0.888349913958261
 31
0.0
  0
LINE
  5
109
330
ED
100
AcDbEntity
  8
AM_9
100
AcDbLine
 10
1.513756576158488
 20
-0.491650086041739
 30
0.0
 11
1.305536701743823
 21
-0.4991574701048169
 31
0.0
  0
ELLIPSE
  5
10A
330
ED
100
AcDbEntity
  8
AM_9
100
AcDbEllipse
 10
1.543265704180122
 20
-0.6900000000000001
 30
0.0
 11
1.220859406417988E-17
 21
0.1993814718281218
 31
0.0
210
0.0
220
0.0
230
1.0
 40
0.4999999999999986
 41
3.735504113556939
 42
5.689273847212442
  0
ELLIPSE
  5
10B
330
ED
100
AcDbEntity
  8
AM_9
100
AcDbEllipse
 10
1.452324602146527
 20
-0.6899999999999412
 30
0.0
 11
5.740531870999616E-18
 21
0.09374999999994116
 31
0.0
210
0.0
220
0.0
230
1.0
 40
0.5000000000000107
 41
0.0
 42
6.283185307179586
  0
ELLIPSE
  5
10C
330
ED
100
AcDbEntity
  8
AM_9
100
AcDbEllipse
 10
1.398198014409977
 20
-0.6900000000000007
 30
0.0
 11
4.347610051068747E-18
 21
0.07100186035836165
 31
0.0
210
0.0
220
0.0
230
1.0
 40
0.5000000000000039
 41
0.0
 42
6.283185307179586
  0
ELLIPSE
  5
10D
330
ED
100
AcDbEntity
  8
AM_9
100
AcDbEllipse
 10
1.289944838936921
 20
-0.6899999999999998
 30
0.0
 11
1.042477230807523E-17
 21
0.1702494517657395
 31
0.0
210
0.0
220
0.0
230
1.0
 40
0.4999999999999976
 41
0.0
 42
6.283185307179586
  0
ELLIPSE
  5
10E
330
ED
100
AcDbEntity
  8
AM_9
100
AcDbEllipse
 10
1.307256912376357
 20
-0.6900000000000004
 30
0.0
 11
1.168763340082622E-17
 21
0.1908735385412938
 31
0.0
210
0.0
220
0.0
230
1.0
 40
0.4999999999999996
 41
0.0
 42
6.283185307179586
  0
LINE
  5
10F
330
ED
100
AcDbEntity
  8
AM_4
100
AcDbLine
 10
1.506451189883031
 20
-0.6900000000000001
 30
0.0
 11
1.506081538541462
 21
-0.6887194901906338
 31
0.0
  0
LINE
  5
110
330
ED
100
AcDbEntity
  8
AM_4
100
AcDbLine
 10
1.506451189883031
 20
-0.6900000000000001
 30
0.0
 11
1.614057596343582
 21
-0.6900000000000001
 31
0.0
  0
LINE
  5
111
330
ED
100
AcDbEntity
  8
AM_4
100
AcDbLine
 10
1.506081538541462
 20
-0.6912805098093665
 30
0.0
 11
1.506451189883031
 21
-0.6900000000000001
 31
0.0
  0
LINE
  5
112
330
ED
100
AcDbEntity
  8
AM_4
100
AcDbLine
 10
1.532867714738791
 20
-0.7837500000000001
 30
0.0
 11
1.527864252663837
 21
-0.7771791557334286
 31
0.0
  0
LINE
  5
113
330
ED
100
AcDbEntity
  8
AM_4
100
AcDbLine
 10
1.532867714738791
 20
-0.5962500000000001
 30
0.0
 11
1.586994302475318
 21
-0.5962500000000001
 31
0.0
  0
LWPOLYLINE
  5
114
330
ED
100
AcDbEntity
  8
AM_4
100
AcDbPolyline
 90
        8
 70
     0
 43
0.0
 10
1.586994302475318
 20
-0.5962500000000001
 10
1.584552987592693
 20
-0.6157895209668286
 10
1.584847170555723
 20
-0.6263912571949453
 10
1.586479435524768
 20
-0.6372374660471013
 10
1.591116598010972
 20
-0.652263565699607
 10
1.598576343363803
 20
-0.6674896355260689
 10
1.605857309399075
 20
-0.6789467683352406
 10
1.614057596343582
 20
-0.6900000000000001
  0
LWPOLYLINE
  5
115
330
ED
100
AcDbEntity
  8
AM_4
100
AcDbPolyline
 90
        8
 70
     0
 43
0.0
 10
1.614057596343582
 20
-0.6900000000000001
 10
1.600335133770922
 20
-0.7095395209668286
 10
1.594508401468771
 20
-0.7201412571949452
 10
1.589878604837337
 20
-0.7309874660471012
 10
1.585840444644297
 20
-0.746013565699607
 10
1.58450941448412
 20
-0.7612396355260689
 10
1.585175601807875
 20
-0.7726967683352406
 10
1.586994302475318
 20
-0.7837500000000001
  0
LINE
  5
116
330
ED
100
AcDbEntity
  8
AM_4
100
AcDbLine
 10
1.586994302475318
 20
-0.7837500000000001
 30
0.0
 11
1.532867714738791
 21
-0.7837500000000001
 31
0.0
  0
LINE
  5
117
330
ED
100
AcDbEntity
  8
AM_4
100
AcDbLine
 10
1.525791751950823
 20
-0.6056976817490273
 30
0.0
 11
1.532867714738791
 21
-0.5962500000000001
 31
0.0
  0
LINE
  5
118
330
ED
100
AcDbEntity
  8
AM_4
100
AcDbLine
 10
1.513756576158488
 20
-0.888349913958261
 30
0.0
 11
1.541468817454019
 21
-0.8893490810129866
 31
0.0
  0
LINE
  5
119
330
ED
100
AcDbEntity
  8
AM_4
100
AcDbLine
 10
1.541468817454019
 20
-0.4906509189870134
 30
0.0
 11
1.513756576158488
 21
-0.491650086041739
 31
0.0
  0
ELLIPSE
  5
11A
330
ED
100
AcDbEntity
  8
AM_4
100
AcDbEllipse
 10
1.543265704180122
 20
-0.6899999999999998
 30
0.0
 11
1.220859406417988E-17
 21
0.1993814718281218
 31
0.0
210
0.0
220
0.0
230
1.0
 40
0.4999999999999986
 41
5.689273847212438
 42
10.01868942073652
  0
LINE
  5
11B
330
ED
100
AcDbEntity
  8
AM_4
100
AcDbLine
 10
1.610943958418527
 20
-0.5408189272892696
 30
0.0
 11
1.599053332828688
 21
-0.5247609814014045
 31
0.0
  0
LINE
  5
11C
330
ED
100
AcDbEntity
  8
AM_4
100
AcDbLine
 10
1.599053332828688
 20
-0.8552390185985955
 30
0.0
 11
1.610943958418527
 21
-0.8391810727107304
 31
0.0
  0
ELLIPSE
  5
11D
330
ED
100
AcDbEntity
  8
AM_4
100
AcDbEllipse
 10
1.560577777619559
 20
-0.69
 30
0.0
 11
6.674325055353067E-18
 21
0.1089999999999999
 31
0.0
210
0.0
220
0.0
230
1.0
 40
0.5000000000000026
 41
0.0
 42
6.283185307179586
  0
ELLIPSE
  5
11E
330
ED
100
AcDbEntity
  8
AM_4
100
AcDbEllipse
 10
1.560577777619559
 20
-0.6900000000000004
 30
0.0
 11
1.102216155863619E-17
 21
0.1800055586036766
 31
0.0
210
0.0
220
0.0
230
1.0
 40
0.5
 41
0.0
 42
6.283185307179586
  0
ENDBLK
  5
F0
330
ED
100
AcDbEntity
  8
0
100
AcDbBlockEnd
  0
BLOCK
  5
121
330
11F
100
AcDbEntity
  8
0
100
AcDbBlockBegin
  2
4_124672H_0_in_124672_4
 70
     2
 10
0.0
 20
0.0
 30
0.0
  3
4_124672H_0_in_124672_4
  1

  0
ATTDEF
  5
123
330
11F
100
AcDbEntity
  8
AM_6
100
AcDbText
 10
6.75
 20
0.0535
 30
0.0
 40
0.5
  1
LFT-SC and  LFT-SC-NL -Inch - housing
100
AcDbAttributeDefinition
  3

  2
NN
 70
     8
280
     0
  0
ATTDEF
  5
124
330
11F
100
AcDbEntity
  8
AM_6
100
AcDbText
 10
6.75
 20
-0.4465
 30
0.0
 40
0.5
  1
SC 2 Bolt Flange Bearings -(Normal Duty) -Re-Lube and No-Lube
100
AcDbAttributeDefinition
  3

  2
NT
 70
     8
280
     0
  0
ATTDEF
  5
125
330
11F
100
AcDbEntity
  8
AM_6
100
AcDbText
 10
6.75
 20
-0.9465
 30
0.0
 40
0.5
  1
124672H
100
AcDbAttributeDefinition
  3

  2
NB
 70
     8
280
     0
  0
ATTDEF
  5
126
330
11F
100
AcDbEntity
  8
AM_6
100
AcDbText
 10
6.75
 20
-1.4465
 30
0.0
 40
0.5
  1
$PN.H
100
AcDbAttributeDefinition
  3

  2
NBSYN
 70
     8
280
     0
  0
ATTDEF
  5
127
330
11F
100
AcDbEntity
  8
AM_6
100
AcDbText
 10
6.75
 20
-1.9465
 30
0.0
 40
0.5
  1
124672
100
AcDbAttributeDefinition
  3

  2
LINA
 70
     8
280
     0
  0
ATTDEF
  5
128
330
11F
100
AcDbEntity
  8
AM_6
100
AcDbText
 10
6.75
 20
-2.4465
 30
0.0
 40
0.5
  1
207
100
AcDbAttributeDefinition
  3

  2
SERIES
 70
     8
280
     0
  0
ATTDEF
  5
129
330
11F
100
AcDbEntity
  8
AM_6
100
AcDbText
 10
6.75
 20
-2.9465
 30
0.0
 40
0.5
  1
1-3/8
100
AcDbAttributeDefinition
  3

  2
SS
 70
     8
280
     0
  0
ATTDEF
  5
12A
330
11F
100
AcDbEntity
  8
AM_6
100
AcDbText
 10
6.75
 20
-3.4465
 30
0.0
 40
0.5
  1
124672
100
AcDbAttributeDefinition
  3

  2
PN
 70
     8
280
     0
  0
ATTDEF
  5
12B
330
11F
100
AcDbEntity
  8
AM_6
100
AcDbText
 10
6.75
 20
-3.9465
 30
0.0
 40
0.5
  1
LFT-SC-106-NL
100
AcDbAttributeDefinition
  3

  2
DESCRIPTION
 70
     8
280
     0
  0
ATTDEF
  5
12C
330
11F
100
AcDbEntity
  8
AM_6
100
AcDbText
 10
6.75
 20
-4.4465
 30
0.0
 40
0.5
  1
1.75
100
AcDbAttributeDefinition
  3

  2
W
 70
     8
280
     0
  0
ATTDEF
  5
12D
330
11F
100
AcDbEntity
  8
AM_6
100
AcDbText
 10
6.75
 20
-4.9465
 30
0.0
 40
0.5
  1
NO-LUBE
100
AcDbAttributeDefinition
  3

  2
LF
 70
     8
280
     0
  0
ATTDEF
  5
12E
330
11F
100
AcDbEntity
  8
AM_6
100
AcDbText
 10
6.75
 20
-5.4465
 30
0.0
 40
0.5
  1
1.40
100
AcDbAttributeDefinition
  3

  2
A
 70
     8
280
     0
  0
ATTDEF
  5
12F
330
11F
100
AcDbEntity
  8
AM_6
100
AcDbText
 10
6.75
 20
-5.9465
 30
0.0
 40
0.5
  1
4.82
100
AcDbAttributeDefinition
  3

  2
B
 70
     8
280
     0
  0
ATTDEF
  5
130
330
11F
100
AcDbEntity
  8
AM_6
100
AcDbText
 10
6.75
 20
-6.4465
 30
0.0
 40
0.5
  1
1.59
100
AcDbAttributeDefinition
  3

  2
C
 70
     8
280
     0
  0
ATTDEF
  5
131
330
11F
100
AcDbEntity
  8
AM_6
100
AcDbText
 10
6.75
 20
-6.9465
 30
0.0
 40
0.5
  1
3.94
100
AcDbAttributeDefinition
  3

  2
D
 70
     8
280
     0
  0
ATTDEF
  5
132
330
11F
100
AcDbEntity
  8
AM_6
100
AcDbText
 10
6.75
 20
-7.4465
 30
0.0
 40
0.5
  1
0.41
100
AcDbAttributeDefinition
  3

  2
G
 70
     8
280
     0
  0
ATTDEF
  5
133
330
11F
100
AcDbEntity
  8
AM_6
100
AcDbText
 10
6.75
 20
-7.9465
 30
0.0
 40
0.5
  1
0.50
100
AcDbAttributeDefinition
  3

  2
H
 70
     8
280
     0
  0
ATTDEF
  5
134
330
11F
100
AcDbEntity
  8
AM_6
100
AcDbText
 10
6.75
 20
-8.4465
 30
0.0
 40
0.5
  1
0.52
100
AcDbAttributeDefinition
  3

  2
J
 70
     8
280
     0
  0
ATTDEF
  5
135
330
11F
100
AcDbEntity
  8
AM_6
100
AcDbText
 10
6.75
 20
-8.9465
 30
0.0
 40
0.5
  1
1.84
100
AcDbAttributeDefinition
  3

  2
L
 70
     8
280
     0
  0
ATTDEF
  5
136
330
11F
100
AcDbEntity
  8
AM_6
100
AcDbText
 10
6.75
 20
-9.4465
 30
0.0
 40
0.5
  1
3.50
100
AcDbAttributeDefinition
  3

  2
M
 70
     8
280
     0
  0
ATTDEF
  5
137
330
11F
100
AcDbEntity
  8
AM_6
100
AcDbText
 10
6.75
 20
-9.9465
 30
0.0
 40
0.5
  1
1.83
100
AcDbAttributeDefinition
  3

  2
N
 70
     8
280
     0
  0
ATTDEF
  5
138
330
11F
100
AcDbEntity
  8
AM_6
100
AcDbText
 10
6.75
 20
-10.4465
 30
0.0
 40
0.5
  1
3065
100
AcDbAttributeDefinition
  3

  2
CAPS
 70
     8
280
     0
  0
ATTDEF
  5
139
330
11F
100
AcDbEntity
  8
AM_6
100
AcDbText
 10
6.75
 20
-10.9465
 30
0.0
 40
0.5
  1
5759
100
AcDbAttributeDefinition
  3

  2
CAPD
 70
     8
280
     0
  0
ATTDEF
  5
13A
330
11F
100
AcDbEntity
  8
AM_6
100
AcDbText
 10
6.75
 20
-11.4465
 30
0.0
 40
0.5
  1
baldor
100
AcDbAttributeDefinition
  3

  2
COMPANY
 70
     8
280
     0
  0
LINE
  5
13B
330
11F
100
AcDbEntity
  8
AM_9
100
AcDbLine
 10
1.417717457744926
 20
-0.642
 30
0.0
 11
1.417717457744926
 21
-0.1250000000000001
 31
0.0
  0
LINE
  5
13C
330
11F
100
AcDbEntity
  8
AM_9
100
AcDbLine
 10
0.4454456336134236
 20
-0.6420000000000001
 30
0.0
 11
0.4454456336134236
 21
-0.1250000000000001
 31
0.0
  0
LINE
  5
13D
330
11F
100
AcDbEntity
  8
AM_9
100
AcDbLine
 10
-1.417717457744926
 20
-0.642
 30
0.0
 11
-1.417717457744926
 21
-0.125
 31
0.0
  0
LINE
  5
13E
330
11F
100
AcDbEntity
  8
AM_9
100
AcDbLine
 10
1.246936988273207
 20
-0.9700000000000011
 30
0.0
 11
1.703941916244324
 21
-0.9700000000000011
 31
0.0
  0
LWPOLYLINE
  5
13F
330
11F
100
AcDbEntity
  8
AM_9
100
AcDbPolyline
 90
        5
 70
     0
 43
0.0
 10
1.653941916244323
 20
-1.04980196890261
 10
1.640955530218956
 20
-1.058894847837775
 10
1.626409045851112
 20
-1.065515079309338
 10
1.613373737314318
 20
-1.068851043302627
 10
1.599772708486753
 20
-1.07
  0
ARC
  5
140
330
11F
100
AcDbEntity
  8
AM_9
100
AcDbCircle
 10
1.650000000000001
 20
-0.9700000000000006
 30
0.0
 40
0.0999999999999994
100
AcDbArc
 50
270.0
 51
302.6441074669303
  0
LINE
  5
141
330
11F
100
AcDbEntity
  8
AM_9
100
AcDbLine
 10
1.686829256275731
 20
-0.9700000000000011
 30
0.0
 11
1.68682925627573
 21
-0.125
 31
0.0
  0
LINE
  5
142
330
11F
100
AcDbEntity
  8
AM_9
100
AcDbLine
 10
1.653941916244323
 20
-1.07
 30
0.0
 11
1.653941916244323
 21
-1.04980196890261
 31
0.0
  0
LWPOLYLINE
  5
143
330
11F
100
AcDbEntity
  8
AM_9
100
AcDbPolyline
 90
        7
 70
     0
 43
0.0
 10
1.686829256275731
 20
-0.9700000000000011
 10
1.685988949944256
 20
-0.9849742109576395
 10
1.683506812629323
 20
-0.9994413369505925
 10
1.679438145370002
 20
-1.012901912223462
 10
1.673771365598707
 20
-1.025344304912176
 10
1.665166352980225
 20
-1.038300271489774
 10
1.653941916244323
 20
-1.04980196890261
  0
LINE
  5
144
330
11F
100
AcDbEntity
  8
AM_9
100
AcDbLine
 10
1.515544456622768
 20
-0.5399999999999999
 30
0.0
 11
1.313471862406399
 21
-0.5399999999999999
 31
0.0
  0
LINE
  5
145
330
11F
100
AcDbEntity
  8
AM_9
100
AcDbLine
 10
1.313471862406399
 20
-0.8400000000000001
 30
0.0
 11
1.515544456622768
 21
-0.8400000000000001
 31
0.0
  0
LINE
  5
146
330
11F
100
AcDbEntity
  8
AM_9
100
AcDbLine
 10
-0.3902438686229635
 20
-0.6419999999999999
 30
0.0
 11
-0.3902438686229637
 21
-0.1249999999999999
 31
0.0
  0
LINE
  5
147
330
11F
100
AcDbEntity
  8
AM_9
100
AcDbLine
 10
-1.362515692754466
 20
-0.125
 30
0.0
 11
-1.362515692754466
 21
-0.642
 31
0.0
  0
LINE
  5
148
330
11F
100
AcDbEntity
  8
AM_9
100
AcDbLine
 10
1.362515692754466
 20
-0.1250000000000001
 30
0.0
 11
1.362515692754466
 21
-0.642
 31
0.0
  0
LINE
  5
149
330
11F
100
AcDbEntity
  8
AM_9
100
AcDbLine
 10
0.3902438686229637
 20
-0.6420000000000001
 30
0.0
 11
1.4173
 21
-0.642
 31
0.0
  0
LINE
  5
14A
330
11F
100
AcDbEntity
  8
AM_9
100
AcDbLine
 10
0.3902438686229637
 20
-0.6420000000000001
 30
0.0
 11
0.3902438686229638
 21
-0.1250000000000001
 31
0.0
  0
LINE
  5
14B
330
11F
100
AcDbEntity
  8
AM_9
100
AcDbLine
 10
1.4173
 20
-1.07
 30
0.0
 11
1.4173
 21
-0.125
 31
0.0
  0
LINE
  5
14C
330
11F
100
AcDbEntity
  8
AM_9
100
AcDbLine
 10
-1.4173
 20
-0.125
 30
0.0
 11
-1.4173
 21
-1.07
 31
0.0
  0
LINE
  5
14D
330
11F
100
AcDbEntity
  8
AM_9
100
AcDbLine
 10
-0.445445633613423
 20
-0.6419999999999999
 30
0.0
 11
-0.445445633613423
 21
-0.1249999999999999
 31
0.0
  0
LINE
  5
14E
330
11F
100
AcDbEntity
  8
AM_9
100
AcDbLine
 10
-0.3902438686229635
 20
-0.6419999999999999
 30
0.0
 11
-1.417717457744926
 21
-0.642
 31
0.0
  0
LINE
  5
14F
330
11F
100
AcDbEntity
  8
AM_9
100
AcDbLine
 10
-0.5587446172997989
 20
-0.125
 30
0.0
 11
-0.7079370754936202
 21
-0.1249999999999999
 31
0.0
  0
LINE
  5
150
330
11F
100
AcDbEntity
  8
AM_9
100
AcDbLine
 10
0.5009638410073509
 20
-0.125
 30
0.0
 11
-0.5009638410073429
 21
-0.125
 31
0.0
  0
LINE
  5
151
330
11F
100
AcDbEntity
  8
AM_9
100
AcDbLine
 10
0.707937075493619
 20
-0.1249999999999999
 30
0.0
 11
0.5587446172997879
 21
-0.125
 31
0.0
  0
LINE
  5
152
330
11F
100
AcDbEntity
  8
AM_9
100
AcDbLine
 10
-0.5912226743850721
 20
-0.1249999999999999
 30
0.0
 11
-0.5912226743850721
 21
0.0000000000000001
 31
0.0
  0
LINE
  5
153
330
11F
100
AcDbEntity
  8
AM_9
100
AcDbLine
 10
0.5912226743850723
 20
-0.1249999999999999
 30
0.0
 11
0.5912226743850723
 21
0.0000000000000001
 31
0.0
  0
LINE
  5
154
330
11F
100
AcDbEntity
  8
AM_9
100
AcDbLine
 10
-0.205
 20
-0.4999999999999998
 30
0.0
 11
-0.205
 21
0.0000000000000001
 31
0.0
  0
LINE
  5
155
330
11F
100
AcDbEntity
  8
AM_9
100
AcDbLine
 10
0.205
 20
-0.4999999999999998
 30
0.0
 11
0.205
 21
0.0000000000000001
 31
0.0
  0
ELLIPSE
  5
156
330
11F
100
AcDbEntity
  8
AM_9
100
AcDbEllipse
 10
1.313471862406399
 20
-0.69
 30
0.0
 11
9.184850993605150E-18
 21
0.15
 31
0.0
210
0.0
220
0.0
230
1.0
 40
0.4999999999999982
 41
0.0
 42
6.283185307179586
  0
ELLIPSE
  5
157
330
11F
100
AcDbEntity
  8
AM_9
100
AcDbEllipse
 10
1.515544456622769
 20
-0.6899999999999994
 30
0.0
 11
9.184850993605049E-18
 21
0.1499999999999984
 31
0.0
210
0.0
220
0.0
230
1.0
 40
0.4999999999999933
 41
0.0
 42
6.283185307179586
  0
LINE
  5
15A
330
11F
100
AcDbEntity
  8
AM_7
100
AcDbLine
 10
0.0
 20
0.0535
 30
0.0
 11
0.0
 21
-1.66025
 31
0.0
  0
LINE
  5
15B
330
11F
100
AcDbEntity
  8
AM_4
100
AcDbLine
 10
1.75
 20
-0.9700000000000011
 30
0.0
 11
1.75
 21
-0.125
 31
0.0
  0
LINE
  5
15C
330
11F
100
AcDbEntity
  8
AM_4
100
AcDbLine
 10
1.703941916244324
 20
-0.9700000000000011
 30
0.0
 11
1.75
 21
-0.9700000000000011
 31
0.0
  0
ARC
  5
15D
330
11F
100
AcDbEntity
  8
AM_4
100
AcDbCircle
 10
1.650000000000001
 20
-0.9700000000000014
 30
0.0
 40
0.0999999999999986
100
AcDbArc
 50
302.6441074669303
 51
0.0
  0
LINE
  5
15E
330
11F
100
AcDbEntity
  8
AM_4
100
AcDbLine
 10
1.703941916244324
 20
-1.07
 30
0.0
 11
1.703941916244324
 21
-0.125
 31
0.0
  0
LINE
  5
15F
330
11F
100
AcDbEntity
  8
AM_4
100
AcDbLine
 10
1.690544456622768
 20
-1.07
 30
0.0
 11
1.690544456622768
 21
-0.125
 31
0.0
  0
LINE
  5
160
330
11F
100
AcDbEntity
  8
AM_4
100
AcDbLine
 10
1.340544456622768
 20
-1.07
 30
0.0
 11
1.340544456622768
 21
-0.125
 31
0.0
  0
LINE
  5
161
330
11F
100
AcDbEntity
  8
AM_4
100
AcDbLine
 10
1.203941916244323
 20
-1.07
 30
0.0
 11
1.203941916244323
 21
-1.049801968902609
 31
0.0
  0
LINE
  5
162
330
11F
100
AcDbEntity
  8
AM_4
100
AcDbLine
 10
-0.7326800256079472
 20
0.0000000000000001
 30
0.0
 11
-0.7326800256079472
 21
-0.1249999999999999
 31
0.0
  0
LINE
  5
163
330
11F
100
AcDbEntity
  8
AM_4
100
AcDbLine
 10
0.7326800256079455
 20
-0.1249999999999999
 30
0.0
 11
0.7326800256079455
 21
0.0000000000000001
 31
0.0
  0
LINE
  5
164
330
11F
100
AcDbEntity
  8
AM_4
100
AcDbLine
 10
1.246936988273206
 20
-0.125
 30
0.0
 11
1.246936988273207
 21
-0.970000000000001
 31
0.0
  0
LINE
  5
165
330
11F
100
AcDbEntity
  8
AM_4
100
AcDbLine
 10
1.75
 20
-0.125
 30
0.0
 11
0.707937075493619
 21
-0.1249999999999999
 31
0.0
  0
LINE
  5
166
330
11F
100
AcDbEntity
  8
AM_4
100
AcDbLine
 10
0.707937075493619
 20
-0.1249999999999999
 30
0.0
 11
0.7079370754936128
 21
0.0000000000000001
 31
0.0
  0
LINE
  5
167
330
11F
100
AcDbEntity
  8
AM_4
100
AcDbLine
 10
-0.7079370754936146
 20
0.0000000000000001
 30
0.0
 11
-0.7079370754936202
 21
-0.1249999999999999
 31
0.0
  0
LINE
  5
168
330
11F
100
AcDbEntity
  8
AM_4
100
AcDbLine
 10
-0.7079370754936202
 20
-0.1249999999999999
 30
0.0
 11
-1.75
 21
-0.125
 31
0.0
  0
LINE
  5
169
330
11F
100
AcDbEntity
  8
AM_4
100
AcDbLine
 10
-1.75
 20
-0.125
 30
0.0
 11
-1.75
 21
-0.9700000000000011
 31
0.0
  0
LINE
  5
16A
330
11F
100
AcDbEntity
  8
AM_4
100
AcDbLine
 10
0.3572487135097737
 20
-0.970000000000001
 30
0.0
 11
1.246936988273207
 21
-0.970000000000001
 31
0.0
  0
LWPOLYLINE
  5
16B
330
11F
100
AcDbEntity
  8
AM_4
100
AcDbPolyline
 90
        5
 70
     0
 43
0.0
 10
1.149772708486752
 20
-1.07
 10
1.157332219149775
 20
-1.069646594293145
 10
1.172650673193579
 20
-1.066712209881764
 10
1.187749009194018
 20
-1.060645065134591
 10
1.203941916244323
 20
-1.049801968902609
  0
LWPOLYLINE
  5
16C
330
11F
100
AcDbEntity
  8
AM_4
100
AcDbPolyline
 90
        7
 70
     0
 43
0.0
 10
1.203941916244323
 20
-1.049801968902609
 10
1.215892541778626
 20
-1.038499715008101
 10
1.227135777158533
 20
-1.024974406789519
 10
1.236327696464646
 20
-1.010281868349158
 10
1.243253038257858
 20
-0.9937161495355
 10
1.24598335592202
 20
-0.9819941924177825
 10
1.246936988273207
 20
-0.970000000000001
  0
LINE
  5
16D
330
11F
100
AcDbEntity
  8
AM_4
100
AcDbLine
 10
-1.65
 20
-1.07
 30
0.0
 11
1.703941916244324
 21
-1.07
 31
0.0
  0
ARC
  5
16E
330
11F
100
AcDbEntity
  8
AM_4
100
AcDbCircle
 10
-1.650000000000001
 20
-0.9700000000000006
 30
0.0
 40
0.0999999999999992
100
AcDbArc
 50
180.0
 51
270.0
  0
LINE
  5
16F
330
11F
100
AcDbEntity
  8
AM_4
100
AcDbLine
 10
-1.75
 20
-0.9700000000000011
 30
0.0
 11
-0.3572487135097736
 21
-0.970000000000001
 31
0.0
  0
LWPOLYLINE
  5
170
330
11F
100
AcDbEntity
  8
AM_4
100
AcDbPolyline
 90
       10
 70
     0
 43
0.0
 10
-0.275408775383421
 20
-1.07
 10
-0.2911091832310437
 20
-1.068759405634577
 10
-0.3062085400440461
 20
-1.064695598114549
 10
-0.3187702516286869
 20
-1.05830992112556
 10
-0.3302720750696865
 20
-1.048894655663426
 10
-0.3398156685354549
 20
-1.036921467813542
 10
-0.3476925539790466
 20
-1.021802066510055
 10
-0.3526356666107739
 20
-1.006985367247612
 10
-0.3558240221799988
 20
-0.9909499484529851
 10
-0.3572487135097736
 20
-0.970000000000001
  0
LWPOLYLINE
  5
171
330
11F
100
AcDbEntity
  8
AM_4
100
AcDbPolyline
 90
       11
 70
     0
 43
0.0
 10
0.3572487135097737
 20
-0.970000000000001
 10
0.3564947199005391
 20
-0.9852994704707669
 10
0.3541506901846646
 20
-1.000598940941533
 10
0.350376622446275
 20
-1.014603274642384
 10
0.3450106146256955
 20
-1.027738943241069
 10
0.3382902475961708
 20
-1.039190833863702
 10
0.3300762250397404
 20
-1.049093334147324
 10
0.3202344987340776
 20
-1.057332944762768
 10
0.3090547599355768
 20
-1.063527238832748
 10
0.293022039930868
 20
-1.068419381018572
 10
0.275408775383421
 20
-1.07
  0
LINE
  5
172
330
11F
100
AcDbEntity
  8
AM_4
100
AcDbLine
 10
0.3572487135097737
 20
-0.970000000000001
 30
0.0
 11
0.3572487135097737
 21
-0.4999999999999998
 31
0.0
  0
LINE
  5
173
330
11F
100
AcDbEntity
  8
AM_4
100
AcDbLine
 10
-0.3572487135097737
 20
-0.4999999999999998
 30
0.0
 11
-0.3572487135097736
 21
-0.970000000000001
 31
0.0
  0
LINE
  5
174
330
11F
100
AcDbEntity
  8
AM_4
100
AcDbLine
 10
-0.5587446172997989
 20
-0.1249999999999998
 30
0.0
 11
-0.5009638410073429
 21
-0.1249999999999998
 31
0.0
  0
LINE
  5
175
330
11F
100
AcDbEntity
  8
AM_4
100
AcDbLine
 10
-0.5587446172997989
 20
-0.1249999999999998
 30
0.0
 11
-0.5587446172997989
 21
0.0000000000000001
 31
0.0
  0
LINE
  5
176
330
11F
100
AcDbEntity
  8
AM_4
100
AcDbLine
 10
-0.6710112282942248
 20
-0.4999999999999999
 30
0.0
 11
-0.6710112282942257
 21
0.0000000000000001
 31
0.0
  0
LINE
  5
177
330
11F
100
AcDbEntity
  8
AM_4
100
AcDbLine
 10
-0.5009638410073429
 20
0.0000000000000001
 30
0.0
 11
-0.5009638410073429
 21
-0.1249999999999998
 31
0.0
  0
LINE
  5
178
330
11F
100
AcDbEntity
  8
AM_4
100
AcDbLine
 10
-0.6710112282942248
 20
-0.4999999999999999
 30
0.0
 11
0.6710112282942232
 21
-0.4999999999999999
 31
0.0
  0
LINE
  5
179
330
11F
100
AcDbEntity
  8
AM_4
100
AcDbLine
 10
-0.7326800256079472
 20
0.0000000000000001
 30
0.0
 11
0.7326800256079455
 21
0.0000000000000001
 31
0.0
  0
LINE
  5
17A
330
11F
100
AcDbEntity
  8
AM_4
100
AcDbLine
 10
0.5009638410073509
 20
-0.1249999999999998
 30
0.0
 11
0.5587446172997879
 21
-0.1249999999999998
 31
0.0
  0
LINE
  5
17B
330
11F
100
AcDbEntity
  8
AM_4
100
AcDbLine
 10
0.5009638410073509
 20
-0.1249999999999998
 30
0.0
 11
0.5009638410073509
 21
0.0000000000000001
 31
0.0
  0
LINE
  5
17C
330
11F
100
AcDbEntity
  8
AM_4
100
AcDbLine
 10
0.6710112282942238
 20
0.0000000000000001
 30
0.0
 11
0.6710112282942232
 21
-0.4999999999999999
 31
0.0
  0
LINE
  5
17D
330
11F
100
AcDbEntity
  8
AM_4
100
AcDbLine
 10
0.5587446172997879
 20
0.0000000000000001
 30
0.0
 11
0.5587446172997879
 21
-0.1249999999999998
 31
0.0
  0
LINE
  5
17E
330
11F
100
AcDbEntity
  8
AM_4
100
AcDbLine
 10
-0.4334841962987122
 20
-0.4999999999999998
 30
0.0
 11
-0.4334841962987122
 21
0.0000000000000001
 31
0.0
  0
LINE
  5
17F
330
11F
100
AcDbEntity
  8
AM_4
100
AcDbLine
 10
0.4334841962987121
 20
-0.4999999999999998
 30
0.0
 11
0.4334841962987121
 21
0.0000000000000001
 31
0.0
  0
ENDBLK
  5
122
330
11F
100
AcDbEntity
  8
0
100
AcDbBlockEnd
  0
ENDSEC
  0
SECTION
  2
ENTITIES
  0
INSERT
  5
6F
330
1F
100
AcDbEntity
  8
0
100
AcDbBlockReference
  2
1_124672_4
 10
0.0
 20
0.0
 30
0.0
  0
POINT
  5
181
330
1F
100
AcDbEntity
  8
ConnectionPoints
100
AcDbPoint
 10
1.515544456622768
 20
-0.6900000000000001
 30
0.8749999999999999
  0
POINT
  5
182
330
1F
100
AcDbEntity
  8
ConnectionPoints
100
AcDbPoint
 10
1.515544456622768
 20
-0.6900000000000001
 30
0.8749999999999999
  0
POINT
  5
183
330
1F
100
AcDbEntity
  8
ConnectionPoints
100
AcDbPoint
 10
0.0
 20
-1.59
 30
0.0000000000000001
  0
ENDSEC
  0
SECTION
  2
OBJECTS
  0
DICTIONARY
  5
C
330
0
100
AcDbDictionary
281
     1
  3
ACAD_DETAILVIEWSTYLE
350
18B
  3
ACAD_GROUP
350
D
  3
ACAD_LAYOUT
350
1A
  3
ACAD_MATERIAL
350
43
  3
ACAD_MLEADERSTYLE
350
6B
  3
ACAD_MLINESTYLE
350
17
  3
ACAD_PLOTSETTINGS
350
19
  3
ACAD_PLOTSTYLENAME
350
E
  3
ACAD_SCALELIST
350
47
  3
ACAD_SECTIONVIEWSTYLE
350
18C
  3
ACAD_TABLESTYLE
350
69
  3
ACAD_VISUALSTYLE
350
2A
  3
ACDB_RECOMPOSE_DATA
350
188
  3
AcDbVariableDictionary
350
184
  0
SUN
  5
6D
330
29
100
AcDbSun
 90
        1
290
     0
 63
     7
421
 16777215
 40
1.0
291
     1
 91
  2455826
 92
 54000000
292
     0
 70
     2
 71
   256
280
     1
  0
DICTIONARY
  5
18B
102
{ACAD_REACTORS
330
C
102
}
330
C
100
AcDbDictionary
281
     1
  0
DICTIONARY
  5
D
102
{ACAD_REACTORS
330
C
102
}
330
C
100
AcDbDictionary
281
     1
  0
DICTIONARY
  5
1A
102
{ACAD_REACTORS
330
C
102
}
330
C
100
AcDbDictionary
281
     1
  3
Layout1
350
1E
  3
Layout2
350
26
  3
Model
350
22
  0
DICTIONARY
  5
43
102
{ACAD_REACTORS
330
C
102
}
330
C
100
AcDbDictionary
281
     1
  3
ByBlock
350
45
  3
ByLayer
350
44
  3
Global
350
46
  0
DICTIONARY
  5
6B
102
{ACAD_REACTORS
330
C
102
}
330
C
100
AcDbDictionary
281
     1
  3
Standard
350
6C
  0
DICTIONARY
  5
17
102
{ACAD_REACTORS
330
C
102
}
330
C
100
AcDbDictionary
281
     1
  3
Standard
350
18
  0
DICTIONARY
  5
19
102
{ACAD_REACTORS
330
C
102
}
330
C
100
AcDbDictionary
281
     1
  0
ACDBDICTIONARYWDFLT
  5
E
102
{ACAD_REACTORS
330
C
102
}
330
C
100
AcDbDictionary
281
     1
  3
Normal
350
F
100
AcDbDictionaryWithDefault
340
F
  0
DICTIONARY
  5
47
102
{ACAD_REACTORS
330
C
102
}
330
C
100
AcDbDictionary
281
     1
  3
A0
350
48
  3
A1
350
49
  3
A2
350
4A
  3
A3
350
4B
  3
A4
350
4C
  3
A5
350
4D
  3
A6
350
4E
  3
A7
350
4F
  3
A8
350
50
  3
A9
350
51
  3
B0
350
52
  3
B1
350
53
  3
B2
350
54
  3
B3
350
55
  3
B4
350
56
  3
B5
350
57
  3
B6
350
58
  3
B7
350
59
  3
B8
350
5A
  3
B9
350
5B
  3
C0
350
5C
  3
C1
350
5D
  3
C2
350
5E
  3
C3
350
5F
  3
C4
350
60
  3
C5
350
61
  3
C6
350
62
  3
C7
350
63
  3
C8
350
64
  3
C9
350
65
  3
D0
350
66
  3
D1
350
67
  3
D2
350
68
  0
DICTIONARY
  5
18C
102
{ACAD_REACTORS
330
C
102
}
330
C
100
AcDbDictionary
281
     1
  0
DICTIONARY
  5
69
102
{ACAD_REACTORS
330
C
102
}
330
C
100
AcDbDictionary
281
     1
  3
Standard
350
6A
  0
DICTIONARY
  5
2A
102
{ACAD_REACTORS
330
C
102
}
330
C
100
AcDbDictionary
281
     1
  3
2dWireframe
350
2F
  3
Basic
350
32
  3
Brighten
350
36
  3
ColorChange
350
3A
  3
Conceptual
350
34
  3
Dim
350
35
  3
EdgeColorOff
350
3D
  3
Facepattern
350
39
  3
Flat
350
2B
  3
FlatWithEdges
350
2C
  3
Gouraud
350
2D
  3
GouraudWithEdges
350
2E
  3
Hidden
350
31
  3
JitterOff
350
3B
  3
Linepattern
350
38
  3
OverhangOff
350
3C
  3
Realistic
350
33
  3
Shaded
350
42
  3
Shaded with edges
350
41
  3
Shades of Gray
350
3E
  3
Sketchy
350
3F
  3
Thicken
350
37
  3
Wireframe
350
30
  3
X-Ray
350
40
  0
XRECORD
  5
188
102
{ACAD_REACTORS
330
C
102
}
330
C
100
AcDbXrecord
280
     1
 90
        1
330
6A
  0
DICTIONARY
  5
184
102
{ACAD_REACTORS
330
C
102
}
330
C
100
AcDbDictionary
281
     1
  3
CANNOSCALE
350
185
  3
CMLEADERSTYLE
350
18A
  3
CTABLESTYLE
350
189
  0
LAYOUT
  5
1E
102
{ACAD_REACTORS
330
1A
102
}
330
1A
100
AcDbPlotSettings
  1

  2
none_device
  4

  6

 40
0.0
 41
0.0
 42
0.0
 43
0.0
 44
0.0
 45
0.0
 46
0.0
 47
0.0
 48
0.0
 49
0.0
140
0.0
141
0.0
142
1.0
143
1.0
 70
   688
 72
     0
 73
     0
 74
     5
  7

 75
    16
 76
     0
 77
     2
 78
   300
147
1.0
148
0.0
149
0.0
100
AcDbLayout
  1
Layout1
 70
     1
 71
     1
 10
0.0
 20
0.0
 11
12.0
 21
9.0
 12
0.0
 22
0.0
 32
0.0
 14
1.000000000000000E+20
 24
1.000000000000000E+20
 34
1.000000000000000E+20
 15
-1.000000000000000E+20
 25
-1.000000000000000E+20
 35
-1.000000000000000E+20
146
0.0
 13
0.0
 23
0.0
 33
0.0
 16
1.0
 26
0.0
 36
0.0
 17
0.0
 27
1.0
 37
0.0
 76
     0
330
1B
  0
LAYOUT
  5
26
102
{ACAD_REACTORS
330
1A
102
}
330
1A
100
AcDbPlotSettings
  1

  2
none_device
  4

  6

 40
0.0
 41
0.0
 42
0.0
 43
0.0
 44
0.0
 45
0.0
 46
0.0
 47
0.0
 48
0.0
 49
0.0
140
0.0
141
0.0
142
1.0
143
1.0
 70
   688
 72
     0
 73
     0
 74
     5
  7

 75
    16
 76
     0
 77
     2
 78
   300
147
1.0
148
0.0
149
0.0
100
AcDbLayout
  1
Layout2
 70
     1
 71
     2
 10
0.0
 20
0.0
 11
0.0
 21
0.0
 12
0.0
 22
0.0
 32
0.0
 14
0.0
 24
0.0
 34
0.0
 15
0.0
 25
0.0
 35
0.0
146
0.0
 13
0.0
 23
0.0
 33
0.0
 16
1.0
 26
0.0
 36
0.0
 17
0.0
 27
1.0
 37
0.0
 76
     0
330
23
  0
LAYOUT
  5
22
102
{ACAD_REACTORS
330
1A
102
}
330
1A
100
AcDbPlotSettings
  1

  2
none_device
  4
Letter_(8.50_x_11.00_Inches)
  6

 40
6.35
 41
6.35
 42
6.35000508
 43
6.35000508
 44
215.9
 45
279.4
 46
0.0
 47
0.0
 48
0.0
 49
0.0
140
0.0
141
0.0
142
1.0
143
1.0
 70
  1712
 72
     0
 73
     0
 74
     0
  7

 75
     0
 76
     0
 77
     2
 78
   300
147
1.0
148
0.0
149
0.0
100
AcDbLayout
  1
Model
 70
     1
 71
     0
 10
0.0
 20
0.0
 11
12.0
 21
9.0
 12
0.0
 22
0.0
 32
0.0
 14
1.000000000000000E+20
 24
1.000000000000000E+20
 34
1.000000000000000E+20
 15
-1.000000000000000E+20
 25
-1.000000000000000E+20
 35
-1.000000000000000E+20
146
0.0
 13
0.0
 23
0.0
 33
0.0
 16
1.0
 26
0.0
 36
0.0
 17
0.0
 27
1.0
 37
0.0
 76
     0
330
1F
331
29
  0
MATERIAL
  5
45
102
{ACAD_REACTORS
330
43
102
}
330
43
100
AcDbMaterial
  1
ByBlock
 72
     1
 94
      127
  0
MATERIAL
  5
44
102
{ACAD_REACTORS
330
43
102
}
330
43
100
AcDbMaterial
  1
ByLayer
 72
     1
 94
      127
  0
MATERIAL
  5
46
102
{ACAD_REACTORS
330
43
102
}
330
43
100
AcDbMaterial
  1
Global
 72
     1
 94
      127
  0
MLEADERSTYLE
  5
6C
102
{ACAD_REACTORS
330
6B
102
}
330
6B
100
AcDbMLeaderStyle
179
     2
170
     2
171
     1
172
     0
 90
        2
 40
0.0
 41
0.0
173
     1
 91
-1056964608
340
14
 92
       -2
290
     1
 42
0.09
291
     1
 43
0.36
  3
Standard
341
0
 44
0.18
300

342
11
174
     1
178
     6
175
     1
176
     0
 93
-1056964608
 45
0.18
292
     0
297
     0
 46
0.18
343
0
 94
-1056964608
 47
1.0
 49
1.0
140
1.0
293
     1
141
0.0
294
     1
177
     0
142
1.0
295
     0
296
     0
143
0.125
271
     0
272
     9
273
     9
298
     0
  0
MLINESTYLE
  5
18
102
{ACAD_REACTORS
330
17
102
}
330
17
100
AcDbMlineStyle
  2
Standard
 70
     0
  3

 62
   256
 51
90.0
 52
90.0
 71
     2
 49
0.5
 62
   256
  6
BYLAYER
 49
-0.5
 62
   256
  6
BYLAYER
  0
ACDBPLACEHOLDER
  5
F
102
{ACAD_REACTORS
330
E
102
}
330
E
  0
SCALE
  5
48
102
{ACAD_REACTORS
330
47
102
}
330
47
100
AcDbScale
 70
     0
300
1:1
140
1.0
141
1.0
290
     1
  0
SCALE
  5
49
102
{ACAD_REACTORS
330
47
102
}
330
47
100
AcDbScale
 70
     0
300
1:2
140
1.0
141
2.0
290
     0
  0
SCALE
  5
4A
102
{ACAD_REACTORS
330
47
102
}
330
47
100
AcDbScale
 70
     0
300
1:4
140
1.0
141
4.0
290
     0
  0
SCALE
  5
4B
102
{ACAD_REACTORS
330
47
102
}
330
47
100
AcDbScale
 70
     0
300
1:5
140
1.0
141
5.0
290
     0
  0
SCALE
  5
4C
102
{ACAD_REACTORS
330
47
102
}
330
47
100
AcDbScale
 70
     0
300
1:8
140
1.0
141
8.0
290
     0
  0
SCALE
  5
4D
102
{ACAD_REACTORS
330
47
102
}
330
47
100
AcDbScale
 70
     0
300
1:10
140
1.0
141
10.0
290
     0
  0
SCALE
  5
4E
102
{ACAD_REACTORS
330
47
102
}
330
47
100
AcDbScale
 70
     0
300
1:16
140
1.0
141
16.0
290
     0
  0
SCALE
  5
4F
102
{ACAD_REACTORS
330
47
102
}
330
47
100
AcDbScale
 70
     0
300
1:20
140
1.0
141
20.0
290
     0
  0
SCALE
  5
50
102
{ACAD_REACTORS
330
47
102
}
330
47
100
AcDbScale
 70
     0
300
1:30
140
1.0
141
30.0
290
     0
  0
SCALE
  5
51
102
{ACAD_REACTORS
330
47
102
}
330
47
100
AcDbScale
 70
     0
300
1:40
140
1.0
141
40.0
290
     0
  0
SCALE
  5
52
102
{ACAD_REACTORS
330
47
102
}
330
47
100
AcDbScale
 70
     0
300
1:50
140
1.0
141
50.0
290
     0
  0
SCALE
  5
53
102
{ACAD_REACTORS
330
47
102
}
330
47
100
AcDbScale
 70
     0
300
1:100
140
1.0
141
100.0
290
     0
  0
SCALE
  5
54
102
{ACAD_REACTORS
330
47
102
}
330
47
100
AcDbScale
 70
     0
300
2:1
140
2.0
141
1.0
290
     0
  0
SCALE
  5
55
102
{ACAD_REACTORS
330
47
102
}
330
47
100
AcDbScale
 70
     0
300
4:1
140
4.0
141
1.0
290
     0
  0
SCALE
  5
56
102
{ACAD_REACTORS
330
47
102
}
330
47
100
AcDbScale
 70
     0
300
8:1
140
8.0
141
1.0
290
     0
  0
SCALE
  5
57
102
{ACAD_REACTORS
330
47
102
}
330
47
100
AcDbScale
 70
     0
300
10:1
140
10.0
141
1.0
290
     0
  0
SCALE
  5
58
102
{ACAD_REACTORS
330
47
102
}
330
47
100
AcDbScale
 70
     0
300
100:1
140
100.0
141
1.0
290
     0
  0
SCALE
  5
59
102
{ACAD_REACTORS
330
47
102
}
330
47
100
AcDbScale
 70
     0
300
1/128" = 1'-0"
140
0.0078125
141
12.0
290
     0
  0
SCALE
  5
5A
102
{ACAD_REACTORS
330
47
102
}
330
47
100
AcDbScale
 70
     0
300
1/64" = 1'-0"
140
0.015625
141
12.0
290
     0
  0
SCALE
  5
5B
102
{ACAD_REACTORS
330
47
102
}
330
47
100
AcDbScale
 70
     0
300
1/32" = 1'-0"
140
0.03125
141
12.0
290
     0
  0
SCALE
  5
5C
102
{ACAD_REACTORS
330
47
102
}
330
47
100
AcDbScale
 70
     0
300
1/16" = 1'-0"
140
0.0625
141
12.0
290
     0
  0
SCALE
  5
5D
102
{ACAD_REACTORS
330
47
102
}
330
47
100
AcDbScale
 70
     0
300
3/32" = 1'-0"
140
0.09375
141
12.0
290
     0
  0
SCALE
  5
5E
102
{ACAD_REACTORS
330
47
102
}
330
47
100
AcDbScale
 70
     0
300
1/8" = 1'-0"
140
0.125
141
12.0
290
     0
  0
SCALE
  5
5F
102
{ACAD_REACTORS
330
47
102
}
330
47
100
AcDbScale
 70
     0
300
3/16" = 1'-0"
140
0.1875
141
12.0
290
     0
  0
SCALE
  5
60
102
{ACAD_REACTORS
330
47
102
}
330
47
100
AcDbScale
 70
     0
300
1/4" = 1'-0"
140
0.25
141
12.0
290
     0
  0
SCALE
  5
61
102
{ACAD_REACTORS
330
47
102
}
330
47
100
AcDbScale
 70
     0
300
3/8" = 1'-0"
140
0.375
141
12.0
290
     0
  0
SCALE
  5
62
102
{ACAD_REACTORS
330
47
102
}
330
47
100
AcDbScale
 70
     0
300
1/2" = 1'-0"
140
0.5
141
12.0
290
     0
  0
SCALE
  5
63
102
{ACAD_REACTORS
330
47
102
}
330
47
100
AcDbScale
 70
     0
300
3/4" = 1'-0"
140
0.75
141
12.0
290
     0
  0
SCALE
  5
64
102
{ACAD_REACTORS
330
47
102
}
330
47
100
AcDbScale
 70
     0
300
1" = 1'-0"
140
1.0
141
12.0
290
     0
  0
SCALE
  5
65
102
{ACAD_REACTORS
330
47
102
}
330
47
100
AcDbScale
 70
     0
300
1-1/2" = 1'-0"
140
1.5
141
12.0
290
     0
  0
SCALE
  5
66
102
{ACAD_REACTORS
330
47
102
}
330
47
100
AcDbScale
 70
     0
300
3" = 1'-0"
140
3.0
141
12.0
290
     0
  0
SCALE
  5
67
102
{ACAD_REACTORS
330
47
102
}
330
47
100
AcDbScale
 70
     0
300
6" = 1'-0"
140
6.0
141
12.0
290
     0
  0
SCALE
  5
68
102
{ACAD_REACTORS
330
47
102
}
330
47
100
AcDbScale
 70
     0
300
1'-0" = 1'-0"
140
12.0
141
12.0
290
     0
  0
TABLESTYLE
  5
6A
102
{ACAD_REACTORS
330
69
102
}
102
{ACAD_XDICTIONARY
360
186
102
}
330
69
100
AcDbTableStyle
  3
Standard
 70
     0
 71
     0
 40
0.06
 41
0.06
280
     0
281
     0
  7
Standard
140
0.18
170
     2
 62
     0
 63
   257
283
     0
 90
        4
 91
        0
  1

274
    -2
284
     1
 64
     0
275
    -2
285
     1
 65
     0
276
    -2
286
     1
 66
     0
277
    -2
287
     1
 67
     0
278
    -2
288
     1
 68
     0
279
    -2
289
     1
 69
     0
  7
Standard
140
0.25
170
     5
 62
     0
 63
   257
283
     0
 90
        4
 91
        0
  1

274
    -2
284
     1
 64
     0
275
    -2
285
     1
 65
     0
276
    -2
286
     1
 66
     0
277
    -2
287
     1
 67
     0
278
    -2
288
     1
 68
     0
279
    -2
289
     1
 69
     0
  7
Standard
140
0.18
170
     5
 62
     0
 63
   257
283
     0
 90
        4
 91
        0
  1

274
    -2
284
     1
 64
     0
275
    -2
285
     1
 65
     0
276
    -2
286
     1
 66
     0
277
    -2
287
     1
 67
     0
278
    -2
288
     1
 68
     0
279
    -2
289
     1
 69
     0
  0
VISUALSTYLE
  5
2F
102
{ACAD_REACTORS
330
2A
102
}
330
2A
100
AcDbVisualStyle
  2
2dWireframe
 70
     4
177
     3
291
     0
 70
    58
 90
        0
176
     1
 90
        2
176
     1
 90
        0
176
     1
 90
        0
176
     1
 40
0.6
176
     1
 40
30.0
176
     1
 62
     7
420
 16777215
176
     1
 90
        1
176
     1
 90
        4
176
     1
 62
     7
176
     1
 62
   257
176
     1
 90
        1
176
     1
 90
        1
176
     1
 40
1.0
176
     1
 90
        0
176
     1
 62
   257
176
     1
 40
1.0
176
     1
 90
        1
176
     1
 90
        6
176
     1
 90
        2
176
     1
 62
     7
176
     1
 90
        5
176
     1
 90
        0
176
     1
 90
        0
176
     1
290
     0
176
     1
 90
        1
176
     1
 40
0.0
176
     1
 90
        0
176
     1
290
     1
176
     1
290
     1
176
     1
290
     0
176
     1
290
     0
176
     1
290
     0
176
     1
290
     0
176
     1
290
     0
176
     1
290
     0
176
     1
290
     0
176
     1
 90
       50
176
     1
 40
0.0
176
     1
 40
1.0
176
     1
 90
        0
176
     1
 62
    18
420
        0
176
     1
 90
       50
176
     1
 90
        3
176
     1
 62
     5
420
      255
176
     1
290
     0
176
     1
 90
       50
176
     1
 90
       50
176
     1
 90
       50
176
     1
290
     0
176
     1
 90
       50
176
     1
 62
   256
176
     0
 40
1.0
176
     0
 90
        2
176
     1
  1
strokes_ogs.tif
176
     1
290
     0
176
     1
 40
1.0
176
     1
 40
1.0
176
     1
  0
VISUALSTYLE
  5
32
102
{ACAD_REACTORS
330
2A
102
}
330
2A
100
AcDbVisualStyle
  2
Basic
 70
     7
177
     3
291
     1
 70
    58
 90
        1
176
     1
 90
        0
176
     1
 90
        1
176
     1
 90
        0
176
     1
 40
0.6
176
     1
 40
30.0
176
     1
 62
     7
420
 16777215
176
     1
 90
        0
176
     1
 90
        4
176
     1
 62
     7
176
     1
 62
   257
176
     1
 90
        1
176
     1
 90
        1
176
     1
 40
1.0
176
     1
 90
        8
176
     1
 62
     7
176
     1
 40
1.0
176
     1
 90
        1
176
     1
 90
        6
176
     1
 90
        2
176
     1
 62
     7
176
     1
 90
        5
176
     1
 90
        0
176
     1
 90
        0
176
     1
290
     0
176
     1
 90
        1
176
     1
 40
0.0
176
     1
 90
        0
176
     1
290
     0
176
     1
290
     1
176
     1
290
     1
176
     1
290
     0
176
     1
290
     0
176
     1
290
     0
176
     1
290
     0
176
     1
290
     0
176
     1
290
     0
176
     1
 90
       50
176
     1
 40
0.0
176
     1
 40
1.0
176
     1
 90
        0
176
     1
 62
    18
420
        0
176
     1
 90
       50
176
     1
 90
        3
176
     1
 62
     5
420
      255
176
     1
290
     0
176
     1
 90
       50
176
     1
 90
       50
176
     1
 90
       50
176
     1
290
     0
176
     1
 90
       50
176
     1
 62
   256
176
     0
 40
1.0
176
     0
 90
        2
176
     1
  1
strokes_ogs.tif
176
     1
290
     0
176
     1
 40
1.0
176
     1
 40
1.0
176
     1
  0
VISUALSTYLE
  5
36
102
{ACAD_REACTORS
330
2A
102
}
330
2A
100
AcDbVisualStyle
  2
Brighten
 70
    12
177
     3
291
     1
 70
    58
 90
        2
176
     1
 90
        2
176
     1
 90
        0
176
     1
 90
        0
176
     1
 40
0.6
176
     1
 40
30.0
176
     1
 62
     7
420
 16777215
176
     1
 90
        1
176
     1
 90
        4
176
     1
 62
     7
176
     1
 62
   257
176
     1
 90
        1
176
     1
 90
        1
176
     1
 40
1.0
176
     1
 90
        8
176
     1
 62
     7
176
     1
 40
1.0
176
     1
 90
        1
176
     1
 90
        6
176
     1
 90
        2
176
     1
 62
     7
176
     1
 90
        5
176
     1
 90
        0
176
     1
 90
        0
176
     1
290
     0
176
     1
 90
        1
176
     1
 40
50.0
176
     1
 90
        0
176
     1
290
     0
176
     1
290
     1
176
     1
290
     1
176
     1
290
     0
176
     1
290
     0
176
     1
290
     0
176
     1
290
     0
176
     1
290
     0
176
     1
290
     0
176
     1
 90
       50
176
     1
 40
0.0
176
     1
 40
1.0
176
     1
 90
        0
176
     1
 62
    18
420
        0
176
     1
 90
       50
176
     1
 90
        3
176
     1
 62
     5
420
      255
176
     1
290
     0
176
     1
 90
       50
176
     1
 90
       50
176
     1
 90
       50
176
     1
290
     0
176
     1
 90
       50
176
     1
 62
   256
176
     0
 40
1.0
176
     0
 90
        2
176
     1
  1
strokes_ogs.tif
176
     1
290
     0
176
     1
 40
1.0
176
     1
 40
1.0
176
     1
  0
VISUALSTYLE
  5
3A
102
{ACAD_REACTORS
330
2A
102
}
330
2A
100
AcDbVisualStyle
  2
ColorChange
 70
    16
177
     3
291
     1
 70
    58
 90
        2
176
     1
 90
        2
176
     1
 90
        3
176
     1
 90
        0
176
     1
 40
0.6
176
     1
 40
30.0
176
     1
 62
     8
420
  8421504
176
     1
 90
        1
176
     1
 90
        4
176
     1
 62
     7
176
     1
 62
   257
176
     1
 90
        1
176
     1
 90
        1
176
     1
 40
1.0
176
     1
 90
        8
176
     1
 62
     8
420
  8421504
176
     1
 40
1.0
176
     1
 90
        1
176
     1
 90
        6
176
     1
 90
        2
176
     1
 62
     7
176
     1
 90
        5
176
     1
 90
        0
176
     1
 90
        0
176
     1
290
     0
176
     1
 90
        1
176
     1
 40
0.0
176
     1
 90
        0
176
     1
290
     0
176
     1
290
     1
176
     1
290
     1
176
     1
290
     0
176
     1
290
     0
176
     1
290
     0
176
     1
290
     0
176
     1
290
     0
176
     1
290
     0
176
     1
 90
       50
176
     1
 40
0.0
176
     1
 40
1.0
176
     1
 90
        0
176
     1
 62
    18
420
        0
176
     1
 90
       50
176
     1
 90
        3
176
     1
 62
     5
420
      255
176
     1
290
     0
176
     1
 90
       50
176
     1
 90
       50
176
     1
 90
       50
176
     1
290
     0
176
     1
 90
       50
176
     1
 62
   256
176
     0
 40
1.0
176
     0
 90
        2
176
     1
  1
strokes_ogs.tif
176
     1
290
     0
176
     1
 40
1.0
176
     1
 40
1.0
176
     1
  0
VISUALSTYLE
  5
34
102
{ACAD_REACTORS
330
2A
102
}
330
2A
100
AcDbVisualStyle
  2
Conceptual
 70
     9
177
     3
291
     0
 70
    58
 90
        3
176
     1
 90
        2
176
     1
 90
        0
176
     1
 90
        0
176
     1
 40
0.6
176
     1
 40
30.0
176
     1
 62
     7
420
 16777215
176
     1
 90
        2
176
     1
 90
        2
176
     1
 62
     7
176
     1
 62
   257
176
     1
 90
        1
176
     1
 90
        1
176
     1
 40
179.0
176
     1
 90
        8
176
     1
 62
     7
176
     1
 40
1.0
176
     1
 90
        1
176
     1
 90
        6
176
     1
 90
        2
176
     1
 62
     7
176
     1
 90
        3
176
     1
 90
        0
176
     1
 90
        0
176
     1
290
     0
176
     1
 90
        1
176
     1
 40
0.0
176
     1
 90
        0
176
     1
290
     0
176
     1
290
     1
176
     1
290
     1
176
     1
290
     0
176
     1
290
     0
176
     1
290
     0
176
     1
290
     0
176
     1
290
     0
176
     1
290
     0
176
     1
 90
       50
176
     1
 40
0.0
176
     1
 40
1.0
176
     1
 90
        0
176
     1
 62
    18
420
        0
176
     1
 90
       50
176
     1
 90
        3
176
     1
 62
     5
420
      255
176
     1
290
     0
176
     1
 90
       50
176
     1
 90
       50
176
     1
 90
       50
176
     1
290
     0
176
     1
 90
       50
176
     1
 62
   256
176
     0
 40
1.0
176
     0
 90
        2
176
     1
  1
strokes_ogs.tif
176
     1
290
     0
176
     1
 40
1.0
176
     1
 40
1.0
176
     1
  0
VISUALSTYLE
  5
35
102
{ACAD_REACTORS
330
2A
102
}
330
2A
100
AcDbVisualStyle
  2
Dim
 70
    11
177
     3
291
     1
 70
    58
 90
        2
176
     1
 90
        2
176
     1
 90
        0
176
     1
 90
        0
176
     1
 40
0.6
176
     1
 40
30.0
176
     1
 62
     7
420
 16777215
176
     1
 90
        1
176
     1
 90
        4
176
     1
 62
     7
176
     1
 62
   257
176
     1
 90
        1
176
     1
 90
        1
176
     1
 40
1.0
176
     1
 90
        8
176
     1
 62
     7
176
     1
 40
1.0
176
     1
 90
        1
176
     1
 90
        6
176
     1
 90
        2
176
     1
 62
     7
176
     1
 90
        5
176
     1
 90
        0
176
     1
 90
        0
176
     1
290
     0
176
     1
 90
        1
176
     1
 40
-50.0
176
     1
 90
        0
176
     1
290
     0
176
     1
290
     1
176
     1
290
     1
176
     1
290
     0
176
     1
290
     0
176
     1
290
     0
176
     1
290
     0
176
     1
290
     0
176
     1
290
     0
176
     1
 90
       50
176
     1
 40
0.0
176
     1
 40
1.0
176
     1
 90
        0
176
     1
 62
    18
420
        0
176
     1
 90
       50
176
     1
 90
        3
176
     1
 62
     5
420
      255
176
     1
290
     0
176
     1
 90
       50
176
     1
 90
       50
176
     1
 90
       50
176
     1
290
     0
176
     1
 90
       50
176
     1
 62
   256
176
     0
 40
1.0
176
     0
 90
        2
176
     1
  1
strokes_ogs.tif
176
     1
290
     0
176
     1
 40
1.0
176
     1
 40
1.0
176
     1
  0
VISUALSTYLE
  5
3D
102
{ACAD_REACTORS
330
2A
102
}
330
2A
100
AcDbVisualStyle
  2
EdgeColorOff
 70
    22
177
     3
291
     1
 70
    58
 90
        2
176
     0
 90
        2
176
     0
 90
        0
176
     0
 90
        0
176
     0
 40
0.6
176
     0
 40
30.0
176
     0
 62
     7
420
 16777215
176
     0
 90
        1
176
     0
 90
        4
176
     0
 62
     7
176
     0
 62
   257
176
     0
 90
        1
176
     0
 90
        1
176
     0
 40
1.0
176
     0
 90
        8
176
     2
 62
     7
176
     0
 40
1.0
176
     0
 90
        1
176
     0
 90
        6
176
     0
 90
        2
176
     0
 62
     7
176
     0
 90
        5
176
     0
 90
        0
176
     0
 90
        0
176
     0
290
     0
176
     0
 90
        1
176
     0
 40
0.0
176
     0
 90
        0
176
     0
290
     0
176
     0
290
     1
176
     0
290
     1
176
     0
290
     0
176
     0
290
     0
176
     0
290
     0
176
     0
290
     0
176
     0
290
     0
176
     0
290
     0
176
     0
 90
       50
176
     0
 40
0.0
176
     0
 40
1.0
176
     0
 90
        0
176
     0
 62
    18
420
        0
176
     0
 90
       50
176
     0
 90
        3
176
     0
 62
     5
420
      255
176
     0
290
     0
176
     0
 90
       50
176
     0
 90
       50
176
     0
 90
       50
176
     0
290
     0
176
     0
 90
       50
176
     0
 62
   256
176
     0
 40
1.0
176
     0
 90
        2
176
     0
  1
strokes_ogs.tif
176
     0
290
     0
176
     0
 40
1.0
176
     0
 40
1.0
176
     0
  0
VISUALSTYLE
  5
39
102
{ACAD_REACTORS
330
2A
102
}
330
2A
100
AcDbVisualStyle
  2
Facepattern
 70
    15
177
     3
291
     1
 70
    58
 90
        2
176
     1
 90
        2
176
     1
 90
        0
176
     1
 90
        0
176
     1
 40
0.6
176
     1
 40
30.0
176
     1
 62
     7
420
 16777215
176
     1
 90
        1
176
     1
 90
        4
176
     1
 62
     7
176
     1
 62
   257
176
     1
 90
        1
176
     1
 90
        1
176
     1
 40
1.0
176
     1
 90
        8
176
     1
 62
     7
176
     1
 40
1.0
176
     1
 90
        1
176
     1
 90
        6
176
     1
 90
        2
176
     1
 62
     7
176
     1
 90
        5
176
     1
 90
        0
176
     1
 90
        0
176
     1
290
     0
176
     1
 90
        1
176
     1
 40
0.0
176
     1
 90
        0
176
     1
290
     0
176
     1
290
     1
176
     1
290
     1
176
     1
290
     0
176
     1
290
     0
176
     1
290
     0
176
     1
290
     0
176
     1
290
     0
176
     1
290
     0
176
     1
 90
       50
176
     1
 40
0.0
176
     1
 40
1.0
176
     1
 90
        0
176
     1
 62
    18
420
        0
176
     1
 90
       50
176
     1
 90
        3
176
     1
 62
     5
420
      255
176
     1
290
     0
176
     1
 90
       50
176
     1
 90
       50
176
     1
 90
       50
176
     1
290
     0
176
     1
 90
       50
176
     1
 62
   256
176
     0
 40
1.0
176
     0
 90
        2
176
     1
  1
strokes_ogs.tif
176
     1
290
     0
176
     1
 40
1.0
176
     1
 40
1.0
176
     1
  0
VISUALSTYLE
  5
2B
102
{ACAD_REACTORS
330
2A
102
}
330
2A
100
AcDbVisualStyle
  2
Flat
 70
     0
177
     3
291
     1
 70
    58
 90
        2
176
     1
 90
        1
176
     1
 90
        1
176
     1
 90
        2
176
     1
 40
0.6
176
     1
 40
30.0
176
     1
 62
     7
420
 16777215
176
     1
 90
        0
176
     1
 90
        0
176
     1
 62
     7
176
     1
 62
   257
176
     1
 90
        1
176
     1
 90
        1
176
     1
 40
1.0
176
     1
 90
        8
176
     1
 62
     7
176
     1
 40
1.0
176
     1
 90
        1
176
     1
 90
        6
176
     1
 90
        2
176
     1
 62
     7
176
     1
 90
        5
176
     1
 90
        0
176
     1
 90
        0
176
     1
290
     0
176
     1
 90
       13
176
     1
 40
0.0
176
     1
 90
        0
176
     1
290
     0
176
     1
290
     1
176
     1
290
     1
176
     1
290
     0
176
     1
290
     0
176
     1
290
     0
176
     1
290
     0
176
     1
290
     0
176
     1
290
     0
176
     1
 90
       50
176
     1
 40
0.0
176
     1
 40
1.0
176
     1
 90
        0
176
     1
 62
    18
420
        0
176
     1
 90
       50
176
     1
 90
        3
176
     1
 62
     5
420
      255
176
     1
290
     0
176
     1
 90
       50
176
     1
 90
       50
176
     1
 90
       50
176
     1
290
     0
176
     1
 90
       50
176
     1
 62
   256
176
     0
 40
1.0
176
     0
 90
        2
176
     1
  1
strokes_ogs.tif
176
     1
290
     0
176
     1
 40
1.0
176
     1
 40
1.0
176
     1
  0
VISUALSTYLE
  5
2C
102
{ACAD_REACTORS
330
2A
102
}
330
2A
100
AcDbVisualStyle
  2
FlatWithEdges
 70
     1
177
     3
291
     1
 70
    58
 90
        2
176
     1
 90
        1
176
     1
 90
        1
176
     1
 90
        2
176
     1
 40
0.6
176
     1
 40
30.0
176
     1
 62
     7
420
 16777215
176
     1
 90
        1
176
     1
 90
        0
176
     1
 62
     7
176
     1
 62
   257
176
     1
 90
        1
176
     1
 90
        1
176
     1
 40
1.0
176
     1
 90
        0
176
     1
 62
   257
176
     1
 40
1.0
176
     1
 90
        1
176
     1
 90
        6
176
     1
 90
        2
176
     1
 62
     7
176
     1
 90
        5
176
     1
 90
        0
176
     1
 90
        0
176
     1
290
     0
176
     1
 90
       13
176
     1
 40
0.0
176
     1
 90
        0
176
     1
290
     0
176
     1
290
     1
176
     1
290
     1
176
     1
290
     0
176
     1
290
     0
176
     1
290
     0
176
     1
290
     0
176
     1
290
     0
176
     1
290
     0
176
     1
 90
       50
176
     1
 40
0.0
176
     1
 40
1.0
176
     1
 90
        0
176
     1
 62
    18
420
        0
176
     1
 90
       50
176
     1
 90
        3
176
     1
 62
     5
420
      255
176
     1
290
     0
176
     1
 90
       50
176
     1
 90
       50
176
     1
 90
       50
176
     1
290
     0
176
     1
 90
       50
176
     1
 62
   256
176
     0
 40
1.0
176
     0
 90
        2
176
     1
  1
strokes_ogs.tif
176
     1
290
     0
176
     1
 40
1.0
176
     1
 40
1.0
176
     1
  0
VISUALSTYLE
  5
2D
102
{ACAD_REACTORS
330
2A
102
}
330
2A
100
AcDbVisualStyle
  2
Gouraud
 70
     2
177
     3
291
     1
 70
    58
 90
        2
176
     1
 90
        2
176
     1
 90
        1
176
     1
 90
        2
176
     1
 40
0.6
176
     1
 40
30.0
176
     1
 62
     7
420
 16777215
176
     1
 90
        0
176
     1
 90
        0
176
     1
 62
     7
176
     1
 62
   257
176
     1
 90
        1
176
     1
 90
        1
176
     1
 40
1.0
176
     1
 90
        0
176
     1
 62
     7
176
     1
 40
1.0
176
     1
 90
        1
176
     1
 90
        6
176
     1
 90
        2
176
     1
 62
     7
176
     1
 90
        5
176
     1
 90
        0
176
     1
 90
        0
176
     1
290
     0
176
     1
 90
       13
176
     1
 40
0.0
176
     1
 90
        0
176
     1
290
     0
176
     1
290
     1
176
     1
290
     1
176
     1
290
     0
176
     1
290
     0
176
     1
290
     0
176
     1
290
     0
176
     1
290
     0
176
     1
290
     0
176
     1
 90
       50
176
     1
 40
0.0
176
     1
 40
1.0
176
     1
 90
        0
176
     1
 62
    18
420
        0
176
     1
 90
       50
176
     1
 90
        3
176
     1
 62
     5
420
      255
176
     1
290
     0
176
     1
 90
       50
176
     1
 90
       50
176
     1
 90
       50
176
     1
290
     0
176
     1
 90
       50
176
     1
 62
   256
176
     0
 40
1.0
176
     0
 90
        2
176
     1
  1
strokes_ogs.tif
176
     1
290
     0
176
     1
 40
1.0
176
     1
 40
1.0
176
     1
  0
VISUALSTYLE
  5
2E
102
{ACAD_REACTORS
330
2A
102
}
330
2A
100
AcDbVisualStyle
  2
GouraudWithEdges
 70
     3
177
     3
291
     1
 70
    58
 90
        2
176
     1
 90
        2
176
     1
 90
        1
176
     1
 90
        2
176
     1
 40
0.6
176
     1
 40
30.0
176
     1
 62
     7
420
 16777215
176
     1
 90
        1
176
     1
 90
        0
176
     1
 62
     7
176
     1
 62
   257
176
     1
 90
        1
176
     1
 90
        1
176
     1
 40
1.0
176
     1
 90
        0
176
     1
 62
   257
176
     1
 40
1.0
176
     1
 90
        1
176
     1
 90
        6
176
     1
 90
        2
176
     1
 62
     7
176
     1
 90
        5
176
     1
 90
        0
176
     1
 90
        0
176
     1
290
     0
176
     1
 90
       13
176
     1
 40
0.0
176
     1
 90
        0
176
     1
290
     0
176
     1
290
     1
176
     1
290
     1
176
     1
290
     0
176
     1
290
     0
176
     1
290
     0
176
     1
290
     0
176
     1
290
     0
176
     1
290
     0
176
     1
 90
       50
176
     1
 40
0.0
176
     1
 40
1.0
176
     1
 90
        0
176
     1
 62
    18
420
        0
176
     1
 90
       50
176
     1
 90
        3
176
     1
 62
     5
420
      255
176
     1
290
     0
176
     1
 90
       50
176
     1
 90
       50
176
     1
 90
       50
176
     1
290
     0
176
     1
 90
       50
176
     1
 62
   256
176
     0
 40
1.0
176
     0
 90
        2
176
     1
  1
strokes_ogs.tif
176
     1
290
     0
176
     1
 40
1.0
176
     1
 40
1.0
176
     1
  0
VISUALSTYLE
  5
31
102
{ACAD_REACTORS
330
2A
102
}
330
2A
100
AcDbVisualStyle
  2
Hidden
 70
     6
177
     3
291
     0
 70
    58
 90
        1
176
     1
 90
        2
176
     1
 90
        2
176
     1
 90
        0
176
     1
 40
0.6
176
     1
 40
30.0
176
     1
 62
     7
420
 16777215
176
     1
 90
        2
176
     1
 90
        2
176
     1
 62
     7
176
     1
 62
   257
176
     1
 90
        2
176
     1
 90
        1
176
     1
 40
40.0
176
     1
 90
        0
176
     1
 62
   257
176
     1
 40
1.0
176
     1
 90
        1
176
     1
 90
        6
176
     1
 90
        2
176
     1
 62
     7
176
     1
 90
        3
176
     1
 90
        0
176
     1
 90
        0
176
     1
290
     0
176
     1
 90
        1
176
     1
 40
0.0
176
     1
 90
        0
176
     1
290
     0
176
     1
290
     1
176
     1
290
     1
176
     1
290
     0
176
     1
290
     0
176
     1
290
     0
176
     1
290
     0
176
     1
290
     0
176
     1
290
     0
176
     1
 90
       50
176
     1
 40
0.0
176
     1
 40
1.0
176
     1
 90
        0
176
     1
 62
    18
420
        0
176
     1
 90
       50
176
     1
 90
        3
176
     1
 62
     5
420
      255
176
     1
290
     0
176
     1
 90
       50
176
     1
 90
       50
176
     1
 90
       50
176
     1
290
     0
176
     1
 90
       50
176
     1
 62
   256
176
     0
 40
1.0
176
     0
 90
        2
176
     1
  1
strokes_ogs.tif
176
     1
290
     0
176
     1
 40
1.0
176
     1
 40
1.0
176
     1
  0
VISUALSTYLE
  5
3B
102
{ACAD_REACTORS
330
2A
102
}
330
2A
100
AcDbVisualStyle
  2
JitterOff
 70
    20
177
     3
291
     1
 70
    58
 90
        2
176
     0
 90
        2
176
     0
 90
        0
176
     0
 90
        0
176
     0
 40
0.6
176
     0
 40
30.0
176
     0
 62
     7
420
 16777215
176
     0
 90
        1
176
     0
 90
        4
176
     0
 62
     7
176
     0
 62
   257
176
     0
 90
        1
176
     0
 90
        1
176
     0
 40
1.0
176
     0
 90
       10
176
     2
 62
     7
176
     0
 40
1.0
176
     0
 90
        1
176
     0
 90
        6
176
     0
 90
        2
176
     0
 62
     7
176
     0
 90
        5
176
     0
 90
        0
176
     0
 90
        0
176
     0
290
     0
176
     0
 90
        1
176
     0
 40
0.0
176
     0
 90
        0
176
     0
290
     0
176
     0
290
     1
176
     0
290
     1
176
     0
290
     0
176
     0
290
     0
176
     0
290
     0
176
     0
290
     0
176
     0
290
     0
176
     0
290
     0
176
     0
 90
       50
176
     0
 40
0.0
176
     0
 40
1.0
176
     0
 90
        0
176
     0
 62
    18
420
        0
176
     0
 90
       50
176
     0
 90
        3
176
     0
 62
     5
420
      255
176
     0
290
     0
176
     0
 90
       50
176
     0
 90
       50
176
     0
 90
       50
176
     0
290
     0
176
     0
 90
       50
176
     0
 62
   256
176
     0
 40
1.0
176
     0
 90
        2
176
     0
  1
strokes_ogs.tif
176
     0
290
     0
176
     0
 40
1.0
176
     0
 40
1.0
176
     0
  0
VISUALSTYLE
  5
38
102
{ACAD_REACTORS
330
2A
102
}
330
2A
100
AcDbVisualStyle
  2
Linepattern
 70
    14
177
     3
291
     1
 70
    58
 90
        2
176
     1
 90
        2
176
     1
 90
        0
176
     1
 90
        0
176
     1
 40
0.6
176
     1
 40
30.0
176
     1
 62
     7
420
 16777215
176
     1
 90
        1
176
     1
 90
        4
176
     1
 62
     7
176
     1
 62
   257
176
     1
 90
        7
176
     1
 90
        7
176
     1
 40
1.0
176
     1
 90
        8
176
     1
 62
     7
176
     1
 40
1.0
176
     1
 90
        1
176
     1
 90
        6
176
     1
 90
        2
176
     1
 62
     7
176
     1
 90
        5
176
     1
 90
        0
176
     1
 90
        0
176
     1
290
     0
176
     1
 90
        1
176
     1
 40
0.0
176
     1
 90
        0
176
     1
290
     0
176
     1
290
     1
176
     1
290
     1
176
     1
290
     0
176
     1
290
     0
176
     1
290
     0
176
     1
290
     0
176
     1
290
     0
176
     1
290
     0
176
     1
 90
       50
176
     1
 40
0.0
176
     1
 40
1.0
176
     1
 90
        0
176
     1
 62
    18
420
        0
176
     1
 90
       50
176
     1
 90
        3
176
     1
 62
     5
420
      255
176
     1
290
     0
176
     1
 90
       50
176
     1
 90
       50
176
     1
 90
       50
176
     1
290
     0
176
     1
 90
       50
176
     1
 62
   256
176
     0
 40
1.0
176
     0
 90
        2
176
     1
  1
strokes_ogs.tif
176
     1
290
     0
176
     1
 40
1.0
176
     1
 40
1.0
176
     1
  0
VISUALSTYLE
  5
3C
102
{ACAD_REACTORS
330
2A
102
}
330
2A
100
AcDbVisualStyle
  2
OverhangOff
 70
    21
177
     3
291
     1
 70
    58
 90
        2
176
     0
 90
        2
176
     0
 90
        0
176
     0
 90
        0
176
     0
 40
0.6
176
     0
 40
30.0
176
     0
 62
     7
420
 16777215
176
     0
 90
        1
176
     0
 90
        4
176
     0
 62
     7
176
     0
 62
   257
176
     0
 90
        1
176
     0
 90
        1
176
     0
 40
1.0
176
     0
 90
        9
176
     2
 62
     7
176
     0
 40
1.0
176
     0
 90
        1
176
     0
 90
        6
176
     0
 90
        2
176
     0
 62
     7
176
     0
 90
        5
176
     0
 90
        0
176
     0
 90
        0
176
     0
290
     0
176
     0
 90
        1
176
     0
 40
0.0
176
     0
 90
        0
176
     0
290
     0
176
     0
290
     1
176
     0
290
     1
176
     0
290
     0
176
     0
290
     0
176
     0
290
     0
176
     0
290
     0
176
     0
290
     0
176
     0
290
     0
176
     0
 90
       50
176
     0
 40
0.0
176
     0
 40
1.0
176
     0
 90
        0
176
     0
 62
    18
420
        0
176
     0
 90
       50
176
     0
 90
        3
176
     0
 62
     5
420
      255
176
     0
290
     0
176
     0
 90
       50
176
     0
 90
       50
176
     0
 90
       50
176
     0
290
     0
176
     0
 90
       50
176
     0
 62
   256
176
     0
 40
1.0
176
     0
 90
        2
176
     0
  1
strokes_ogs.tif
176
     0
290
     0
176
     0
 40
1.0
176
     0
 40
1.0
176
     0
  0
VISUALSTYLE
  5
33
102
{ACAD_REACTORS
330
2A
102
}
330
2A
100
AcDbVisualStyle
  2
Realistic
 70
     8
177
     3
291
     0
 70
    58
 90
        2
176
     1
 90
        3
176
     1
 90
        0
176
     1
 90
        2
176
     1
 40
0.6
176
     1
 40
30.0
176
     1
 62
     7
420
 16777215
176
     1
 90
        0
176
     1
 90
        0
176
     1
 62
     7
176
     1
 62
   257
176
     1
 90
        1
176
     1
 90
        1
176
     1
 40
1.0
176
     1
 90
        8
176
     1
 62
   257
176
     1
 40
1.0
176
     1
 90
        1
176
     1
 90
        6
176
     1
 90
        2
176
     1
 62
     7
176
     1
 90
        3
176
     1
 90
        0
176
     1
 90
        0
176
     1
290
     0
176
     1
 90
       13
176
     1
 40
0.0
176
     1
 90
        0
176
     1
290
     0
176
     1
290
     1
176
     1
290
     1
176
     1
290
     0
176
     1
290
     0
176
     1
290
     0
176
     1
290
     0
176
     1
290
     0
176
     1
290
     0
176
     1
 90
       50
176
     1
 40
0.0
176
     1
 40
1.0
176
     1
 90
        0
176
     1
 62
    18
420
        0
176
     1
 90
       50
176
     1
 90
        3
176
     1
 62
     5
420
      255
176
     1
290
     0
176
     1
 90
       50
176
     1
 90
       50
176
     1
 90
       50
176
     1
290
     0
176
     1
 90
       50
176
     1
 62
   256
176
     0
 40
1.0
176
     0
 90
        2
176
     1
  1
strokes_ogs.tif
176
     1
290
     0
176
     1
 40
1.0
176
     1
 40
1.0
176
     1
  0
VISUALSTYLE
  5
42
102
{ACAD_REACTORS
330
2A
102
}
330
2A
100
AcDbVisualStyle
  2
Shaded
 70
    27
177
     3
291
     0
 70
    58
 90
        2
176
     1
 90
        2
176
     1
 90
        1
176
     1
 90
        2
176
     1
 40
0.6
176
     1
 40
30.0
176
     1
 62
     7
420
 16777215
176
     1
 90
        0
176
     1
 90
        4
176
     1
 62
     7
176
     1
 62
   257
176
     1
 90
        1
176
     1
 90
        1
176
     1
 40
1.0
176
     1
 90
        8
176
     1
 62
   257
176
     1
 40
1.0
176
     1
 90
        1
176
     1
 90
        6
176
     1
 90
        2
176
     1
 62
     8
420
  7895160
176
     1
 90
        3
176
     1
 90
        0
176
     1
 90
        0
176
     1
290
     0
176
     1
 90
        5
176
     1
 40
0.0
176
     1
 90
        0
176
     1
290
     0
176
     1
290
     1
176
     1
290
     1
176
     1
290
     0
176
     1
290
     0
176
     1
290
     0
176
     1
290
     0
176
     1
290
     0
176
     1
290
     0
176
     1
 90
       50
176
     1
 40
0.0
176
     1
 40
1.0
176
     1
 90
        0
176
     1
 62
    18
420
        0
176
     1
 90
       50
176
     1
 90
        3
176
     1
 62
     5
420
      255
176
     1
290
     0
176
     1
 90
       50
176
     1
 90
       50
176
     1
 90
       50
176
     1
290
     0
176
     1
 90
       50
176
     1
 62
   256
176
     0
 40
1.0
176
     0
 90
        2
176
     1
  1
strokes_ogs.tif
176
     1
290
     0
176
     1
 40
1.0
176
     1
 40
1.0
176
     1
  0
VISUALSTYLE
  5
41
102
{ACAD_REACTORS
330
2A
102
}
330
2A
100
AcDbVisualStyle
  2
Shaded with edges
 70
    26
177
     3
291
     0
 70
    58
 90
        2
176
     1
 90
        2
176
     1
 90
        1
176
     1
 90
        2
176
     1
 40
0.6
176
     1
 40
30.0
176
     1
 62
     7
420
 16777215
176
     1
 90
        1
176
     1
 90
       10
176
     1
 62
     7
176
     1
 62
   257
176
     1
 90
        2
176
     1
 90
        1
176
     1
 40
1.0
176
     1
 90
        8
176
     1
 62
   257
176
     1
 40
1.0
176
     1
 90
        1
176
     1
 90
        6
176
     1
 90
        2
176
     1
 62
     7
176
     1
 90
        3
176
     1
 90
        0
176
     1
 90
        0
176
     1
290
     0
176
     1
 90
        5
176
     1
 40
0.0
176
     1
 90
        0
176
     1
290
     0
176
     1
290
     1
176
     1
290
     1
176
     1
290
     0
176
     1
290
     0
176
     1
290
     0
176
     1
290
     0
176
     1
290
     0
176
     1
290
     0
176
     1
 90
       50
176
     1
 40
0.0
176
     1
 40
1.0
176
     1
 90
        0
176
     1
 62
    18
420
        0
176
     1
 90
       50
176
     1
 90
        3
176
     1
 62
     5
420
      255
176
     1
290
     0
176
     1
 90
       50
176
     1
 90
       50
176
     1
 90
       50
176
     1
290
     0
176
     1
 90
       50
176
     1
 62
   256
176
     0
 40
1.0
176
     0
 90
        2
176
     1
  1
strokes_ogs.tif
176
     1
290
     0
176
     1
 40
1.0
176
     1
 40
1.0
176
     1
  0
VISUALSTYLE
  5
3E
102
{ACAD_REACTORS
330
2A
102
}
330
2A
100
AcDbVisualStyle
  2
Shades of Gray
 70
    23
177
     3
291
     0
 70
    58
 90
        2
176
     1
 90
        2
176
     1
 90
        3
176
     1
 90
        0
176
     1
 40
0.6
176
     1
 40
30.0
176
     1
 62
     7
420
 16777215
176
     1
 90
        2
176
     1
 90
        2
176
     1
 62
     7
176
     1
 62
     7
176
     1
 90
        1
176
     1
 90
        1
176
     1
 40
40.0
176
     1
 90
        8
176
     1
 62
     7
176
     1
 40
1.0
176
     1
 90
        1
176
     1
 90
        6
176
     1
 90
        2
176
     1
 62
     7
176
     1
 90
        3
176
     1
 90
        0
176
     1
 90
        0
176
     1
290
     0
176
     1
 90
        1
176
     1
 40
0.0
176
     1
 90
        0
176
     1
290
     0
176
     1
290
     1
176
     1
290
     1
176
     1
290
     0
176
     1
290
     0
176
     1
290
     0
176
     1
290
     0
176
     1
290
     0
176
     1
290
     0
176
     1
 90
       50
176
     1
 40
0.0
176
     1
 40
1.0
176
     1
 90
        0
176
     1
 62
    18
420
        0
176
     1
 90
       50
176
     1
 90
        3
176
     1
 62
     5
420
      255
176
     1
290
     0
176
     1
 90
       50
176
     1
 90
       50
176
     1
 90
       50
176
     1
290
     0
176
     1
 90
       50
176
     1
 62
   256
176
     0
 40
1.0
176
     0
 90
        2
176
     1
  1
strokes_ogs.tif
176
     1
290
     0
176
     1
 40
1.0
176
     1
 40
1.0
176
     1
  0
VISUALSTYLE
  5
3F
102
{ACAD_REACTORS
330
2A
102
}
330
2A
100
AcDbVisualStyle
  2
Sketchy
 70
    24
177
     3
291
     0
 70
    58
 90
        1
176
     1
 90
        2
176
     1
 90
        2
176
     1
 90
        0
176
     1
 40
0.6
176
     1
 40
30.0
176
     1
 62
     7
420
 16777215
176
     1
 90
        2
176
     1
 90
        2
176
     1
 62
     7
176
     1
 62
     7
176
     1
 90
        1
176
     1
 90
        1
176
     1
 40
40.0
176
     1
 90
       11
176
     1
 62
     7
176
     1
 40
1.0
176
     1
 90
        1
176
     1
 90
        6
176
     1
 90
        2
176
     1
 62
     7
176
     1
 90
        6
176
     1
 90
        0
176
     1
 90
        0
176
     1
290
     0
176
     1
 90
        1
176
     1
 40
0.0
176
     1
 90
        0
176
     1
290
     0
176
     1
290
     1
176
     1
290
     1
176
     1
290
     0
176
     1
290
     0
176
     1
290
     0
176
     1
290
     0
176
     1
290
     0
176
     1
290
     0
176
     1
 90
       50
176
     1
 40
0.0
176
     1
 40
1.0
176
     1
 90
        0
176
     1
 62
    18
420
        0
176
     1
 90
       50
176
     1
 90
        3
176
     1
 62
     5
420
      255
176
     1
290
     0
176
     1
 90
       50
176
     1
 90
       50
176
     1
 90
       50
176
     1
290
     0
176
     1
 90
       50
176
     1
 62
   256
176
     0
 40
1.0
176
     0
 90
        2
176
     1
  1
strokes_ogs.tif
176
     1
290
     0
176
     1
 40
1.0
176
     1
 40
1.0
176
     1
  0
VISUALSTYLE
  5
37
102
{ACAD_REACTORS
330
2A
102
}
330
2A
100
AcDbVisualStyle
  2
Thicken
 70
    13
177
     3
291
     1
 70
    58
 90
        2
176
     1
 90
        2
176
     1
 90
        0
176
     1
 90
        0
176
     1
 40
0.6
176
     1
 40
30.0
176
     1
 62
     7
420
 16777215
176
     1
 90
        1
176
     1
 90
        4
176
     1
 62
     7
176
     1
 62
   257
176
     1
 90
        1
176
     1
 90
        1
176
     1
 40
1.0
176
     1
 90
       12
176
     1
 62
     7
176
     1
 40
1.0
176
     1
 90
        1
176
     1
 90
        6
176
     1
 90
        2
176
     1
 62
     7
176
     1
 90
        5
176
     1
 90
        0
176
     1
 90
        0
176
     1
290
     0
176
     1
 90
        1
176
     1
 40
0.0
176
     1
 90
        0
176
     1
290
     0
176
     1
290
     1
176
     1
290
     1
176
     1
290
     0
176
     1
290
     0
176
     1
290
     0
176
     1
290
     0
176
     1
290
     0
176
     1
290
     0
176
     1
 90
       50
176
     1
 40
0.0
176
     1
 40
1.0
176
     1
 90
        0
176
     1
 62
    18
420
        0
176
     1
 90
       50
176
     1
 90
        3
176
     1
 62
     5
420
      255
176
     1
290
     0
176
     1
 90
       50
176
     1
 90
       50
176
     1
 90
       50
176
     1
290
     0
176
     1
 90
       50
176
     1
 62
   256
176
     0
 40
1.0
176
     0
 90
        2
176
     1
  1
strokes_ogs.tif
176
     1
290
     0
176
     1
 40
1.0
176
     1
 40
1.0
176
     1
  0
VISUALSTYLE
  5
30
102
{ACAD_REACTORS
330
2A
102
}
330
2A
100
AcDbVisualStyle
  2
Wireframe
 70
     5
177
     3
291
     0
 70
    58
 90
        0
176
     1
 90
        2
176
     1
 90
        0
176
     1
 90
        0
176
     1
 40
0.6
176
     1
 40
30.0
176
     1
 62
     7
420
 16777215
176
     1
 90
        1
176
     1
 90
        4
176
     1
 62
     7
176
     1
 62
   257
176
     1
 90
        1
176
     1
 90
        1
176
     1
 40
1.0
176
     1
 90
        0
176
     1
 62
   257
176
     1
 40
1.0
176
     1
 90
        1
176
     1
 90
        6
176
     1
 90
        2
176
     1
 62
     7
176
     1
 90
        3
176
     1
 90
        0
176
     1
 90
        0
176
     1
290
     0
176
     1
 90
        1
176
     1
 40
0.0
176
     1
 90
        0
176
     1
290
     0
176
     1
290
     1
176
     1
290
     1
176
     1
290
     0
176
     1
290
     0
176
     1
290
     0
176
     1
290
     0
176
     1
290
     0
176
     1
290
     0
176
     1
 90
       50
176
     1
 40
0.0
176
     1
 40
1.0
176
     1
 90
        0
176
     1
 62
    18
420
        0
176
     1
 90
       50
176
     1
 90
        3
176
     1
 62
     5
420
      255
176
     1
290
     0
176
     1
 90
       50
176
     1
 90
       50
176
     1
 90
       50
176
     1
290
     0
176
     1
 90
       50
176
     1
 62
   256
176
     0
 40
1.0
176
     0
 90
        2
176
     1
  1
strokes_ogs.tif
176
     1
290
     0
176
     1
 40
1.0
176
     1
 40
1.0
176
     1
  0
VISUALSTYLE
  5
40
102
{ACAD_REACTORS
330
2A
102
}
330
2A
100
AcDbVisualStyle
  2
X-Ray
 70
    25
177
     3
291
     0
 70
    58
 90
        2
176
     1
 90
        2
176
     1
 90
        1
176
     1
 90
        1
176
     1
 40
0.5
176
     1
 40
30.0
176
     1
 62
     7
420
 16777215
176
     1
 90
        1
176
     1
 90
        0
176
     1
 62
     7
176
     1
 62
   257
176
     1
 90
        1
176
     1
 90
        1
176
     1
 40
1.0
176
     1
 90
        8
176
     1
 62
     7
176
     1
 40
1.0
176
     1
 90
        1
176
     1
 90
        6
176
     1
 90
        2
176
     1
 62
     7
176
     1
 90
        3
176
     1
 90
        0
176
     1
 90
        0
176
     1
290
     0
176
     1
 90
       13
176
     1
 40
0.0
176
     1
 90
        0
176
     1
290
     0
176
     1
290
     1
176
     1
290
     1
176
     1
290
     0
176
     1
290
     0
176
     1
290
     0
176
     1
290
     0
176
     1
290
     0
176
     1
290
     0
176
     1
 90
       50
176
     1
 40
0.0
176
     1
 40
1.0
176
     1
 90
        0
176
     1
 62
    18
420
        0
176
     1
 90
       50
176
     1
 90
        3
176
     1
 62
     5
420
      255
176
     1
290
     0
176
     1
 90
       50
176
     1
 90
       50
176
     1
 90
       50
176
     1
290
     0
176
     1
 90
       50
176
     1
 62
   256
176
     0
 40
1.0
176
     0
 90
        2
176
     1
  1
strokes_ogs.tif
176
     1
290
     0
176
     1
 40
1.0
176
     1
 40
1.0
176
     1
  0
DICTIONARYVAR
  5
185
102
{ACAD_REACTORS
330
184
102
}
330
184
100
DictionaryVariables
280
     0
  1
1:1
  0
DICTIONARYVAR
  5
18A
102
{ACAD_REACTORS
330
184
102
}
330
184
100
DictionaryVariables
280
     0
  1
Standard
  0
DICTIONARYVAR
  5
189
102
{ACAD_REACTORS
330
184
102
}
330
184
100
DictionaryVariables
280
     0
  1
Standard
  0
DICTIONARY
  5
186
330
6A
100
AcDbDictionary
280
     1
281
     1
  3
ACAD_ROUNDTRIP_2008_TABLESTYLE_CELLSTYLEMAP
360
187
  0
CELLSTYLEMAP
  5
187
102
{ACAD_REACTORS
330
186
102
}
330
186
100
AcDbCellStyleMap
 90
        3
300
CELLSTYLE
  1
TABLEFORMAT_BEGIN
 90
        5
170
     1
 91
        0
 92
    32768
 62
   257
 93
        1
300
CONTENTFORMAT
  1
CONTENTFORMAT_BEGIN
 90
        0
 91
        0
 92
        4
 93
        0
300

 40
0.0
140
1.0
 94
        5
 62
     0
340
11
144
0.25
309
CONTENTFORMAT_END
171
     1
301
MARGIN
  1
CELLMARGIN_BEGIN
 40
0.06
 40
0.06
 40
0.06
 40
0.06
 40
0.06
 40
0.06
309
CELLMARGIN_END
 94
        6
 95
        1
302
GRIDFORMAT
  1
GRIDFORMAT_BEGIN
 90
        0
 91
        1
 62
     0
 92
       -2
340
14
 93
        0
 40
0.045
309
GRIDFORMAT_END
 95
        2
302
GRIDFORMAT
  1
GRIDFORMAT_BEGIN
 90
        0
 91
        1
 62
     0
 92
       -2
340
14
 93
        0
 40
0.045
309
GRIDFORMAT_END
 95
        4
302
GRIDFORMAT
  1
GRIDFORMAT_BEGIN
 90
        0
 91
        1
 62
     0
 92
       -2
340
14
 93
        0
 40
0.045
309
GRIDFORMAT_END
 95
        8
302
GRIDFORMAT
  1
GRIDFORMAT_BEGIN
 90
        0
 91
        1
 62
     0
 92
       -2
340
14
 93
        0
 40
0.045
309
GRIDFORMAT_END
 95
       16
302
GRIDFORMAT
  1
GRIDFORMAT_BEGIN
 90
        0
 91
        1
 62
     0
 92
       -2
340
14
 93
        0
 40
0.045
309
GRIDFORMAT_END
 95
       32
302
GRIDFORMAT
  1
GRIDFORMAT_BEGIN
 90
        0
 91
        1
 62
     0
 92
       -2
340
14
 93
        0
 40
0.045
309
GRIDFORMAT_END
309
TABLEFORMAT_END
  1
CELLSTYLE_BEGIN
 90
        1
 91
        1
300
_TITLE
309
CELLSTYLE_END
300
CELLSTYLE
  1
TABLEFORMAT_BEGIN
 90
        5
170
     1
 91
        0
 92
        0
 62
   257
 93
        1
300
CONTENTFORMAT
  1
CONTENTFORMAT_BEGIN
 90
        0
 91
        0
 92
        4
 93
        0
300

 40
0.0
140
1.0
 94
        5
 62
     0
340
11
144
0.18
309
CONTENTFORMAT_END
171
     1
301
MARGIN
  1
CELLMARGIN_BEGIN
 40
0.06
 40
0.06
 40
0.06
 40
0.06
 40
0.06
 40
0.06
309
CELLMARGIN_END
 94
        6
 95
        1
302
GRIDFORMAT
  1
GRIDFORMAT_BEGIN
 90
        0
 91
        1
 62
     0
 92
       -2
340
14
 93
        0
 40
0.045
309
GRIDFORMAT_END
 95
        2
302
GRIDFORMAT
  1
GRIDFORMAT_BEGIN
 90
        0
 91
        1
 62
     0
 92
       -2
340
14
 93
        0
 40
0.045
309
GRIDFORMAT_END
 95
        4
302
GRIDFORMAT
  1
GRIDFORMAT_BEGIN
 90
        0
 91
        1
 62
     0
 92
       -2
340
14
 93
        0
 40
0.045
309
GRIDFORMAT_END
 95
        8
302
GRIDFORMAT
  1
GRIDFORMAT_BEGIN
 90
        0
 91
        1
 62
     0
 92
       -2
340
14
 93
        0
 40
0.045
309
GRIDFORMAT_END
 95
       16
302
GRIDFORMAT
  1
GRIDFORMAT_BEGIN
 90
        0
 91
        1
 62
     0
 92
       -2
340
14
 93
        0
 40
0.045
309
GRIDFORMAT_END
 95
       32
302
GRIDFORMAT
  1
GRIDFORMAT_BEGIN
 90
        0
 91
        1
 62
     0
 92
       -2
340
14
 93
        0
 40
0.045
309
GRIDFORMAT_END
309
TABLEFORMAT_END
  1
CELLSTYLE_BEGIN
 90
        2
 91
        1
300
_HEADER
309
CELLSTYLE_END
300
CELLSTYLE
  1
TABLEFORMAT_BEGIN
 90
        5
170
     1
 91
        0
 92
        0
 62
   257
 93
        1
300
CONTENTFORMAT
  1
CONTENTFORMAT_BEGIN
 90
        0
 91
        0
 92
        4
 93
        0
300

 40
0.0
140
1.0
 94
        2
 62
     0
340
11
144
0.18
309
CONTENTFORMAT_END
171
     1
301
MARGIN
  1
CELLMARGIN_BEGIN
 40
0.06
 40
0.06
 40
0.06
 40
0.06
 40
0.06
 40
0.06
309
CELLMARGIN_END
 94
        6
 95
        1
302
GRIDFORMAT
  1
GRIDFORMAT_BEGIN
 90
        0
 91
        1
 62
     0
 92
       -2
340
14
 93
        0
 40
0.045
309
GRIDFORMAT_END
 95
        2
302
GRIDFORMAT
  1
GRIDFORMAT_BEGIN
 90
        0
 91
        1
 62
     0
 92
       -2
340
14
 93
        0
 40
0.045
309
GRIDFORMAT_END
 95
        4
302
GRIDFORMAT
  1
GRIDFORMAT_BEGIN
 90
        0
 91
        1
 62
     0
 92
       -2
340
14
 93
        0
 40
0.045
309
GRIDFORMAT_END
 95
        8
302
GRIDFORMAT
  1
GRIDFORMAT_BEGIN
 90
        0
 91
        1
 62
     0
 92
       -2
340
14
 93
        0
 40
0.045
309
GRIDFORMAT_END
 95
       16
302
GRIDFORMAT
  1
GRIDFORMAT_BEGIN
 90
        0
 91
        1
 62
     0
 92
       -2
340
14
 93
        0
 40
0.045
309
GRIDFORMAT_END
 95
       32
302
GRIDFORMAT
  1
GRIDFORMAT_BEGIN
 90
        0
 91
        1
 62
     0
 92
       -2
340
14
 93
        0
 40
0.045
309
GRIDFORMAT_END
309
TABLEFORMAT_END
  1
CELLSTYLE_BEGIN
 90
        3
 91
        2
300
_DATA
309
CELLSTYLE_END
  0
ENDSEC
  0
EOF