0
SECTION
  2
HEADER
  9
$ACADVER
  1
AC1027
  9
$ACADMAINTVER
 70
     8
  9
$DWGCODEPAGE
  3
ANSI_1252
  9
$REQUIREDVERSIONS
160
                 0
  9
$COMMENTS
  1
File was created by Cadenas
  9
$CUSTOMPROPERTYTAG
  1
NN
  9
$CUSTOMPROPERTY
  1
Set Screw LFT Duty 2-Bolt Flange Inch Bore
  9
$CUSTOMPROPERTYTAG
  1
NT
  9
$CUSTOMPROPERTY
  1
SC 2 Bolt Flange Bearings -(Normal Duty) -Re-Lube and No-Lube
  9
$CUSTOMPROPERTYTAG
  1
NB
  9
$CUSTOMPROPERTY
  1
124665
  9
$CUSTOMPROPERTYTAG
  1
NBSYN
  9
$CUSTOMPROPERTY
  1
$PN.
  9
$CUSTOMPROPERTYTAG
  1
LINA
  9
$CUSTOMPROPERTY
  1
124665
  9
$CUSTOMPROPERTYTAG
  1
SERIES
  9
$CUSTOMPROPERTY
  1
205
  9
$CUSTOMPROPERTYTAG
  1
SS
  9
$CUSTOMPROPERTY
  1
1
  9
$CUSTOMPROPERTYTAG
  1
PN
  9
$CUSTOMPROPERTY
  1
124665
  9
$CUSTOMPROPERTYTAG
  1
DESCRIPTION
  9
$CUSTOMPROPERTY
  1
LFT-SC-100-NL
  9
$CUSTOMPROPERTYTAG
  1
W
  9
$CUSTOMPROPERTY
  1
0.85
  9
$CUSTOMPROPERTYTAG
  1
LF
  9
$CUSTOMPROPERTY
  1
NO-LUBE
  9
$CUSTOMPROPERTYTAG
  1
A
  9
$CUSTOMPROPERTY
  1
1.06
  9
$CUSTOMPROPERTYTAG
  1
B
  9
$CUSTOMPROPERTY
  1
3.75
  9
$CUSTOMPROPERTYTAG
  1
C
  9
$CUSTOMPROPERTY
  1
1.24
  9
$CUSTOMPROPERTYTAG
  1
D
  9
$CUSTOMPROPERTY
  1
3.00
  9
$CUSTOMPROPERTYTAG
  1
G
  9
$CUSTOMPROPERTY
  1
0.34
  9
$CUSTOMPROPERTYTAG
  1
H
  9
$CUSTOMPROPERTY
  1
0.42
  9
$CUSTOMPROPERTYTAG
  1
J
  9
$CUSTOMPROPERTY
  1
0.37
  9
$CUSTOMPROPERTYTAG
  1
L
  9
$CUSTOMPROPERTY
  1
1.32
  9
$CUSTOMPROPERTYTAG
  1
M
  9
$CUSTOMPROPERTY
  1
2.63
  9
$CUSTOMPROPERTYTAG
  1
N
  9
$CUSTOMPROPERTY
  1
1.44
  9
$CUSTOMPROPERTYTAG
  1
COMPANY
  9
$CUSTOMPROPERTY
  1
baldor
  9
$INSBASE
 10
0.0
 20
0.0
 30
0.0
  9
$EXTMIN
 10
1.000000000000000E+20
 20
1.000000000000000E+20
 30
1.000000000000000E+20
  9
$EXTMAX
 10
-1.000000000000000E+20
 20
-1.000000000000000E+20
 30
-1.000000000000000E+20
  9
$LIMMIN
 10
0.0
 20
0.0
  9
$LIMMAX
 10
12.0
 20
9.0
  9
$ORTHOMODE
 70
     0
  9
$REGENMODE
 70
     1
  9
$FILLMODE
 70
     1
  9
$QTEXTMODE
 70
     0
  9
$MIRRTEXT
 70
     1
  9
$LTSCALE
 40
1.0
  9
$ATTMODE
 70
     1
  9
$TEXTSIZE
 40
0.2
  9
$TRACEWID
 40
0.05
  9
$TEXTSTYLE
  7
Standard
  9
$CLAYER
  8
0
  9
$CELTYPE
  6
ByLayer
  9
$CECOLOR
 62
   256
  9
$CELTSCALE
 40
1.0
  9
$DISPSILH
 70
     0
  9
$DIMSCALE
 40
1.0
  9
$DIMASZ
 40
0.18
  9
$DIMEXO
 40
0.0625
  9
$DIMDLI
 40
0.38
  9
$DIMRND
 40
0.0
  9
$DIMDLE
 40
0.0
  9
$DIMEXE
 40
0.18
  9
$DIMTP
 40
0.0
  9
$DIMTM
 40
0.0
  9
$DIMTXT
 40
0.18
  9
$DIMCEN
 40
0.09
  9
$DIMTSZ
 40
0.0
  9
$DIMTOL
 70
     0
  9
$DIMLIM
 70
     0
  9
$DIMTIH
 70
     1
  9
$DIMTOH
 70
     1
  9
$DIMSE1
 70
     0
  9
$DIMSE2
 70
     0
  9
$DIMTAD
 70
     0
  9
$DIMZIN
 70
     0
  9
$DIMBLK
  1

  9
$DIMASO
 70
     1
  9
$DIMSHO
 70
     1
  9
$DIMPOST
  1

  9
$DIMAPOST
  1

  9
$DIMALT
 70
     0
  9
$DIMALTD
 70
     2
  9
$DIMALTF
 40
25.4
  9
$DIMLFAC
 40
1.0
  9
$DIMTOFL
 70
     0
  9
$DIMTVP
 40
0.0
  9
$DIMTIX
 70
     0
  9
$DIMSOXD
 70
     0
  9
$DIMSAH
 70
     0
  9
$DIMBLK1
  1

  9
$DIMBLK2
  1

  9
$DIMSTYLE
  2
Standard
  9
$DIMCLRD
 70
     0
  9
$DIMCLRE
 70
     0
  9
$DIMCLRT
 70
     0
  9
$DIMTFAC
 40
1.0
  9
$DIMGAP
 40
0.09
  9
$DIMJUST
 70
     0
  9
$DIMSD1
 70
     0
  9
$DIMSD2
 70
     0
  9
$DIMTOLJ
 70
     1
  9
$DIMTZIN
 70
     0
  9
$DIMALTZ
 70
     0
  9
$DIMALTTZ
 70
     0
  9
$DIMUPT
 70
     0
  9
$DIMDEC
 70
     4
  9
$DIMTDEC
 70
     4
  9
$DIMALTU
 70
     2
  9
$DIMALTTD
 70
     2
  9
$DIMTXSTY
  7
Standard
  9
$DIMAUNIT
 70
     0
  9
$DIMADEC
 70
     0
  9
$DIMALTRND
 40
0.0
  9
$DIMAZIN
 70
     0
  9
$DIMDSEP
 70
    46
  9
$DIMATFIT
 70
     3
  9
$DIMFRAC
 70
     0
  9
$DIMLDRBLK
  1

  9
$DIMLUNIT
 70
     2
  9
$DIMLWD
 70
    -2
  9
$DIMLWE
 70
    -2
  9
$DIMTMOVE
 70
     0
  9
$DIMFXL
 40
1.0
  9
$DIMFXLON
 70
     0
  9
$DIMJOGANG
 40
0.7853981633974483
  9
$DIMTFILL
 70
     0
  9
$DIMTFILLCLR
 70
     0
  9
$DIMARCSYM
 70
     0
  9
$DIMLTYPE
  6

  9
$DIMLTEX1
  6

  9
$DIMLTEX2
  6

  9
$DIMTXTDIRECTION
 70
     0
  9
$LUNITS
 70
     2
  9
$LUPREC
 70
     4
  9
$SKETCHINC
 40
0.1
  9
$FILLETRAD
 40
0.5
  9
$AUNITS
 70
     0
  9
$AUPREC
 70
     0
  9
$MENU
  1
.
  9
$ELEVATION
 40
0.0
  9
$PELEVATION
 40
0.0
  9
$THICKNESS
 40
0.0
  9
$LIMCHECK
 70
     0
  9
$CHAMFERA
 40
0.0
  9
$CHAMFERB
 40
0.0
  9
$CHAMFERC
 40
0.0
  9
$CHAMFERD
 40
0.0
  9
$SKPOLY
 70
     0
  9
$TDCREATE
 40
2458169.004568125
  9
$TDUCREATE
 40
2458168.962901458
  9
$TDUPDATE
 40
2458169.004568125
  9
$TDUUPDATE
 40
2458168.962901458
  9
$TDINDWG
 40
0.0000000116
  9
$TDUSRTIMER
 40
0.0000000116
  9
$USRTIMER
 70
     1
  9
$ANGBASE
 50
0.0
  9
$ANGDIR
 70
     0
  9
$PDMODE
 70
     0
  9
$PDSIZE
 40
0.0
  9
$PLINEWID
 40
0.0
  9
$SPLFRAME
 70
     0
  9
$SPLINETYPE
 70
     6
  9
$SPLINESEGS
 70
     8
  9
$HANDSEED
  5
183
  9
$SURFTAB1
 70
     6
  9
$SURFTAB2
 70
     6
  9
$SURFTYPE
 70
     6
  9
$SURFU
 70
     6
  9
$SURFV
 70
     6
  9
$UCSBASE
  2

  9
$UCSNAME
  2

  9
$UCSORG
 10
0.0
 20
0.0
 30
0.0
  9
$UCSXDIR
 10
1.0
 20
0.0
 30
0.0
  9
$UCSYDIR
 10
0.0
 20
1.0
 30
0.0
  9
$UCSORTHOREF
  2

  9
$UCSORTHOVIEW
 70
     0
  9
$UCSORGTOP
 10
0.0
 20
0.0
 30
0.0
  9
$UCSORGBOTTOM
 10
0.0
 20
0.0
 30
0.0
  9
$UCSORGLEFT
 10
0.0
 20
0.0
 30
0.0
  9
$UCSORGRIGHT
 10
0.0
 20
0.0
 30
0.0
  9
$UCSORGFRONT
 10
0.0
 20
0.0
 30
0.0
  9
$UCSORGBACK
 10
0.0
 20
0.0
 30
0.0
  9
$PUCSBASE
  2

  9
$PUCSNAME
  2

  9
$PUCSORG
 10
0.0
 20
0.0
 30
0.0
  9
$PUCSXDIR
 10
1.0
 20
0.0
 30
0.0
  9
$PUCSYDIR
 10
0.0
 20
1.0
 30
0.0
  9
$PUCSORTHOREF
  2

  9
$PUCSORTHOVIEW
 70
     0
  9
$PUCSORGTOP
 10
0.0
 20
0.0
 30
0.0
  9
$PUCSORGBOTTOM
 10
0.0
 20
0.0
 30
0.0
  9
$PUCSORGLEFT
 10
0.0
 20
0.0
 30
0.0
  9
$PUCSORGRIGHT
 10
0.0
 20
0.0
 30
0.0
  9
$PUCSORGFRONT
 10
0.0
 20
0.0
 30
0.0
  9
$PUCSORGBACK
 10
0.0
 20
0.0
 30
0.0
  9
$USERI1
 70
     0
  9
$USERI2
 70
     0
  9
$USERI3
 70
     0
  9
$USERI4
 70
     0
  9
$USERI5
 70
     0
  9
$USERR1
 40
0.0
  9
$USERR2
 40
0.0
  9
$USERR3
 40
0.0
  9
$USERR4
 40
0.0
  9
$USERR5
 40
0.0
  9
$WORLDVIEW
 70
     1
  9
$SHADEDGE
 70
     3
  9
$SHADEDIF
 70
    70
  9
$TILEMODE
 70
     1
  9
$MAXACTVP
 70
    64
  9
$PINSBASE
 10
0.0
 20
0.0
 30
0.0
  9
$PLIMCHECK
 70
     0
  9
$PEXTMIN
 10
1.000000000000000E+20
 20
1.000000000000000E+20
 30
1.000000000000000E+20
  9
$PEXTMAX
 10
-1.000000000000000E+20
 20
-1.000000000000000E+20
 30
-1.000000000000000E+20
  9
$PLIMMIN
 10
0.0
 20
0.0
  9
$PLIMMAX
 10
12.0
 20
9.0
  9
$UNITMODE
 70
     0
  9
$VISRETAIN
 70
     1
  9
$PLINEGEN
 70
     0
  9
$PSLTSCALE
 70
     1
  9
$TREEDEPTH
 70
  3020
  9
$CMLSTYLE
  2
Standard
  9
$CMLJUST
 70
     0
  9
$CMLSCALE
 40
1.0
  9
$PROXYGRAPHICS
 70
     1
  9
$MEASUREMENT
 70
     0
  9
$CELWEIGHT
370
    -1
  9
$ENDCAPS
280
     0
  9
$JOINSTYLE
280
     0
  9
$LWDISPLAY
290
     0
  9
$INSUNITS
 70
     1
  9
$HYPERLINKBASE
  1

  9
$STYLESHEET
  1

  9
$XEDIT
290
     1
  9
$CEPSNTYPE
380
     0
  9
$PSTYLEMODE
290
     1
  9
$FINGERPRINTGUID
  2
{4CBDD8AB-764E-4D63-B7F5-1EE369D1CCF1}
  9
$VERSIONGUID
  2
{FAEB1C32-E019-11D5-929B-00C0DF256EC4}
  9
$EXTNAMES
290
     1
  9
$PSVPSCALE
 40
0.0
  9
$OLESTARTUP
290
     0
  9
$SORTENTS
280
   127
  9
$INDEXCTL
280
     0
  9
$HIDETEXT
280
     1
  9
$XCLIPFRAME
280
     2
  9
$HALOGAP
280
     0
  9
$OBSCOLOR
 70
   257
  9
$OBSLTYPE
280
     0
  9
$INTERSECTIONDISPLAY
280
     0
  9
$INTERSECTIONCOLOR
 70
   257
  9
$DIMASSOC
280
     2
  9
$PROJECTNAME
  1

  9
$CAMERADISPLAY
290
     0
  9
$LENSLENGTH
 40
50.0
  9
$CAMERAHEIGHT
 40
0.0
  9
$STEPSPERSEC
 40
2.0
  9
$STEPSIZE
 40
6.0
  9
$3DDWFPREC
 40
2.0
  9
$PSOLWIDTH
 40
0.25
  9
$PSOLHEIGHT
 40
4.0
  9
$LOFTANG1
 40
1.570796326794897
  9
$LOFTANG2
 40
1.570796326794897
  9
$LOFTMAG1
 40
0.0
  9
$LOFTMAG2
 40
0.0
  9
$LOFTPARAM
 70
     7
  9
$LOFTNORMALS
280
     1
  9
$LATITUDE
 40
37.795
  9
$LONGITUDE
 40
-122.394
  9
$NORTHDIRECTION
 40
0.0
  9
$TIMEZONE
 70
 -8000
  9
$LIGHTGLYPHDISPLAY
280
     1
  9
$TILEMODELIGHTSYNCH
280
     1
  9
$CMATERIAL
347
44
  9
$SOLIDHIST
280
     0
  9
$SHOWHIST
280
     1
  9
$DWFFRAME
280
     2
  9
$DGNFRAME
280
     2
  9
$REALWORLDSCALE
290
     1
  9
$INTERFERECOLOR
 62
   256
  9
$CSHADOW
280
     0
  9
$SHADOWPLANELOCATION
 40
0.0
  0
ENDSEC
  0
SECTION
  2
CLASSES
  0
CLASS
  1
ACDBDICTIONARYWDFLT
  2
AcDbDictionaryWithDefault
  3
ObjectDBX Classes
 90
        0
 91
        4
280
     0
281
     0
  0
CLASS
  1
VISUALSTYLE
  2
AcDbVisualStyle
  3
ObjectDBX Classes
 90
     4095
 91
        4
280
     0
281
     0
  0
CLASS
  1
MATERIAL
  2
AcDbMaterial
  3
ObjectDBX Classes
 90
     1153
 91
        4
280
     0
281
     0
  0
CLASS
  1
SCALE
  2
AcDbScale
  3
ObjectDBX Classes
 90
     1153
 91
        4
280
     0
281
     0
  0
CLASS
  1
TABLESTYLE
  2
AcDbTableStyle
  3
ObjectDBX Classes
 90
     4095
 91
        4
280
     0
281
     0
  0
CLASS
  1
MLEADERSTYLE
  2
AcDbMLeaderStyle
  3
ACDB_MLEADERSTYLE_CLASS
 90
     4095
 91
        4
280
     0
281
     0
  0
CLASS
  1
SUN
  2
AcDbSun
  3
SCENEOE
 90
     1153
 91
        4
280
     0
281
     0
  0
CLASS
  1
DICTIONARYVAR
  2
AcDbDictionaryVar
  3
ObjectDBX Classes
 90
        0
 91
        4
280
     0
281
     0
  0
CLASS
  1
CELLSTYLEMAP
  2
AcDbCellStyleMap
  3
ObjectDBX Classes
 90
     1152
 91
        4
280
     0
281
     0
  0
ENDSEC
  0
SECTION
  2
TABLES
  0
TABLE
  2
VPORT
  5
8
330
0
100
AcDbSymbolTable
 70
     1
  0
VPORT
  5
29
330
8
100
AcDbSymbolTableRecord
100
AcDbViewportTableRecord
  2
*Active
 70
     0
 10
0.0
 20
0.0
 11
1.0
 21
1.0
 12
0.006110432799046
 22
-0.6247500000000006
 13
0.0
 23
0.0
 14
0.5
 24
0.5
 15
0.5
 25
0.5
 16
0.0
 26
0.0
 36
1.0
 17
0.0
 27
0.0
 37
0.0
 40
1.363230000000001
 41
1.976970344630073
 42
50.0
 43
0.0
 44
0.0
 50
0.0
 51
0.0
 71
     0
 72
   100
 73
     1
 74
     3
 75
     0
 76
     0
 77
     0
 78
     0
281
     0
 65
     1
110
0.0
120
0.0
130
0.0
111
1.0
121
0.0
131
0.0
112
0.0
122
1.0
132
0.0
 79
     0
146
0.0
348
2F
 60
     3
 61
     5
292
     1
282
     1
141
0.0
142
0.0
 63
   250
361
6D
  0
ENDTAB
  0
TABLE
  2
LTYPE
  5
5
330
0
100
AcDbSymbolTable
 70
     3
  0
LTYPE
  5
14
330
5
100
AcDbSymbolTableRecord
100
AcDbLinetypeTableRecord
  2
ByBlock
 70
     0
  3

 72
    65
 73
     0
 40
0.0
  0
LTYPE
  5
15
330
5
100
AcDbSymbolTableRecord
100
AcDbLinetypeTableRecord
  2
ByLayer
 70
     0
  3

 72
    65
 73
     0
 40
0.0
  0
LTYPE
  5
16
330
5
100
AcDbSymbolTableRecord
100
AcDbLinetypeTableRecord
  2
Continuous
 70
     0
  3
Solid line
 72
    65
 73
     0
 40
0.0
  0
LTYPE
  5
9F
330
5
100
AcDbSymbolTableRecord
100
AcDbLinetypeTableRecord
  2
Dashed
 70
     0
  3

 72
    65
 73
     2
 40
2.0
 49
1.0
 74
     0
 49
-1.0
 74
     0
  0
LTYPE
  5
157
330
5
100
AcDbSymbolTableRecord
100
AcDbLinetypeTableRecord
  2
Center
 70
     0
  3

 72
    65
 73
     4
 40
1.5
 49
0.45
 74
     0
 49
-0.5
 74
     0
 49
0.05
 74
     0
 49
-0.5
 74
     0
  0
ENDTAB
  0
TABLE
  2
LAYER
  5
2
330
0
100
AcDbSymbolTable
 70
     6
  0
LAYER
  5
10
330
2
100
AcDbSymbolTableRecord
100
AcDbLayerTableRecord
  2
0
 70
     0
 62
     7
  6
Continuous
370
    -3
390
F
347
46
348
0
  0
LAYER
  5
72
330
2
100
AcDbSymbolTableRecord
100
AcDbLayerTableRecord
  2
AM_6
 70
     0
 62
    -2
  6
Continuous
370
    35
390
F
347
46
348
0
  0
LAYER
  5
A0
330
2
100
AcDbSymbolTableRecord
100
AcDbLayerTableRecord
  2
AM_9
 70
     0
 62
     6
  6
Dashed
370
    25
390
F
347
46
348
0
  0
LAYER
  5
E0
330
2
100
AcDbSymbolTableRecord
100
AcDbLayerTableRecord
  2
AM_4
 70
     0
 62
     7
  6
Continuous
370
    50
390
F
347
46
348
0
  0
LAYER
  5
158
330
2
100
AcDbSymbolTableRecord
100
AcDbLayerTableRecord
  2
AM_7
 70
     0
 62
     7
  6
Center
370
    25
390
F
347
46
348
0
  0
LAYER
  5
176
330
2
100
AcDbSymbolTableRecord
100
AcDbLayerTableRecord
  2
ConnectionPoints
 70
     0
 62
     7
  6
Continuous
370
    50
390
F
347
46
348
0
  0
ENDTAB
  0
TABLE
  2
STYLE
  5
3
330
0
100
AcDbSymbolTable
 70
     1
  0
STYLE
  5
11
330
3
100
AcDbSymbolTableRecord
100
AcDbTextStyleTableRecord
  2
Standard
 70
     0
 40
0.0
 41
1.0
 50
0.0
 71
     0
 42
0.2
  3
txt
  4

  0
ENDTAB
  0
TABLE
  2
VIEW
  5
6
330
0
100
AcDbSymbolTable
 70
     0
  0
ENDTAB
  0
TABLE
  2
UCS
  5
7
330
0
100
AcDbSymbolTable
 70
     0
  0
ENDTAB
  0
TABLE
  2
APPID
  5
9
330
0
100
AcDbSymbolTable
 70
     1
  0
APPID
  5
12
330
9
100
AcDbSymbolTableRecord
100
AcDbRegAppTableRecord
  2
ACAD
 70
     0
  0
ENDTAB
  0
TABLE
  2
DIMSTYLE
  5
A
330
0
100
AcDbSymbolTable
 70
     1
100
AcDbDimStyleTable
  0
DIMSTYLE
105
27
330
A
100
AcDbSymbolTableRecord
100
AcDbDimStyleTableRecord
  2
Standard
 70
     0
178
     0
340
11
  0
ENDTAB
  0
TABLE
  2
BLOCK_RECORD
  5
1
330
0
100
AcDbSymbolTable
 70
     5
  0
BLOCK_RECORD
  5
1F
330
1
100
AcDbSymbolTableRecord
100
AcDbBlockTableRecord
  2
*Model_Space
340
22
 70
     0
280
     1
281
     0
  0
BLOCK_RECORD
  5
1B
330
1
100
AcDbSymbolTableRecord
100
AcDbBlockTableRecord
  2
*Paper_Space
340
1E
 70
     0
280
     1
281
     0
  0
BLOCK_RECORD
  5
23
330
1
100
AcDbSymbolTableRecord
100
AcDbBlockTableRecord
  2
*Paper_Space0
340
26
 70
     0
280
     1
281
     0
  0
BLOCK_RECORD
  5
6E
330
1
100
AcDbSymbolTableRecord
100
AcDbBlockTableRecord
  2
1_124665_4
340
0
102
{BLKREFS
331
6F
102
}
 70
     0
280
     1
281
     0
  0
BLOCK_RECORD
  5
89
330
1
100
AcDbSymbolTableRecord
100
AcDbBlockTableRecord
  2
2_077979_0_in_124665_4
340
0
102
{BLKREFS
331
8A
102
}
 70
     0
280
     1
281
     0
  0
BLOCK_RECORD
  5
EC
330
1
100
AcDbSymbolTableRecord
100
AcDbBlockTableRecord
  2
3_430026_0_in_124665_4
340
0
102
{BLKREFS
331
ED
102
}
 70
     0
280
     1
281
     0
  0
BLOCK_RECORD
  5
11F
330
1
100
AcDbSymbolTableRecord
100
AcDbBlockTableRecord
  2
4_124665H_0_in_124665_4
340
0
102
{BLKREFS
331
120
102
}
 70
     0
280
     1
281
     0
  0
ENDTAB
  0
ENDSEC
  0
SECTION
  2
BLOCKS
  0
BLOCK
  5
20
330
1F
100
AcDbEntity
  8
0
100
AcDbBlockBegin
  2
*Model_Space
 70
     0
 10
0.0
 20
0.0
 30
0.0
  3
*Model_Space
  1

  0
ENDBLK
  5
21
330
1F
100
AcDbEntity
  8
0
100
AcDbBlockEnd
  0
BLOCK
  5
1C
330
1B
100
AcDbEntity
 67
     1
  8
0
100
AcDbBlockBegin
  2
*Paper_Space
 70
     0
 10
0.0
 20
0.0
 30
0.0
  3
*Paper_Space
  1

  0
ENDBLK
  5
1D
330
1B
100
AcDbEntity
 67
     1
  8
0
100
AcDbBlockEnd
  0
BLOCK
  5
24
330
23
100
AcDbEntity
  8
0
100
AcDbBlockBegin
  2
*Paper_Space0
 70
     0
 10
0.0
 20
0.0
 30
0.0
  3
*Paper_Space0
  1

  0
ENDBLK
  5
25
330
23
100
AcDbEntity
  8
0
100
AcDbBlockEnd
  0
BLOCK
  5
70
330
6E
100
AcDbEntity
  8
0
100
AcDbBlockBegin
  2
1_124665_4
 70
     2
 10
0.0
 20
0.0
 30
0.0
  3
1_124665_4
  1

  0
ATTDEF
  5
73
330
6E
100
AcDbEntity
  8
AM_6
100
AcDbText
 10
6.327220865598093
 20
0.0435
 30
0.0
 40
0.5
  1
Set Screw LFT Duty 2-Bolt Flange Inch Bore
100
AcDbAttributeDefinition
  3

  2
NN
 70
     8
280
     0
  0
ATTDEF
  5
74
330
6E
100
AcDbEntity
  8
AM_6
100
AcDbText
 10
6.327220865598093
 20
-0.4565
 30
0.0
 40
0.5
  1
SC 2 Bolt Flange Bearings -(Normal Duty) -Re-Lube and No-Lube
100
AcDbAttributeDefinition
  3

  2
NT
 70
     8
280
     0
  0
ATTDEF
  5
75
330
6E
100
AcDbEntity
  8
AM_6
100
AcDbText
 10
6.327220865598093
 20
-0.9565
 30
0.0
 40
0.5
  1
124665
100
AcDbAttributeDefinition
  3

  2
NB
 70
     8
280
     0
  0
ATTDEF
  5
76
330
6E
100
AcDbEntity
  8
AM_6
100
AcDbText
 10
6.327220865598093
 20
-1.4565
 30
0.0
 40
0.5
  1
$PN.
100
AcDbAttributeDefinition
  3

  2
NBSYN
 70
     8
280
     0
  0
ATTDEF
  5
77
330
6E
100
AcDbEntity
  8
AM_6
100
AcDbText
 10
6.327220865598093
 20
-1.9565
 30
0.0
 40
0.5
  1
124665
100
AcDbAttributeDefinition
  3

  2
LINA
 70
     8
280
     0
  0
ATTDEF
  5
78
330
6E
100
AcDbEntity
  8
AM_6
100
AcDbText
 10
6.327220865598093
 20
-2.4565
 30
0.0
 40
0.5
  1
205
100
AcDbAttributeDefinition
  3

  2
SERIES
 70
     8
280
     0
  0
ATTDEF
  5
79
330
6E
100
AcDbEntity
  8
AM_6
100
AcDbText
 10
6.327220865598093
 20
-2.9565
 30
0.0
 40
0.5
  1
1
100
AcDbAttributeDefinition
  3

  2
SS
 70
     8
280
     0
  0
ATTDEF
  5
7A
330
6E
100
AcDbEntity
  8
AM_6
100
AcDbText
 10
6.327220865598093
 20
-3.4565
 30
0.0
 40
0.5
  1
124665
100
AcDbAttributeDefinition
  3

  2
PN
 70
     8
280
     0
  0
ATTDEF
  5
7B
330
6E
100
AcDbEntity
  8
AM_6
100
AcDbText
 10
6.327220865598093
 20
-3.9565
 30
0.0
 40
0.5
  1
LFT-SC-100-NL
100
AcDbAttributeDefinition
  3

  2
DESCRIPTION
 70
     8
280
     0
  0
ATTDEF
  5
7C
330
6E
100
AcDbEntity
  8
AM_6
100
AcDbText
 10
6.327220865598093
 20
-4.4565
 30
0.0
 40
0.5
  1
0.85
100
AcDbAttributeDefinition
  3

  2
W
 70
     8
280
     0
  0
ATTDEF
  5
7D
330
6E
100
AcDbEntity
  8
AM_6
100
AcDbText
 10
6.327220865598093
 20
-4.9565
 30
0.0
 40
0.5
  1
NO-LUBE
100
AcDbAttributeDefinition
  3

  2
LF
 70
     8
280
     0
  0
ATTDEF
  5
7E
330
6E
100
AcDbEntity
  8
AM_6
100
AcDbText
 10
6.327220865598093
 20
-5.4565
 30
0.0
 40
0.5
  1
1.06
100
AcDbAttributeDefinition
  3

  2
A
 70
     8
280
     0
  0
ATTDEF
  5
7F
330
6E
100
AcDbEntity
  8
AM_6
100
AcDbText
 10
6.327220865598093
 20
-5.9565
 30
0.0
 40
0.5
  1
3.75
100
AcDbAttributeDefinition
  3

  2
B
 70
     8
280
     0
  0
ATTDEF
  5
80
330
6E
100
AcDbEntity
  8
AM_6
100
AcDbText
 10
6.327220865598093
 20
-6.4565
 30
0.0
 40
0.5
  1
1.24
100
AcDbAttributeDefinition
  3

  2
C
 70
     8
280
     0
  0
ATTDEF
  5
81
330
6E
100
AcDbEntity
  8
AM_6
100
AcDbText
 10
6.327220865598093
 20
-6.9565
 30
0.0
 40
0.5
  1
3.00
100
AcDbAttributeDefinition
  3

  2
D
 70
     8
280
     0
  0
ATTDEF
  5
82
330
6E
100
AcDbEntity
  8
AM_6
100
AcDbText
 10
6.327220865598093
 20
-7.4565
 30
0.0
 40
0.5
  1
0.34
100
AcDbAttributeDefinition
  3

  2
G
 70
     8
280
     0
  0
ATTDEF
  5
83
330
6E
100
AcDbEntity
  8
AM_6
100
AcDbText
 10
6.327220865598093
 20
-7.9565
 30
0.0
 40
0.5
  1
0.42
100
AcDbAttributeDefinition
  3

  2
H
 70
     8
280
     0
  0
ATTDEF
  5
84
330
6E
100
AcDbEntity
  8
AM_6
100
AcDbText
 10
6.327220865598093
 20
-8.4565
 30
0.0
 40
0.5
  1
0.37
100
AcDbAttributeDefinition
  3

  2
J
 70
     8
280
     0
  0
ATTDEF
  5
85
330
6E
100
AcDbEntity
  8
AM_6
100
AcDbText
 10
6.327220865598093
 20
-8.9565
 30
0.0
 40
0.5
  1
1.32
100
AcDbAttributeDefinition
  3

  2
L
 70
     8
280
     0
  0
ATTDEF
  5
86
330
6E
100
AcDbEntity
  8
AM_6
100
AcDbText
 10
6.327220865598093
 20
-9.4565
 30
0.0
 40
0.5
  1
2.63
100
AcDbAttributeDefinition
  3

  2
M
 70
     8
280
     0
  0
ATTDEF
  5
87
330
6E
100
AcDbEntity
  8
AM_6
100
AcDbText
 10
6.327220865598093
 20
-9.9565
 30
0.0
 40
0.5
  1
1.44
100
AcDbAttributeDefinition
  3

  2
N
 70
     8
280
     0
  0
ATTDEF
  5
88
330
6E
100
AcDbEntity
  8
AM_6
100
AcDbText
 10
6.327220865598093
 20
-10.4565
 30
0.0
 40
0.5
  1
baldor
100
AcDbAttributeDefinition
  3

  2
COMPANY
 70
     8
280
     0
  0
INSERT
  5
8A
330
6E
100
AcDbEntity
  8
0
100
AcDbBlockReference
  2
2_077979_0_in_124665_4
 10
0.0
 20
0.0
 30
0.0
  0
INSERT
  5
ED
330
6E
100
AcDbEntity
  8
0
100
AcDbBlockReference
  2
3_430026_0_in_124665_4
 10
0.0
 20
0.0
 30
0.0
  0
INSERT
  5
120
330
6E
100
AcDbEntity
  8
0
100
AcDbBlockReference
  2
4_124665H_0_in_124665_4
 10
0.0
 20
0.0
 30
0.0
  0
ENDBLK
  5
71
330
6E
100
AcDbEntity
  8
0
100
AcDbBlockEnd
  0
BLOCK
  5
8B
330
89
100
AcDbEntity
  8
0
100
AcDbBlockBegin
  2
2_077979_0_in_124665_4
 70
     2
 10
0.0
 20
0.0
 30
0.0
  3
2_077979_0_in_124665_4
  1

  0
ATTDEF
  5
8D
330
89
100
AcDbEntity
  8
AM_6
100
AcDbText
 10
6.023071041545314
 20
-0.18
 30
0.0
 40
0.5
  1
Set Screw Light Duty Insert with Pin Inch Bore
100
AcDbAttributeDefinition
  3

  2
NN
 70
     8
280
     0
  0
ATTDEF
  5
8E
330
89
100
AcDbEntity
  8
AM_6
100
AcDbText
 10
6.023071041545314
 20
-0.68
 30
0.0
 40
0.5
  1
SCP Bearing Inserts
100
AcDbAttributeDefinition
  3

  2
NT
 70
     8
280
     0
  0
ATTDEF
  5
8F
330
89
100
AcDbEntity
  8
AM_6
100
AcDbText
 10
6.023071041545314
 20
-1.18
 30
0.0
 40
0.5
  1
077979
100
AcDbAttributeDefinition
  3

  2
NB
 70
     8
280
     0
  0
ATTDEF
  5
90
330
89
100
AcDbEntity
  8
AM_6
100
AcDbText
 10
6.023071041545314
 20
-1.68
 30
0.0
 40
0.5
  1
$PN.
100
AcDbAttributeDefinition
  3

  2
NBSYN
 70
     8
280
     0
  0
ATTDEF
  5
91
330
89
100
AcDbEntity
  8
AM_6
100
AcDbText
 10
6.023071041545314
 20
-2.18
 30
0.0
 40
0.5
  1
077979
100
AcDbAttributeDefinition
  3

  2
LINA
 70
     8
280
     0
  0
ATTDEF
  5
92
330
89
100
AcDbEntity
  8
AM_6
100
AcDbText
 10
6.023071041545314
 20
-2.68
 30
0.0
 40
0.5
  1
205
100
AcDbAttributeDefinition
  3

  2
SERIES
 70
     8
280
     0
  0
ATTDEF
  5
93
330
89
100
AcDbEntity
  8
AM_6
100
AcDbText
 10
6.023071041545314
 20
-3.18
 30
0.0
 40
0.5
  1
1
100
AcDbAttributeDefinition
  3

  2
SS
 70
     8
280
     0
  0
ATTDEF
  5
94
330
89
100
AcDbEntity
  8
AM_6
100
AcDbText
 10
6.023071041545314
 20
-3.68
 30
0.0
 40
0.5
  1
077979
100
AcDbAttributeDefinition
  3

  2
PN
 70
     8
280
     0
  0
ATTDEF
  5
95
330
89
100
AcDbEntity
  8
AM_6
100
AcDbText
 10
6.023071041545314
 20
-4.18
 30
0.0
 40
0.5
  1
INS-SCP-100
100
AcDbAttributeDefinition
  3

  2
DESCRIPTION
 70
     8
280
     0
  0
ATTDEF
  5
96
330
89
100
AcDbEntity
  8
AM_6
100
AcDbText
 10
6.023071041545314
 20
-4.68
 30
0.0
 40
0.5
  1
1.06
100
AcDbAttributeDefinition
  3

  2
A
 70
     8
280
     0
  0
ATTDEF
  5
97
330
89
100
AcDbEntity
  8
AM_6
100
AcDbText
 10
6.023071041545314
 20
-5.18
 30
0.0
 40
0.5
  1
0.59
100
AcDbAttributeDefinition
  3

  2
C
 70
     8
280
     0
  0
ATTDEF
  5
98
330
89
100
AcDbEntity
  8
AM_6
100
AcDbText
 10
6.023071041545314
 20
-5.68
 30
0.0
 40
0.5
  1
2.0472
100
AcDbAttributeDefinition
  3

  2
D
 70
     8
280
     0
  0
ATTDEF
  5
99
330
89
100
AcDbEntity
  8
AM_6
100
AcDbText
 10
6.023071041545314
 20
-6.18
 30
0.0
 40
0.5
  1
0.16
100
AcDbAttributeDefinition
  3

  2
J
 70
     8
280
     0
  0
ATTDEF
  5
9A
330
89
100
AcDbEntity
  8
AM_6
100
AcDbText
 10
6.023071041545314
 20
-6.68
 30
0.0
 40
0.5
  1
1.32
100
AcDbAttributeDefinition
  3

  2
L
 70
     8
280
     0
  0
ATTDEF
  5
9B
330
89
100
AcDbEntity
  8
AM_6
100
AcDbText
 10
6.023071041545314
 20
-7.18
 30
0.0
 40
0.5
  1
1/4 - 28
100
AcDbAttributeDefinition
  3

  2
N
 70
     8
280
     0
  0
ATTDEF
  5
9C
330
89
100
AcDbEntity
  8
AM_6
100
AcDbText
 10
6.023071041545314
 20
-7.68
 30
0.0
 40
0.5
  1
0.30
100
AcDbAttributeDefinition
  3

  2
W
 70
     8
280
     0
  0
ATTDEF
  5
9D
330
89
100
AcDbEntity
  8
AM_6
100
AcDbText
 10
6.023071041545314
 20
-8.18
 30
0.0
 40
0.5
  1
0.76
100
AcDbAttributeDefinition
  3

  2
Y
 70
     8
280
     0
  0
ATTDEF
  5
9E
330
89
100
AcDbEntity
  8
AM_6
100
AcDbText
 10
6.023071041545314
 20
-8.68
 30
0.0
 40
0.5
  1
baldor
100
AcDbAttributeDefinition
  3

  2
COMPANY
 70
     8
280
     0
  0
LINE
  5
A1
330
89
100
AcDbEntity
  8
AM_9
100
AcDbLine
 10
0.5901541425828655
 20
-1.098731666312697
 30
0.0
 11
0.604539111447313
 21
-1.115167129310141
 31
0.0
  0
LINE
  5
A2
330
89
100
AcDbEntity
  8
AM_9
100
AcDbLine
 10
0.604409437346185
 20
-0.899981029084284
 30
0.0
 11
0.5901541425828655
 21
-0.9162683336873031
 31
0.0
  0
LWPOLYLINE
  5
A3
330
89
100
AcDbEntity
  8
AM_9
100
AcDbPolyline
 90
       25
 70
     0
 43
0.0
 10
0.6045442717941854
 20
-1.11517302522774
 10
0.611213772093352
 20
-1.121251322656702
 10
0.617808126572855
 20
-1.124206306342539
 10
0.6235571736091998
 20
-1.123924069347829
 10
0.628815168561273
 20
-1.120807091368135
 10
0.6333772075845971
 20
-1.11507753529551
 10
0.6373054221626478
 20
-1.106959249745153
 10
0.6407223682870291
 20
-1.096163702989883
 10
0.6434638810167014
 20
-1.083392121340318
 10
0.6457166815782737
 20
-1.067776456308797
 10
0.6473104916341368
 20
-1.050713265502481
 10
0.6483544306930137
 20
-1.031360170572238
 10
0.648772179831577
 20
-1.011379662502821
 10
0.6485703361751398
 20
-0.9906009107289822
 10
0.6477105650464239
 20
-0.9702963876546936
 10
0.64613390153182
 20
-0.9509914126023978
 10
0.6437642771833687
 20
-0.933346481939735
 10
0.6406010769165844
 20
-0.918383376950456
 10
0.6365218725857359
 20
-0.9061167729003105
 10
0.6318462963239763
 20
-0.8976373544216402
 10
0.6263723211508485
 20
-0.8923452524030078
 10
0.6207307147495995
 20
-0.8905809963324571
 10
0.6146560664908259
 20
-0.8918000942647346
 10
0.6086039823131315
 20
-0.8957639755349945
 10
0.6045364992680332
 20
-0.8998358575619365
  0
LINE
  5
A4
330
89
100
AcDbEntity
  8
AM_9
100
AcDbLine
 10
0.5964626061360402
 20
-0.9114275600389281
 30
0.0
 11
0.5939028395277871
 21
-0.9161852069615743
 31
0.0
  0
LWPOLYLINE
  5
A5
330
89
100
AcDbEntity
  8
AM_9
100
AcDbPolyline
 90
        4
 70
     0
 43
0.0
 10
0.6045364992680332
 20
-0.8998358575619365
 10
0.6025369384978541
 20
-0.9022612393715137
 10
0.5981240344225938
 20
-0.9086400425718337
 10
0.5964626061360402
 20
-0.9114275600389281
  0
ELLIPSE
  5
A6
330
89
100
AcDbEntity
  8
AM_9
100
AcDbEllipse
 10
0.4615515668337689
 20
-1.0075
 30
0.0
 11
-1.799312309647228E-17
 21
-0.09794999999999887
 31
0.0
210
0.0
220
0.0
230
1.0
 40
0.3420201433256745
 41
4.411070673880157
 42
5.013707286889222
  0
ELLIPSE
  5
A7
330
89
100
AcDbEntity
  8
AM_9
100
AcDbEllipse
 10
0.4615515668337687
 20
-1.0075
 30
0.0
 11
-1.799312309647256E-17
 21
-0.09795000000000043
 31
0.0
210
0.0
220
0.0
230
1.0
 40
0.3420201433256652
 41
1.269478020290371
 42
1.87211463329942
  0
LINE
  5
A8
330
89
100
AcDbEntity
  8
AM_9
100
AcDbLine
 10
0.4697810124542
 20
-1.10545
 30
0.0
 11
0.6023474631909013
 21
-1.10545
 31
0.0
  0
LINE
  5
A9
330
89
100
AcDbEntity
  8
AM_9
100
AcDbLine
 10
0.6023474631909013
 20
-0.90955
 30
0.0
 11
0.4697810124542
 21
-0.90955
 31
0.0
  0
LWPOLYLINE
  5
AA
330
89
100
AcDbEntity
  8
AM_9
100
AcDbPolyline
 90
        9
 70
     0
 43
0.0
 10
0.4698458312991633
 20
-1.105449999989984
 10
0.4670837030258788
 20
-1.105130446044221
 10
0.4611314289593931
 20
-1.102479258770179
 10
0.4549811377583016
 20
-1.097251544934478
 10
0.4488423520191678
 20
-1.089528068630393
 10
0.4430089566767794
 20
-1.079576123498015
 10
0.43767467583279
 20
-1.067420076386232
 10
0.4332068881673934
 20
-1.053566240400946
 10
0.4295600396875993
 20
-1.036569539860314
  0
LWPOLYLINE
  5
AB
330
89
100
AcDbEntity
  8
AM_9
100
AcDbPolyline
 90
        9
 70
     0
 43
0.0
 10
0.4698467894830574
 20
-0.9095500000100162
 10
0.4724914516498092
 20
-0.9098695539557792
 10
0.4774807813453562
 20
-0.9125207412298207
 10
0.4818149028948357
 20
-0.9177484550655219
 10
0.4854487332760956
 20
-0.925471931369607
 10
0.4883791110937461
 20
-0.9354238765019851
 10
0.4906688133491679
 20
-0.9475799236137684
 10
0.4923362421516627
 20
-0.9614337595990539
 10
0.493543093979938
 20
-0.9784304601396863
  0
ELLIPSE
  5
AC
330
89
100
AcDbEntity
  8
AM_9
100
AcDbEllipse
 10
0.3473117012480927
 20
-1.0075
 30
0.0
 11
-1.799312309647224E-17
 21
-0.09794999999999865
 31
0.0
210
0.0
220
0.0
230
1.0
 40
0.7071067811865471
 41
4.411070673880166
 42
5.013707286889217
  0
LINE
  5
AD
330
89
100
AcDbEntity
  8
AM_9
100
AcDbLine
 10
0.3535042547223844
 20
-1.10545
 30
0.0
 11
0.4532588278671175
 21
-1.10545
 31
0.0
  0
LINE
  5
AE
330
89
100
AcDbEntity
  8
AM_9
100
AcDbLine
 10
0.4532588278671175
 20
-0.90955
 30
0.0
 11
0.3535042547223843
 21
-0.90955
 31
0.0
  0
LWPOLYLINE
  5
AF
330
89
100
AcDbEntity
  8
AM_9
100
AcDbPolyline
 90
        9
 70
     0
 43
0.0
 10
0.3535524000971121
 20
-0.9095500000100162
 10
0.3479190916199288
 20
-0.9098695539557791
 10
0.3362462247706836
 20
-0.9125207412298206
 10
0.3247249452501936
 20
-0.9177484550655217
 10
0.3136803135701007
 20
-0.9254719313696067
 10
0.3035287756361461
 20
-0.9354238765019844
 10
0.2945022011241271
 20
-0.9475799236137676
 10
0.2871064820056764
 20
-0.9614337595990531
 10
0.2811710769982817
 20
-0.9784304601396867
  0
LWPOLYLINE
  5
B0
330
89
100
AcDbEntity
  8
AM_9
100
AcDbPolyline
 90
        7
 70
     0
 43
0.0
 10
0.3535543810866603
 20
-1.105449999989984
 10
0.3590992978082296
 20
-1.105130446044221
 10
0.3700475612291466
 20
-1.102479258770179
 10
0.3802021961170907
 20
-1.097251544934478
 10
0.3893618806549566
 20
-1.089528068630393
 10
0.3973289347138237
 20
-1.079576123498015
 10
0.4017257787965343
 20
-1.072168134063603
  0
LWPOLYLINE
  5
B1
330
89
100
AcDbEntity
  8
AM_9
100
AcDbPolyline
 90
        6
 70
     0
 43
0.0
 10
0.4134523254979058
 20
-1.036569539860313
 10
0.4156565029650488
 20
-1.023441446390211
 10
0.4165599301004733
 20
-1.009399259473542
 10
0.4161163209282944
 20
-0.9962202691920914
 10
0.4143755206179034
 20
-0.9829842778784914
 10
0.4134523254979058
 20
-0.9784304601396867
  0
LWPOLYLINE
  5
B2
330
89
100
AcDbEntity
  8
AM_9
100
AcDbPolyline
 90
        7
 70
     0
 43
0.0
 10
0.4017213180427318
 20
-0.9428234362295066
 10
0.398188299392794
 20
-0.9367570798211279
 10
0.3902509067145802
 20
-0.9263978062476759
 10
0.3809862234646315
 20
-0.9182974505719493
 10
0.3706359967803002
 20
-0.9127343660917222
 10
0.359549938657381
 20
-0.9099350134800485
 10
0.3535524000971121
 20
-0.9095500000100162
  0
LWPOLYLINE
  5
B3
330
89
100
AcDbEntity
  8
AM_9
100
AcDbPolyline
 90
        6
 70
     0
 43
0.0
 10
0.2811710769982817
 20
-0.9784304601396867
 10
0.2779022697691876
 20
-0.991558553609789
 10
0.276546243212033
 20
-1.005600740526458
 10
0.2772132887455086
 20
-1.018779730807909
 10
0.2798087345181373
 20
-1.032015722121508
 10
0.2811710769982817
 20
-1.036569539860313
  0
LWPOLYLINE
  5
B4
330
89
100
AcDbEntity
  8
AM_9
100
AcDbPolyline
 90
        9
 70
     0
 43
0.0
 10
0.2811710769982817
 20
-1.036569539860313
 10
0.2863814611195589
 20
-1.051869508552075
 10
0.2935478734612446
 20
-1.065897542162429
 10
0.3023986562085985
 20
-1.078242920178872
 10
0.3125767582665865
 20
-1.088602193752324
 10
0.3238001985188212
 20
-1.096702549428051
 10
0.3356023806391626
 20
-1.102265633908278
 10
0.3474478725208304
 20
-1.105064986519952
 10
0.3535543810866603
 20
-1.105449999989984
  0
LWPOLYLINE
  5
B5
330
89
100
AcDbEntity
  8
AM_9
100
AcDbPolyline
 90
        5
 70
     0
 43
0.0
 10
0.4295600396875994
 20
-1.036569539860314
 10
0.4274188007657241
 20
-1.022388522356218
 10
0.4266743215496266
 20
-1.008671041078072
 10
0.4272436263061359
 20
-0.9944618154979431
 10
0.4295600396875994
 20
-0.9784304601396858
  0
LWPOLYLINE
  5
B6
330
89
100
AcDbEntity
  8
AM_9
100
AcDbPolyline
 90
        9
 70
     0
 43
0.0
 10
0.4295600396875993
 20
-0.9784304601396858
 10
0.4327646272885871
 20
-0.9631304914479246
 10
0.4371031630840067
 20
-0.9491024578375702
 10
0.4423479038461398
 20
-0.9367570798211273
 10
0.4482179099021279
 20
-0.9263978062476753
 10
0.4544743768693975
 20
-0.918297450571949
 10
0.4607965916191332
 20
-0.9127343660917221
 10
0.4668470825393036
 20
-0.9099350134800485
 10
0.4698467894830574
 20
-0.9095500000100162
  0
LWPOLYLINE
  5
B7
330
89
100
AcDbEntity
  8
AM_9
100
AcDbPolyline
 90
        6
 70
     0
 43
0.0
 10
0.493543093979938
 20
-0.9784304601396863
 10
0.4941221103452172
 20
-0.9904461829442412
 10
0.4943879766833736
 20
-1.002889256978227
 10
0.4943352988925058
 20
-1.016194674004854
 10
0.4939194531471456
 20
-1.029641340978088
 10
0.493543093979938
 20
-1.036569539860314
  0
LWPOLYLINE
  5
B8
330
89
100
AcDbEntity
  8
AM_9
100
AcDbPolyline
 90
        9
 70
     0
 43
0.0
 10
0.493543093979938
 20
-1.036569539860314
 10
0.4924905420717076
 20
-1.051869508552075
 10
0.4908946993349637
 20
-1.065897542162429
 10
0.4886803508861714
 20
-1.078242920178872
 10
0.4857880818927047
 20
-1.088602193752324
 10
0.4821346581289983
 20
-1.096702549428051
 10
0.4777419847798401
 20
-1.102265633908278
 10
0.4727007251639916
 20
-1.105064986519952
 10
0.4698458312991633
 20
-1.105449999989984
  0
LINE
  5
B9
330
89
100
AcDbEntity
  8
AM_9
100
AcDbLine
 10
-0.5
 20
-0.2063999999999999
 30
0.0
 11
-0.5
 21
-1.2136
 31
0.0
  0
LINE
  5
BA
330
89
100
AcDbEntity
  8
AM_9
100
AcDbLine
 10
0.5
 20
-1.2136
 30
0.0
 11
0.5
 21
-0.2063999999999999
 31
0.0
  0
LINE
  5
BB
330
89
100
AcDbEntity
  8
AM_9
100
AcDbLine
 10
0.5
 20
-0.2063999999999999
 30
0.0
 11
0.5264000000000048
 21
-0.18
 31
0.0
  0
LINE
  5
BC
330
89
100
AcDbEntity
  8
AM_9
100
AcDbLine
 10
-0.5264000000000048
 20
-0.18
 30
0.0
 11
-0.5
 21
-0.2063999999999999
 31
0.0
  0
LINE
  5
BD
330
89
100
AcDbEntity
  8
AM_9
100
AcDbLine
 10
0.5
 20
-0.2063999999999999
 30
0.0
 11
-0.5
 21
-0.2063999999999999
 31
0.0
  0
LINE
  5
BE
330
89
100
AcDbEntity
  8
AM_9
100
AcDbLine
 10
-0.5
 20
-1.2136
 30
0.0
 11
-0.5264000000000048
 21
-1.24
 31
0.0
  0
LINE
  5
BF
330
89
100
AcDbEntity
  8
AM_9
100
AcDbLine
 10
0.5264000000000048
 20
-1.24
 30
0.0
 11
0.5
 21
-1.2136
 31
0.0
  0
LINE
  5
C0
330
89
100
AcDbEntity
  8
AM_9
100
AcDbLine
 10
-0.7030787193869052
 20
-0.2366666666666619
 30
0.0
 11
-0.7212232038364174
 21
-0.2366666666666619
 31
0.0
  0
LWPOLYLINE
  5
C1
330
89
100
AcDbEntity
  8
AM_9
100
AcDbPolyline
 90
       18
 70
     0
 43
0.0
 10
-0.7030438478295781
 20
-0.236666666698006
 10
-0.6986511992529709
 20
-0.2369101439646675
 10
-0.6891941570057494
 20
-0.2390972608708231
 10
-0.6804215053702392
 20
-0.2435308702093994
 10
-0.6725395259301504
 20
-0.2500503183553753
 10
-0.6657423159908884
 20
-0.2585433189602367
 10
-0.6602411797621492
 20
-0.2687072157524927
 10
-0.6561607398761156
 20
-0.2804103437639969
 10
-0.6536543430341154
 20
-0.2931979568496919
 10
-0.6528053192231988
 20
-0.3068901865610734
 10
-0.6536495207052763
 20
-0.320947306229569
 10
-0.6562099630670365
 20
-0.3350820115747611
 10
-0.6603937425374018
 20
-0.3487918678295913
 10
-0.6661071923347716
 20
-0.3616722701449687
 10
-0.6731742673225727
 20
-0.3733656420802478
 10
-0.6813477803871015
 20
-0.3834333950097955
 10
-0.6904333125022144
 20
-0.3916939140579942
 10
-0.7014055443278082
 20
-0.398479074839392
  0
ELLIPSE
  5
C2
330
89
100
AcDbEntity
  8
AM_9
100
AcDbEllipse
 10
-0.7591498402818775
 20
-0.32
 30
0.0
 11
1.818414944188666E-18
 21
0.0296969696969725
 31
0.0
210
0.0
220
0.0
230
1.0
 40
0.707106781186548
 41
0.0
 42
6.283185307179586
  0
ELLIPSE
  5
C3
330
89
100
AcDbEntity
  8
AM_9
100
AcDbEllipse
 10
-0.7212232038364175
 20
-0.3199999999999999
 30
0.0
 11
-1.530808498934275E-17
 21
-0.08333333333333787
 31
0.0
210
0.0
220
0.0
230
1.0
 40
0.7071067811865471
 41
0.3430031675246887
 42
5.940182139655088
  0
LWPOLYLINE
  5
C4
330
89
100
AcDbEntity
  8
AM_9
100
AcDbPolyline
 90
       32
 70
     0
 43
0.0
 10
-0.7212164042081065
 20
-0.236666667004218
 10
-0.7285712368815148
 20
-0.2370618841237384
 10
-0.7362347762230025
 20
-0.2383298875577582
 10
-0.7436600006123569
 20
-0.2404341548437864
 10
-0.7507836576502109
 20
-0.2433343691418633
 10
-0.7575504298862137
 20
-0.2469900666119407
 10
-0.7639117003515007
 20
-0.2513621984255133
 10
-0.7698236982116404
 20
-0.2564139680573691
 10
-0.7752450911992648
 20
-0.2621104567104398
 10
-0.780134350957483
 20
-0.2684165156247337
 10
-0.7844476082143136
 20
-0.2752927159084669
 10
-0.788138045803333
 20
-0.2826900448596893
 10
-0.7911576893247177
 20
-0.290545374789028
 10
-0.7934613195519471
 20
-0.2987804516975942
 10
-0.7950105967779585
 20
-0.3073057770437577
 10
-0.7957759398402491
 20
-0.3160275190322039
 10
-0.7957352583450149
 20
-0.3248527977527164
 10
-0.7948708303024059
 20
-0.3336933525098667
 10
-0.793167075725702
 20
-0.3424590388762726
 10
-0.7906119572242224
 20
-0.3510522843059108
 10
-0.7872036400263452
 20
-0.3593597502027636
 10
-0.7829589727149705
 20
-0.3672539781627628
 10
-0.7779211011190589
 20
-0.3746005157406119
 10
-0.7728076514297559
 20
-0.3805953732548321
 10
-0.7671941135133014
 20
-0.385964865684254
 10
-0.7611361504861767
 20
-0.3906678923576819
 10
-0.7539551063677142
 20
-0.3950693723990591
 10
-0.7464182918151607
 20
-0.3985503719705572
 10
-0.7386542984586317
 20
-0.4010820710513824
 10
-0.7307681117089603
 20
-0.4026652804985135
 10
-0.7228579121929226
 20
-0.4033138209088694
 10
-0.7225886107011953
 20
-0.4033197208251805
  0
LWPOLYLINE
  5
C5
330
89
100
AcDbEntity
  8
AM_9
100
AcDbPolyline
 90
        3
 70
     0
 43
0.0
 10
-0.7225917813663182
 20
-0.4033196574869016
 10
-0.7122568705065977
 20
-0.4022659412824542
 10
-0.7014055443277852
 20
-0.3984790748393894
  0
LWPOLYLINE
  5
C6
330
89
100
AcDbEntity
  8
AM_9
100
AcDbPolyline
 90
        4
 70
     0
 43
0.0
 10
0.5965353496782931
 20
-1.103699328425406
 10
0.5973805786796367
 20
-1.105126271258354
 10
0.6044943600335472
 20
-1.115115910902679
 10
0.6045442717941854
 20
-1.11517302522774
  0
LWPOLYLINE
  5
C7
330
89
100
AcDbEntity
  8
AM_9
100
AcDbPolyline
 90
       12
 70
     0
 43
0.0
 10
0.5939028395277871
 20
-0.9161852069615743
 10
0.5886128191479111
 20
-0.928105823960352
 10
0.5839963963652247
 20
-0.9416296097810877
 10
0.5797346401914726
 20
-0.9587248789236411
 10
0.5767340747404557
 20
-0.9770343791762455
 10
0.5750961659695288
 20
-0.9971753151555413
 10
0.5750799220285561
 20
-1.017594725844426
 10
0.5767712355114963
 20
-1.038205292762595
 10
0.5800783154402843
 20
-1.0579399383943
 10
0.5848327080746214
 20
-1.076086912908907
 10
0.5907926996405046
 20
-1.092191460034521
 10
0.5965353496782931
 20
-1.103699328425406
  0
LINE
  5
C8
330
89
100
AcDbEntity
  8
AM_9
100
AcDbLine
 10
-0.6599999999999927
 20
-0.775
 30
0.0
 11
-0.6599999999999927
 21
-0.87
 31
0.0
  0
LINE
  5
C9
330
89
100
AcDbEntity
  8
AM_9
100
AcDbLine
 10
0.6599999999999927
 20
-0.87
 30
0.0
 11
0.6599999999999927
 21
-0.775
 31
0.0
  0
LINE
  5
CA
330
89
100
AcDbEntity
  8
AM_9
100
AcDbLine
 10
-0.6599999999999931
 20
-0.18
 30
0.0
 11
-0.6599999999999931
 21
-0.185
 31
0.0
  0
LINE
  5
CB
330
89
100
AcDbEntity
  8
AM_9
100
AcDbLine
 10
0.6599999999999931
 20
-0.185
 30
0.0
 11
0.6599999999999931
 21
-0.18
 31
0.0
  0
LINE
  5
CC
330
89
100
AcDbEntity
  8
AM_9
100
AcDbLine
 10
0.6599999999999931
 20
-0.18
 30
0.0
 11
-0.6599999999999931
 21
-0.18
 31
0.0
  0
LINE
  5
CD
330
89
100
AcDbEntity
  8
AM_9
100
AcDbLine
 10
-0.9702666666666678
 20
-0.608
 30
0.0
 11
-0.9702666666666678
 21
-0.6719999999999999
 31
0.0
  0
LINE
  5
CE
330
89
100
AcDbEntity
  8
AM_9
100
AcDbLine
 10
0.9702666666666678
 20
-0.6719999999999999
 30
0.0
 11
0.9702666666666678
 21
-0.608
 31
0.0
  0
LINE
  5
CF
330
89
100
AcDbEntity
  8
AM_9
100
AcDbLine
 10
0.9560865860370594
 20
-0.1849999999999999
 30
0.0
 11
-0.9560865860370594
 21
-0.1849999999999999
 31
0.0
  0
ARC
  5
D0
330
89
100
AcDbEntity
  8
AM_9
100
AcDbCircle
 10
-0.9560865860370619
 20
-0.2169999999999971
 30
0.0
 40
0.0319999999999973
100
AcDbArc
 50
90.0
 51
164.6195040508858
  0
ARC
  5
D1
330
89
100
AcDbEntity
  8
AM_9
100
AcDbCircle
 10
0.9560865860370594
 20
-0.2170000000000002
 30
0.0
 40
0.0320000000000004
100
AcDbArc
 50
15.38049594911837
 51
90.0
  0
LINE
  5
D2
330
89
100
AcDbEntity
  8
AM_9
100
AcDbLine
 10
0.9560865860370598
 20
-0.775
 30
0.0
 11
-0.9560865860370598
 21
-0.775
 31
0.0
  0
ARC
  5
D3
330
89
100
AcDbEntity
  8
AM_9
100
AcDbCircle
 10
-0.9560865860370591
 20
-0.7429999999999992
 30
0.0
 40
0.0320000000000008
100
AcDbArc
 50
195.380493060878
 51
270.0
  0
ARC
  5
D4
330
89
100
AcDbEntity
  8
AM_9
100
AcDbCircle
 10
0.9560865860370592
 20
-0.7429999999999993
 30
0.0
 40
0.0320000000000007
100
AcDbArc
 50
270.0
 51
344.6195069391222
  0
ARC
  5
D5
330
89
100
AcDbEntity
  8
AM_9
100
AcDbCircle
 10
-0.0000000002023031
 20
-0.4800000000470222
 30
0.0
 40
1.023599999792634
100
AcDbArc
 50
190.8111968123895
 51
195.380495859288
  0
ARC
  5
D6
330
89
100
AcDbEntity
  8
AM_9
100
AcDbCircle
 10
0.0000000000344191
 20
-0.4800000000080042
 30
0.0
 40
1.023599999964719
100
AcDbArc
 50
344.6195041410965
 51
349.1888031872265
  0
LINE
  5
D7
330
89
100
AcDbEntity
  8
AM_9
100
AcDbLine
 10
1.005431728164602
 20
-0.6720000000000002
 30
0.0
 11
-1.005431728164743
 21
-0.6720000000000002
 31
0.0
  0
LINE
  5
D8
330
89
100
AcDbEntity
  8
AM_9
100
AcDbLine
 10
0.9869405303467205
 20
-0.7514872917080866
 30
0.0
 11
-0.9869405303468609
 21
-0.7514872917080866
 31
0.0
  0
LWPOLYLINE
  5
D9
330
89
100
AcDbEntity
  8
AM_9
100
AcDbPolyline
 90
        4
 70
     0
 43
0.0
 10
-0.7410408633450241
 20
-0.3984790748394002
 10
-0.7322943730283857
 20
-0.4019487166025956
 10
-0.7227706151842352
 20
-0.4033157021418016
 10
-0.7225917813663182
 20
-0.4033196574869016
  0
LWPOLYLINE
  5
DA
330
89
100
AcDbEntity
  8
AM_9
100
AcDbPolyline
 90
       18
 70
     0
 43
0.0
 10
-0.7410408633450221
 20
-0.3984790748393975
 10
-0.7493661424128756
 20
-0.3927052947770105
 10
-0.7566562304548788
 20
-0.3849280819930269
 10
-0.7627215689842956
 20
-0.375299556961959
 10
-0.7673794941803115
 20
-0.3641555580515374
 10
-0.7705075512664381
 20
-0.3516860474771135
 10
-0.7720018019403482
 20
-0.3383461908990464
 10
-0.7717922106026415
 20
-0.3243449217119214
 10
-0.7698848902380717
 20
-0.3102231837591968
 10
-0.766285086821588
 20
-0.2963010457647417
 10
-0.7611203000145313
 20
-0.2830502627559595
 10
-0.7545281085349242
 20
-0.2708912360043676
 10
-0.7467012008557435
 20
-0.2601334473325371
 10
-0.7379324330242705
 20
-0.2511974993051985
 10
-0.7284160509101945
 20
-0.2442187848794423
 10
-0.7185452828979503
 20
-0.2394879251184096
 10
-0.7084945583990043
 20
-0.2370185045260474
 10
-0.7030438478295781
 20
-0.236666666698006
  0
ARC
  5
DB
330
89
100
AcDbEntity
  8
AM_9
100
AcDbCircle
 10
-0.0000000000001203
 20
-0.479999999999991
 30
0.0
 40
1.02359999999987
100
AcDbArc
 50
164.6195040508808
 51
187.1835766537122
  0
ARC
  5
DC
330
89
100
AcDbEntity
  8
AM_9
100
AcDbCircle
 10
-0.000000000000093
 20
-0.4800000000000068
 30
0.0
 40
1.023600000000089
100
AcDbArc
 50
352.8164233462903
 51
15.38049594911674
  0
LINE
  5
DD
330
89
100
AcDbEntity
  8
AM_9
100
AcDbLine
 10
0.9869405299188505
 20
-0.2085127067365871
 30
0.0
 11
-0.9869405299188404
 21
-0.2085127067365871
 31
0.0
  0
LINE
  5
DE
330
89
100
AcDbEntity
  8
AM_9
100
AcDbLine
 10
1.015565340093879
 20
-0.608
 30
0.0
 11
-1.015565340093869
 21
-0.608
 31
0.0
  0
ELLIPSE
  5
DF
330
89
100
AcDbEntity
  8
AM_9
100
AcDbEllipse
 10
0.6023474631909014
 20
-1.0075
 30
0.0
 11
-1.799312309647252E-17
 21
-0.0979500000000002
 31
0.0
210
0.0
220
0.0
230
1.0
 40
0.3420201433256659
 41
0.0
 42
6.283185307179586
  0
ELLIPSE
  5
E1
330
89
100
AcDbEntity
  8
AM_4
100
AcDbEllipse
 10
0.3473117012480936
 20
-1.0075
 30
0.0
 11
-1.799312309647252E-17
 21
-0.0979500000000002
 31
0.0
210
0.0
220
0.0
230
1.0
 40
0.7071067811865478
 41
1.269478020290379
 42
1.872114633299418
  0
LWPOLYLINE
  5
E2
330
89
100
AcDbEntity
  8
AM_4
100
AcDbPolyline
 90
        4
 70
     0
 43
0.0
 10
0.4017257787965343
 20
-1.072168134063603
 10
0.4040645024453159
 20
-1.067420076386232
 10
0.4093529870299278
 20
-1.053566240400947
 10
0.4134523254979058
 20
-1.036569539860313
  0
LWPOLYLINE
  5
E3
330
89
100
AcDbEntity
  8
AM_4
100
AcDbPolyline
 90
        4
 70
     0
 43
0.0
 10
0.4134523254979058
 20
-0.9784304601396867
 10
0.409861320946122
 20
-0.9631304914479255
 10
0.4047587503518374
 20
-0.9491024578375709
 10
0.4017213180427318
 20
-0.9428234362295066
  0
LWPOLYLINE
  5
E4
330
89
100
AcDbEntity
  8
AM_4
100
AcDbPolyline
 90
       39
 70
     0
 43
0.0
 10
0.5188061341801729
 20
-0.9271037726986063
 10
0.524980934104246
 20
-0.9403498091850492
 10
0.5298738825479132
 20
-0.954877462934364
 10
0.5340082547084609
 20
-0.9734874024370478
 10
0.5362961166869754
 20
-0.9929776721112378
 10
0.5366987188209077
 20
-1.01365540379116
 10
0.5351014873514437
 20
-1.034162835074476
 10
0.53143250867021
 20
-1.054134806727379
 10
0.5257219852257712
 20
-1.072752145769712
 10
0.5181255537057676
 20
-1.089104471650518
 10
0.5086362234531384
 20
-1.102996661672844
 10
0.4980508359411557
 20
-1.113275327384064
 10
0.4860956340127654
 20
-1.120420296913159
 10
0.4741990813025214
 20
-1.123851806006338
 10
0.461744250331493
 20
-1.124201274614034
 10
0.4498389297832051
 20
-1.121642140121868
 10
0.4381317958808997
 20
-1.116432958768331
 10
0.4268570475392354
 20
-1.108651350678786
 10
0.4164399649220091
 20
-1.098645498428971
 10
0.4065966330948771
 20
-1.085857718937163
 10
0.3982940100820521
 20
-1.071280718396633
 10
0.3913240080071305
 20
-1.053960586430781
 10
0.3865915826618097
 20
-1.035481785484865
 10
0.3842029536878963
 20
-1.015224378789859
 10
0.3845303713851669
 20
-0.9947576949674954
 10
0.3876977504072506
 20
-0.9742168953350273
 10
0.393583791300188
 20
-0.9546283578702898
 10
0.4019592345151262
 20
-0.9367370549308228
 10
0.4125447860669429
 20
-0.920957885672327
 10
0.4244217377138654
 20
-0.9084308166976223
 10
0.4375710285969537
 20
-0.8988872075163488
 10
0.4503693538535158
 20
-0.8931903519677917
 10
0.4633854831418923
 20
-0.8906640123116307
 10
0.475238004666611
 20
-0.8913190031561906
 10
0.4865523720249028
 20
-0.8947794225747452
 10
0.4968909220378656
 20
-0.9008379484873793
 10
0.5062274772004628
 20
-0.9092586311793882
 10
0.5129105946979626
 20
-0.9175838172079236
 10
0.5188061339721389
 20
-0.9271037725701932
  0
LINE
  5
E5
330
89
100
AcDbEntity
  8
AM_4
100
AcDbLine
 10
-0.6599999999999927
 20
-0.87
 30
0.0
 11
-0.6599999999999927
 21
-1.2136
 31
0.0
  0
LINE
  5
E6
330
89
100
AcDbEntity
  8
AM_4
100
AcDbLine
 10
0.6599999999999927
 20
-1.2136
 30
0.0
 11
0.6599999999999927
 21
-0.87
 31
0.0
  0
LINE
  5
E7
330
89
100
AcDbEntity
  8
AM_4
100
AcDbLine
 10
0.6336000000000167
 20
-1.24
 30
0.0
 11
0.6599999999999931
 21
-1.2136
 31
0.0
  0
LINE
  5
E8
330
89
100
AcDbEntity
  8
AM_4
100
AcDbLine
 10
-0.6599999999999931
 20
-1.2136
 30
0.0
 11
-0.6336000000000167
 21
-1.24
 31
0.0
  0
LINE
  5
E9
330
89
100
AcDbEntity
  8
AM_4
100
AcDbLine
 10
0.6599999999999931
 20
-1.2136
 30
0.0
 11
-0.6599999999999931
 21
-1.2136
 31
0.0
  0
LINE
  5
EA
330
89
100
AcDbEntity
  8
AM_4
100
AcDbLine
 10
0.6336000000000167
 20
-1.24
 30
0.0
 11
-0.6336000000000167
 21
-1.24
 31
0.0
  0
ELLIPSE
  5
EB
330
89
100
AcDbEntity
  8
AM_4
100
AcDbEllipse
 10
0.4532588278671175
 20
-1.0075
 30
0.0
 11
-1.799312309647248E-17
 21
-0.09794999999999998
 31
0.0
210
0.0
220
0.0
230
1.0
 40
0.7071067811865478
 41
0.0
 42
6.283185307179586
  0
ENDBLK
  5
8C
330
89
100
AcDbEntity
  8
0
100
AcDbBlockEnd
  0
BLOCK
  5
EE
330
EC
100
AcDbEntity
  8
0
100
AcDbBlockBegin
  2
3_430026_0_in_124665_4
 70
     2
 10
0.0
 20
0.0
 30
0.0
  3
3_430026_0_in_124665_4
  1

  0
ATTDEF
  5
F0
330
EC
100
AcDbEntity
  8
AM_6
100
AcDbText
 10
6.273859506275166
 20
-0.3706471816532134
 30
0.0
 40
0.5
  1
430026 Plug
100
AcDbAttributeDefinition
  3

  2
NN
 70
     8
280
     0
  0
ATTDEF
  5
F1
330
EC
100
AcDbEntity
  8
AM_6
100
AcDbText
 10
6.273859506275166
 20
-0.8706471816532134
 30
0.0
 40
0.5
  1
Plug
100
AcDbAttributeDefinition
  3

  2
NT
 70
     8
280
     0
  0
ATTDEF
  5
F2
330
EC
100
AcDbEntity
  8
AM_6
100
AcDbText
 10
6.273859506275166
 20
-1.370647181653213
 30
0.0
 40
0.5
  1
430026
100
AcDbAttributeDefinition
  3

  2
NB
 70
     8
280
     0
  0
ATTDEF
  5
F3
330
EC
100
AcDbEntity
  8
AM_6
100
AcDbText
 10
6.273859506275166
 20
-1.870647181653213
 30
0.0
 40
0.5
  1
$PN.
100
AcDbAttributeDefinition
  3

  2
NBSYN
 70
     8
280
     0
  0
ATTDEF
  5
F4
330
EC
100
AcDbEntity
  8
AM_6
100
AcDbText
 10
6.273859506275166
 20
-2.370647181653213
 30
0.0
 40
0.5
  1
430026
100
AcDbAttributeDefinition
  3

  2
LINA
 70
     8
280
     0
  0
ATTDEF
  5
F5
330
EC
100
AcDbEntity
  8
AM_6
100
AcDbText
 10
6.273859506275166
 20
-2.870647181653213
 30
0.0
 40
0.5
  1
430026
100
AcDbAttributeDefinition
  3

  2
PN
 70
     8
280
     0
  0
ATTDEF
  5
F6
330
EC
100
AcDbEntity
  8
AM_6
100
AcDbText
 10
6.273859506275166
 20
-3.370647181653213
 30
0.0
 40
0.5
  1
baldor
100
AcDbAttributeDefinition
  3

  2
COMPANY
 70
     8
280
     0
  0
LINE
  5
F7
330
EC
100
AcDbEntity
  8
AM_9
100
AcDbLine
 10
1.129360487895231
 20
-0.5687194901906332
 30
0.0
 11
1.102666845368536
 21
-0.4762499999999999
 31
0.0
  0
LINE
  5
F8
330
EC
100
AcDbEntity
  8
AM_9
100
AcDbLine
 10
1.102666845368536
 20
-0.6637499999999998
 30
0.0
 11
1.129360487895231
 21
-0.5712805098093663
 31
0.0
  0
LINE
  5
F9
330
EC
100
AcDbEntity
  8
AM_9
100
AcDbLine
 10
1.048540257632009
 20
-0.4762499999999999
 30
0.0
 11
1.021476963763745
 21
-0.5699999999999998
 31
0.0
  0
LINE
  5
FA
330
EC
100
AcDbEntity
  8
AM_9
100
AcDbLine
 10
1.021476963763745
 20
-0.5699999999999998
 30
0.0
 11
1.048540257632009
 21
-0.6637499999999998
 31
0.0
  0
LINE
  5
FB
330
EC
100
AcDbEntity
  8
AM_9
100
AcDbLine
 10
1.014016858195525
 20
-0.6394165072154485
 30
0.0
 11
1.065753318091025
 21
-0.6616567188324641
 31
0.0
  0
LINE
  5
FC
330
EC
100
AcDbEntity
  8
AM_9
100
AcDbLine
 10
1.065753318091025
 20
-0.4783432811675356
 30
0.0
 11
1.014016858195525
 21
-0.5005834927845513
 31
0.0
  0
LINE
  5
FD
330
EC
100
AcDbEntity
  8
AM_9
100
AcDbLine
 10
0.862518719960909
 20
-0.7067510877807693
 30
0.0
 11
0.8736883611143795
 21
-0.7233171693263526
 31
0.0
  0
LINE
  5
FE
330
EC
100
AcDbEntity
  8
AM_9
100
AcDbLine
 10
0.8736883611143795
 20
-0.416682830673647
 30
0.0
 11
0.862518719960909
 21
-0.4332489122192303
 31
0.0
  0
LINE
  5
FF
330
EC
100
AcDbEntity
  8
AM_9
100
AcDbLine
 10
1.048540257632009
 20
-0.6637499999999998
 30
0.0
 11
1.15614666409256
 21
-0.6637499999999998
 31
0.0
  0
LINE
  5
100
330
EC
100
AcDbEntity
  8
AM_9
100
AcDbLine
 10
1.048540257632009
 20
-0.4762499999999999
 30
0.0
 11
1.15614666409256
 21
-0.4762499999999999
 31
0.0
  0
LINE
  5
101
330
EC
100
AcDbEntity
  8
AM_9
100
AcDbLine
 10
1.021476963763745
 20
-0.5699999999999998
 30
0.0
 11
1.129083370224296
 21
-0.5699999999999998
 31
0.0
  0
LINE
  5
102
330
EC
100
AcDbEntity
  8
AM_9
100
AcDbLine
 10
1.151167786360755
 20
-0.6572126736465236
 30
0.0
 11
1.149055576393844
 21
-0.6542809318291786
 31
0.0
  0
LWPOLYLINE
  5
103
330
EC
100
AcDbEntity
  8
AM_9
100
AcDbPolyline
 90
        9
 70
     0
 43
0.0
 10
1.129083370224296
 20
-0.5699999999999998
 10
1.127444034072247
 20
-0.560413174483811
 10
1.126642055341671
 20
-0.5504604790331713
 10
1.126924183372445
 20
-0.5399355044191609
 10
1.128568503273746
 20
-0.5290125339528986
 10
1.13320566575995
 20
-0.5139864343003929
 10
1.140665411112781
 20
-0.498760364473931
 10
1.147914010026236
 20
-0.4873509620107463
 10
1.149070701304592
 20
-0.4856976817490272
  0
LINE
  5
104
330
EC
100
AcDbEntity
  8
AM_9
100
AcDbLine
 10
1.149056023523401
 20
-0.6542815641826729
 30
0.0
 11
1.152391137302493
 21
-0.6589981273211221
 31
0.0
  0
LINE
  5
105
330
EC
100
AcDbEntity
  8
AM_9
100
AcDbLine
 10
1.152391137302493
 20
-0.4810018726788777
 30
0.0
 11
1.149076897278378
 21
-0.4856889158699412
 31
0.0
  0
LWPOLYLINE
  5
106
330
EC
100
AcDbEntity
  8
AM_9
100
AcDbPolyline
 90
        9
 70
     0
 43
0.0
 10
1.149055576393844
 20
-0.6542809318291786
 10
1.148972371648065
 20
-0.654163174483811
 10
1.1424242015199
 20
-0.6442104790331714
 10
1.136629732624061
 20
-0.6336855044191608
 10
1.131967672586315
 20
-0.6227625339528986
 10
1.127929512393274
 20
-0.6077364343003929
 10
1.126598482233098
 20
-0.5925103644739309
 10
1.12725985956314
 20
-0.5811009620107463
 10
1.129083370224296
 20
-0.5699999999999998
  0
LINE
  5
107
330
EC
100
AcDbEntity
  8
AM_9
100
AcDbLine
 10
1.149070701304592
 20
-0.4856976817490272
 30
0.0
 11
1.151432131125292
 21
-0.4824277737472215
 31
0.0
  0
LINE
  5
108
330
EC
100
AcDbEntity
  8
AM_9
100
AcDbLine
 10
0.928815651097592
 20
-0.760842529895183
 30
0.0
 11
1.137035525512257
 21
-0.7683499139582609
 31
0.0
  0
LINE
  5
109
330
EC
100
AcDbEntity
  8
AM_9
100
AcDbLine
 10
1.137035525512257
 20
-0.3716500860417389
 30
0.0
 11
0.928815651097592
 21
-0.3791574701048167
 31
0.0
  0
ELLIPSE
  5
10A
330
EC
100
AcDbEntity
  8
AM_9
100
AcDbEllipse
 10
1.166544653533891
 20
-0.57
 30
0.0
 11
1.220859406417987E-17
 21
0.1993814718281217
 31
0.0
210
0.0
220
0.0
230
1.0
 40
0.5
 41
3.735504113556939
 42
5.689273847212441
  0
ELLIPSE
  5
10B
330
EC
100
AcDbEntity
  8
AM_9
100
AcDbEllipse
 10
1.075603551500336
 20
-0.5700000000000203
 30
0.0
 11
5.740531871004466E-18
 21
0.09375000000002037
 31
0.0
210
0.0
220
0.0
230
1.0
 40
0.499999999999979
 41
0.0
 42
6.283185307179586
  0
ELLIPSE
  5
10C
330
EC
100
AcDbEntity
  8
AM_9
100
AcDbEllipse
 10
1.021476963763746
 20
-0.5700000000000001
 30
0.0
 11
4.347610051068781E-18
 21
0.0710018603583622
 31
0.0
210
0.0
220
0.0
230
1.0
 40
0.5
 41
0.0
 42
6.283185307179586
  0
ELLIPSE
  5
10D
330
EC
100
AcDbEntity
  8
AM_9
100
AcDbEllipse
 10
0.9132237882906897
 20
-0.5699999999999997
 30
0.0
 11
1.042477230807523E-17
 21
0.1702494517657395
 31
0.0
210
0.0
220
0.0
230
1.0
 40
0.4999999999999969
 41
0.0
 42
6.283185307179586
  0
ELLIPSE
  5
10E
330
EC
100
AcDbEntity
  8
AM_9
100
AcDbEllipse
 10
0.9305358617301259
 20
-0.5700000000000003
 30
0.0
 11
1.168763340082621E-17
 21
0.1908735385412936
 31
0.0
210
0.0
220
0.0
230
1.0
 40
0.4999999999999984
 41
0.0
 42
6.283185307179586
  0
LINE
  5
10F
330
EC
100
AcDbEntity
  8
AM_4
100
AcDbLine
 10
1.1297301392368
 20
-0.5699999999999998
 30
0.0
 11
1.129360487895231
 21
-0.5687194901906332
 31
0.0
  0
LINE
  5
110
330
EC
100
AcDbEntity
  8
AM_4
100
AcDbLine
 10
1.1297301392368
 20
-0.5699999999999998
 30
0.0
 11
1.237336545697351
 21
-0.5699999999999998
 31
0.0
  0
LINE
  5
111
330
EC
100
AcDbEntity
  8
AM_4
100
AcDbLine
 10
1.129360487895231
 20
-0.5712805098093663
 30
0.0
 11
1.1297301392368
 21
-0.5699999999999998
 31
0.0
  0
LINE
  5
112
330
EC
100
AcDbEntity
  8
AM_4
100
AcDbLine
 10
1.15614666409256
 20
-0.6637499999999998
 30
0.0
 11
1.151167786360755
 21
-0.6572126736465236
 31
0.0
  0
LINE
  5
113
330
EC
100
AcDbEntity
  8
AM_4
100
AcDbLine
 10
1.15614666409256
 20
-0.4762499999999999
 30
0.0
 11
1.210273251829087
 21
-0.4762499999999999
 31
0.0
  0
LWPOLYLINE
  5
114
330
EC
100
AcDbEntity
  8
AM_4
100
AcDbPolyline
 90
        9
 70
     0
 43
0.0
 10
1.210273251829087
 20
-0.4762499999999999
 10
1.208629580882062
 20
-0.4858658001515656
 10
1.207831936946462
 20
-0.4957895209668284
 10
1.208126119909492
 20
-0.506391257194945
 10
1.209758384878537
 20
-0.5172374660471011
 10
1.214395547364741
 20
-0.5322635656996068
 10
1.221855292717572
 20
-0.5474896355260688
 10
1.229136258752843
 20
-0.5589467683352405
 10
1.237336545697351
 20
-0.5699999999999998
  0
LWPOLYLINE
  5
115
330
EC
100
AcDbEntity
  8
AM_4
100
AcDbPolyline
 90
        9
 70
     0
 43
0.0
 10
1.237336545697351
 20
-0.5699999999999998
 10
1.230141189944346
 20
-0.5796158001515656
 10
1.223614083124691
 20
-0.5895395209668284
 10
1.21778735082254
 20
-0.600141257194945
 10
1.213157554191106
 20
-0.6109874660471012
 10
1.209119393998066
 20
-0.6260135656996068
 10
1.207788363837889
 20
-0.6412396355260688
 10
1.208454551161644
 20
-0.6526967683352404
 10
1.210273251829087
 20
-0.6637499999999998
  0
LINE
  5
116
330
EC
100
AcDbEntity
  8
AM_4
100
AcDbLine
 10
1.210273251829087
 20
-0.6637499999999998
 30
0.0
 11
1.15614666409256
 21
-0.6637499999999998
 31
0.0
  0
LINE
  5
117
330
EC
100
AcDbEntity
  8
AM_4
100
AcDbLine
 10
1.151432131125292
 20
-0.4824277737472215
 30
0.0
 11
1.15614666409256
 21
-0.4762499999999999
 31
0.0
  0
LINE
  5
118
330
EC
100
AcDbEntity
  8
AM_4
100
AcDbLine
 10
1.137035525512257
 20
-0.7683499139582609
 30
0.0
 11
1.164747766807788
 21
-0.7693490810129865
 31
0.0
  0
LINE
  5
119
330
EC
100
AcDbEntity
  8
AM_4
100
AcDbLine
 10
1.164747766807788
 20
-0.3706509189870132
 30
0.0
 11
1.137035525512257
 21
-0.3716500860417389
 31
0.0
  0
ELLIPSE
  5
11A
330
EC
100
AcDbEntity
  8
AM_4
100
AcDbEllipse
 10
1.166544653533891
 20
-0.5699999999999996
 30
0.0
 11
1.220859406417988E-17
 21
0.1993814718281219
 31
0.0
210
0.0
220
0.0
230
1.0
 40
0.4999999999999984
 41
5.689273847212439
 42
10.01868942073652
  0
LINE
  5
11B
330
EC
100
AcDbEntity
  8
AM_4
100
AcDbLine
 10
1.234222907772295
 20
-0.4208189272892695
 30
0.0
 11
1.222332282182457
 21
-0.4047609814014044
 31
0.0
  0
LINE
  5
11C
330
EC
100
AcDbEntity
  8
AM_4
100
AcDbLine
 10
1.222332282182457
 20
-0.7352390185985954
 30
0.0
 11
1.234222907772296
 21
-0.7191810727107302
 31
0.0
  0
ELLIPSE
  5
11D
330
EC
100
AcDbEntity
  8
AM_4
100
AcDbEllipse
 10
1.183856726973327
 20
-0.5699999999999998
 30
0.0
 11
6.674325055353074E-18
 21
0.109
 31
0.0
210
0.0
220
0.0
230
1.0
 40
0.5
 41
0.0
 42
6.283185307179586
  0
ELLIPSE
  5
11E
330
EC
100
AcDbEntity
  8
AM_4
100
AcDbEllipse
 10
1.183856726973327
 20
-0.5699999999999997
 30
0.0
 11
1.102216155863617E-17
 21
0.1800055586036763
 31
0.0
210
0.0
220
0.0
230
1.0
 40
0.4999999999999997
 41
0.0
 42
6.283185307179586
  0
ENDBLK
  5
EF
330
EC
100
AcDbEntity
  8
0
100
AcDbBlockEnd
  0
BLOCK
  5
121
330
11F
100
AcDbEntity
  8
0
100
AcDbBlockBegin
  2
4_124665H_0_in_124665_4
 70
     2
 10
0.0
 20
0.0
 30
0.0
  3
4_124665H_0_in_124665_4
  1

  0
ATTDEF
  5
123
330
11F
100
AcDbEntity
  8
AM_6
100
AcDbText
 10
6.327220865598093
 20
0.0435
 30
0.0
 40
0.5
  1
LFT-SC and  LFT-SC-NL -Inch - housing
100
AcDbAttributeDefinition
  3

  2
NN
 70
     8
280
     0
  0
ATTDEF
  5
124
330
11F
100
AcDbEntity
  8
AM_6
100
AcDbText
 10
6.327220865598093
 20
-0.4565
 30
0.0
 40
0.5
  1
SC 2 Bolt Flange Bearings -(Normal Duty) -Re-Lube and No-Lube
100
AcDbAttributeDefinition
  3

  2
NT
 70
     8
280
     0
  0
ATTDEF
  5
125
330
11F
100
AcDbEntity
  8
AM_6
100
AcDbText
 10
6.327220865598093
 20
-0.9565
 30
0.0
 40
0.5
  1
124665H
100
AcDbAttributeDefinition
  3

  2
NB
 70
     8
280
     0
  0
ATTDEF
  5
126
330
11F
100
AcDbEntity
  8
AM_6
100
AcDbText
 10
6.327220865598093
 20
-1.4565
 30
0.0
 40
0.5
  1
$PN.H
100
AcDbAttributeDefinition
  3

  2
NBSYN
 70
     8
280
     0
  0
ATTDEF
  5
127
330
11F
100
AcDbEntity
  8
AM_6
100
AcDbText
 10
6.327220865598093
 20
-1.9565
 30
0.0
 40
0.5
  1
124665
100
AcDbAttributeDefinition
  3

  2
LINA
 70
     8
280
     0
  0
ATTDEF
  5
128
330
11F
100
AcDbEntity
  8
AM_6
100
AcDbText
 10
6.327220865598093
 20
-2.4565
 30
0.0
 40
0.5
  1
205
100
AcDbAttributeDefinition
  3

  2
SERIES
 70
     8
280
     0
  0
ATTDEF
  5
129
330
11F
100
AcDbEntity
  8
AM_6
100
AcDbText
 10
6.327220865598093
 20
-2.9565
 30
0.0
 40
0.5
  1
1
100
AcDbAttributeDefinition
  3

  2
SS
 70
     8
280
     0
  0
ATTDEF
  5
12A
330
11F
100
AcDbEntity
  8
AM_6
100
AcDbText
 10
6.327220865598093
 20
-3.4565
 30
0.0
 40
0.5
  1
124665
100
AcDbAttributeDefinition
  3

  2
PN
 70
     8
280
     0
  0
ATTDEF
  5
12B
330
11F
100
AcDbEntity
  8
AM_6
100
AcDbText
 10
6.327220865598093
 20
-3.9565
 30
0.0
 40
0.5
  1
LFT-SC-100-NL
100
AcDbAttributeDefinition
  3

  2
DESCRIPTION
 70
     8
280
     0
  0
ATTDEF
  5
12C
330
11F
100
AcDbEntity
  8
AM_6
100
AcDbText
 10
6.327220865598093
 20
-4.4565
 30
0.0
 40
0.5
  1
0.85
100
AcDbAttributeDefinition
  3

  2
W
 70
     8
280
     0
  0
ATTDEF
  5
12D
330
11F
100
AcDbEntity
  8
AM_6
100
AcDbText
 10
6.327220865598093
 20
-4.9565
 30
0.0
 40
0.5
  1
NO-LUBE
100
AcDbAttributeDefinition
  3

  2
LF
 70
     8
280
     0
  0
ATTDEF
  5
12E
330
11F
100
AcDbEntity
  8
AM_6
100
AcDbText
 10
6.327220865598093
 20
-5.4565
 30
0.0
 40
0.5
  1
1.06
100
AcDbAttributeDefinition
  3

  2
A
 70
     8
280
     0
  0
ATTDEF
  5
12F
330
11F
100
AcDbEntity
  8
AM_6
100
AcDbText
 10
6.327220865598093
 20
-5.9565
 30
0.0
 40
0.5
  1
3.75
100
AcDbAttributeDefinition
  3

  2
B
 70
     8
280
     0
  0
ATTDEF
  5
130
330
11F
100
AcDbEntity
  8
AM_6
100
AcDbText
 10
6.327220865598093
 20
-6.4565
 30
0.0
 40
0.5
  1
1.24
100
AcDbAttributeDefinition
  3

  2
C
 70
     8
280
     0
  0
ATTDEF
  5
131
330
11F
100
AcDbEntity
  8
AM_6
100
AcDbText
 10
6.327220865598093
 20
-6.9565
 30
0.0
 40
0.5
  1
3.00
100
AcDbAttributeDefinition
  3

  2
D
 70
     8
280
     0
  0
ATTDEF
  5
132
330
11F
100
AcDbEntity
  8
AM_6
100
AcDbText
 10
6.327220865598093
 20
-7.4565
 30
0.0
 40
0.5
  1
0.34
100
AcDbAttributeDefinition
  3

  2
G
 70
     8
280
     0
  0
ATTDEF
  5
133
330
11F
100
AcDbEntity
  8
AM_6
100
AcDbText
 10
6.327220865598093
 20
-7.9565
 30
0.0
 40
0.5
  1
0.42
100
AcDbAttributeDefinition
  3

  2
H
 70
     8
280
     0
  0
ATTDEF
  5
134
330
11F
100
AcDbEntity
  8
AM_6
100
AcDbText
 10
6.327220865598093
 20
-8.4565
 30
0.0
 40
0.5
  1
0.37
100
AcDbAttributeDefinition
  3

  2
J
 70
     8
280
     0
  0
ATTDEF
  5
135
330
11F
100
AcDbEntity
  8
AM_6
100
AcDbText
 10
6.327220865598093
 20
-8.9565
 30
0.0
 40
0.5
  1
1.32
100
AcDbAttributeDefinition
  3

  2
L
 70
     8
280
     0
  0
ATTDEF
  5
136
330
11F
100
AcDbEntity
  8
AM_6
100
AcDbText
 10
6.327220865598093
 20
-9.4565
 30
0.0
 40
0.5
  1
2.63
100
AcDbAttributeDefinition
  3

  2
M
 70
     8
280
     0
  0
ATTDEF
  5
137
330
11F
100
AcDbEntity
  8
AM_6
100
AcDbText
 10
6.327220865598093
 20
-9.9565
 30
0.0
 40
0.5
  1
1.44
100
AcDbAttributeDefinition
  3

  2
N
 70
     8
280
     0
  0
ATTDEF
  5
138
330
11F
100
AcDbEntity
  8
AM_6
100
AcDbText
 10
6.327220865598093
 20
-10.4565
 30
0.0
 40
0.5
  1
1565
100
AcDbAttributeDefinition
  3

  2
CAPS
 70
     8
280
     0
  0
ATTDEF
  5
139
330
11F
100
AcDbEntity
  8
AM_6
100
AcDbText
 10
6.327220865598093
 20
-10.9565
 30
0.0
 40
0.5
  1
3146
100
AcDbAttributeDefinition
  3

  2
CAPD
 70
     8
280
     0
  0
ATTDEF
  5
13A
330
11F
100
AcDbEntity
  8
AM_6
100
AcDbText
 10
6.327220865598093
 20
-11.4565
 30
0.0
 40
0.5
  1
baldor
100
AcDbAttributeDefinition
  3

  2
COMPANY
 70
     8
280
     0
  0
LINE
  5
13B
330
11F
100
AcDbEntity
  8
AM_9
100
AcDbLine
 10
1.02534835931513
 20
-0.522
 30
0.0
 11
1.02534835931513
 21
-0.105
 31
0.0
  0
LINE
  5
13C
330
11F
100
AcDbEntity
  8
AM_9
100
AcDbLine
 10
0.3182415781285827
 20
-0.522
 30
0.0
 11
0.3182415781285827
 21
-0.105
 31
0.0
  0
LINE
  5
13D
330
11F
100
AcDbEntity
  8
AM_9
100
AcDbLine
 10
1.315
 20
-0.7859999999999996
 30
0.0
 11
1.315
 21
-0.105
 31
0.0
  0
LINE
  5
13E
330
11F
100
AcDbEntity
  8
AM_9
100
AcDbLine
 10
0.8469634064630434
 20
-0.7859999999999996
 30
0.0
 11
1.315
 21
-0.7859999999999996
 31
0.0
  0
LWPOLYLINE
  5
13F
330
11F
100
AcDbEntity
  8
AM_9
100
AcDbPolyline
 90
        6
 70
     0
 43
0.0
 10
1.277220865598093
 20
-0.8396243902771499
 10
1.267920381210214
 20
-0.849842278096432
 10
1.256928017993518
 20
-0.8583323228814236
 10
1.245227215222548
 20
-0.8644302558943526
 10
1.232503817444708
 20
-0.8683905211462563
 10
1.217293177443037
 20
-0.87
  0
ARC
  5
140
330
11F
100
AcDbEntity
  8
AM_9
100
AcDbCircle
 10
1.230999999999999
 20
-0.7859999999999995
 30
0.0
 40
0.0840000000000005
100
AcDbArc
 50
270.0
 51
0.0000008537736463
  0
LINE
  5
141
330
11F
100
AcDbEntity
  8
AM_9
100
AcDbLine
 10
-1.02534835931513
 20
-0.522
 30
0.0
 11
-1.02534835931513
 21
-0.105
 31
0.0
  0
LINE
  5
142
330
11F
100
AcDbEntity
  8
AM_9
100
AcDbLine
 10
1.294635243707819
 20
-0.7859999999999996
 30
0.0
 11
1.294635243707818
 21
-0.105
 31
0.0
  0
LINE
  5
143
330
11F
100
AcDbEntity
  8
AM_9
100
AcDbLine
 10
1.277220865598093
 20
-0.87
 30
0.0
 11
1.277220865598093
 21
-0.8396243902771499
 31
0.0
  0
LWPOLYLINE
  5
144
330
11F
100
AcDbEntity
  8
AM_9
100
AcDbPolyline
 90
        6
 70
     0
 43
0.0
 10
1.294635243707819
 20
-0.7859999999999996
 10
1.293763893179313
 20
-0.7988939131718391
 10
1.291065922364957
 20
-0.8117878263436786
 10
1.286724934605605
 20
-0.8236595400748326
 10
1.280774200098868
 20
-0.8345881631855376
 10
1.277220865598093
 20
-0.8396243902771499
  0
LINE
  5
145
330
11F
100
AcDbEntity
  8
AM_9
100
AcDbLine
 10
1.138823405976537
 20
-0.42
 30
0.0
 11
0.986980285179665
 21
-0.42
 31
0.0
  0
LINE
  5
146
330
11F
100
AcDbEntity
  8
AM_9
100
AcDbLine
 10
0.986980285179665
 20
-0.7199999999999999
 30
0.0
 11
1.138823405976537
 21
-0.7199999999999999
 31
0.0
  0
LINE
  5
147
330
11F
100
AcDbEntity
  8
AM_9
100
AcDbLine
 10
-0.2780148796673529
 20
-0.5219999999999999
 30
0.0
 11
-0.2780148796673529
 21
-0.1049999999999999
 31
0.0
  0
LINE
  5
148
330
11F
100
AcDbEntity
  8
AM_9
100
AcDbLine
 10
-0.9851216608539005
 20
-0.105
 30
0.0
 11
-0.9851216608539005
 21
-0.522
 31
0.0
  0
LINE
  5
149
330
11F
100
AcDbEntity
  8
AM_9
100
AcDbLine
 10
0.9851216608539005
 20
-0.105
 30
0.0
 11
0.9851216608539005
 21
-0.522
 31
0.0
  0
LINE
  5
14A
330
11F
100
AcDbEntity
  8
AM_9
100
AcDbLine
 10
0.2780148796673529
 20
-0.522
 30
0.0
 11
1.02534835931513
 21
-0.522
 31
0.0
  0
LINE
  5
14B
330
11F
100
AcDbEntity
  8
AM_9
100
AcDbLine
 10
0.2780148796673529
 20
-0.522
 30
0.0
 11
0.2780148796673529
 21
-0.105
 31
0.0
  0
LINE
  5
14C
330
11F
100
AcDbEntity
  8
AM_9
100
AcDbLine
 10
1.0236
 20
-0.87
 30
0.0
 11
1.0236
 21
-0.105
 31
0.0
  0
LINE
  5
14D
330
11F
100
AcDbEntity
  8
AM_9
100
AcDbLine
 10
-1.0236
 20
-0.105
 30
0.0
 11
-1.0236
 21
-0.87
 31
0.0
  0
LINE
  5
14E
330
11F
100
AcDbEntity
  8
AM_9
100
AcDbLine
 10
-0.2780148796673529
 20
-0.5219999999999999
 30
0.0
 11
-1.02534835931513
 21
-0.522
 31
0.0
  0
LINE
  5
14F
330
11F
100
AcDbEntity
  8
AM_9
100
AcDbLine
 10
-0.3182415781285827
 20
-0.5219999999999999
 30
0.0
 11
-0.3182415781285827
 21
-0.1049999999999999
 31
0.0
  0
LINE
  5
150
330
11F
100
AcDbEntity
  8
AM_9
100
AcDbLine
 10
-0.4460103841165168
 20
-0.1049999999999999
 30
0.0
 11
-0.4460103841165168
 21
0.0000000000000001
 31
0.0
  0
LINE
  5
151
330
11F
100
AcDbEntity
  8
AM_9
100
AcDbLine
 10
-0.5571406886531788
 20
-0.1049999999999999
 30
0.0
 11
0.5571406886531782
 21
-0.1049999999999999
 31
0.0
  0
LINE
  5
152
330
11F
100
AcDbEntity
  8
AM_9
100
AcDbLine
 10
0.4460103888316382
 20
-0.1049999999999999
 30
0.0
 11
0.4460103888316382
 21
0.0000000000000001
 31
0.0
  0
LINE
  5
153
330
11F
100
AcDbEntity
  8
AM_9
100
AcDbLine
 10
-0.17
 20
-0.4199999999999999
 30
0.0
 11
-0.17
 21
0.0000000000000001
 31
0.0
  0
LINE
  5
154
330
11F
100
AcDbEntity
  8
AM_9
100
AcDbLine
 10
0.17
 20
-0.4199999999999999
 30
0.0
 11
0.17
 21
0.0
 31
0.0
  0
ELLIPSE
  5
155
330
11F
100
AcDbEntity
  8
AM_9
100
AcDbEllipse
 10
0.9869802851796651
 20
-0.5699999999999998
 30
0.0
 11
9.184850993605140E-18
 21
0.1499999999999999
 31
0.0
210
0.0
220
0.0
230
1.0
 40
0.4999999999999994
 41
0.0
 42
6.283185307179586
  0
ELLIPSE
  5
156
330
11F
100
AcDbEntity
  8
AM_9
100
AcDbEllipse
 10
1.138823405976537
 20
-0.5699999999999995
 30
0.0
 11
9.184850993605069E-18
 21
0.1499999999999987
 31
0.0
210
0.0
220
0.0
230
1.0
 40
0.5000000000000056
 41
0.0
 42
6.283185307179586
  0
LINE
  5
159
330
11F
100
AcDbEntity
  8
AM_7
100
AcDbLine
 10
0.0
 20
0.0435
 30
0.0
 11
0.0
 21
-1.293
 31
0.0
  0
LINE
  5
15A
330
11F
100
AcDbEntity
  8
AM_4
100
AcDbLine
 10
1.327220865598093
 20
-0.87
 30
0.0
 11
1.327220865598093
 21
-0.105
 31
0.0
  0
LINE
  5
15B
330
11F
100
AcDbEntity
  8
AM_4
100
AcDbLine
 10
1.313823405976537
 20
-0.87
 30
0.0
 11
1.313823405976537
 21
-0.105
 31
0.0
  0
LINE
  5
15C
330
11F
100
AcDbEntity
  8
AM_4
100
AcDbLine
 10
0.9638234059765367
 20
-0.87
 30
0.0
 11
0.9638234059765367
 21
-0.1049999999999999
 31
0.0
  0
LINE
  5
15D
330
11F
100
AcDbEntity
  8
AM_4
100
AcDbLine
 10
0.8272208655980926
 20
-0.87
 30
0.0
 11
0.8272208655980926
 21
-0.8396243902771503
 31
0.0
  0
LINE
  5
15E
330
11F
100
AcDbEntity
  8
AM_4
100
AcDbLine
 10
-0.5634436537989582
 20
0.0000000000000001
 30
0.0
 11
-0.5634436537989582
 21
-0.1049999999999999
 31
0.0
  0
LINE
  5
15F
330
11F
100
AcDbEntity
  8
AM_4
100
AcDbLine
 10
0.5634436537989578
 20
-0.1049999999999999
 30
0.0
 11
0.5634436537989578
 21
0.0000000000000001
 31
0.0
  0
LINE
  5
160
330
11F
100
AcDbEntity
  8
AM_4
100
AcDbLine
 10
-0.5571406886531793
 20
0.0000000000000001
 30
0.0
 11
-0.5571406886531788
 21
-0.1049999999999999
 31
0.0
  0
LINE
  5
161
330
11F
100
AcDbEntity
  8
AM_4
100
AcDbLine
 10
-0.5571406886531788
 20
-0.1049999999999999
 30
0.0
 11
-1.315
 21
-0.105
 31
0.0
  0
LINE
  5
162
330
11F
100
AcDbEntity
  8
AM_4
100
AcDbLine
 10
-1.315
 20
-0.105
 30
0.0
 11
-1.315
 21
-0.7859999999999996
 31
0.0
  0
LINE
  5
163
330
11F
100
AcDbEntity
  8
AM_4
100
AcDbLine
 10
0.8469634064630426
 20
-0.1049999999999999
 30
0.0
 11
0.8469634064630434
 21
-0.7859999999999996
 31
0.0
  0
LINE
  5
164
330
11F
100
AcDbEntity
  8
AM_4
100
AcDbLine
 10
1.327220865598093
 20
-0.105
 30
0.0
 11
0.5571406886531782
 21
-0.1049999999999999
 31
0.0
  0
LINE
  5
165
330
11F
100
AcDbEntity
  8
AM_4
100
AcDbLine
 10
0.5571406886531782
 20
-0.1049999999999999
 30
0.0
 11
0.5571406886531788
 21
0.0000000000000001
 31
0.0
  0
LINE
  5
166
330
11F
100
AcDbEntity
  8
AM_4
100
AcDbLine
 10
0.3033470766117403
 20
-0.7859999999999995
 30
0.0
 11
0.8469634064630434
 21
-0.7859999999999996
 31
0.0
  0
LWPOLYLINE
  5
167
330
11F
100
AcDbEntity
  8
AM_4
100
AcDbPolyline
 90
        7
 70
     0
 43
0.0
 10
0.7672931774430372
 20
-0.87
 10
0.7716698859516076
 20
-0.8698681064985528
 10
0.785470103967186
 20
-0.8676909715278731
 10
0.7991419545444559
 20
-0.8626770966196484
 10
0.8112631877707778
 20
-0.8553535047271477
 10
0.8224117469310768
 20
-0.8453436508140592
 10
0.8272208655980926
 20
-0.8396243902771503
  0
LWPOLYLINE
  5
168
330
11F
100
AcDbEntity
  8
AM_4
100
AcDbPolyline
 90
        6
 70
     0
 43
0.0
 10
0.8272208655980926
 20
-0.8396243902771503
 10
0.8347304287883945
 20
-0.828469737998156
 10
0.8409805034497871
 20
-0.8158007210847354
 10
0.8448160870483507
 20
-0.8038308339311563
 10
0.8467705665426559
 20
-0.7913601462124888
 10
0.8469634064630434
 20
-0.7859999999999996
  0
LINE
  5
169
330
11F
100
AcDbEntity
  8
AM_4
100
AcDbLine
 10
-1.231
 20
-0.87
 30
0.0
 11
1.327220865598093
 21
-0.87
 31
0.0
  0
ARC
  5
16A
330
11F
100
AcDbEntity
  8
AM_4
100
AcDbCircle
 10
-1.230999999999999
 20
-0.7859999999999995
 30
0.0
 40
0.0840000000000005
100
AcDbArc
 50
179.9999991462263
 51
270.0
  0
LINE
  5
16B
330
11F
100
AcDbEntity
  8
AM_4
100
AcDbLine
 10
-1.315
 20
-0.7859999999999996
 30
0.0
 11
-0.3033470766117402
 21
-0.7859999999999995
 31
0.0
  0
LWPOLYLINE
  5
16C
330
11F
100
AcDbEntity
  8
AM_4
100
AcDbPolyline
 90
       10
 70
     0
 43
0.0
 10
-0.2355933243498683
 20
-0.8699999999999999
 10
-0.249271037393574
 20
-0.8688167101790368
 10
-0.2624082017657774
 20
-0.864930487438202
 10
-0.2725715018598825
 20
-0.8593135197953055
 10
-0.2818427248708779
 20
-0.8512093355885405
 10
-0.2894982384090523
 20
-0.8410719418464682
 10
-0.2957834083039539
 20
-0.8284446375388277
 10
-0.2997199896159954
 20
-0.8161787061238047
 10
-0.3022970152119112
 20
-0.8025220656647485
 10
-0.3033470766117402
 20
-0.7859999999999995
  0
LWPOLYLINE
  5
16D
330
11F
100
AcDbEntity
  8
AM_4
100
AcDbPolyline
 90
       12
 70
     0
 43
0.0
 10
0.3033470766117403
 20
-0.7859999999999995
 10
0.3027055450079025
 20
-0.7989498051158347
 10
0.3007110246318473
 20
-0.8118996102316698
 10
0.297498098603669
 20
-0.8237558885733846
 10
0.2929271435887093
 20
-0.8348759775885025
 10
0.287214862461358
 20
-0.8445405930434208
 10
0.2802297869439525
 20
-0.8528862549414916
 10
0.2719227201229325
 20
-0.8597595550993228
 10
0.2624899819642772
 20
-0.864895682130567
 10
0.2512013142152009
 20
-0.8684364897990131
 10
0.238981907698102
 20
-0.8699323875541828
 10
0.2355933243498683
 20
-0.8699999999999999
  0
LINE
  5
16E
330
11F
100
AcDbEntity
  8
AM_4
100
AcDbLine
 10
0.3033470766117403
 20
-0.7859999999999995
 30
0.0
 11
0.3033470766117402
 21
-0.4199999999999999
 31
0.0
  0
LINE
  5
16F
330
11F
100
AcDbEntity
  8
AM_4
100
AcDbLine
 10
-0.3033470766117402
 20
-0.4199999999999999
 30
0.0
 11
-0.3033470766117402
 21
-0.7859999999999995
 31
0.0
  0
LINE
  5
170
330
11F
100
AcDbEntity
  8
AM_4
100
AcDbLine
 10
-0.5430662256137317
 20
-0.4199999999999999
 30
0.0
 11
-0.5430662256137319
 21
0.0000000000000001
 31
0.0
  0
LINE
  5
171
330
11F
100
AcDbEntity
  8
AM_4
100
AcDbLine
 10
-0.5634436537989582
 20
0.0000000000000001
 30
0.0
 11
0.5634436537989578
 21
0.0000000000000001
 31
0.0
  0
LINE
  5
172
330
11F
100
AcDbEntity
  8
AM_4
100
AcDbLine
 10
-0.5430662256137317
 20
-0.4199999999999999
 30
0.0
 11
0.5430662256137314
 21
-0.4199999999999999
 31
0.0
  0
LINE
  5
173
330
11F
100
AcDbEntity
  8
AM_4
100
AcDbLine
 10
0.5430662256137316
 20
0.0000000000000001
 30
0.0
 11
0.5430662256137314
 21
-0.4199999999999999
 31
0.0
  0
LINE
  5
174
330
11F
100
AcDbEntity
  8
AM_4
100
AcDbLine
 10
-0.3715641349374308
 20
-0.4199999999999999
 30
0.0
 11
-0.3715641349374308
 21
0.0000000000000001
 31
0.0
  0
LINE
  5
175
330
11F
100
AcDbEntity
  8
AM_4
100
AcDbLine
 10
0.3715641314516415
 20
-0.4199999999999999
 30
0.0
 11
0.3715641314516415
 21
0.0000000000000001
 31
0.0
  0
ENDBLK
  5
122
330
11F
100
AcDbEntity
  8
0
100
AcDbBlockEnd
  0
ENDSEC
  0
SECTION
  2
ENTITIES
  0
INSERT
  5
6F
330
1F
100
AcDbEntity
  8
0
100
AcDbBlockReference
  2
1_124665_4
 10
0.0
 20
0.0
 30
0.0
  0
POINT
  5
177
330
1F
100
AcDbEntity
  8
ConnectionPoints
100
AcDbPoint
 10
1.138823405976537
 20
-0.57
 30
0.6574999999999999
  0
POINT
  5
178
330
1F
100
AcDbEntity
  8
ConnectionPoints
100
AcDbPoint
 10
1.138823405976537
 20
-0.57
 30
0.6574999999999999
  0
POINT
  5
179
330
1F
100
AcDbEntity
  8
ConnectionPoints
100
AcDbPoint
 10
0.0
 20
-1.24
 30
0.0000000000000001
  0
ENDSEC
  0
SECTION
  2
OBJECTS
  0
DICTIONARY
  5
C
330
0
100
AcDbDictionary
281
     1
  3
ACAD_DETAILVIEWSTYLE
350
181
  3
ACAD_GROUP
350
D
  3
ACAD_LAYOUT
350
1A
  3
ACAD_MATERIAL
350
43
  3
ACAD_MLEADERSTYLE
350
6B
  3
ACAD_MLINESTYLE
350
17
  3
ACAD_PLOTSETTINGS
350
19
  3
ACAD_PLOTSTYLENAME
350
E
  3
ACAD_SCALELIST
350
47
  3
ACAD_SECTIONVIEWSTYLE
350
182
  3
ACAD_TABLESTYLE
350
69
  3
ACAD_VISUALSTYLE
350
2A
  3
ACDB_RECOMPOSE_DATA
350
17E
  3
AcDbVariableDictionary
350
17A
  0
SUN
  5
6D
330
29
100
AcDbSun
 90
        1
290
     0
 63
     7
421
 16777215
 40
1.0
291
     1
 91
  2455826
 92
 54000000
292
     0
 70
     2
 71
   256
280
     1
  0
DICTIONARY
  5
181
102
{ACAD_REACTORS
330
C
102
}
330
C
100
AcDbDictionary
281
     1
  0
DICTIONARY
  5
D
102
{ACAD_REACTORS
330
C
102
}
330
C
100
AcDbDictionary
281
     1
  0
DICTIONARY
  5
1A
102
{ACAD_REACTORS
330
C
102
}
330
C
100
AcDbDictionary
281
     1
  3
Layout1
350
1E
  3
Layout2
350
26
  3
Model
350
22
  0
DICTIONARY
  5
43
102
{ACAD_REACTORS
330
C
102
}
330
C
100
AcDbDictionary
281
     1
  3
ByBlock
350
45
  3
ByLayer
350
44
  3
Global
350
46
  0
DICTIONARY
  5
6B
102
{ACAD_REACTORS
330
C
102
}
330
C
100
AcDbDictionary
281
     1
  3
Standard
350
6C
  0
DICTIONARY
  5
17
102
{ACAD_REACTORS
330
C
102
}
330
C
100
AcDbDictionary
281
     1
  3
Standard
350
18
  0
DICTIONARY
  5
19
102
{ACAD_REACTORS
330
C
102
}
330
C
100
AcDbDictionary
281
     1
  0
ACDBDICTIONARYWDFLT
  5
E
102
{ACAD_REACTORS
330
C
102
}
330
C
100
AcDbDictionary
281
     1
  3
Normal
350
F
100
AcDbDictionaryWithDefault
340
F
  0
DICTIONARY
  5
47
102
{ACAD_REACTORS
330
C
102
}
330
C
100
AcDbDictionary
281
     1
  3
A0
350
48
  3
A1
350
49
  3
A2
350
4A
  3
A3
350
4B
  3
A4
350
4C
  3
A5
350
4D
  3
A6
350
4E
  3
A7
350
4F
  3
A8
350
50
  3
A9
350
51
  3
B0
350
52
  3
B1
350
53
  3
B2
350
54
  3
B3
350
55
  3
B4
350
56
  3
B5
350
57
  3
B6
350
58
  3
B7
350
59
  3
B8
350
5A
  3
B9
350
5B
  3
C0
350
5C
  3
C1
350
5D
  3
C2
350
5E
  3
C3
350
5F
  3
C4
350
60
  3
C5
350
61
  3
C6
350
62
  3
C7
350
63
  3
C8
350
64
  3
C9
350
65
  3
D0
350
66
  3
D1
350
67
  3
D2
350
68
  0
DICTIONARY
  5
182
102
{ACAD_REACTORS
330
C
102
}
330
C
100
AcDbDictionary
281
     1
  0
DICTIONARY
  5
69
102
{ACAD_REACTORS
330
C
102
}
330
C
100
AcDbDictionary
281
     1
  3
Standard
350
6A
  0
DICTIONARY
  5
2A
102
{ACAD_REACTORS
330
C
102
}
330
C
100
AcDbDictionary
281
     1
  3
2dWireframe
350
2F
  3
Basic
350
32
  3
Brighten
350
36
  3
ColorChange
350
3A
  3
Conceptual
350
34
  3
Dim
350
35
  3
EdgeColorOff
350
3D
  3
Facepattern
350
39
  3
Flat
350
2B
  3
FlatWithEdges
350
2C
  3
Gouraud
350
2D
  3
GouraudWithEdges
350
2E
  3
Hidden
350
31
  3
JitterOff
350
3B
  3
Linepattern
350
38
  3
OverhangOff
350
3C
  3
Realistic
350
33
  3
Shaded
350
42
  3
Shaded with edges
350
41
  3
Shades of Gray
350
3E
  3
Sketchy
350
3F
  3
Thicken
350
37
  3
Wireframe
350
30
  3
X-Ray
350
40
  0
XRECORD
  5
17E
102
{ACAD_REACTORS
330
C
102
}
330
C
100
AcDbXrecord
280
     1
 90
        1
330
6A
  0
DICTIONARY
  5
17A
102
{ACAD_REACTORS
330
C
102
}
330
C
100
AcDbDictionary
281
     1
  3
CANNOSCALE
350
17B
  3
CMLEADERSTYLE
350
180
  3
CTABLESTYLE
350
17F
  0
LAYOUT
  5
1E
102
{ACAD_REACTORS
330
1A
102
}
330
1A
100
AcDbPlotSettings
  1

  2
none_device
  4

  6

 40
0.0
 41
0.0
 42
0.0
 43
0.0
 44
0.0
 45
0.0
 46
0.0
 47
0.0
 48
0.0
 49
0.0
140
0.0
141
0.0
142
1.0
143
1.0
 70
   688
 72
     0
 73
     0
 74
     5
  7

 75
    16
 76
     0
 77
     2
 78
   300
147
1.0
148
0.0
149
0.0
100
AcDbLayout
  1
Layout1
 70
     1
 71
     1
 10
0.0
 20
0.0
 11
12.0
 21
9.0
 12
0.0
 22
0.0
 32
0.0
 14
1.000000000000000E+20
 24
1.000000000000000E+20
 34
1.000000000000000E+20
 15
-1.000000000000000E+20
 25
-1.000000000000000E+20
 35
-1.000000000000000E+20
146
0.0
 13
0.0
 23
0.0
 33
0.0
 16
1.0
 26
0.0
 36
0.0
 17
0.0
 27
1.0
 37
0.0
 76
     0
330
1B
  0
LAYOUT
  5
26
102
{ACAD_REACTORS
330
1A
102
}
330
1A
100
AcDbPlotSettings
  1

  2
none_device
  4

  6

 40
0.0
 41
0.0
 42
0.0
 43
0.0
 44
0.0
 45
0.0
 46
0.0
 47
0.0
 48
0.0
 49
0.0
140
0.0
141
0.0
142
1.0
143
1.0
 70
   688
 72
     0
 73
     0
 74
     5
  7

 75
    16
 76
     0
 77
     2
 78
   300
147
1.0
148
0.0
149
0.0
100
AcDbLayout
  1
Layout2
 70
     1
 71
     2
 10
0.0
 20
0.0
 11
0.0
 21
0.0
 12
0.0
 22
0.0
 32
0.0
 14
0.0
 24
0.0
 34
0.0
 15
0.0
 25
0.0
 35
0.0
146
0.0
 13
0.0
 23
0.0
 33
0.0
 16
1.0
 26
0.0
 36
0.0
 17
0.0
 27
1.0
 37
0.0
 76
     0
330
23
  0
LAYOUT
  5
22
102
{ACAD_REACTORS
330
1A
102
}
330
1A
100
AcDbPlotSettings
  1

  2
none_device
  4
Letter_(8.50_x_11.00_Inches)
  6

 40
6.35
 41
6.35
 42
6.35000508
 43
6.35000508
 44
215.9
 45
279.4
 46
0.0
 47
0.0
 48
0.0
 49
0.0
140
0.0
141
0.0
142
1.0
143
1.0
 70
  1712
 72
     0
 73
     0
 74
     0
  7

 75
     0
 76
     0
 77
     2
 78
   300
147
1.0
148
0.0
149
0.0
100
AcDbLayout
  1
Model
 70
     1
 71
     0
 10
0.0
 20
0.0
 11
12.0
 21
9.0
 12
0.0
 22
0.0
 32
0.0
 14
1.000000000000000E+20
 24
1.000000000000000E+20
 34
1.000000000000000E+20
 15
-1.000000000000000E+20
 25
-1.000000000000000E+20
 35
-1.000000000000000E+20
146
0.0
 13
0.0
 23
0.0
 33
0.0
 16
1.0
 26
0.0
 36
0.0
 17
0.0
 27
1.0
 37
0.0
 76
     0
330
1F
331
29
  0
MATERIAL
  5
45
102
{ACAD_REACTORS
330
43
102
}
330
43
100
AcDbMaterial
  1
ByBlock
 72
     1
 94
      127
  0
MATERIAL
  5
44
102
{ACAD_REACTORS
330
43
102
}
330
43
100
AcDbMaterial
  1
ByLayer
 72
     1
 94
      127
  0
MATERIAL
  5
46
102
{ACAD_REACTORS
330
43
102
}
330
43
100
AcDbMaterial
  1
Global
 72
     1
 94
      127
  0
MLEADERSTYLE
  5
6C
102
{ACAD_REACTORS
330
6B
102
}
330
6B
100
AcDbMLeaderStyle
179
     2
170
     2
171
     1
172
     0
 90
        2
 40
0.0
 41
0.0
173
     1
 91
-1056964608
340
14
 92
       -2
290
     1
 42
0.09
291
     1
 43
0.36
  3
Standard
341
0
 44
0.18
300

342
11
174
     1
178
     6
175
     1
176
     0
 93
-1056964608
 45
0.18
292
     0
297
     0
 46
0.18
343
0
 94
-1056964608
 47
1.0
 49
1.0
140
1.0
293
     1
141
0.0
294
     1
177
     0
142
1.0
295
     0
296
     0
143
0.125
271
     0
272
     9
273
     9
298
     0
  0
MLINESTYLE
  5
18
102
{ACAD_REACTORS
330
17
102
}
330
17
100
AcDbMlineStyle
  2
Standard
 70
     0
  3

 62
   256
 51
90.0
 52
90.0
 71
     2
 49
0.5
 62
   256
  6
BYLAYER
 49
-0.5
 62
   256
  6
BYLAYER
  0
ACDBPLACEHOLDER
  5
F
102
{ACAD_REACTORS
330
E
102
}
330
E
  0
SCALE
  5
48
102
{ACAD_REACTORS
330
47
102
}
330
47
100
AcDbScale
 70
     0
300
1:1
140
1.0
141
1.0
290
     1
  0
SCALE
  5
49
102
{ACAD_REACTORS
330
47
102
}
330
47
100
AcDbScale
 70
     0
300
1:2
140
1.0
141
2.0
290
     0
  0
SCALE
  5
4A
102
{ACAD_REACTORS
330
47
102
}
330
47
100
AcDbScale
 70
     0
300
1:4
140
1.0
141
4.0
290
     0
  0
SCALE
  5
4B
102
{ACAD_REACTORS
330
47
102
}
330
47
100
AcDbScale
 70
     0
300
1:5
140
1.0
141
5.0
290
     0
  0
SCALE
  5
4C
102
{ACAD_REACTORS
330
47
102
}
330
47
100
AcDbScale
 70
     0
300
1:8
140
1.0
141
8.0
290
     0
  0
SCALE
  5
4D
102
{ACAD_REACTORS
330
47
102
}
330
47
100
AcDbScale
 70
     0
300
1:10
140
1.0
141
10.0
290
     0
  0
SCALE
  5
4E
102
{ACAD_REACTORS
330
47
102
}
330
47
100
AcDbScale
 70
     0
300
1:16
140
1.0
141
16.0
290
     0
  0
SCALE
  5
4F
102
{ACAD_REACTORS
330
47
102
}
330
47
100
AcDbScale
 70
     0
300
1:20
140
1.0
141
20.0
290
     0
  0
SCALE
  5
50
102
{ACAD_REACTORS
330
47
102
}
330
47
100
AcDbScale
 70
     0
300
1:30
140
1.0
141
30.0
290
     0
  0
SCALE
  5
51
102
{ACAD_REACTORS
330
47
102
}
330
47
100
AcDbScale
 70
     0
300
1:40
140
1.0
141
40.0
290
     0
  0
SCALE
  5
52
102
{ACAD_REACTORS
330
47
102
}
330
47
100
AcDbScale
 70
     0
300
1:50
140
1.0
141
50.0
290
     0
  0
SCALE
  5
53
102
{ACAD_REACTORS
330
47
102
}
330
47
100
AcDbScale
 70
     0
300
1:100
140
1.0
141
100.0
290
     0
  0
SCALE
  5
54
102
{ACAD_REACTORS
330
47
102
}
330
47
100
AcDbScale
 70
     0
300
2:1
140
2.0
141
1.0
290
     0
  0
SCALE
  5
55
102
{ACAD_REACTORS
330
47
102
}
330
47
100
AcDbScale
 70
     0
300
4:1
140
4.0
141
1.0
290
     0
  0
SCALE
  5
56
102
{ACAD_REACTORS
330
47
102
}
330
47
100
AcDbScale
 70
     0
300
8:1
140
8.0
141
1.0
290
     0
  0
SCALE
  5
57
102
{ACAD_REACTORS
330
47
102
}
330
47
100
AcDbScale
 70
     0
300
10:1
140
10.0
141
1.0
290
     0
  0
SCALE
  5
58
102
{ACAD_REACTORS
330
47
102
}
330
47
100
AcDbScale
 70
     0
300
100:1
140
100.0
141
1.0
290
     0
  0
SCALE
  5
59
102
{ACAD_REACTORS
330
47
102
}
330
47
100
AcDbScale
 70
     0
300
1/128" = 1'-0"
140
0.0078125
141
12.0
290
     0
  0
SCALE
  5
5A
102
{ACAD_REACTORS
330
47
102
}
330
47
100
AcDbScale
 70
     0
300
1/64" = 1'-0"
140
0.015625
141
12.0
290
     0
  0
SCALE
  5
5B
102
{ACAD_REACTORS
330
47
102
}
330
47
100
AcDbScale
 70
     0
300
1/32" = 1'-0"
140
0.03125
141
12.0
290
     0
  0
SCALE
  5
5C
102
{ACAD_REACTORS
330
47
102
}
330
47
100
AcDbScale
 70
     0
300
1/16" = 1'-0"
140
0.0625
141
12.0
290
     0
  0
SCALE
  5
5D
102
{ACAD_REACTORS
330
47
102
}
330
47
100
AcDbScale
 70
     0
300
3/32" = 1'-0"
140
0.09375
141
12.0
290
     0
  0
SCALE
  5
5E
102
{ACAD_REACTORS
330
47
102
}
330
47
100
AcDbScale
 70
     0
300
1/8" = 1'-0"
140
0.125
141
12.0
290
     0
  0
SCALE
  5
5F
102
{ACAD_REACTORS
330
47
102
}
330
47
100
AcDbScale
 70
     0
300
3/16" = 1'-0"
140
0.1875
141
12.0
290
     0
  0
SCALE
  5
60
102
{ACAD_REACTORS
330
47
102
}
330
47
100
AcDbScale
 70
     0
300
1/4" = 1'-0"
140
0.25
141
12.0
290
     0
  0
SCALE
  5
61
102
{ACAD_REACTORS
330
47
102
}
330
47
100
AcDbScale
 70
     0
300
3/8" = 1'-0"
140
0.375
141
12.0
290
     0
  0
SCALE
  5
62
102
{ACAD_REACTORS
330
47
102
}
330
47
100
AcDbScale
 70
     0
300
1/2" = 1'-0"
140
0.5
141
12.0
290
     0
  0
SCALE
  5
63
102
{ACAD_REACTORS
330
47
102
}
330
47
100
AcDbScale
 70
     0
300
3/4" = 1'-0"
140
0.75
141
12.0
290
     0
  0
SCALE
  5
64
102
{ACAD_REACTORS
330
47
102
}
330
47
100
AcDbScale
 70
     0
300
1" = 1'-0"
140
1.0
141
12.0
290
     0
  0
SCALE
  5
65
102
{ACAD_REACTORS
330
47
102
}
330
47
100
AcDbScale
 70
     0
300
1-1/2" = 1'-0"
140
1.5
141
12.0
290
     0
  0
SCALE
  5
66
102
{ACAD_REACTORS
330
47
102
}
330
47
100
AcDbScale
 70
     0
300
3" = 1'-0"
140
3.0
141
12.0
290
     0
  0
SCALE
  5
67
102
{ACAD_REACTORS
330
47
102
}
330
47
100
AcDbScale
 70
     0
300
6" = 1'-0"
140
6.0
141
12.0
290
     0
  0
SCALE
  5
68
102
{ACAD_REACTORS
330
47
102
}
330
47
100
AcDbScale
 70
     0
300
1'-0" = 1'-0"
140
12.0
141
12.0
290
     0
  0
TABLESTYLE
  5
6A
102
{ACAD_REACTORS
330
69
102
}
102
{ACAD_XDICTIONARY
360
17C
102
}
330
69
100
AcDbTableStyle
  3
Standard
 70
     0
 71
     0
 40
0.06
 41
0.06
280
     0
281
     0
  7
Standard
140
0.18
170
     2
 62
     0
 63
   257
283
     0
 90
        4
 91
        0
  1

274
    -2
284
     1
 64
     0
275
    -2
285
     1
 65
     0
276
    -2
286
     1
 66
     0
277
    -2
287
     1
 67
     0
278
    -2
288
     1
 68
     0
279
    -2
289
     1
 69
     0
  7
Standard
140
0.25
170
     5
 62
     0
 63
   257
283
     0
 90
        4
 91
        0
  1

274
    -2
284
     1
 64
     0
275
    -2
285
     1
 65
     0
276
    -2
286
     1
 66
     0
277
    -2
287
     1
 67
     0
278
    -2
288
     1
 68
     0
279
    -2
289
     1
 69
     0
  7
Standard
140
0.18
170
     5
 62
     0
 63
   257
283
     0
 90
        4
 91
        0
  1

274
    -2
284
     1
 64
     0
275
    -2
285
     1
 65
     0
276
    -2
286
     1
 66
     0
277
    -2
287
     1
 67
     0
278
    -2
288
     1
 68
     0
279
    -2
289
     1
 69
     0
  0
VISUALSTYLE
  5
2F
102
{ACAD_REACTORS
330
2A
102
}
330
2A
100
AcDbVisualStyle
  2
2dWireframe
 70
     4
177
     3
291
     0
 70
    58
 90
        0
176
     1
 90
        2
176
     1
 90
        0
176
     1
 90
        0
176
     1
 40
0.6
176
     1
 40
30.0
176
     1
 62
     7
420
 16777215
176
     1
 90
        1
176
     1
 90
        4
176
     1
 62
     7
176
     1
 62
   257
176
     1
 90
        1
176
     1
 90
        1
176
     1
 40
1.0
176
     1
 90
        0
176
     1
 62
   257
176
     1
 40
1.0
176
     1
 90
        1
176
     1
 90
        6
176
     1
 90
        2
176
     1
 62
     7
176
     1
 90
        5
176
     1
 90
        0
176
     1
 90
        0
176
     1
290
     0
176
     1
 90
        1
176
     1
 40
0.0
176
     1
 90
        0
176
     1
290
     1
176
     1
290
     1
176
     1
290
     0
176
     1
290
     0
176
     1
290
     0
176
     1
290
     0
176
     1
290
     0
176
     1
290
     0
176
     1
290
     0
176
     1
 90
       50
176
     1
 40
0.0
176
     1
 40
1.0
176
     1
 90
        0
176
     1
 62
    18
420
        0
176
     1
 90
       50
176
     1
 90
        3
176
     1
 62
     5
420
      255
176
     1
290
     0
176
     1
 90
       50
176
     1
 90
       50
176
     1
 90
       50
176
     1
290
     0
176
     1
 90
       50
176
     1
 62
   256
176
     0
 40
1.0
176
     0
 90
        2
176
     1
  1
strokes_ogs.tif
176
     1
290
     0
176
     1
 40
1.0
176
     1
 40
1.0
176
     1
  0
VISUALSTYLE
  5
32
102
{ACAD_REACTORS
330
2A
102
}
330
2A
100
AcDbVisualStyle
  2
Basic
 70
     7
177
     3
291
     1
 70
    58
 90
        1
176
     1
 90
        0
176
     1
 90
        1
176
     1
 90
        0
176
     1
 40
0.6
176
     1
 40
30.0
176
     1
 62
     7
420
 16777215
176
     1
 90
        0
176
     1
 90
        4
176
     1
 62
     7
176
     1
 62
   257
176
     1
 90
        1
176
     1
 90
        1
176
     1
 40
1.0
176
     1
 90
        8
176
     1
 62
     7
176
     1
 40
1.0
176
     1
 90
        1
176
     1
 90
        6
176
     1
 90
        2
176
     1
 62
     7
176
     1
 90
        5
176
     1
 90
        0
176
     1
 90
        0
176
     1
290
     0
176
     1
 90
        1
176
     1
 40
0.0
176
     1
 90
        0
176
     1
290
     0
176
     1
290
     1
176
     1
290
     1
176
     1
290
     0
176
     1
290
     0
176
     1
290
     0
176
     1
290
     0
176
     1
290
     0
176
     1
290
     0
176
     1
 90
       50
176
     1
 40
0.0
176
     1
 40
1.0
176
     1
 90
        0
176
     1
 62
    18
420
        0
176
     1
 90
       50
176
     1
 90
        3
176
     1
 62
     5
420
      255
176
     1
290
     0
176
     1
 90
       50
176
     1
 90
       50
176
     1
 90
       50
176
     1
290
     0
176
     1
 90
       50
176
     1
 62
   256
176
     0
 40
1.0
176
     0
 90
        2
176
     1
  1
strokes_ogs.tif
176
     1
290
     0
176
     1
 40
1.0
176
     1
 40
1.0
176
     1
  0
VISUALSTYLE
  5
36
102
{ACAD_REACTORS
330
2A
102
}
330
2A
100
AcDbVisualStyle
  2
Brighten
 70
    12
177
     3
291
     1
 70
    58
 90
        2
176
     1
 90
        2
176
     1
 90
        0
176
     1
 90
        0
176
     1
 40
0.6
176
     1
 40
30.0
176
     1
 62
     7
420
 16777215
176
     1
 90
        1
176
     1
 90
        4
176
     1
 62
     7
176
     1
 62
   257
176
     1
 90
        1
176
     1
 90
        1
176
     1
 40
1.0
176
     1
 90
        8
176
     1
 62
     7
176
     1
 40
1.0
176
     1
 90
        1
176
     1
 90
        6
176
     1
 90
        2
176
     1
 62
     7
176
     1
 90
        5
176
     1
 90
        0
176
     1
 90
        0
176
     1
290
     0
176
     1
 90
        1
176
     1
 40
50.0
176
     1
 90
        0
176
     1
290
     0
176
     1
290
     1
176
     1
290
     1
176
     1
290
     0
176
     1
290
     0
176
     1
290
     0
176
     1
290
     0
176
     1
290
     0
176
     1
290
     0
176
     1
 90
       50
176
     1
 40
0.0
176
     1
 40
1.0
176
     1
 90
        0
176
     1
 62
    18
420
        0
176
     1
 90
       50
176
     1
 90
        3
176
     1
 62
     5
420
      255
176
     1
290
     0
176
     1
 90
       50
176
     1
 90
       50
176
     1
 90
       50
176
     1
290
     0
176
     1
 90
       50
176
     1
 62
   256
176
     0
 40
1.0
176
     0
 90
        2
176
     1
  1
strokes_ogs.tif
176
     1
290
     0
176
     1
 40
1.0
176
     1
 40
1.0
176
     1
  0
VISUALSTYLE
  5
3A
102
{ACAD_REACTORS
330
2A
102
}
330
2A
100
AcDbVisualStyle
  2
ColorChange
 70
    16
177
     3
291
     1
 70
    58
 90
        2
176
     1
 90
        2
176
     1
 90
        3
176
     1
 90
        0
176
     1
 40
0.6
176
     1
 40
30.0
176
     1
 62
     8
420
  8421504
176
     1
 90
        1
176
     1
 90
        4
176
     1
 62
     7
176
     1
 62
   257
176
     1
 90
        1
176
     1
 90
        1
176
     1
 40
1.0
176
     1
 90
        8
176
     1
 62
     8
420
  8421504
176
     1
 40
1.0
176
     1
 90
        1
176
     1
 90
        6
176
     1
 90
        2
176
     1
 62
     7
176
     1
 90
        5
176
     1
 90
        0
176
     1
 90
        0
176
     1
290
     0
176
     1
 90
        1
176
     1
 40
0.0
176
     1
 90
        0
176
     1
290
     0
176
     1
290
     1
176
     1
290
     1
176
     1
290
     0
176
     1
290
     0
176
     1
290
     0
176
     1
290
     0
176
     1
290
     0
176
     1
290
     0
176
     1
 90
       50
176
     1
 40
0.0
176
     1
 40
1.0
176
     1
 90
        0
176
     1
 62
    18
420
        0
176
     1
 90
       50
176
     1
 90
        3
176
     1
 62
     5
420
      255
176
     1
290
     0
176
     1
 90
       50
176
     1
 90
       50
176
     1
 90
       50
176
     1
290
     0
176
     1
 90
       50
176
     1
 62
   256
176
     0
 40
1.0
176
     0
 90
        2
176
     1
  1
strokes_ogs.tif
176
     1
290
     0
176
     1
 40
1.0
176
     1
 40
1.0
176
     1
  0
VISUALSTYLE
  5
34
102
{ACAD_REACTORS
330
2A
102
}
330
2A
100
AcDbVisualStyle
  2
Conceptual
 70
     9
177
     3
291
     0
 70
    58
 90
        3
176
     1
 90
        2
176
     1
 90
        0
176
     1
 90
        0
176
     1
 40
0.6
176
     1
 40
30.0
176
     1
 62
     7
420
 16777215
176
     1
 90
        2
176
     1
 90
        2
176
     1
 62
     7
176
     1
 62
   257
176
     1
 90
        1
176
     1
 90
        1
176
     1
 40
179.0
176
     1
 90
        8
176
     1
 62
     7
176
     1
 40
1.0
176
     1
 90
        1
176
     1
 90
        6
176
     1
 90
        2
176
     1
 62
     7
176
     1
 90
        3
176
     1
 90
        0
176
     1
 90
        0
176
     1
290
     0
176
     1
 90
        1
176
     1
 40
0.0
176
     1
 90
        0
176
     1
290
     0
176
     1
290
     1
176
     1
290
     1
176
     1
290
     0
176
     1
290
     0
176
     1
290
     0
176
     1
290
     0
176
     1
290
     0
176
     1
290
     0
176
     1
 90
       50
176
     1
 40
0.0
176
     1
 40
1.0
176
     1
 90
        0
176
     1
 62
    18
420
        0
176
     1
 90
       50
176
     1
 90
        3
176
     1
 62
     5
420
      255
176
     1
290
     0
176
     1
 90
       50
176
     1
 90
       50
176
     1
 90
       50
176
     1
290
     0
176
     1
 90
       50
176
     1
 62
   256
176
     0
 40
1.0
176
     0
 90
        2
176
     1
  1
strokes_ogs.tif
176
     1
290
     0
176
     1
 40
1.0
176
     1
 40
1.0
176
     1
  0
VISUALSTYLE
  5
35
102
{ACAD_REACTORS
330
2A
102
}
330
2A
100
AcDbVisualStyle
  2
Dim
 70
    11
177
     3
291
     1
 70
    58
 90
        2
176
     1
 90
        2
176
     1
 90
        0
176
     1
 90
        0
176
     1
 40
0.6
176
     1
 40
30.0
176
     1
 62
     7
420
 16777215
176
     1
 90
        1
176
     1
 90
        4
176
     1
 62
     7
176
     1
 62
   257
176
     1
 90
        1
176
     1
 90
        1
176
     1
 40
1.0
176
     1
 90
        8
176
     1
 62
     7
176
     1
 40
1.0
176
     1
 90
        1
176
     1
 90
        6
176
     1
 90
        2
176
     1
 62
     7
176
     1
 90
        5
176
     1
 90
        0
176
     1
 90
        0
176
     1
290
     0
176
     1
 90
        1
176
     1
 40
-50.0
176
     1
 90
        0
176
     1
290
     0
176
     1
290
     1
176
     1
290
     1
176
     1
290
     0
176
     1
290
     0
176
     1
290
     0
176
     1
290
     0
176
     1
290
     0
176
     1
290
     0
176
     1
 90
       50
176
     1
 40
0.0
176
     1
 40
1.0
176
     1
 90
        0
176
     1
 62
    18
420
        0
176
     1
 90
       50
176
     1
 90
        3
176
     1
 62
     5
420
      255
176
     1
290
     0
176
     1
 90
       50
176
     1
 90
       50
176
     1
 90
       50
176
     1
290
     0
176
     1
 90
       50
176
     1
 62
   256
176
     0
 40
1.0
176
     0
 90
        2
176
     1
  1
strokes_ogs.tif
176
     1
290
     0
176
     1
 40
1.0
176
     1
 40
1.0
176
     1
  0
VISUALSTYLE
  5
3D
102
{ACAD_REACTORS
330
2A
102
}
330
2A
100
AcDbVisualStyle
  2
EdgeColorOff
 70
    22
177
     3
291
     1
 70
    58
 90
        2
176
     0
 90
        2
176
     0
 90
        0
176
     0
 90
        0
176
     0
 40
0.6
176
     0
 40
30.0
176
     0
 62
     7
420
 16777215
176
     0
 90
        1
176
     0
 90
        4
176
     0
 62
     7
176
     0
 62
   257
176
     0
 90
        1
176
     0
 90
        1
176
     0
 40
1.0
176
     0
 90
        8
176
     2
 62
     7
176
     0
 40
1.0
176
     0
 90
        1
176
     0
 90
        6
176
     0
 90
        2
176
     0
 62
     7
176
     0
 90
        5
176
     0
 90
        0
176
     0
 90
        0
176
     0
290
     0
176
     0
 90
        1
176
     0
 40
0.0
176
     0
 90
        0
176
     0
290
     0
176
     0
290
     1
176
     0
290
     1
176
     0
290
     0
176
     0
290
     0
176
     0
290
     0
176
     0
290
     0
176
     0
290
     0
176
     0
290
     0
176
     0
 90
       50
176
     0
 40
0.0
176
     0
 40
1.0
176
     0
 90
        0
176
     0
 62
    18
420
        0
176
     0
 90
       50
176
     0
 90
        3
176
     0
 62
     5
420
      255
176
     0
290
     0
176
     0
 90
       50
176
     0
 90
       50
176
     0
 90
       50
176
     0
290
     0
176
     0
 90
       50
176
     0
 62
   256
176
     0
 40
1.0
176
     0
 90
        2
176
     0
  1
strokes_ogs.tif
176
     0
290
     0
176
     0
 40
1.0
176
     0
 40
1.0
176
     0
  0
VISUALSTYLE
  5
39
102
{ACAD_REACTORS
330
2A
102
}
330
2A
100
AcDbVisualStyle
  2
Facepattern
 70
    15
177
     3
291
     1
 70
    58
 90
        2
176
     1
 90
        2
176
     1
 90
        0
176
     1
 90
        0
176
     1
 40
0.6
176
     1
 40
30.0
176
     1
 62
     7
420
 16777215
176
     1
 90
        1
176
     1
 90
        4
176
     1
 62
     7
176
     1
 62
   257
176
     1
 90
        1
176
     1
 90
        1
176
     1
 40
1.0
176
     1
 90
        8
176
     1
 62
     7
176
     1
 40
1.0
176
     1
 90
        1
176
     1
 90
        6
176
     1
 90
        2
176
     1
 62
     7
176
     1
 90
        5
176
     1
 90
        0
176
     1
 90
        0
176
     1
290
     0
176
     1
 90
        1
176
     1
 40
0.0
176
     1
 90
        0
176
     1
290
     0
176
     1
290
     1
176
     1
290
     1
176
     1
290
     0
176
     1
290
     0
176
     1
290
     0
176
     1
290
     0
176
     1
290
     0
176
     1
290
     0
176
     1
 90
       50
176
     1
 40
0.0
176
     1
 40
1.0
176
     1
 90
        0
176
     1
 62
    18
420
        0
176
     1
 90
       50
176
     1
 90
        3
176
     1
 62
     5
420
      255
176
     1
290
     0
176
     1
 90
       50
176
     1
 90
       50
176
     1
 90
       50
176
     1
290
     0
176
     1
 90
       50
176
     1
 62
   256
176
     0
 40
1.0
176
     0
 90
        2
176
     1
  1
strokes_ogs.tif
176
     1
290
     0
176
     1
 40
1.0
176
     1
 40
1.0
176
     1
  0
VISUALSTYLE
  5
2B
102
{ACAD_REACTORS
330
2A
102
}
330
2A
100
AcDbVisualStyle
  2
Flat
 70
     0
177
     3
291
     1
 70
    58
 90
        2
176
     1
 90
        1
176
     1
 90
        1
176
     1
 90
        2
176
     1
 40
0.6
176
     1
 40
30.0
176
     1
 62
     7
420
 16777215
176
     1
 90
        0
176
     1
 90
        0
176
     1
 62
     7
176
     1
 62
   257
176
     1
 90
        1
176
     1
 90
        1
176
     1
 40
1.0
176
     1
 90
        8
176
     1
 62
     7
176
     1
 40
1.0
176
     1
 90
        1
176
     1
 90
        6
176
     1
 90
        2
176
     1
 62
     7
176
     1
 90
        5
176
     1
 90
        0
176
     1
 90
        0
176
     1
290
     0
176
     1
 90
       13
176
     1
 40
0.0
176
     1
 90
        0
176
     1
290
     0
176
     1
290
     1
176
     1
290
     1
176
     1
290
     0
176
     1
290
     0
176
     1
290
     0
176
     1
290
     0
176
     1
290
     0
176
     1
290
     0
176
     1
 90
       50
176
     1
 40
0.0
176
     1
 40
1.0
176
     1
 90
        0
176
     1
 62
    18
420
        0
176
     1
 90
       50
176
     1
 90
        3
176
     1
 62
     5
420
      255
176
     1
290
     0
176
     1
 90
       50
176
     1
 90
       50
176
     1
 90
       50
176
     1
290
     0
176
     1
 90
       50
176
     1
 62
   256
176
     0
 40
1.0
176
     0
 90
        2
176
     1
  1
strokes_ogs.tif
176
     1
290
     0
176
     1
 40
1.0
176
     1
 40
1.0
176
     1
  0
VISUALSTYLE
  5
2C
102
{ACAD_REACTORS
330
2A
102
}
330
2A
100
AcDbVisualStyle
  2
FlatWithEdges
 70
     1
177
     3
291
     1
 70
    58
 90
        2
176
     1
 90
        1
176
     1
 90
        1
176
     1
 90
        2
176
     1
 40
0.6
176
     1
 40
30.0
176
     1
 62
     7
420
 16777215
176
     1
 90
        1
176
     1
 90
        0
176
     1
 62
     7
176
     1
 62
   257
176
     1
 90
        1
176
     1
 90
        1
176
     1
 40
1.0
176
     1
 90
        0
176
     1
 62
   257
176
     1
 40
1.0
176
     1
 90
        1
176
     1
 90
        6
176
     1
 90
        2
176
     1
 62
     7
176
     1
 90
        5
176
     1
 90
        0
176
     1
 90
        0
176
     1
290
     0
176
     1
 90
       13
176
     1
 40
0.0
176
     1
 90
        0
176
     1
290
     0
176
     1
290
     1
176
     1
290
     1
176
     1
290
     0
176
     1
290
     0
176
     1
290
     0
176
     1
290
     0
176
     1
290
     0
176
     1
290
     0
176
     1
 90
       50
176
     1
 40
0.0
176
     1
 40
1.0
176
     1
 90
        0
176
     1
 62
    18
420
        0
176
     1
 90
       50
176
     1
 90
        3
176
     1
 62
     5
420
      255
176
     1
290
     0
176
     1
 90
       50
176
     1
 90
       50
176
     1
 90
       50
176
     1
290
     0
176
     1
 90
       50
176
     1
 62
   256
176
     0
 40
1.0
176
     0
 90
        2
176
     1
  1
strokes_ogs.tif
176
     1
290
     0
176
     1
 40
1.0
176
     1
 40
1.0
176
     1
  0
VISUALSTYLE
  5
2D
102
{ACAD_REACTORS
330
2A
102
}
330
2A
100
AcDbVisualStyle
  2
Gouraud
 70
     2
177
     3
291
     1
 70
    58
 90
        2
176
     1
 90
        2
176
     1
 90
        1
176
     1
 90
        2
176
     1
 40
0.6
176
     1
 40
30.0
176
     1
 62
     7
420
 16777215
176
     1
 90
        0
176
     1
 90
        0
176
     1
 62
     7
176
     1
 62
   257
176
     1
 90
        1
176
     1
 90
        1
176
     1
 40
1.0
176
     1
 90
        0
176
     1
 62
     7
176
     1
 40
1.0
176
     1
 90
        1
176
     1
 90
        6
176
     1
 90
        2
176
     1
 62
     7
176
     1
 90
        5
176
     1
 90
        0
176
     1
 90
        0
176
     1
290
     0
176
     1
 90
       13
176
     1
 40
0.0
176
     1
 90
        0
176
     1
290
     0
176
     1
290
     1
176
     1
290
     1
176
     1
290
     0
176
     1
290
     0
176
     1
290
     0
176
     1
290
     0
176
     1
290
     0
176
     1
290
     0
176
     1
 90
       50
176
     1
 40
0.0
176
     1
 40
1.0
176
     1
 90
        0
176
     1
 62
    18
420
        0
176
     1
 90
       50
176
     1
 90
        3
176
     1
 62
     5
420
      255
176
     1
290
     0
176
     1
 90
       50
176
     1
 90
       50
176
     1
 90
       50
176
     1
290
     0
176
     1
 90
       50
176
     1
 62
   256
176
     0
 40
1.0
176
     0
 90
        2
176
     1
  1
strokes_ogs.tif
176
     1
290
     0
176
     1
 40
1.0
176
     1
 40
1.0
176
     1
  0
VISUALSTYLE
  5
2E
102
{ACAD_REACTORS
330
2A
102
}
330
2A
100
AcDbVisualStyle
  2
GouraudWithEdges
 70
     3
177
     3
291
     1
 70
    58
 90
        2
176
     1
 90
        2
176
     1
 90
        1
176
     1
 90
        2
176
     1
 40
0.6
176
     1
 40
30.0
176
     1
 62
     7
420
 16777215
176
     1
 90
        1
176
     1
 90
        0
176
     1
 62
     7
176
     1
 62
   257
176
     1
 90
        1
176
     1
 90
        1
176
     1
 40
1.0
176
     1
 90
        0
176
     1
 62
   257
176
     1
 40
1.0
176
     1
 90
        1
176
     1
 90
        6
176
     1
 90
        2
176
     1
 62
     7
176
     1
 90
        5
176
     1
 90
        0
176
     1
 90
        0
176
     1
290
     0
176
     1
 90
       13
176
     1
 40
0.0
176
     1
 90
        0
176
     1
290
     0
176
     1
290
     1
176
     1
290
     1
176
     1
290
     0
176
     1
290
     0
176
     1
290
     0
176
     1
290
     0
176
     1
290
     0
176
     1
290
     0
176
     1
 90
       50
176
     1
 40
0.0
176
     1
 40
1.0
176
     1
 90
        0
176
     1
 62
    18
420
        0
176
     1
 90
       50
176
     1
 90
        3
176
     1
 62
     5
420
      255
176
     1
290
     0
176
     1
 90
       50
176
     1
 90
       50
176
     1
 90
       50
176
     1
290
     0
176
     1
 90
       50
176
     1
 62
   256
176
     0
 40
1.0
176
     0
 90
        2
176
     1
  1
strokes_ogs.tif
176
     1
290
     0
176
     1
 40
1.0
176
     1
 40
1.0
176
     1
  0
VISUALSTYLE
  5
31
102
{ACAD_REACTORS
330
2A
102
}
330
2A
100
AcDbVisualStyle
  2
Hidden
 70
     6
177
     3
291
     0
 70
    58
 90
        1
176
     1
 90
        2
176
     1
 90
        2
176
     1
 90
        0
176
     1
 40
0.6
176
     1
 40
30.0
176
     1
 62
     7
420
 16777215
176
     1
 90
        2
176
     1
 90
        2
176
     1
 62
     7
176
     1
 62
   257
176
     1
 90
        2
176
     1
 90
        1
176
     1
 40
40.0
176
     1
 90
        0
176
     1
 62
   257
176
     1
 40
1.0
176
     1
 90
        1
176
     1
 90
        6
176
     1
 90
        2
176
     1
 62
     7
176
     1
 90
        3
176
     1
 90
        0
176
     1
 90
        0
176
     1
290
     0
176
     1
 90
        1
176
     1
 40
0.0
176
     1
 90
        0
176
     1
290
     0
176
     1
290
     1
176
     1
290
     1
176
     1
290
     0
176
     1
290
     0
176
     1
290
     0
176
     1
290
     0
176
     1
290
     0
176
     1
290
     0
176
     1
 90
       50
176
     1
 40
0.0
176
     1
 40
1.0
176
     1
 90
        0
176
     1
 62
    18
420
        0
176
     1
 90
       50
176
     1
 90
        3
176
     1
 62
     5
420
      255
176
     1
290
     0
176
     1
 90
       50
176
     1
 90
       50
176
     1
 90
       50
176
     1
290
     0
176
     1
 90
       50
176
     1
 62
   256
176
     0
 40
1.0
176
     0
 90
        2
176
     1
  1
strokes_ogs.tif
176
     1
290
     0
176
     1
 40
1.0
176
     1
 40
1.0
176
     1
  0
VISUALSTYLE
  5
3B
102
{ACAD_REACTORS
330
2A
102
}
330
2A
100
AcDbVisualStyle
  2
JitterOff
 70
    20
177
     3
291
     1
 70
    58
 90
        2
176
     0
 90
        2
176
     0
 90
        0
176
     0
 90
        0
176
     0
 40
0.6
176
     0
 40
30.0
176
     0
 62
     7
420
 16777215
176
     0
 90
        1
176
     0
 90
        4
176
     0
 62
     7
176
     0
 62
   257
176
     0
 90
        1
176
     0
 90
        1
176
     0
 40
1.0
176
     0
 90
       10
176
     2
 62
     7
176
     0
 40
1.0
176
     0
 90
        1
176
     0
 90
        6
176
     0
 90
        2
176
     0
 62
     7
176
     0
 90
        5
176
     0
 90
        0
176
     0
 90
        0
176
     0
290
     0
176
     0
 90
        1
176
     0
 40
0.0
176
     0
 90
        0
176
     0
290
     0
176
     0
290
     1
176
     0
290
     1
176
     0
290
     0
176
     0
290
     0
176
     0
290
     0
176
     0
290
     0
176
     0
290
     0
176
     0
290
     0
176
     0
 90
       50
176
     0
 40
0.0
176
     0
 40
1.0
176
     0
 90
        0
176
     0
 62
    18
420
        0
176
     0
 90
       50
176
     0
 90
        3
176
     0
 62
     5
420
      255
176
     0
290
     0
176
     0
 90
       50
176
     0
 90
       50
176
     0
 90
       50
176
     0
290
     0
176
     0
 90
       50
176
     0
 62
   256
176
     0
 40
1.0
176
     0
 90
        2
176
     0
  1
strokes_ogs.tif
176
     0
290
     0
176
     0
 40
1.0
176
     0
 40
1.0
176
     0
  0
VISUALSTYLE
  5
38
102
{ACAD_REACTORS
330
2A
102
}
330
2A
100
AcDbVisualStyle
  2
Linepattern
 70
    14
177
     3
291
     1
 70
    58
 90
        2
176
     1
 90
        2
176
     1
 90
        0
176
     1
 90
        0
176
     1
 40
0.6
176
     1
 40
30.0
176
     1
 62
     7
420
 16777215
176
     1
 90
        1
176
     1
 90
        4
176
     1
 62
     7
176
     1
 62
   257
176
     1
 90
        7
176
     1
 90
        7
176
     1
 40
1.0
176
     1
 90
        8
176
     1
 62
     7
176
     1
 40
1.0
176
     1
 90
        1
176
     1
 90
        6
176
     1
 90
        2
176
     1
 62
     7
176
     1
 90
        5
176
     1
 90
        0
176
     1
 90
        0
176
     1
290
     0
176
     1
 90
        1
176
     1
 40
0.0
176
     1
 90
        0
176
     1
290
     0
176
     1
290
     1
176
     1
290
     1
176
     1
290
     0
176
     1
290
     0
176
     1
290
     0
176
     1
290
     0
176
     1
290
     0
176
     1
290
     0
176
     1
 90
       50
176
     1
 40
0.0
176
     1
 40
1.0
176
     1
 90
        0
176
     1
 62
    18
420
        0
176
     1
 90
       50
176
     1
 90
        3
176
     1
 62
     5
420
      255
176
     1
290
     0
176
     1
 90
       50
176
     1
 90
       50
176
     1
 90
       50
176
     1
290
     0
176
     1
 90
       50
176
     1
 62
   256
176
     0
 40
1.0
176
     0
 90
        2
176
     1
  1
strokes_ogs.tif
176
     1
290
     0
176
     1
 40
1.0
176
     1
 40
1.0
176
     1
  0
VISUALSTYLE
  5
3C
102
{ACAD_REACTORS
330
2A
102
}
330
2A
100
AcDbVisualStyle
  2
OverhangOff
 70
    21
177
     3
291
     1
 70
    58
 90
        2
176
     0
 90
        2
176
     0
 90
        0
176
     0
 90
        0
176
     0
 40
0.6
176
     0
 40
30.0
176
     0
 62
     7
420
 16777215
176
     0
 90
        1
176
     0
 90
        4
176
     0
 62
     7
176
     0
 62
   257
176
     0
 90
        1
176
     0
 90
        1
176
     0
 40
1.0
176
     0
 90
        9
176
     2
 62
     7
176
     0
 40
1.0
176
     0
 90
        1
176
     0
 90
        6
176
     0
 90
        2
176
     0
 62
     7
176
     0
 90
        5
176
     0
 90
        0
176
     0
 90
        0
176
     0
290
     0
176
     0
 90
        1
176
     0
 40
0.0
176
     0
 90
        0
176
     0
290
     0
176
     0
290
     1
176
     0
290
     1
176
     0
290
     0
176
     0
290
     0
176
     0
290
     0
176
     0
290
     0
176
     0
290
     0
176
     0
290
     0
176
     0
 90
       50
176
     0
 40
0.0
176
     0
 40
1.0
176
     0
 90
        0
176
     0
 62
    18
420
        0
176
     0
 90
       50
176
     0
 90
        3
176
     0
 62
     5
420
      255
176
     0
290
     0
176
     0
 90
       50
176
     0
 90
       50
176
     0
 90
       50
176
     0
290
     0
176
     0
 90
       50
176
     0
 62
   256
176
     0
 40
1.0
176
     0
 90
        2
176
     0
  1
strokes_ogs.tif
176
     0
290
     0
176
     0
 40
1.0
176
     0
 40
1.0
176
     0
  0
VISUALSTYLE
  5
33
102
{ACAD_REACTORS
330
2A
102
}
330
2A
100
AcDbVisualStyle
  2
Realistic
 70
     8
177
     3
291
     0
 70
    58
 90
        2
176
     1
 90
        3
176
     1
 90
        0
176
     1
 90
        2
176
     1
 40
0.6
176
     1
 40
30.0
176
     1
 62
     7
420
 16777215
176
     1
 90
        0
176
     1
 90
        0
176
     1
 62
     7
176
     1
 62
   257
176
     1
 90
        1
176
     1
 90
        1
176
     1
 40
1.0
176
     1
 90
        8
176
     1
 62
   257
176
     1
 40
1.0
176
     1
 90
        1
176
     1
 90
        6
176
     1
 90
        2
176
     1
 62
     7
176
     1
 90
        3
176
     1
 90
        0
176
     1
 90
        0
176
     1
290
     0
176
     1
 90
       13
176
     1
 40
0.0
176
     1
 90
        0
176
     1
290
     0
176
     1
290
     1
176
     1
290
     1
176
     1
290
     0
176
     1
290
     0
176
     1
290
     0
176
     1
290
     0
176
     1
290
     0
176
     1
290
     0
176
     1
 90
       50
176
     1
 40
0.0
176
     1
 40
1.0
176
     1
 90
        0
176
     1
 62
    18
420
        0
176
     1
 90
       50
176
     1
 90
        3
176
     1
 62
     5
420
      255
176
     1
290
     0
176
     1
 90
       50
176
     1
 90
       50
176
     1
 90
       50
176
     1
290
     0
176
     1
 90
       50
176
     1
 62
   256
176
     0
 40
1.0
176
     0
 90
        2
176
     1
  1
strokes_ogs.tif
176
     1
290
     0
176
     1
 40
1.0
176
     1
 40
1.0
176
     1
  0
VISUALSTYLE
  5
42
102
{ACAD_REACTORS
330
2A
102
}
330
2A
100
AcDbVisualStyle
  2
Shaded
 70
    27
177
     3
291
     0
 70
    58
 90
        2
176
     1
 90
        2
176
     1
 90
        1
176
     1
 90
        2
176
     1
 40
0.6
176
     1
 40
30.0
176
     1
 62
     7
420
 16777215
176
     1
 90
        0
176
     1
 90
        4
176
     1
 62
     7
176
     1
 62
   257
176
     1
 90
        1
176
     1
 90
        1
176
     1
 40
1.0
176
     1
 90
        8
176
     1
 62
   257
176
     1
 40
1.0
176
     1
 90
        1
176
     1
 90
        6
176
     1
 90
        2
176
     1
 62
     8
420
  7895160
176
     1
 90
        3
176
     1
 90
        0
176
     1
 90
        0
176
     1
290
     0
176
     1
 90
        5
176
     1
 40
0.0
176
     1
 90
        0
176
     1
290
     0
176
     1
290
     1
176
     1
290
     1
176
     1
290
     0
176
     1
290
     0
176
     1
290
     0
176
     1
290
     0
176
     1
290
     0
176
     1
290
     0
176
     1
 90
       50
176
     1
 40
0.0
176
     1
 40
1.0
176
     1
 90
        0
176
     1
 62
    18
420
        0
176
     1
 90
       50
176
     1
 90
        3
176
     1
 62
     5
420
      255
176
     1
290
     0
176
     1
 90
       50
176
     1
 90
       50
176
     1
 90
       50
176
     1
290
     0
176
     1
 90
       50
176
     1
 62
   256
176
     0
 40
1.0
176
     0
 90
        2
176
     1
  1
strokes_ogs.tif
176
     1
290
     0
176
     1
 40
1.0
176
     1
 40
1.0
176
     1
  0
VISUALSTYLE
  5
41
102
{ACAD_REACTORS
330
2A
102
}
330
2A
100
AcDbVisualStyle
  2
Shaded with edges
 70
    26
177
     3
291
     0
 70
    58
 90
        2
176
     1
 90
        2
176
     1
 90
        1
176
     1
 90
        2
176
     1
 40
0.6
176
     1
 40
30.0
176
     1
 62
     7
420
 16777215
176
     1
 90
        1
176
     1
 90
       10
176
     1
 62
     7
176
     1
 62
   257
176
     1
 90
        2
176
     1
 90
        1
176
     1
 40
1.0
176
     1
 90
        8
176
     1
 62
   257
176
     1
 40
1.0
176
     1
 90
        1
176
     1
 90
        6
176
     1
 90
        2
176
     1
 62
     7
176
     1
 90
        3
176
     1
 90
        0
176
     1
 90
        0
176
     1
290
     0
176
     1
 90
        5
176
     1
 40
0.0
176
     1
 90
        0
176
     1
290
     0
176
     1
290
     1
176
     1
290
     1
176
     1
290
     0
176
     1
290
     0
176
     1
290
     0
176
     1
290
     0
176
     1
290
     0
176
     1
290
     0
176
     1
 90
       50
176
     1
 40
0.0
176
     1
 40
1.0
176
     1
 90
        0
176
     1
 62
    18
420
        0
176
     1
 90
       50
176
     1
 90
        3
176
     1
 62
     5
420
      255
176
     1
290
     0
176
     1
 90
       50
176
     1
 90
       50
176
     1
 90
       50
176
     1
290
     0
176
     1
 90
       50
176
     1
 62
   256
176
     0
 40
1.0
176
     0
 90
        2
176
     1
  1
strokes_ogs.tif
176
     1
290
     0
176
     1
 40
1.0
176
     1
 40
1.0
176
     1
  0
VISUALSTYLE
  5
3E
102
{ACAD_REACTORS
330
2A
102
}
330
2A
100
AcDbVisualStyle
  2
Shades of Gray
 70
    23
177
     3
291
     0
 70
    58
 90
        2
176
     1
 90
        2
176
     1
 90
        3
176
     1
 90
        0
176
     1
 40
0.6
176
     1
 40
30.0
176
     1
 62
     7
420
 16777215
176
     1
 90
        2
176
     1
 90
        2
176
     1
 62
     7
176
     1
 62
     7
176
     1
 90
        1
176
     1
 90
        1
176
     1
 40
40.0
176
     1
 90
        8
176
     1
 62
     7
176
     1
 40
1.0
176
     1
 90
        1
176
     1
 90
        6
176
     1
 90
        2
176
     1
 62
     7
176
     1
 90
        3
176
     1
 90
        0
176
     1
 90
        0
176
     1
290
     0
176
     1
 90
        1
176
     1
 40
0.0
176
     1
 90
        0
176
     1
290
     0
176
     1
290
     1
176
     1
290
     1
176
     1
290
     0
176
     1
290
     0
176
     1
290
     0
176
     1
290
     0
176
     1
290
     0
176
     1
290
     0
176
     1
 90
       50
176
     1
 40
0.0
176
     1
 40
1.0
176
     1
 90
        0
176
     1
 62
    18
420
        0
176
     1
 90
       50
176
     1
 90
        3
176
     1
 62
     5
420
      255
176
     1
290
     0
176
     1
 90
       50
176
     1
 90
       50
176
     1
 90
       50
176
     1
290
     0
176
     1
 90
       50
176
     1
 62
   256
176
     0
 40
1.0
176
     0
 90
        2
176
     1
  1
strokes_ogs.tif
176
     1
290
     0
176
     1
 40
1.0
176
     1
 40
1.0
176
     1
  0
VISUALSTYLE
  5
3F
102
{ACAD_REACTORS
330
2A
102
}
330
2A
100
AcDbVisualStyle
  2
Sketchy
 70
    24
177
     3
291
     0
 70
    58
 90
        1
176
     1
 90
        2
176
     1
 90
        2
176
     1
 90
        0
176
     1
 40
0.6
176
     1
 40
30.0
176
     1
 62
     7
420
 16777215
176
     1
 90
        2
176
     1
 90
        2
176
     1
 62
     7
176
     1
 62
     7
176
     1
 90
        1
176
     1
 90
        1
176
     1
 40
40.0
176
     1
 90
       11
176
     1
 62
     7
176
     1
 40
1.0
176
     1
 90
        1
176
     1
 90
        6
176
     1
 90
        2
176
     1
 62
     7
176
     1
 90
        6
176
     1
 90
        0
176
     1
 90
        0
176
     1
290
     0
176
     1
 90
        1
176
     1
 40
0.0
176
     1
 90
        0
176
     1
290
     0
176
     1
290
     1
176
     1
290
     1
176
     1
290
     0
176
     1
290
     0
176
     1
290
     0
176
     1
290
     0
176
     1
290
     0
176
     1
290
     0
176
     1
 90
       50
176
     1
 40
0.0
176
     1
 40
1.0
176
     1
 90
        0
176
     1
 62
    18
420
        0
176
     1
 90
       50
176
     1
 90
        3
176
     1
 62
     5
420
      255
176
     1
290
     0
176
     1
 90
       50
176
     1
 90
       50
176
     1
 90
       50
176
     1
290
     0
176
     1
 90
       50
176
     1
 62
   256
176
     0
 40
1.0
176
     0
 90
        2
176
     1
  1
strokes_ogs.tif
176
     1
290
     0
176
     1
 40
1.0
176
     1
 40
1.0
176
     1
  0
VISUALSTYLE
  5
37
102
{ACAD_REACTORS
330
2A
102
}
330
2A
100
AcDbVisualStyle
  2
Thicken
 70
    13
177
     3
291
     1
 70
    58
 90
        2
176
     1
 90
        2
176
     1
 90
        0
176
     1
 90
        0
176
     1
 40
0.6
176
     1
 40
30.0
176
     1
 62
     7
420
 16777215
176
     1
 90
        1
176
     1
 90
        4
176
     1
 62
     7
176
     1
 62
   257
176
     1
 90
        1
176
     1
 90
        1
176
     1
 40
1.0
176
     1
 90
       12
176
     1
 62
     7
176
     1
 40
1.0
176
     1
 90
        1
176
     1
 90
        6
176
     1
 90
        2
176
     1
 62
     7
176
     1
 90
        5
176
     1
 90
        0
176
     1
 90
        0
176
     1
290
     0
176
     1
 90
        1
176
     1
 40
0.0
176
     1
 90
        0
176
     1
290
     0
176
     1
290
     1
176
     1
290
     1
176
     1
290
     0
176
     1
290
     0
176
     1
290
     0
176
     1
290
     0
176
     1
290
     0
176
     1
290
     0
176
     1
 90
       50
176
     1
 40
0.0
176
     1
 40
1.0
176
     1
 90
        0
176
     1
 62
    18
420
        0
176
     1
 90
       50
176
     1
 90
        3
176
     1
 62
     5
420
      255
176
     1
290
     0
176
     1
 90
       50
176
     1
 90
       50
176
     1
 90
       50
176
     1
290
     0
176
     1
 90
       50
176
     1
 62
   256
176
     0
 40
1.0
176
     0
 90
        2
176
     1
  1
strokes_ogs.tif
176
     1
290
     0
176
     1
 40
1.0
176
     1
 40
1.0
176
     1
  0
VISUALSTYLE
  5
30
102
{ACAD_REACTORS
330
2A
102
}
330
2A
100
AcDbVisualStyle
  2
Wireframe
 70
     5
177
     3
291
     0
 70
    58
 90
        0
176
     1
 90
        2
176
     1
 90
        0
176
     1
 90
        0
176
     1
 40
0.6
176
     1
 40
30.0
176
     1
 62
     7
420
 16777215
176
     1
 90
        1
176
     1
 90
        4
176
     1
 62
     7
176
     1
 62
   257
176
     1
 90
        1
176
     1
 90
        1
176
     1
 40
1.0
176
     1
 90
        0
176
     1
 62
   257
176
     1
 40
1.0
176
     1
 90
        1
176
     1
 90
        6
176
     1
 90
        2
176
     1
 62
     7
176
     1
 90
        3
176
     1
 90
        0
176
     1
 90
        0
176
     1
290
     0
176
     1
 90
        1
176
     1
 40
0.0
176
     1
 90
        0
176
     1
290
     0
176
     1
290
     1
176
     1
290
     1
176
     1
290
     0
176
     1
290
     0
176
     1
290
     0
176
     1
290
     0
176
     1
290
     0
176
     1
290
     0
176
     1
 90
       50
176
     1
 40
0.0
176
     1
 40
1.0
176
     1
 90
        0
176
     1
 62
    18
420
        0
176
     1
 90
       50
176
     1
 90
        3
176
     1
 62
     5
420
      255
176
     1
290
     0
176
     1
 90
       50
176
     1
 90
       50
176
     1
 90
       50
176
     1
290
     0
176
     1
 90
       50
176
     1
 62
   256
176
     0
 40
1.0
176
     0
 90
        2
176
     1
  1
strokes_ogs.tif
176
     1
290
     0
176
     1
 40
1.0
176
     1
 40
1.0
176
     1
  0
VISUALSTYLE
  5
40
102
{ACAD_REACTORS
330
2A
102
}
330
2A
100
AcDbVisualStyle
  2
X-Ray
 70
    25
177
     3
291
     0
 70
    58
 90
        2
176
     1
 90
        2
176
     1
 90
        1
176
     1
 90
        1
176
     1
 40
0.5
176
     1
 40
30.0
176
     1
 62
     7
420
 16777215
176
     1
 90
        1
176
     1
 90
        0
176
     1
 62
     7
176
     1
 62
   257
176
     1
 90
        1
176
     1
 90
        1
176
     1
 40
1.0
176
     1
 90
        8
176
     1
 62
     7
176
     1
 40
1.0
176
     1
 90
        1
176
     1
 90
        6
176
     1
 90
        2
176
     1
 62
     7
176
     1
 90
        3
176
     1
 90
        0
176
     1
 90
        0
176
     1
290
     0
176
     1
 90
       13
176
     1
 40
0.0
176
     1
 90
        0
176
     1
290
     0
176
     1
290
     1
176
     1
290
     1
176
     1
290
     0
176
     1
290
     0
176
     1
290
     0
176
     1
290
     0
176
     1
290
     0
176
     1
290
     0
176
     1
 90
       50
176
     1
 40
0.0
176
     1
 40
1.0
176
     1
 90
        0
176
     1
 62
    18
420
        0
176
     1
 90
       50
176
     1
 90
        3
176
     1
 62
     5
420
      255
176
     1
290
     0
176
     1
 90
       50
176
     1
 90
       50
176
     1
 90
       50
176
     1
290
     0
176
     1
 90
       50
176
     1
 62
   256
176
     0
 40
1.0
176
     0
 90
        2
176
     1
  1
strokes_ogs.tif
176
     1
290
     0
176
     1
 40
1.0
176
     1
 40
1.0
176
     1
  0
DICTIONARYVAR
  5
17B
102
{ACAD_REACTORS
330
17A
102
}
330
17A
100
DictionaryVariables
280
     0
  1
1:1
  0
DICTIONARYVAR
  5
180
102
{ACAD_REACTORS
330
17A
102
}
330
17A
100
DictionaryVariables
280
     0
  1
Standard
  0
DICTIONARYVAR
  5
17F
102
{ACAD_REACTORS
330
17A
102
}
330
17A
100
DictionaryVariables
280
     0
  1
Standard
  0
DICTIONARY
  5
17C
330
6A
100
AcDbDictionary
280
     1
281
     1
  3
ACAD_ROUNDTRIP_2008_TABLESTYLE_CELLSTYLEMAP
360
17D
  0
CELLSTYLEMAP
  5
17D
102
{ACAD_REACTORS
330
17C
102
}
330
17C
100
AcDbCellStyleMap
 90
        3
300
CELLSTYLE
  1
TABLEFORMAT_BEGIN
 90
        5
170
     1
 91
        0
 92
    32768
 62
   257
 93
        1
300
CONTENTFORMAT
  1
CONTENTFORMAT_BEGIN
 90
        0
 91
        0
 92
        4
 93
        0
300

 40
0.0
140
1.0
 94
        5
 62
     0
340
11
144
0.25
309
CONTENTFORMAT_END
171
     1
301
MARGIN
  1
CELLMARGIN_BEGIN
 40
0.06
 40
0.06
 40
0.06
 40
0.06
 40
0.06
 40
0.06
309
CELLMARGIN_END
 94
        6
 95
        1
302
GRIDFORMAT
  1
GRIDFORMAT_BEGIN
 90
        0
 91
        1
 62
     0
 92
       -2
340
14
 93
        0
 40
0.045
309
GRIDFORMAT_END
 95
        2
302
GRIDFORMAT
  1
GRIDFORMAT_BEGIN
 90
        0
 91
        1
 62
     0
 92
       -2
340
14
 93
        0
 40
0.045
309
GRIDFORMAT_END
 95
        4
302
GRIDFORMAT
  1
GRIDFORMAT_BEGIN
 90
        0
 91
        1
 62
     0
 92
       -2
340
14
 93
        0
 40
0.045
309
GRIDFORMAT_END
 95
        8
302
GRIDFORMAT
  1
GRIDFORMAT_BEGIN
 90
        0
 91
        1
 62
     0
 92
       -2
340
14
 93
        0
 40
0.045
309
GRIDFORMAT_END
 95
       16
302
GRIDFORMAT
  1
GRIDFORMAT_BEGIN
 90
        0
 91
        1
 62
     0
 92
       -2
340
14
 93
        0
 40
0.045
309
GRIDFORMAT_END
 95
       32
302
GRIDFORMAT
  1
GRIDFORMAT_BEGIN
 90
        0
 91
        1
 62
     0
 92
       -2
340
14
 93
        0
 40
0.045
309
GRIDFORMAT_END
309
TABLEFORMAT_END
  1
CELLSTYLE_BEGIN
 90
        1
 91
        1
300
_TITLE
309
CELLSTYLE_END
300
CELLSTYLE
  1
TABLEFORMAT_BEGIN
 90
        5
170
     1
 91
        0
 92
        0
 62
   257
 93
        1
300
CONTENTFORMAT
  1
CONTENTFORMAT_BEGIN
 90
        0
 91
        0
 92
        4
 93
        0
300

 40
0.0
140
1.0
 94
        5
 62
     0
340
11
144
0.18
309
CONTENTFORMAT_END
171
     1
301
MARGIN
  1
CELLMARGIN_BEGIN
 40
0.06
 40
0.06
 40
0.06
 40
0.06
 40
0.06
 40
0.06
309
CELLMARGIN_END
 94
        6
 95
        1
302
GRIDFORMAT
  1
GRIDFORMAT_BEGIN
 90
        0
 91
        1
 62
     0
 92
       -2
340
14
 93
        0
 40
0.045
309
GRIDFORMAT_END
 95
        2
302
GRIDFORMAT
  1
GRIDFORMAT_BEGIN
 90
        0
 91
        1
 62
     0
 92
       -2
340
14
 93
        0
 40
0.045
309
GRIDFORMAT_END
 95
        4
302
GRIDFORMAT
  1
GRIDFORMAT_BEGIN
 90
        0
 91
        1
 62
     0
 92
       -2
340
14
 93
        0
 40
0.045
309
GRIDFORMAT_END
 95
        8
302
GRIDFORMAT
  1
GRIDFORMAT_BEGIN
 90
        0
 91
        1
 62
     0
 92
       -2
340
14
 93
        0
 40
0.045
309
GRIDFORMAT_END
 95
       16
302
GRIDFORMAT
  1
GRIDFORMAT_BEGIN
 90
        0
 91
        1
 62
     0
 92
       -2
340
14
 93
        0
 40
0.045
309
GRIDFORMAT_END
 95
       32
302
GRIDFORMAT
  1
GRIDFORMAT_BEGIN
 90
        0
 91
        1
 62
     0
 92
       -2
340
14
 93
        0
 40
0.045
309
GRIDFORMAT_END
309
TABLEFORMAT_END
  1
CELLSTYLE_BEGIN
 90
        2
 91
        1
300
_HEADER
309
CELLSTYLE_END
300
CELLSTYLE
  1
TABLEFORMAT_BEGIN
 90
        5
170
     1
 91
        0
 92
        0
 62
   257
 93
        1
300
CONTENTFORMAT
  1
CONTENTFORMAT_BEGIN
 90
        0
 91
        0
 92
        4
 93
        0
300

 40
0.0
140
1.0
 94
        2
 62
     0
340
11
144
0.18
309
CONTENTFORMAT_END
171
     1
301
MARGIN
  1
CELLMARGIN_BEGIN
 40
0.06
 40
0.06
 40
0.06
 40
0.06
 40
0.06
 40
0.06
309
CELLMARGIN_END
 94
        6
 95
        1
302
GRIDFORMAT
  1
GRIDFORMAT_BEGIN
 90
        0
 91
        1
 62
     0
 92
       -2
340
14
 93
        0
 40
0.045
309
GRIDFORMAT_END
 95
        2
302
GRIDFORMAT
  1
GRIDFORMAT_BEGIN
 90
        0
 91
        1
 62
     0
 92
       -2
340
14
 93
        0
 40
0.045
309
GRIDFORMAT_END
 95
        4
302
GRIDFORMAT
  1
GRIDFORMAT_BEGIN
 90
        0
 91
        1
 62
     0
 92
       -2
340
14
 93
        0
 40
0.045
309
GRIDFORMAT_END
 95
        8
302
GRIDFORMAT
  1
GRIDFORMAT_BEGIN
 90
        0
 91
        1
 62
     0
 92
       -2
340
14
 93
        0
 40
0.045
309
GRIDFORMAT_END
 95
       16
302
GRIDFORMAT
  1
GRIDFORMAT_BEGIN
 90
        0
 91
        1
 62
     0
 92
       -2
340
14
 93
        0
 40
0.045
309
GRIDFORMAT_END
 95
       32
302
GRIDFORMAT
  1
GRIDFORMAT_BEGIN
 90
        0
 91
        1
 62
     0
 92
       -2
340
14
 93
        0
 40
0.045
309
GRIDFORMAT_END
309
TABLEFORMAT_END
  1
CELLSTYLE_BEGIN
 90
        3
 91
        2
300
_DATA
309
CELLSTYLE_END
  0
ENDSEC
  0
EOF