0
SECTION
  2
HEADER
  9
$ACADVER
  1
AC1027
  9
$ACADMAINTVER
 70
     8
  9
$DWGCODEPAGE
  3
ANSI_1252
  9
$REQUIREDVERSIONS
160
                 0
  9
$COMMENTS
  1
File was created by Cadenas
  9
$CUSTOMPROPERTYTAG
  1
NN
  9
$CUSTOMPROPERTY
  1
Set Screw LFT Duty 2-Bolt Flange Inch Bore
  9
$CUSTOMPROPERTYTAG
  1
NT
  9
$CUSTOMPROPERTY
  1
SC 2 Bolt Flange Bearings -(Normal Duty) -Re-Lube and No-Lube
  9
$CUSTOMPROPERTYTAG
  1
NB
  9
$CUSTOMPROPERTY
  1
124662
  9
$CUSTOMPROPERTYTAG
  1
NBSYN
  9
$CUSTOMPROPERTY
  1
$PN.
  9
$CUSTOMPROPERTYTAG
  1
LINA
  9
$CUSTOMPROPERTY
  1
124662
  9
$CUSTOMPROPERTYTAG
  1
SERIES
  9
$CUSTOMPROPERTY
  1
204
  9
$CUSTOMPROPERTYTAG
  1
SS
  9
$CUSTOMPROPERTY
  1
3/4
  9
$CUSTOMPROPERTYTAG
  1
PN
  9
$CUSTOMPROPERTY
  1
124662
  9
$CUSTOMPROPERTYTAG
  1
DESCRIPTION
  9
$CUSTOMPROPERTY
  1
LFT-SC-012-NL
  9
$CUSTOMPROPERTYTAG
  1
W
  9
$CUSTOMPROPERTY
  1
0.80
  9
$CUSTOMPROPERTYTAG
  1
LF
  9
$CUSTOMPROPERTY
  1
NO-LUBE
  9
$CUSTOMPROPERTYTAG
  1
A
  9
$CUSTOMPROPERTY
  1
1.02
  9
$CUSTOMPROPERTYTAG
  1
B
  9
$CUSTOMPROPERTY
  1
3.56
  9
$CUSTOMPROPERTYTAG
  1
C
  9
$CUSTOMPROPERTY
  1
1.21
  9
$CUSTOMPROPERTYTAG
  1
D
  9
$CUSTOMPROPERTY
  1
2.81
  9
$CUSTOMPROPERTYTAG
  1
G
  9
$CUSTOMPROPERTY
  1
0.34
  9
$CUSTOMPROPERTYTAG
  1
H
  9
$CUSTOMPROPERTY
  1
0.42
  9
$CUSTOMPROPERTYTAG
  1
J
  9
$CUSTOMPROPERTY
  1
0.36
  9
$CUSTOMPROPERTYTAG
  1
L
  9
$CUSTOMPROPERTY
  1
1.12
  9
$CUSTOMPROPERTYTAG
  1
M
  9
$CUSTOMPROPERTY
  1
2.38
  9
$CUSTOMPROPERTYTAG
  1
N
  9
$CUSTOMPROPERTY
  1
1.34
  9
$CUSTOMPROPERTYTAG
  1
COMPANY
  9
$CUSTOMPROPERTY
  1
baldor
  9
$INSBASE
 10
0.0
 20
0.0
 30
0.0
  9
$EXTMIN
 10
1.000000000000000E+20
 20
1.000000000000000E+20
 30
1.000000000000000E+20
  9
$EXTMAX
 10
-1.000000000000000E+20
 20
-1.000000000000000E+20
 30
-1.000000000000000E+20
  9
$LIMMIN
 10
0.0
 20
0.0
  9
$LIMMAX
 10
12.0
 20
9.0
  9
$ORTHOMODE
 70
     0
  9
$REGENMODE
 70
     1
  9
$FILLMODE
 70
     1
  9
$QTEXTMODE
 70
     0
  9
$MIRRTEXT
 70
     1
  9
$LTSCALE
 40
1.0
  9
$ATTMODE
 70
     1
  9
$TEXTSIZE
 40
0.2
  9
$TRACEWID
 40
0.05
  9
$TEXTSTYLE
  7
Standard
  9
$CLAYER
  8
0
  9
$CELTYPE
  6
ByLayer
  9
$CECOLOR
 62
   256
  9
$CELTSCALE
 40
1.0
  9
$DISPSILH
 70
     0
  9
$DIMSCALE
 40
1.0
  9
$DIMASZ
 40
0.18
  9
$DIMEXO
 40
0.0625
  9
$DIMDLI
 40
0.38
  9
$DIMRND
 40
0.0
  9
$DIMDLE
 40
0.0
  9
$DIMEXE
 40
0.18
  9
$DIMTP
 40
0.0
  9
$DIMTM
 40
0.0
  9
$DIMTXT
 40
0.18
  9
$DIMCEN
 40
0.09
  9
$DIMTSZ
 40
0.0
  9
$DIMTOL
 70
     0
  9
$DIMLIM
 70
     0
  9
$DIMTIH
 70
     1
  9
$DIMTOH
 70
     1
  9
$DIMSE1
 70
     0
  9
$DIMSE2
 70
     0
  9
$DIMTAD
 70
     0
  9
$DIMZIN
 70
     0
  9
$DIMBLK
  1

  9
$DIMASO
 70
     1
  9
$DIMSHO
 70
     1
  9
$DIMPOST
  1

  9
$DIMAPOST
  1

  9
$DIMALT
 70
     0
  9
$DIMALTD
 70
     2
  9
$DIMALTF
 40
25.4
  9
$DIMLFAC
 40
1.0
  9
$DIMTOFL
 70
     0
  9
$DIMTVP
 40
0.0
  9
$DIMTIX
 70
     0
  9
$DIMSOXD
 70
     0
  9
$DIMSAH
 70
     0
  9
$DIMBLK1
  1

  9
$DIMBLK2
  1

  9
$DIMSTYLE
  2
Standard
  9
$DIMCLRD
 70
     0
  9
$DIMCLRE
 70
     0
  9
$DIMCLRT
 70
     0
  9
$DIMTFAC
 40
1.0
  9
$DIMGAP
 40
0.09
  9
$DIMJUST
 70
     0
  9
$DIMSD1
 70
     0
  9
$DIMSD2
 70
     0
  9
$DIMTOLJ
 70
     1
  9
$DIMTZIN
 70
     0
  9
$DIMALTZ
 70
     0
  9
$DIMALTTZ
 70
     0
  9
$DIMUPT
 70
     0
  9
$DIMDEC
 70
     4
  9
$DIMTDEC
 70
     4
  9
$DIMALTU
 70
     2
  9
$DIMALTTD
 70
     2
  9
$DIMTXSTY
  7
Standard
  9
$DIMAUNIT
 70
     0
  9
$DIMADEC
 70
     0
  9
$DIMALTRND
 40
0.0
  9
$DIMAZIN
 70
     0
  9
$DIMDSEP
 70
    46
  9
$DIMATFIT
 70
     3
  9
$DIMFRAC
 70
     0
  9
$DIMLDRBLK
  1

  9
$DIMLUNIT
 70
     2
  9
$DIMLWD
 70
    -2
  9
$DIMLWE
 70
    -2
  9
$DIMTMOVE
 70
     0
  9
$DIMFXL
 40
1.0
  9
$DIMFXLON
 70
     0
  9
$DIMJOGANG
 40
0.7853981633974483
  9
$DIMTFILL
 70
     0
  9
$DIMTFILLCLR
 70
     0
  9
$DIMARCSYM
 70
     0
  9
$DIMLTYPE
  6

  9
$DIMLTEX1
  6

  9
$DIMLTEX2
  6

  9
$DIMTXTDIRECTION
 70
     0
  9
$LUNITS
 70
     2
  9
$LUPREC
 70
     4
  9
$SKETCHINC
 40
0.1
  9
$FILLETRAD
 40
0.5
  9
$AUNITS
 70
     0
  9
$AUPREC
 70
     0
  9
$MENU
  1
.
  9
$ELEVATION
 40
0.0
  9
$PELEVATION
 40
0.0
  9
$THICKNESS
 40
0.0
  9
$LIMCHECK
 70
     0
  9
$CHAMFERA
 40
0.0
  9
$CHAMFERB
 40
0.0
  9
$CHAMFERC
 40
0.0
  9
$CHAMFERD
 40
0.0
  9
$SKPOLY
 70
     0
  9
$TDCREATE
 40
2458169.004367813
  9
$TDUCREATE
 40
2458168.962701146
  9
$TDUPDATE
 40
2458169.004367986
  9
$TDUUPDATE
 40
2458168.962701319
  9
$TDINDWG
 40
0.0000000116
  9
$TDUSRTIMER
 40
0.0000000116
  9
$USRTIMER
 70
     1
  9
$ANGBASE
 50
0.0
  9
$ANGDIR
 70
     0
  9
$PDMODE
 70
     0
  9
$PDSIZE
 40
0.0
  9
$PLINEWID
 40
0.0
  9
$SPLFRAME
 70
     0
  9
$SPLINETYPE
 70
     6
  9
$SPLINESEGS
 70
     8
  9
$HANDSEED
  5
171
  9
$SURFTAB1
 70
     6
  9
$SURFTAB2
 70
     6
  9
$SURFTYPE
 70
     6
  9
$SURFU
 70
     6
  9
$SURFV
 70
     6
  9
$UCSBASE
  2

  9
$UCSNAME
  2

  9
$UCSORG
 10
0.0
 20
0.0
 30
0.0
  9
$UCSXDIR
 10
1.0
 20
0.0
 30
0.0
  9
$UCSYDIR
 10
0.0
 20
1.0
 30
0.0
  9
$UCSORTHOREF
  2

  9
$UCSORTHOVIEW
 70
     0
  9
$UCSORGTOP
 10
0.0
 20
0.0
 30
0.0
  9
$UCSORGBOTTOM
 10
0.0
 20
0.0
 30
0.0
  9
$UCSORGLEFT
 10
0.0
 20
0.0
 30
0.0
  9
$UCSORGRIGHT
 10
0.0
 20
0.0
 30
0.0
  9
$UCSORGFRONT
 10
0.0
 20
0.0
 30
0.0
  9
$UCSORGBACK
 10
0.0
 20
0.0
 30
0.0
  9
$PUCSBASE
  2

  9
$PUCSNAME
  2

  9
$PUCSORG
 10
0.0
 20
0.0
 30
0.0
  9
$PUCSXDIR
 10
1.0
 20
0.0
 30
0.0
  9
$PUCSYDIR
 10
0.0
 20
1.0
 30
0.0
  9
$PUCSORTHOREF
  2

  9
$PUCSORTHOVIEW
 70
     0
  9
$PUCSORGTOP
 10
0.0
 20
0.0
 30
0.0
  9
$PUCSORGBOTTOM
 10
0.0
 20
0.0
 30
0.0
  9
$PUCSORGLEFT
 10
0.0
 20
0.0
 30
0.0
  9
$PUCSORGRIGHT
 10
0.0
 20
0.0
 30
0.0
  9
$PUCSORGFRONT
 10
0.0
 20
0.0
 30
0.0
  9
$PUCSORGBACK
 10
0.0
 20
0.0
 30
0.0
  9
$USERI1
 70
     0
  9
$USERI2
 70
     0
  9
$USERI3
 70
     0
  9
$USERI4
 70
     0
  9
$USERI5
 70
     0
  9
$USERR1
 40
0.0
  9
$USERR2
 40
0.0
  9
$USERR3
 40
0.0
  9
$USERR4
 40
0.0
  9
$USERR5
 40
0.0
  9
$WORLDVIEW
 70
     1
  9
$SHADEDGE
 70
     3
  9
$SHADEDIF
 70
    70
  9
$TILEMODE
 70
     1
  9
$MAXACTVP
 70
    64
  9
$PINSBASE
 10
0.0
 20
0.0
 30
0.0
  9
$PLIMCHECK
 70
     0
  9
$PEXTMIN
 10
1.000000000000000E+20
 20
1.000000000000000E+20
 30
1.000000000000000E+20
  9
$PEXTMAX
 10
-1.000000000000000E+20
 20
-1.000000000000000E+20
 30
-1.000000000000000E+20
  9
$PLIMMIN
 10
0.0
 20
0.0
  9
$PLIMMAX
 10
12.0
 20
9.0
  9
$UNITMODE
 70
     0
  9
$VISRETAIN
 70
     1
  9
$PLINEGEN
 70
     0
  9
$PSLTSCALE
 70
     1
  9
$TREEDEPTH
 70
  3020
  9
$CMLSTYLE
  2
Standard
  9
$CMLJUST
 70
     0
  9
$CMLSCALE
 40
1.0
  9
$PROXYGRAPHICS
 70
     1
  9
$MEASUREMENT
 70
     0
  9
$CELWEIGHT
370
    -1
  9
$ENDCAPS
280
     0
  9
$JOINSTYLE
280
     0
  9
$LWDISPLAY
290
     0
  9
$INSUNITS
 70
     1
  9
$HYPERLINKBASE
  1

  9
$STYLESHEET
  1

  9
$XEDIT
290
     1
  9
$CEPSNTYPE
380
     0
  9
$PSTYLEMODE
290
     1
  9
$FINGERPRINTGUID
  2
{2CF8DD78-48E4-4378-B95A-AA9A152A0D57}
  9
$VERSIONGUID
  2
{FAEB1C32-E019-11D5-929B-00C0DF256EC4}
  9
$EXTNAMES
290
     1
  9
$PSVPSCALE
 40
0.0
  9
$OLESTARTUP
290
     0
  9
$SORTENTS
280
   127
  9
$INDEXCTL
280
     0
  9
$HIDETEXT
280
     1
  9
$XCLIPFRAME
280
     2
  9
$HALOGAP
280
     0
  9
$OBSCOLOR
 70
   257
  9
$OBSLTYPE
280
     0
  9
$INTERSECTIONDISPLAY
280
     0
  9
$INTERSECTIONCOLOR
 70
   257
  9
$DIMASSOC
280
     2
  9
$PROJECTNAME
  1

  9
$CAMERADISPLAY
290
     0
  9
$LENSLENGTH
 40
50.0
  9
$CAMERAHEIGHT
 40
0.0
  9
$STEPSPERSEC
 40
2.0
  9
$STEPSIZE
 40
6.0
  9
$3DDWFPREC
 40
2.0
  9
$PSOLWIDTH
 40
0.25
  9
$PSOLHEIGHT
 40
4.0
  9
$LOFTANG1
 40
1.570796326794897
  9
$LOFTANG2
 40
1.570796326794897
  9
$LOFTMAG1
 40
0.0
  9
$LOFTMAG2
 40
0.0
  9
$LOFTPARAM
 70
     7
  9
$LOFTNORMALS
280
     1
  9
$LATITUDE
 40
37.795
  9
$LONGITUDE
 40
-122.394
  9
$NORTHDIRECTION
 40
0.0
  9
$TIMEZONE
 70
 -8000
  9
$LIGHTGLYPHDISPLAY
280
     1
  9
$TILEMODELIGHTSYNCH
280
     1
  9
$CMATERIAL
347
44
  9
$SOLIDHIST
280
     0
  9
$SHOWHIST
280
     1
  9
$DWFFRAME
280
     2
  9
$DGNFRAME
280
     2
  9
$REALWORLDSCALE
290
     1
  9
$INTERFERECOLOR
 62
   256
  9
$CSHADOW
280
     0
  9
$SHADOWPLANELOCATION
 40
0.0
  0
ENDSEC
  0
SECTION
  2
CLASSES
  0
CLASS
  1
ACDBDICTIONARYWDFLT
  2
AcDbDictionaryWithDefault
  3
ObjectDBX Classes
 90
        0
 91
        4
280
     0
281
     0
  0
CLASS
  1
VISUALSTYLE
  2
AcDbVisualStyle
  3
ObjectDBX Classes
 90
     4095
 91
        4
280
     0
281
     0
  0
CLASS
  1
MATERIAL
  2
AcDbMaterial
  3
ObjectDBX Classes
 90
     1153
 91
        4
280
     0
281
     0
  0
CLASS
  1
SCALE
  2
AcDbScale
  3
ObjectDBX Classes
 90
     1153
 91
        4
280
     0
281
     0
  0
CLASS
  1
TABLESTYLE
  2
AcDbTableStyle
  3
ObjectDBX Classes
 90
     4095
 91
        4
280
     0
281
     0
  0
CLASS
  1
MLEADERSTYLE
  2
AcDbMLeaderStyle
  3
ACDB_MLEADERSTYLE_CLASS
 90
     4095
 91
        4
280
     0
281
     0
  0
CLASS
  1
SUN
  2
AcDbSun
  3
SCENEOE
 90
     1153
 91
        4
280
     0
281
     0
  0
CLASS
  1
DICTIONARYVAR
  2
AcDbDictionaryVar
  3
ObjectDBX Classes
 90
        0
 91
        4
280
     0
281
     0
  0
CLASS
  1
CELLSTYLEMAP
  2
AcDbCellStyleMap
  3
ObjectDBX Classes
 90
     1152
 91
        4
280
     0
281
     0
  0
ENDSEC
  0
SECTION
  2
TABLES
  0
TABLE
  2
VPORT
  5
8
330
0
100
AcDbSymbolTable
 70
     1
  0
VPORT
  5
29
330
8
100
AcDbSymbolTableRecord
100
AcDbViewportTableRecord
  2
*Active
 70
     0
 10
0.0
 20
0.0
 11
1.0
 21
1.0
 12
-0.6092499999999994
 22
0.0
 13
0.0
 23
0.0
 14
0.5
 24
0.5
 15
0.5
 25
0.5
 16
0.0
 26
0.0
 36
1.0
 17
0.0
 27
0.0
 37
0.0
 40
3.631200000000004
 41
0.3661516853932579
 42
50.0
 43
0.0
 44
0.0
 50
0.0
 51
0.0
 71
     0
 72
   100
 73
     1
 74
     3
 75
     0
 76
     0
 77
     0
 78
     0
281
     0
 65
     1
110
0.0
120
0.0
130
0.0
111
1.0
121
0.0
131
0.0
112
0.0
122
1.0
132
0.0
 79
     0
146
0.0
348
2F
 60
     3
 61
     5
292
     1
282
     1
141
0.0
142
0.0
 63
   250
361
6D
  0
ENDTAB
  0
TABLE
  2
LTYPE
  5
5
330
0
100
AcDbSymbolTable
 70
     3
  0
LTYPE
  5
14
330
5
100
AcDbSymbolTableRecord
100
AcDbLinetypeTableRecord
  2
ByBlock
 70
     0
  3

 72
    65
 73
     0
 40
0.0
  0
LTYPE
  5
15
330
5
100
AcDbSymbolTableRecord
100
AcDbLinetypeTableRecord
  2
ByLayer
 70
     0
  3

 72
    65
 73
     0
 40
0.0
  0
LTYPE
  5
16
330
5
100
AcDbSymbolTableRecord
100
AcDbLinetypeTableRecord
  2
Continuous
 70
     0
  3
Solid line
 72
    65
 73
     0
 40
0.0
  0
LTYPE
  5
9F
330
5
100
AcDbSymbolTableRecord
100
AcDbLinetypeTableRecord
  2
Dashed
 70
     0
  3

 72
    65
 73
     2
 40
2.0
 49
1.0
 74
     0
 49
-1.0
 74
     0
  0
LTYPE
  5
142
330
5
100
AcDbSymbolTableRecord
100
AcDbLinetypeTableRecord
  2
Center
 70
     0
  3

 72
    65
 73
     4
 40
1.5
 49
0.45
 74
     0
 49
-0.5
 74
     0
 49
0.05
 74
     0
 49
-0.5
 74
     0
  0
ENDTAB
  0
TABLE
  2
LAYER
  5
2
330
0
100
AcDbSymbolTable
 70
     6
  0
LAYER
  5
10
330
2
100
AcDbSymbolTableRecord
100
AcDbLayerTableRecord
  2
0
 70
     0
 62
     7
  6
Continuous
370
    -3
390
F
347
46
348
0
  0
LAYER
  5
72
330
2
100
AcDbSymbolTableRecord
100
AcDbLayerTableRecord
  2
AM_6
 70
     0
 62
    -2
  6
Continuous
370
    35
390
F
347
46
348
0
  0
LAYER
  5
A0
330
2
100
AcDbSymbolTableRecord
100
AcDbLayerTableRecord
  2
AM_9
 70
     0
 62
     6
  6
Dashed
370
    25
390
F
347
46
348
0
  0
LAYER
  5
CE
330
2
100
AcDbSymbolTableRecord
100
AcDbLayerTableRecord
  2
AM_4
 70
     0
 62
     7
  6
Continuous
370
    50
390
F
347
46
348
0
  0
LAYER
  5
143
330
2
100
AcDbSymbolTableRecord
100
AcDbLayerTableRecord
  2
AM_7
 70
     0
 62
     7
  6
Center
370
    25
390
F
347
46
348
0
  0
LAYER
  5
164
330
2
100
AcDbSymbolTableRecord
100
AcDbLayerTableRecord
  2
ConnectionPoints
 70
     0
 62
     7
  6
Continuous
370
    50
390
F
347
46
348
0
  0
ENDTAB
  0
TABLE
  2
STYLE
  5
3
330
0
100
AcDbSymbolTable
 70
     1
  0
STYLE
  5
11
330
3
100
AcDbSymbolTableRecord
100
AcDbTextStyleTableRecord
  2
Standard
 70
     0
 40
0.0
 41
1.0
 50
0.0
 71
     0
 42
0.2
  3
txt
  4

  0
ENDTAB
  0
TABLE
  2
VIEW
  5
6
330
0
100
AcDbSymbolTable
 70
     0
  0
ENDTAB
  0
TABLE
  2
UCS
  5
7
330
0
100
AcDbSymbolTable
 70
     0
  0
ENDTAB
  0
TABLE
  2
APPID
  5
9
330
0
100
AcDbSymbolTable
 70
     1
  0
APPID
  5
12
330
9
100
AcDbSymbolTableRecord
100
AcDbRegAppTableRecord
  2
ACAD
 70
     0
  0
ENDTAB
  0
TABLE
  2
DIMSTYLE
  5
A
330
0
100
AcDbSymbolTable
 70
     1
100
AcDbDimStyleTable
  0
DIMSTYLE
105
27
330
A
100
AcDbSymbolTableRecord
100
AcDbDimStyleTableRecord
  2
Standard
 70
     0
178
     0
340
11
  0
ENDTAB
  0
TABLE
  2
BLOCK_RECORD
  5
1
330
0
100
AcDbSymbolTable
 70
     5
  0
BLOCK_RECORD
  5
1F
330
1
100
AcDbSymbolTableRecord
100
AcDbBlockTableRecord
  2
*Model_Space
340
22
 70
     0
280
     1
281
     0
  0
BLOCK_RECORD
  5
1B
330
1
100
AcDbSymbolTableRecord
100
AcDbBlockTableRecord
  2
*Paper_Space
340
1E
 70
     0
280
     1
281
     0
  0
BLOCK_RECORD
  5
23
330
1
100
AcDbSymbolTableRecord
100
AcDbBlockTableRecord
  2
*Paper_Space0
340
26
 70
     0
280
     1
281
     0
  0
BLOCK_RECORD
  5
6E
330
1
100
AcDbSymbolTableRecord
100
AcDbBlockTableRecord
  2
1_124662_2
340
0
102
{BLKREFS
331
6F
102
}
 70
     0
280
     1
281
     0
  0
BLOCK_RECORD
  5
89
330
1
100
AcDbSymbolTableRecord
100
AcDbBlockTableRecord
  2
2_077976_0_in_124662_2
340
0
102
{BLKREFS
331
8A
102
}
 70
     0
280
     1
281
     0
  0
BLOCK_RECORD
  5
DD
330
1
100
AcDbSymbolTableRecord
100
AcDbBlockTableRecord
  2
3_430026_0_in_124662_2
340
0
102
{BLKREFS
331
DE
102
}
 70
     0
280
     1
281
     0
  0
BLOCK_RECORD
  5
105
330
1
100
AcDbSymbolTableRecord
100
AcDbBlockTableRecord
  2
4_124662H_0_in_124662_2
340
0
102
{BLKREFS
331
106
102
}
 70
     0
280
     1
281
     0
  0
ENDTAB
  0
ENDSEC
  0
SECTION
  2
BLOCKS
  0
BLOCK
  5
20
330
1F
100
AcDbEntity
  8
0
100
AcDbBlockBegin
  2
*Model_Space
 70
     0
 10
0.0
 20
0.0
 30
0.0
  3
*Model_Space
  1

  0
ENDBLK
  5
21
330
1F
100
AcDbEntity
  8
0
100
AcDbBlockEnd
  0
BLOCK
  5
1C
330
1B
100
AcDbEntity
 67
     1
  8
0
100
AcDbBlockBegin
  2
*Paper_Space
 70
     0
 10
0.0
 20
0.0
 30
0.0
  3
*Paper_Space
  1

  0
ENDBLK
  5
1D
330
1B
100
AcDbEntity
 67
     1
  8
0
100
AcDbBlockEnd
  0
BLOCK
  5
24
330
23
100
AcDbEntity
  8
0
100
AcDbBlockBegin
  2
*Paper_Space0
 70
     0
 10
0.0
 20
0.0
 30
0.0
  3
*Paper_Space0
  1

  0
ENDBLK
  5
25
330
23
100
AcDbEntity
  8
0
100
AcDbBlockEnd
  0
BLOCK
  5
70
330
6E
100
AcDbEntity
  8
0
100
AcDbBlockBegin
  2
1_124662_2
 70
     2
 10
0.0
 20
0.0
 30
0.0
  3
1_124662_2
  1

  0
ATTDEF
  5
73
330
6E
100
AcDbEntity
  8
AM_6
100
AcDbText
 10
5.0425
 20
1.780000000000002
 30
0.0
 40
0.5
  1
Set Screw LFT Duty 2-Bolt Flange Inch Bore
100
AcDbAttributeDefinition
  3

  2
NN
 70
     8
280
     0
  0
ATTDEF
  5
74
330
6E
100
AcDbEntity
  8
AM_6
100
AcDbText
 10
5.0425
 20
1.280000000000002
 30
0.0
 40
0.5
  1
SC 2 Bolt Flange Bearings -(Normal Duty) -Re-Lube and No-Lube
100
AcDbAttributeDefinition
  3

  2
NT
 70
     8
280
     0
  0
ATTDEF
  5
75
330
6E
100
AcDbEntity
  8
AM_6
100
AcDbText
 10
5.0425
 20
0.7800000000000022
 30
0.0
 40
0.5
  1
124662
100
AcDbAttributeDefinition
  3

  2
NB
 70
     8
280
     0
  0
ATTDEF
  5
76
330
6E
100
AcDbEntity
  8
AM_6
100
AcDbText
 10
5.0425
 20
0.2800000000000022
 30
0.0
 40
0.5
  1
$PN.
100
AcDbAttributeDefinition
  3

  2
NBSYN
 70
     8
280
     0
  0
ATTDEF
  5
77
330
6E
100
AcDbEntity
  8
AM_6
100
AcDbText
 10
5.0425
 20
-0.2199999999999978
 30
0.0
 40
0.5
  1
124662
100
AcDbAttributeDefinition
  3

  2
LINA
 70
     8
280
     0
  0
ATTDEF
  5
78
330
6E
100
AcDbEntity
  8
AM_6
100
AcDbText
 10
5.0425
 20
-0.7199999999999978
 30
0.0
 40
0.5
  1
204
100
AcDbAttributeDefinition
  3

  2
SERIES
 70
     8
280
     0
  0
ATTDEF
  5
79
330
6E
100
AcDbEntity
  8
AM_6
100
AcDbText
 10
5.0425
 20
-1.219999999999998
 30
0.0
 40
0.5
  1
3/4
100
AcDbAttributeDefinition
  3

  2
SS
 70
     8
280
     0
  0
ATTDEF
  5
7A
330
6E
100
AcDbEntity
  8
AM_6
100
AcDbText
 10
5.0425
 20
-1.719999999999998
 30
0.0
 40
0.5
  1
124662
100
AcDbAttributeDefinition
  3

  2
PN
 70
     8
280
     0
  0
ATTDEF
  5
7B
330
6E
100
AcDbEntity
  8
AM_6
100
AcDbText
 10
5.0425
 20
-2.219999999999998
 30
0.0
 40
0.5
  1
LFT-SC-012-NL
100
AcDbAttributeDefinition
  3

  2
DESCRIPTION
 70
     8
280
     0
  0
ATTDEF
  5
7C
330
6E
100
AcDbEntity
  8
AM_6
100
AcDbText
 10
5.0425
 20
-2.719999999999998
 30
0.0
 40
0.5
  1
0.80
100
AcDbAttributeDefinition
  3

  2
W
 70
     8
280
     0
  0
ATTDEF
  5
7D
330
6E
100
AcDbEntity
  8
AM_6
100
AcDbText
 10
5.0425
 20
-3.219999999999998
 30
0.0
 40
0.5
  1
NO-LUBE
100
AcDbAttributeDefinition
  3

  2
LF
 70
     8
280
     0
  0
ATTDEF
  5
7E
330
6E
100
AcDbEntity
  8
AM_6
100
AcDbText
 10
5.0425
 20
-3.719999999999998
 30
0.0
 40
0.5
  1
1.02
100
AcDbAttributeDefinition
  3

  2
A
 70
     8
280
     0
  0
ATTDEF
  5
7F
330
6E
100
AcDbEntity
  8
AM_6
100
AcDbText
 10
5.0425
 20
-4.219999999999998
 30
0.0
 40
0.5
  1
3.56
100
AcDbAttributeDefinition
  3

  2
B
 70
     8
280
     0
  0
ATTDEF
  5
80
330
6E
100
AcDbEntity
  8
AM_6
100
AcDbText
 10
5.0425
 20
-4.719999999999998
 30
0.0
 40
0.5
  1
1.21
100
AcDbAttributeDefinition
  3

  2
C
 70
     8
280
     0
  0
ATTDEF
  5
81
330
6E
100
AcDbEntity
  8
AM_6
100
AcDbText
 10
5.0425
 20
-5.219999999999998
 30
0.0
 40
0.5
  1
2.81
100
AcDbAttributeDefinition
  3

  2
D
 70
     8
280
     0
  0
ATTDEF
  5
82
330
6E
100
AcDbEntity
  8
AM_6
100
AcDbText
 10
5.0425
 20
-5.719999999999998
 30
0.0
 40
0.5
  1
0.34
100
AcDbAttributeDefinition
  3

  2
G
 70
     8
280
     0
  0
ATTDEF
  5
83
330
6E
100
AcDbEntity
  8
AM_6
100
AcDbText
 10
5.0425
 20
-6.219999999999998
 30
0.0
 40
0.5
  1
0.42
100
AcDbAttributeDefinition
  3

  2
H
 70
     8
280
     0
  0
ATTDEF
  5
84
330
6E
100
AcDbEntity
  8
AM_6
100
AcDbText
 10
5.0425
 20
-6.719999999999998
 30
0.0
 40
0.5
  1
0.36
100
AcDbAttributeDefinition
  3

  2
J
 70
     8
280
     0
  0
ATTDEF
  5
85
330
6E
100
AcDbEntity
  8
AM_6
100
AcDbText
 10
5.0425
 20
-7.219999999999998
 30
0.0
 40
0.5
  1
1.12
100
AcDbAttributeDefinition
  3

  2
L
 70
     8
280
     0
  0
ATTDEF
  5
86
330
6E
100
AcDbEntity
  8
AM_6
100
AcDbText
 10
5.0425
 20
-7.719999999999998
 30
0.0
 40
0.5
  1
2.38
100
AcDbAttributeDefinition
  3

  2
M
 70
     8
280
     0
  0
ATTDEF
  5
87
330
6E
100
AcDbEntity
  8
AM_6
100
AcDbText
 10
5.0425
 20
-8.219999999999999
 30
0.0
 40
0.5
  1
1.34
100
AcDbAttributeDefinition
  3

  2
N
 70
     8
280
     0
  0
ATTDEF
  5
88
330
6E
100
AcDbEntity
  8
AM_6
100
AcDbText
 10
5.0425
 20
-8.719999999999999
 30
0.0
 40
0.5
  1
baldor
100
AcDbAttributeDefinition
  3

  2
COMPANY
 70
     8
280
     0
  0
INSERT
  5
8A
330
6E
100
AcDbEntity
  8
0
100
AcDbBlockReference
  2
2_077976_0_in_124662_2
 10
0.0
 20
0.0
 30
0.0
  0
INSERT
  5
DE
330
6E
100
AcDbEntity
  8
0
100
AcDbBlockReference
  2
3_430026_0_in_124662_2
 10
0.0
 20
0.0
 30
0.0
  0
INSERT
  5
106
330
6E
100
AcDbEntity
  8
0
100
AcDbBlockReference
  2
4_124662H_0_in_124662_2
 10
0.0
 20
0.0
 30
0.0
  0
ENDBLK
  5
71
330
6E
100
AcDbEntity
  8
0
100
AcDbBlockEnd
  0
BLOCK
  5
8B
330
89
100
AcDbEntity
  8
0
100
AcDbBlockBegin
  2
2_077976_0_in_124662_2
 70
     2
 10
0.0
 20
0.0
 30
0.0
  3
2_077976_0_in_124662_2
  1

  0
ATTDEF
  5
8D
330
89
100
AcDbEntity
  8
AM_6
100
AcDbText
 10
4.81
 20
0.924466108234977
 30
0.0
 40
0.5
  1
Set Screw Light Duty Insert with Pin Inch Bore
100
AcDbAttributeDefinition
  3

  2
NN
 70
     8
280
     0
  0
ATTDEF
  5
8E
330
89
100
AcDbEntity
  8
AM_6
100
AcDbText
 10
4.81
 20
0.424466108234977
 30
0.0
 40
0.5
  1
SCP Bearing Inserts
100
AcDbAttributeDefinition
  3

  2
NT
 70
     8
280
     0
  0
ATTDEF
  5
8F
330
89
100
AcDbEntity
  8
AM_6
100
AcDbText
 10
4.81
 20
-0.075533891765023
 30
0.0
 40
0.5
  1
077976
100
AcDbAttributeDefinition
  3

  2
NB
 70
     8
280
     0
  0
ATTDEF
  5
90
330
89
100
AcDbEntity
  8
AM_6
100
AcDbText
 10
4.81
 20
-0.575533891765023
 30
0.0
 40
0.5
  1
$PN.
100
AcDbAttributeDefinition
  3

  2
NBSYN
 70
     8
280
     0
  0
ATTDEF
  5
91
330
89
100
AcDbEntity
  8
AM_6
100
AcDbText
 10
4.81
 20
-1.075533891765023
 30
0.0
 40
0.5
  1
077976
100
AcDbAttributeDefinition
  3

  2
LINA
 70
     8
280
     0
  0
ATTDEF
  5
92
330
89
100
AcDbEntity
  8
AM_6
100
AcDbText
 10
4.81
 20
-1.575533891765023
 30
0.0
 40
0.5
  1
204
100
AcDbAttributeDefinition
  3

  2
SERIES
 70
     8
280
     0
  0
ATTDEF
  5
93
330
89
100
AcDbEntity
  8
AM_6
100
AcDbText
 10
4.81
 20
-2.075533891765023
 30
0.0
 40
0.5
  1
3/4
100
AcDbAttributeDefinition
  3

  2
SS
 70
     8
280
     0
  0
ATTDEF
  5
94
330
89
100
AcDbEntity
  8
AM_6
100
AcDbText
 10
4.81
 20
-2.575533891765023
 30
0.0
 40
0.5
  1
077976
100
AcDbAttributeDefinition
  3

  2
PN
 70
     8
280
     0
  0
ATTDEF
  5
95
330
89
100
AcDbEntity
  8
AM_6
100
AcDbText
 10
4.81
 20
-3.075533891765023
 30
0.0
 40
0.5
  1
INS-SCP-012
100
AcDbAttributeDefinition
  3

  2
DESCRIPTION
 70
     8
280
     0
  0
ATTDEF
  5
96
330
89
100
AcDbEntity
  8
AM_6
100
AcDbText
 10
4.81
 20
-3.575533891765023
 30
0.0
 40
0.5
  1
1.02
100
AcDbAttributeDefinition
  3

  2
A
 70
     8
280
     0
  0
ATTDEF
  5
97
330
89
100
AcDbEntity
  8
AM_6
100
AcDbText
 10
4.81
 20
-4.075533891765023
 30
0.0
 40
0.5
  1
0.58
100
AcDbAttributeDefinition
  3

  2
C
 70
     8
280
     0
  0
ATTDEF
  5
98
330
89
100
AcDbEntity
  8
AM_6
100
AcDbText
 10
4.81
 20
-4.575533891765023
 30
0.0
 40
0.5
  1
1.8504
100
AcDbAttributeDefinition
  3

  2
D
 70
     8
280
     0
  0
ATTDEF
  5
99
330
89
100
AcDbEntity
  8
AM_6
100
AcDbText
 10
4.81
 20
-5.075533891765023
 30
0.0
 40
0.5
  1
0.15
100
AcDbAttributeDefinition
  3

  2
J
 70
     8
280
     0
  0
ATTDEF
  5
9A
330
89
100
AcDbEntity
  8
AM_6
100
AcDbText
 10
4.81
 20
-5.575533891765023
 30
0.0
 40
0.5
  1
1.12
100
AcDbAttributeDefinition
  3

  2
L
 70
     8
280
     0
  0
ATTDEF
  5
9B
330
89
100
AcDbEntity
  8
AM_6
100
AcDbText
 10
4.81
 20
-6.075533891765023
 30
0.0
 40
0.5
  1
1/4 - 28
100
AcDbAttributeDefinition
  3

  2
N
 70
     8
280
     0
  0
ATTDEF
  5
9C
330
89
100
AcDbEntity
  8
AM_6
100
AcDbText
 10
4.81
 20
-6.575533891765023
 30
0.0
 40
0.5
  1
0.29
100
AcDbAttributeDefinition
  3

  2
W
 70
     8
280
     0
  0
ATTDEF
  5
9D
330
89
100
AcDbEntity
  8
AM_6
100
AcDbText
 10
4.81
 20
-7.075533891765023
 30
0.0
 40
0.5
  1
0.73
100
AcDbAttributeDefinition
  3

  2
Y
 70
     8
280
     0
  0
ATTDEF
  5
9E
330
89
100
AcDbEntity
  8
AM_6
100
AcDbText
 10
4.81
 20
-7.575533891765023
 30
0.0
 40
0.5
  1
baldor
100
AcDbAttributeDefinition
  3

  2
COMPANY
 70
     8
280
     0
  0
LWPOLYLINE
  5
A1
330
89
100
AcDbEntity
  8
AM_9
100
AcDbPolyline
 90
       14
 70
     0
 43
0.0
 10
-0.33
 20
0.7178169118765902
 10
-0.3360115297006843
 20
0.717628443424436
 10
-0.3447336040092085
 20
0.7166766140967308
 10
-0.3533723559158756
 20
0.7149085053260834
 10
-0.3618304634749365
 20
0.7123139039621881
 10
-0.3699982850572531
 20
0.708892583847067
 10
-0.3777533060950087
 20
0.704662314359439
 10
-0.3849669287717442
 20
0.6996658340757834
 10
-0.3908618191544427
 20
0.6946023853629575
 10
-0.3961429847735325
 20
0.6890547761580502
 10
-0.400771076265908
 20
0.6830769297792266
 10
-0.4051028345130286
 20
0.6760068547696346
 10
-0.4085373428981645
 20
0.6685915159392539
 10
-0.4094560119324283
 20
0.6661248686317628
  0
LWPOLYLINE
  5
A2
330
89
100
AcDbEntity
  8
AM_9
100
AcDbPolyline
 90
       18
 70
     0
 43
0.0
 10
-0.2466666718210306
 20
0.6434214039573646
 10
-0.2466930559479789
 20
0.6453425955075628
 10
-0.2473415168761147
 20
0.6530090850922746
 10
-0.2488331057626196
 20
0.660495114093653
 10
-0.2511306177497149
 20
0.6677324423023531
 10
-0.2541955036511835
 20
0.6746624144933414
 10
-0.2579895842381627
 20
0.6812336044246458
 10
-0.2624763468823015
 20
0.6874004556978639
 10
-0.2676214073665603
 20
0.6931213285111212
 10
-0.2733916460499271
 20
0.6983560863265282
 10
-0.2797525780494933
 20
0.703063644336831
 10
-0.2866639717133336
 20
0.7072002803848909
 10
-0.2940747463210013
 20
0.7107197202689117
 10
-0.3019193932606845
 20
0.7135755828014673
 10
-0.3101183639902012
 20
0.7157254686248972
 10
-0.318582939382127
 20
0.7171345721338933
 10
-0.327222038145227
 20
0.7177767110956235
 10
-0.33
 20
0.7178169118765902
  0
LWPOLYLINE
  5
A3
330
89
100
AcDbEntity
  8
AM_9
100
AcDbPolyline
 90
        9
 70
     0
 43
0.0
 10
-0.4094661654947763
 20
0.6660959183990357
 10
-0.4074328242531703
 20
0.6708841978209558
 10
-0.4018783263653914
 20
0.6794109337471441
 10
-0.3942478676730423
 20
0.6868655791580099
 10
-0.3847704784764105
 20
0.6930678189575176
 10
-0.3737659505675486
 20
0.697788701472029
 10
-0.3615092660344377
 20
0.7009541856507816
 10
-0.3485124361388546
 20
0.7024370202843097
 10
-0.3349992294153799
 20
0.702267322349048
  0
ELLIPSE
  5
A4
330
89
100
AcDbEntity
  8
AM_9
100
AcDbEllipse
 10
-0.3300000000000002
 20
0.6434478861493623
 30
0.0
 11
-0.08333333333333814
 21
1.020538999289520E-17
 31
0.0
210
0.0
220
0.0
230
1.0
 40
0.7071067811865475
 41
1.510769532052064
 42
4.772415775127476
  0
LINE
  5
A5
330
89
100
AcDbEntity
  8
AM_9
100
AcDbLine
 10
-0.246666666666662
 20
0.633102059922205
 30
0.0
 11
-0.246666666666662
 21
0.6434478861493623
 31
0.0
  0
LWPOLYLINE
  5
A6
330
89
100
AcDbEntity
  8
AM_9
100
AcDbPolyline
 90
       12
 70
     0
 43
0.0
 10
-0.2466666667979155
 20
0.6330714692808922
 10
-0.2468603310870985
 20
0.6371060707639278
 10
-0.2489579558981123
 20
0.647037078567536
 10
-0.2532738765895555
 20
0.656845508565874
 10
-0.2597195730543731
 20
0.6662651820332167
 10
-0.2680711073713671
 20
0.6750276774060261
 10
-0.278213821111629
 20
0.6829536320345369
 10
-0.2897640405162993
 20
0.689755410431527
 10
-0.3025877411386786
 20
0.6952990987692986
 10
-0.3161662115330911
 20
0.6993569236852447
 10
-0.3255547859537868
 20
0.7011866146870039
 10
-0.3349992294153865
 20
0.702267322349047
  0
LINE
  5
A7
330
89
100
AcDbEntity
  8
AM_9
100
AcDbLine
 10
-0.8920500000000001
 20
0.2651175145640884
 30
0.0
 11
-0.8920500000000001
 21
0.3810038866729051
 31
0.0
  0
LINE
  5
A8
330
89
100
AcDbEntity
  8
AM_9
100
AcDbLine
 10
-1.08795
 20
0.3810038866729051
 30
0.0
 11
-1.08795
 21
0.2651018057003393
 31
0.0
  0
LWPOLYLINE
  5
A9
330
89
100
AcDbEntity
  8
AM_9
100
AcDbPolyline
 90
       21
 70
     0
 43
0.0
 10
-1.087949999862058
 20
0.2651687187097178
 10
-1.087462461821205
 20
0.2581733564589303
 10
-1.08456758660124
 20
0.2465304237572797
 10
-1.079185966507596
 20
0.2349780218472766
 10
-1.071362200044859
 20
0.2237918529821215
 10
-1.061385215588464
 20
0.2134639984810925
 10
-1.049110645728504
 20
0.2041319948082981
 10
-1.035150440717545
 20
0.1964791978259681
 10
-1.019762972017171
 20
0.190848740100419
 10
-1.00347783372801
 20
0.1875348232990576
 10
-0.9872546072828913
 20
0.1867445716747679
 10
-0.9711112481772999
 20
0.1883469178854772
 10
-0.9558008655473494
 20
0.1922064503964581
 10
-0.9414231863236533
 20
0.1981106791661907
 10
-0.9280973008200769
 20
0.2060079548190966
 10
-0.9164582727574654
 20
0.2154404883434307
 10
-0.9065894165763976
 20
0.2263695520497678
 10
-0.8990907618482306
 20
0.2381235892733899
 10
-0.8942549322917875
 20
0.2501844464905411
 10
-0.8921376963329348
 20
0.2622186630171718
 10
-0.8920500005578919
 20
0.2651576505745698
  0
LWPOLYLINE
  5
AA
330
89
100
AcDbEntity
  8
AM_9
100
AcDbPolyline
 90
        8
 70
     0
 43
0.0
 10
-0.8920500005578919
 20
0.2651576505745698
 10
-0.8927936737602438
 20
0.27348748632219
 10
-0.8960584065381958
 20
0.2840498193472185
 10
-0.9018172179219529
 20
0.2935805393075088
 10
-0.9098789607936331
 20
0.3019970288112752
 10
-0.9203400127605778
 20
0.3093395969254272
 10
-0.9327168246927418
 20
0.315326928285265
 10
-0.9454731499415802
 20
0.3195799791109893
  0
LWPOLYLINE
  5
AB
330
89
100
AcDbEntity
  8
AM_9
100
AcDbPolyline
 90
        9
 70
     0
 43
0.0
 10
-1.034255943788364
 20
0.3196540540023103
 10
-1.036525139995595
 20
0.3190096360124213
 10
-1.049982973564907
 20
0.3142052598300638
 10
-1.062042185170395
 20
0.3078973057709781
 10
-1.072103841743064
 20
0.3002313767924646
 10
-1.079965933330256
 20
0.291116190561875
 10
-1.08524921632715
 20
0.2808248715160866
 10
-1.087713893345544
 20
0.2698143115406927
 10
-1.087949999862058
 20
0.2651687187097178
  0
LINE
  5
AC
330
89
100
AcDbEntity
  8
AM_9
100
AcDbLine
 10
-0.2124000000000001
 20
0.3749999999999999
 30
0.0
 11
-1.1876
 21
0.3749999999999999
 31
0.0
  0
LINE
  5
AD
330
89
100
AcDbEntity
  8
AM_9
100
AcDbLine
 10
-1.1876
 20
-0.3749999999999999
 30
0.0
 11
-0.2124000000000001
 21
-0.3749999999999999
 31
0.0
  0
LINE
  5
AE
330
89
100
AcDbEntity
  8
AM_9
100
AcDbLine
 10
-0.2124000000000001
 20
-0.3749999999999999
 30
0.0
 11
-0.2124000000000001
 21
0.3749999999999999
 31
0.0
  0
LINE
  5
AF
330
89
100
AcDbEntity
  8
AM_9
100
AcDbLine
 10
-0.2124000000000001
 20
-0.3749999999999999
 30
0.0
 11
-0.1899999999999999
 21
-0.397399999999995
 31
0.0
  0
LINE
  5
B0
330
89
100
AcDbEntity
  8
AM_9
100
AcDbLine
 10
-0.1899999999999999
 20
0.397399999999995
 30
0.0
 11
-0.2124000000000001
 21
0.3749999999999999
 31
0.0
  0
LINE
  5
B1
330
89
100
AcDbEntity
  8
AM_9
100
AcDbLine
 10
-1.1876
 20
0.3749999999999999
 30
0.0
 11
-1.21
 21
0.397399999999995
 31
0.0
  0
LINE
  5
B2
330
89
100
AcDbEntity
  8
AM_9
100
AcDbLine
 10
-1.21
 20
-0.397399999999995
 30
0.0
 11
-1.1876
 21
-0.3749999999999999
 31
0.0
  0
LWPOLYLINE
  5
B3
330
89
100
AcDbEntity
  8
AM_9
100
AcDbPolyline
 90
       11
 70
     0
 43
0.0
 10
-0.9900000000000001
 20
-0.0317621626134356
 10
-1.00589463422829
 20
-0.033101403532956
 10
-1.02178926845658
 20
-0.0372209463902538
 10
-1.036335427238251
 20
-0.0437222493410186
 10
-1.049982973564907
 20
-0.0527278175636211
 10
-1.061893886068054
 20
-0.0637109700579805
 10
-1.072103841743064
 20
-0.0767560914710372
 10
-1.079875896410435
 20
-0.0909700330060684
 10
-1.08524921632715
 20
-0.1065542589373905
 10
-1.087707620780698
 20
-0.1217647692756016
 10
-1.087949999868219
 20
-0.1282527792179854
  0
LINE
  5
B4
330
89
100
AcDbEntity
  8
AM_9
100
AcDbLine
 10
-1.08795
 20
-0.1282269036959855
 30
0.0
 11
-1.08795
 21
-0.1842875890807295
 31
0.0
  0
LINE
  5
B5
330
89
100
AcDbEntity
  8
AM_9
100
AcDbLine
 10
-0.8920500000000001
 20
-0.1842875890807295
 30
0.0
 11
-0.8920500000000001
 21
-0.1282354080007426
 31
0.0
  0
LWPOLYLINE
  5
B6
330
89
100
AcDbEntity
  8
AM_9
100
AcDbPolyline
 90
        4
 70
     0
 43
0.0
 10
-0.8968311073532679
 20
-0.1562456386674871
 10
-0.8942978320639304
 20
-0.1476644379489838
 10
-0.8921376963329348
 20
-0.1321437277555249
 10
-0.8920500004798508
 20
-0.1282666645064702
  0
LWPOLYLINE
  5
B7
330
89
100
AcDbEntity
  8
AM_9
100
AcDbPolyline
 90
        4
 70
     0
 43
0.0
 10
-1.087949999868219
 20
-0.1282527792179854
 10
-1.087462461821205
 20
-0.1373861469880127
 10
-1.084634600858706
 20
-0.1517106324431206
 10
-1.08312439798434
 20
-0.1563703936424198
  0
LWPOLYLINE
  5
B8
330
89
100
AcDbEntity
  8
AM_9
100
AcDbPolyline
 90
       11
 70
     0
 43
0.0
 10
-0.8920500004798508
 20
-0.1282666645064702
 10
-0.8927554377099705
 20
-0.1171679569475998
 10
-0.8960584065381959
 20
-0.1018447904473493
 10
-0.9017155754837577
 20
-0.0875655549766305
 10
-0.9098789607936332
 20
-0.0738539823684138
 10
-0.920176533060125
 20
-0.061535868778668
 10
-0.9327168246927418
 20
-0.0506839150429118
 10
-0.9467920756634116
 20
-0.0420803019036192
 10
-0.9626003062585233
 20
-0.0357908371382509
 10
-0.9760046447318032
 20
-0.0327990558596828
 10
-0.9900000000000001
 20
-0.0317621626134356
  0
LINE
  5
B9
330
89
100
AcDbEntity
  8
AM_9
100
AcDbLine
 10
-0.77
 20
0.5600000000000043
 30
0.0
 11
-0.8499999999999999
 21
0.5600000000000043
 31
0.0
  0
LINE
  5
BA
330
89
100
AcDbEntity
  8
AM_9
100
AcDbLine
 10
-0.85
 20
-0.5600000000000043
 30
0.0
 11
-0.77
 21
-0.5600000000000043
 31
0.0
  0
LINE
  5
BB
330
89
100
AcDbEntity
  8
AM_9
100
AcDbLine
 10
-0.6
 20
0.8751999999999849
 30
0.0
 11
-0.66
 21
0.8751999999999849
 31
0.0
  0
LINE
  5
BC
330
89
100
AcDbEntity
  8
AM_9
100
AcDbLine
 10
-0.66
 20
-0.8751999999999849
 30
0.0
 11
-0.6
 21
-0.8751999999999849
 31
0.0
  0
LINE
  5
BD
330
89
100
AcDbEntity
  8
AM_9
100
AcDbLine
 10
-0.77
 20
-0.8566113704592043
 30
0.0
 11
-0.77
 21
0.8566113704592043
 31
0.0
  0
ARC
  5
BE
330
89
100
AcDbEntity
  8
AM_9
100
AcDbCircle
 10
-0.7400000000000003
 20
0.8566113704592068
 30
0.0
 40
0.0299999999999997
100
AcDbArc
 50
106.8841737304789
 51
180.0
  0
ARC
  5
BF
330
89
100
AcDbEntity
  8
AM_9
100
AcDbCircle
 10
-0.7400000000000003
 20
-0.8566113704592068
 30
0.0
 40
0.0299999999999997
100
AcDbArc
 50
180.0
 51
253.1158262695211
  0
LINE
  5
C0
330
89
100
AcDbEntity
  8
AM_9
100
AcDbLine
 10
-0.1899999999999999
 20
-0.8566113704592067
 30
0.0
 11
-0.1899999999999999
 21
0.8566113704592067
 31
0.0
  0
ARC
  5
C1
330
89
100
AcDbEntity
  8
AM_9
100
AcDbCircle
 10
-0.2199999999999996
 20
0.8566113704592069
 30
0.0
 40
0.0299999999999997
100
AcDbArc
 50
0.0
 51
73.11582626952104
  0
ARC
  5
C2
330
89
100
AcDbEntity
  8
AM_9
100
AcDbCircle
 10
-0.2199999999999996
 20
-0.8566113704592069
 30
0.0
 40
0.0299999999999996
100
AcDbArc
 50
286.884173730479
 51
0.0
  0
ARC
  5
C3
330
89
100
AcDbEntity
  8
AM_9
100
AcDbCircle
 10
-0.4799999999977377
 20
-0.0000000000090563
 30
0.0
 40
0.9252000000093115
100
AcDbArc
 50
101.2185847845389
 51
106.8841737304496
  0
ARC
  5
C4
330
89
100
AcDbEntity
  8
AM_9
100
AcDbCircle
 10
-0.4799999999865263
 20
0.0000000000539137
 30
0.0
 40
0.9252000000554362
100
AcDbArc
 50
253.1158262696919
 51
258.7814152153198
  0
LINE
  5
C5
330
89
100
AcDbEntity
  8
AM_9
100
AcDbLine
 10
-0.66
 20
-0.9075213716491051
 30
0.0
 11
-0.66
 21
0.9075213716491628
 31
0.0
  0
LINE
  5
C6
330
89
100
AcDbEntity
  8
AM_9
100
AcDbLine
 10
-0.7487131367292231
 20
-0.8853181858230511
 30
0.0
 11
-0.7487131367292231
 21
0.8853181858231087
 31
0.0
  0
LWPOLYLINE
  5
C7
330
89
100
AcDbEntity
  8
AM_9
100
AcDbPolyline
 90
       12
 70
     0
 43
0.0
 10
-0.3349992294153903
 20
0.5846284499496777
 10
-0.3480687592138299
 20
0.5874858165229454
 10
-0.3606670860216954
 20
0.5917830622569422
 10
-0.3728415376275118
 20
0.5976388952449209
 10
-0.3838214358257589
 20
0.6047428883226502
 10
-0.3933258968542621
 20
0.6129483466674731
 10
-0.4010623578565612
 20
0.6219771867787439
 10
-0.4068306714218007
 20
0.6316566629153173
 10
-0.4104400300139621
 20
0.6416434127941704
 10
-0.4117649380806889
 20
0.6517285065742838
 10
-0.4107688952113934
 20
0.6615605688277363
 10
-0.4094661654947763
 20
0.6660959183990357
  0
LWPOLYLINE
  5
C8
330
89
100
AcDbEntity
  8
AM_9
100
AcDbPolyline
 90
       11
 70
     0
 43
0.0
 10
-0.3349992294153903
 20
0.5846284499496778
 10
-0.3208281322433991
 20
0.5832322726419616
 10
-0.3069150332375282
 20
0.5835465653627325
 10
-0.2936357027654778
 20
0.5855958304134867
 10
-0.2813891332905372
 20
0.5893070722517906
 10
-0.2706028512347
 20
0.5945759533159247
 10
-0.2615129734868837
 20
0.6012539676913361
 10
-0.2544994076786533
 20
0.6090692386176548
 10
-0.2496234553515357
 20
0.6178611165476398
 10
-0.2470877189442295
 20
0.6272632292703988
 10
-0.2466666667979155
 20
0.6330714692808922
  0
ARC
  5
C9
330
89
100
AcDbEntity
  8
AM_9
100
AcDbCircle
 10
-0.4799999999999994
 20
-0.000000000000004
 30
0.0
 40
0.9252000000000034
100
AcDbArc
 50
73.1158262695219
 51
97.45235424469954
  0
ARC
  5
CA
330
89
100
AcDbEntity
  8
AM_9
100
AcDbCircle
 10
-0.4800000000000041
 20
0.000000000000056
 30
0.0
 40
0.9252000000000521
100
AcDbArc
 50
262.5476457553012
 51
286.8841737304774
  0
LINE
  5
CB
330
89
100
AcDbEntity
  8
AM_9
100
AcDbLine
 10
-0.2112868632707768
 20
-0.885318185823118
 30
0.0
 11
-0.2112868632707768
 21
0.8853181858231205
 31
0.0
  0
LINE
  5
CC
330
89
100
AcDbEntity
  8
AM_9
100
AcDbLine
 10
-0.6
 20
-0.9173848919619261
 30
0.0
 11
-0.6
 21
0.9173848919619283
 31
0.0
  0
ELLIPSE
  5
CD
330
89
100
AcDbEntity
  8
AM_9
100
AcDbEllipse
 10
-0.3299999999999991
 20
0.6807316982482913
 30
0.0
 11
-0.03060606060605886
 21
3.748161415571988E-18
 31
0.0
210
0.0
220
0.0
230
1.0
 40
0.7071067811865462
 41
0.0
 42
6.283185307179586
  0
ELLIPSE
  5
CF
330
89
100
AcDbEntity
  8
AM_4
100
AcDbEllipse
 10
-0.99
 20
0.3810038866729051
 30
0.0
 11
0.09794999999999998
 21
0.0
 31
0.0
210
0.0
220
0.0
230
1.0
 40
0.7071067811865471
 41
3.141592653589793
 42
7.853981633974483
  0
LWPOLYLINE
  5
D0
330
89
100
AcDbEntity
  8
AM_4
100
AcDbPolyline
 90
        5
 70
     0
 43
0.0
 10
-0.9454731499415802
 20
0.3195799791109893
 10
-0.9470197844847076
 20
0.3199893993385803
 10
-0.9626003062585233
 20
0.3231880630556614
 10
-0.9761532480007866
 20
0.3247105419576868
 10
-0.9900000000000001
 20
0.3252208692382069
  0
ELLIPSE
  5
D1
330
89
100
AcDbEntity
  8
AM_4
100
AcDbEllipse
 10
-0.99
 20
0.3810038866729053
 30
0.0
 11
0.09794999999999998
 21
0.0
 31
0.0
210
0.0
220
0.0
230
1.0
 40
0.7071067811865466
 41
1.570796326794897
 42
3.141592653589793
  0
LWPOLYLINE
  5
D2
330
89
100
AcDbEntity
  8
AM_4
100
AcDbPolyline
 90
        4
 70
     0
 43
0.0
 10
-0.9900000000000001
 20
0.3252208692382069
 10
-1.006125894515352
 20
0.3245259659614338
 10
-1.02178926845658
 20
0.3224568944155709
 10
-1.034255943788364
 20
0.3196540540023103
  0
LWPOLYLINE
  5
D3
330
89
100
AcDbEntity
  8
AM_4
100
AcDbPolyline
 90
       17
 70
     0
 43
0.0
 10
-1.08312439798434
 20
-0.1563703936424198
 10
-1.079185966507596
 20
-0.1655628612331964
 10
-1.071489368511822
 20
-0.17797368927685
 10
-1.061385215588464
 20
-0.189214475109286
 10
-1.049302847918643
 20
-0.1987116043749706
 10
-1.035150440717545
 20
-0.2064454864678879
 10
-1.020008781519383
 20
-0.2118465886503616
 10
-1.00347783372801
 20
-0.2150582228767103
 10
-0.9874960200991308
 20
-0.2158208286399929
 10
-0.9711112481772999
 20
-0.2142887484430417
 10
-0.9560019371282764
 20
-0.2106704654075285
 10
-0.9414231863236533
 20
-0.204841214305831
 10
-0.9282620483641476
 20
-0.1970504406260898
 10
-0.9164582727574654
 20
-0.1871304178087765
 10
-0.9067087435503941
 20
-0.175475599816845
 10
-0.8990907618482306
 20
-0.1619158351836602
 10
-0.8968311073532679
 20
-0.1562456386674871
  0
LWPOLYLINE
  5
D4
330
89
100
AcDbEntity
  8
AM_4
100
AcDbPolyline
 90
       44
 70
     0
 43
0.0
 10
-0.9086738393468989
 20
0.3360148281438725
 10
-0.9221716786206982
 20
0.3279237292387801
 10
-0.9369284214501972
 20
0.3213299834579175
 10
-0.9560313961441502
 20
0.3155758395634767
 10
-0.9760089461018489
 20
0.3123823406781142
 10
-0.9972368502697286
 20
0.31192448162288
 10
-1.018264335103721
 20
0.3143760604818867
 10
-1.032004285108018
 20
0.3176545941144754
 10
-1.045248738110873
 20
0.3221841262781702
 10
-1.057728362650549
 20
0.3278670398618406
 10
-1.06906729579396
 20
0.3345066239309598
 10
-1.079393184766452
 20
0.3421125695582533
 10
-1.088446576465277
 20
0.3505103043611794
 10
-1.095586696909865
 20
0.3589645278125102
 10
-1.101371071542694
 20
0.3679085032859788
 10
-1.105620700820004
 20
0.3771200812621802
 10
-1.108721412174873
 20
0.3897259002270103
 10
-1.108733986768876
 20
0.4021560957826397
 10
-1.105905975071696
 20
0.4132304417173705
 10
-1.100506634428455
 20
0.4235308015725294
 10
-1.09257063508237
 20
0.43298575502036
 10
-1.082485454530774
 20
0.4412990422307309
 10
-1.069501020012405
 20
0.4489056104338112
 10
-1.054760744970419
 20
0.455060101668022
 10
-1.037055571009736
 20
0.4601139082871729
 10
-1.018191726004119
 20
0.4634396280560489
 10
-0.9974016558643344
 20
0.4650821859991062
 10
-0.9764111695931618
 20
0.4648010072721082
 10
-0.955352836834014
 20
0.4625083264112503
 10
-0.935286592146498
 20
0.458191729780116
 10
-0.9228859562313814
 20
0.4542075945236319
 10
-0.9113273516261899
 20
0.4493088408755826
 10
-0.9008773708066787
 20
0.4435308950160302
 10
-0.8921276746900813
 20
0.4372042924666524
 10
-0.8846495618996176
 20
0.4300799949605959
 10
-0.8786621205977404
 20
0.4222625332166433
 10
-0.8731775957982904
 20
0.4106215004926937
 10
-0.8709168873989923
 20
0.3981001519991241
 10
-0.8718306824842849
 20
0.3862315442542656
 10
-0.8754936231012089
 20
0.3743100315070382
 10
-0.8816848468600904
 20
0.3628478547946121
 10
-0.8901588563335603
 20
0.3520038644153376
 10
-0.8988044558581256
 20
0.3436255519046636
 10
-0.9086738391514869
 20
0.3360148277063373
  0
LWPOLYLINE
  5
D5
330
89
100
AcDbEntity
  8
AM_4
100
AcDbPolyline
 90
       44
 70
     0
 43
0.0
 10
-0.8921618239854269
 20
-0.2484159492641137
 10
-0.9035652322385098
 20
-0.2598742982692324
 10
-0.9167443533922479
 20
-0.2696033168001007
 10
-0.9332806900511051
 20
-0.2783331780654094
 10
-0.9511741396647176
 20
-0.2846622377649035
 10
-0.9713750128327181
 20
-0.2886920835672818
 10
-0.9920694703474316
 20
-0.289857080006544
 10
-1.013356670981653
 20
-0.288012972981797
 10
-1.033983695401316
 20
-0.2831273183461508
 10
-1.04704465309945
 20
-0.2781889733379587
 10
-1.059405011059854
 20
-0.2719244024135986
 10
-1.07079608503352
 20
-0.2644099115848654
 10
-1.080704978532246
 20
-0.2559880312848284
 10
-1.089436362140791
 20
-0.246456909078547
 10
-1.09674902434639
 20
-0.2359755860944262
 10
-1.104181223311815
 20
-0.2201865433999827
 10
-1.108334445936001
 20
-0.2032062070719851
 10
-1.109013460499034
 20
-0.1873157528668348
 10
-1.106798360665804
 20
-0.1713805610701317
 10
-1.101980769350477
 20
-0.1564426187379505
 10
-1.094767833931917
 20
-0.1422987920742064
 10
-1.084911064783208
 20
-0.1287249371784207
 10
-1.073047005407135
 20
-0.1166833532107271
 10
-1.058167577889141
 20
-0.105571667378757
 10
-1.041723110293353
 20
-0.096791539747467
 10
-1.022562900410605
 20
-0.0901224393521649
 10
-1.002567306732548
 20
-0.0865440925699324
 10
-0.9813147406052207
 20
-0.0862348137724866
 10
-0.9603032110056696
 20
-0.0893981966440843
 10
-0.9466122621937587
 20
-0.0934726450437654
 10
-0.9334353765335393
 20
-0.0990618785685951
 10
-0.9210418926460301
 20
-0.1060685743071287
 10
-0.9098204242070631
 20
-0.1142644444135665
 10
-0.899627949793668
 20
-0.1237012758603722
 10
-0.8907228084976538
 20
-0.1341946126269433
 10
-0.8837463178694372
 20
-0.1448289446778307
 10
-0.8781314164048608
 20
-0.1561844157474724
 10
-0.8740525278638134
 20
-0.1680025726351002
 10
-0.8711779641771821
 20
-0.184401822223595
 10
-0.8713754274061017
 20
-0.2008472966801661
 10
-0.8743859435678499
 20
-0.2158011856468299
 10
-0.8799511065137267
 20
-0.2299493590947663
 10
-0.8854906028330318
 20
-0.2395272311941108
 10
-0.892161823316787
 20
-0.2484159488513452
  0
LINE
  5
D6
330
89
100
AcDbEntity
  8
AM_4
100
AcDbLine
 10
-0.8499999999999999
 20
0.5600000000000043
 30
0.0
 11
-1.1876
 21
0.5600000000000043
 31
0.0
  0
LINE
  5
D7
330
89
100
AcDbEntity
  8
AM_4
100
AcDbLine
 10
-1.1876
 20
-0.5600000000000043
 30
0.0
 11
-0.85
 21
-0.5600000000000043
 31
0.0
  0
LINE
  5
D8
330
89
100
AcDbEntity
  8
AM_4
100
AcDbLine
 10
-1.1876
 20
-0.5600000000000044
 30
0.0
 11
-1.1876
 21
0.5600000000000044
 31
0.0
  0
LINE
  5
D9
330
89
100
AcDbEntity
  8
AM_4
100
AcDbLine
 10
-1.21
 20
-0.5375999999999951
 30
0.0
 11
-1.21
 21
0.5375999999999951
 31
0.0
  0
LINE
  5
DA
330
89
100
AcDbEntity
  8
AM_4
100
AcDbLine
 10
-1.21
 20
-0.5375999999999951
 30
0.0
 11
-1.1876
 21
-0.5600000000000044
 31
0.0
  0
LINE
  5
DB
330
89
100
AcDbEntity
  8
AM_4
100
AcDbLine
 10
-1.1876
 20
0.5600000000000044
 30
0.0
 11
-1.21
 21
0.5375999999999951
 31
0.0
  0
ELLIPSE
  5
DC
330
89
100
AcDbEntity
  8
AM_4
100
AcDbEllipse
 10
-0.99
 20
-0.1842875890807295
 30
0.0
 11
-0.09794999999999998
 21
1.199541539764832E-17
 31
0.0
210
0.0
220
0.0
230
1.0
 40
0.9396926207859077
 41
0.0
 42
6.283185307179586
  0
ENDBLK
  5
8C
330
89
100
AcDbEntity
  8
0
100
AcDbBlockEnd
  0
BLOCK
  5
DF
330
DD
100
AcDbEntity
  8
0
100
AcDbBlockBegin
  2
3_430026_0_in_124662_2
 70
     2
 10
0.0
 20
0.0
 30
0.0
  3
3_430026_0_in_124662_2
  1

  0
ATTDEF
  5
E1
330
DD
100
AcDbEntity
  8
AM_6
100
AcDbText
 10
4.636048138494789
 20
0.7836742893865951
 30
0.0
 40
0.5
  1
430026 Plug
100
AcDbAttributeDefinition
  3

  2
NN
 70
     8
280
     0
  0
ATTDEF
  5
E2
330
DD
100
AcDbEntity
  8
AM_6
100
AcDbText
 10
4.636048138494789
 20
0.2836742893865951
 30
0.0
 40
0.5
  1
Plug
100
AcDbAttributeDefinition
  3

  2
NT
 70
     8
280
     0
  0
ATTDEF
  5
E3
330
DD
100
AcDbEntity
  8
AM_6
100
AcDbText
 10
4.636048138494789
 20
-0.2163257106134049
 30
0.0
 40
0.5
  1
430026
100
AcDbAttributeDefinition
  3

  2
NB
 70
     8
280
     0
  0
ATTDEF
  5
E4
330
DD
100
AcDbEntity
  8
AM_6
100
AcDbText
 10
4.636048138494789
 20
-0.7163257106134049
 30
0.0
 40
0.5
  1
$PN.
100
AcDbAttributeDefinition
  3

  2
NBSYN
 70
     8
280
     0
  0
ATTDEF
  5
E5
330
DD
100
AcDbEntity
  8
AM_6
100
AcDbText
 10
4.636048138494789
 20
-1.216325710613405
 30
0.0
 40
0.5
  1
430026
100
AcDbAttributeDefinition
  3

  2
LINA
 70
     8
280
     0
  0
ATTDEF
  5
E6
330
DD
100
AcDbEntity
  8
AM_6
100
AcDbText
 10
4.636048138494789
 20
-1.716325710613405
 30
0.0
 40
0.5
  1
430026
100
AcDbAttributeDefinition
  3

  2
PN
 70
     8
280
     0
  0
ATTDEF
  5
E7
330
DD
100
AcDbEntity
  8
AM_6
100
AcDbText
 10
4.636048138494789
 20
-2.216325710613405
 30
0.0
 40
0.5
  1
baldor
100
AcDbAttributeDefinition
  3

  2
COMPANY
 70
     8
280
     0
  0
ELLIPSE
  5
E8
330
DD
100
AcDbEntity
  8
AM_9
100
AcDbEllipse
 10
-0.5633333333333332
 20
0.4647499999999999
 30
0.0
 11
0.1702494517657397
 21
2.536914523925479E-9
 31
0.0
210
0.0
220
0.0
230
1.0
 40
0.8660254037844385
 41
0.0
 42
6.283185307179586
  0
LINE
  5
E9
330
DD
100
AcDbEntity
  8
AM_9
100
AcDbLine
 10
-0.5633333333333332
 20
0.4647499999999999
 30
0.0
 11
-0.4695833333333332
 21
0.5116249999999999
 31
0.0
  0
LINE
  5
EA
330
DD
100
AcDbEntity
  8
AM_9
100
AcDbLine
 10
-0.6570833333333334
 20
0.5116249999999999
 30
0.0
 11
-0.5633333333333332
 21
0.4647499999999999
 31
0.0
  0
ELLIPSE
  5
EB
330
DD
100
AcDbEntity
  8
AM_9
100
AcDbEllipse
 10
-0.5633333333333289
 20
0.5585000000000077
 30
0.0
 11
-0.09375000000000666
 21
1.148106374200725E-17
 31
0.0
210
0.0
220
0.0
230
1.0
 40
0.8660254037844659
 41
6.109606827486822
 42
9.597199939655967
  0
LINE
  5
EC
330
DD
100
AcDbEntity
  8
AM_9
100
AcDbLine
 10
-0.5082175472902692
 20
0.4884861543780458
 30
0.0
 11
-0.4905591142430487
 21
0.5073166858063152
 31
0.0
  0
LINE
  5
ED
330
DD
100
AcDbEntity
  8
AM_9
100
AcDbLine
 10
-0.6361075524236178
 20
0.5073166858063152
 30
0.0
 11
-0.6184491193763972
 21
0.4884861543780458
 31
0.0
  0
ELLIPSE
  5
EE
330
DD
100
AcDbEntity
  8
AM_9
100
AcDbEllipse
 10
-0.5633333333333331
 20
0.5272499999999999
 30
0.0
 11
-0.07100186035836253
 21
8.695220102137602E-18
 31
0.0
210
0.0
220
0.0
230
1.0
 40
0.8660254037844382
 41
5.849248046570255
 42
9.856168316626764
  0
LINE
  5
EF
330
DD
100
AcDbEntity
  8
AM_9
100
AcDbLine
 10
-0.4695833333333332
 20
0.5116249999999999
 30
0.0
 11
-0.4695833333333332
 21
0.5737515877365272
 31
0.0
  0
LINE
  5
F0
330
DD
100
AcDbEntity
  8
AM_9
100
AcDbLine
 10
-0.6570833333333334
 20
0.5116249999999999
 30
0.0
 11
-0.6570833333333334
 21
0.5737515877365272
 31
0.0
  0
LINE
  5
F1
330
DD
100
AcDbEntity
  8
AM_9
100
AcDbLine
 10
-0.5633333333333332
 20
0.4647499999999999
 30
0.0
 11
-0.5633333333333332
 21
0.5268765877365272
 31
0.0
  0
LINE
  5
F2
330
DD
100
AcDbEntity
  8
AM_9
100
AcDbLine
 10
-0.3727390542246866
 20
0.4658066536146782
 30
0.0
 11
-0.3652414358778749
 21
0.5857099005940224
 31
0.0
  0
LINE
  5
F3
330
DD
100
AcDbEntity
  8
AM_9
100
AcDbLine
 10
-0.7614252307887914
 20
0.5857099005940224
 30
0.0
 11
-0.7539276124419799
 21
0.4658066536146783
 31
0.0
  0
ELLIPSE
  5
F4
330
DD
100
AcDbEntity
  8
AM_9
100
AcDbEllipse
 10
-0.5633333333333329
 20
0.4747451302604893
 30
0.0
 11
-0.190873538541294
 21
2.337526680165246E-17
 31
0.0
210
0.0
220
0.0
230
1.0
 40
0.8660254037844385
 41
0.0
 42
6.283185307179586
  0
ELLIPSE
  5
F5
330
DD
100
AcDbEntity
  8
AM_4
100
AcDbEllipse
 10
-0.5633333333333334
 20
0.5272499999999998
 30
0.0
 11
-0.07100186035836253
 21
8.695220102137602E-18
 31
0.0
210
0.0
220
0.0
230
1.0
 40
0.8660254037844382
 41
3.572983009447178
 42
5.849248046570253
  0
ELLIPSE
  5
F6
330
DD
100
AcDbEntity
  8
AM_4
100
AcDbEllipse
 10
-0.5633333333333334
 20
0.5585000000000002
 30
0.0
 11
-0.09374999999999988
 21
1.396983873404280E-9
 31
0.0
210
0.0
220
0.0
230
1.0
 40
0.8660254037844373
 41
3.314014649556228
 42
6.109606844564789
  0
LINE
  5
F7
330
DD
100
AcDbEntity
  8
AM_4
100
AcDbLine
 10
-0.5633333333333332
 20
0.6522499999999999
 30
0.0
 11
-0.6570833333333334
 21
0.6053749999999998
 31
0.0
  0
LINE
  5
F8
330
DD
100
AcDbEntity
  8
AM_4
100
AcDbLine
 10
-0.5633333333333332
 20
0.6522499999999999
 30
0.0
 11
-0.5633333333333332
 21
0.7143765877365272
 31
0.0
  0
LINE
  5
F9
330
DD
100
AcDbEntity
  8
AM_4
100
AcDbLine
 10
-0.4695833333333332
 20
0.6053749999999998
 30
0.0
 11
-0.5633333333333332
 21
0.6522499999999999
 31
0.0
  0
LWPOLYLINE
  5
FA
330
DD
100
AcDbEntity
  8
AM_4
100
AcDbPolyline
 90
        9
 70
     0
 43
0.0
 10
-0.6570833333333334
 20
0.6675015877365272
 10
-0.6474675331817676
 20
0.6697578805899915
 10
-0.6375438123665047
 20
0.6726052675874763
 10
-0.6269420761383881
 20
0.6763090262764117
 10
-0.616095867286232
 20
0.6808668178463974
 10
-0.6010697676337263
 20
0.6885527847402515
 10
-0.5858436978072643
 20
0.6979350273366155
 10
-0.5743865649980926
 20
0.705957739306764
 10
-0.5633333333333332
 20
0.7143765877365272
  0
LWPOLYLINE
  5
FB
330
DD
100
AcDbEntity
  8
AM_4
100
AcDbPolyline
 90
        9
 70
     0
 43
0.0
 10
-0.5633333333333332
 20
0.7143765877365272
 10
-0.5537175331817675
 20
0.7070170804384258
 10
-0.5437938123665047
 20
0.6999407466206478
 10
-0.5331920761383881
 20
0.6930427690814666
 10
-0.522345867286232
 20
0.686754351799296
 10
-0.5073197676337262
 20
0.6794142190406446
 10
-0.4920936978072644
 20
0.6735703918105467
 10
-0.4806365649980927
 20
0.6701359709715234
 10
-0.4695833333333332
 20
0.6675015877365272
  0
LINE
  5
FC
330
DD
100
AcDbEntity
  8
AM_4
100
AcDbLine
 10
-0.4695833333333332
 20
0.6675015877365272
 30
0.0
 11
-0.4695833333333332
 21
0.5737515877365272
 31
0.0
  0
LWPOLYLINE
  5
FD
330
DD
100
AcDbEntity
  8
AM_4
100
AcDbPolyline
 90
        9
 70
     0
 43
0.0
 10
-0.4695833333333332
 20
0.5737515877365272
 10
-0.4791991334848989
 20
0.5663920804384258
 10
-0.4891228543001618
 20
0.5593157466206478
 10
-0.4997245905282784
 20
0.5524177690814666
 10
-0.5105707993804345
 20
0.5461293517992961
 10
-0.5255968990329402
 20
0.5387892190406446
 10
-0.5408229688594022
 20
0.5329453918105467
 10
-0.5522801016685738
 20
0.5295109709715233
 10
-0.5633333333333332
 20
0.5268765877365272
  0
LWPOLYLINE
  5
FE
330
DD
100
AcDbEntity
  8
AM_4
100
AcDbPolyline
 90
        9
 70
     0
 43
0.0
 10
-0.5633333333333332
 20
0.5268765877365272
 10
-0.5729491334848988
 20
0.5291328805899916
 10
-0.5828728543001618
 20
0.5319802675874763
 10
-0.5934745905282784
 20
0.5356840262764118
 10
-0.6043207993804345
 20
0.5402418178463974
 10
-0.6193468990329403
 20
0.5479277847402516
 10
-0.6345729688594022
 20
0.5573100273366156
 10
-0.6460301016685739
 20
0.565332739306764
 10
-0.6570833333333334
 20
0.5737515877365272
  0
LINE
  5
FF
330
DD
100
AcDbEntity
  8
AM_4
100
AcDbLine
 10
-0.6570833333333334
 20
0.5737515877365272
 30
0.0
 11
-0.6570833333333334
 21
0.6675015877365272
 31
0.0
  0
LINE
  5
100
330
DD
100
AcDbEntity
  8
AM_4
100
AcDbLine
 10
-0.3652414358778749
 20
0.5857099005940224
 30
0.0
 11
-0.3642435685544375
 21
0.6016679724243417
 31
0.0
  0
LINE
  5
101
330
DD
100
AcDbEntity
  8
AM_4
100
AcDbLine
 10
-0.762423098112229
 20
0.6016679724243418
 30
0.0
 11
-0.7614252307887914
 21
0.5857099005940224
 31
0.0
  0
ELLIPSE
  5
102
330
DD
100
AcDbEntity
  8
AM_4
100
AcDbEllipse
 10
-0.5633333333333332
 20
0.6209999999999999
 30
0.0
 11
0.109
 21
0.0
 31
0.0
210
0.0
220
0.0
230
1.0
 40
0.8660254037844388
 41
0.0
 42
6.283185307179586
  0
ELLIPSE
  5
103
330
DD
100
AcDbEntity
  8
AM_4
100
AcDbEllipse
 10
-0.5633333333333332
 20
0.6209999999999999
 30
0.0
 11
0.1800055586036764
 21
0.0
 31
0.0
210
0.0
220
0.0
230
1.0
 40
0.8660254037844387
 41
0.0
 42
6.283185307179586
  0
ELLIPSE
  5
104
330
DD
100
AcDbEntity
  8
AM_4
100
AcDbEllipse
 10
-0.5633333333333332
 20
0.6110048697395107
 30
0.0
 11
-0.1993814718281216
 21
2.971015475194623E-9
 31
0.0
210
0.0
220
0.0
230
1.0
 40
0.866025403784437
 41
0.0
 42
6.283185307179586
  0
ENDBLK
  5
E0
330
DD
100
AcDbEntity
  8
0
100
AcDbBlockEnd
  0
BLOCK
  5
107
330
105
100
AcDbEntity
  8
0
100
AcDbBlockBegin
  2
4_124662H_0_in_124662_2
 70
     2
 10
0.0
 20
0.0
 30
0.0
  3
4_124662H_0_in_124662_2
  1

  0
ATTDEF
  5
109
330
105
100
AcDbEntity
  8
AM_6
100
AcDbText
 10
5.0425
 20
1.780000000000002
 30
0.0
 40
0.5
  1
LFT-SC and  LFT-SC-NL -Inch - housing
100
AcDbAttributeDefinition
  3

  2
NN
 70
     8
280
     0
  0
ATTDEF
  5
10A
330
105
100
AcDbEntity
  8
AM_6
100
AcDbText
 10
5.0425
 20
1.280000000000002
 30
0.0
 40
0.5
  1
SC 2 Bolt Flange Bearings -(Normal Duty) -Re-Lube and No-Lube
100
AcDbAttributeDefinition
  3

  2
NT
 70
     8
280
     0
  0
ATTDEF
  5
10B
330
105
100
AcDbEntity
  8
AM_6
100
AcDbText
 10
5.0425
 20
0.7800000000000022
 30
0.0
 40
0.5
  1
124662H
100
AcDbAttributeDefinition
  3

  2
NB
 70
     8
280
     0
  0
ATTDEF
  5
10C
330
105
100
AcDbEntity
  8
AM_6
100
AcDbText
 10
5.0425
 20
0.2800000000000022
 30
0.0
 40
0.5
  1
$PN.H
100
AcDbAttributeDefinition
  3

  2
NBSYN
 70
     8
280
     0
  0
ATTDEF
  5
10D
330
105
100
AcDbEntity
  8
AM_6
100
AcDbText
 10
5.0425
 20
-0.2199999999999978
 30
0.0
 40
0.5
  1
124662
100
AcDbAttributeDefinition
  3

  2
LINA
 70
     8
280
     0
  0
ATTDEF
  5
10E
330
105
100
AcDbEntity
  8
AM_6
100
AcDbText
 10
5.0425
 20
-0.7199999999999978
 30
0.0
 40
0.5
  1
204
100
AcDbAttributeDefinition
  3

  2
SERIES
 70
     8
280
     0
  0
ATTDEF
  5
10F
330
105
100
AcDbEntity
  8
AM_6
100
AcDbText
 10
5.0425
 20
-1.219999999999998
 30
0.0
 40
0.5
  1
3/4
100
AcDbAttributeDefinition
  3

  2
SS
 70
     8
280
     0
  0
ATTDEF
  5
110
330
105
100
AcDbEntity
  8
AM_6
100
AcDbText
 10
5.0425
 20
-1.719999999999998
 30
0.0
 40
0.5
  1
124662
100
AcDbAttributeDefinition
  3

  2
PN
 70
     8
280
     0
  0
ATTDEF
  5
111
330
105
100
AcDbEntity
  8
AM_6
100
AcDbText
 10
5.0425
 20
-2.219999999999998
 30
0.0
 40
0.5
  1
LFT-SC-012-NL
100
AcDbAttributeDefinition
  3

  2
DESCRIPTION
 70
     8
280
     0
  0
ATTDEF
  5
112
330
105
100
AcDbEntity
  8
AM_6
100
AcDbText
 10
5.0425
 20
-2.719999999999998
 30
0.0
 40
0.5
  1
0.80
100
AcDbAttributeDefinition
  3

  2
W
 70
     8
280
     0
  0
ATTDEF
  5
113
330
105
100
AcDbEntity
  8
AM_6
100
AcDbText
 10
5.0425
 20
-3.219999999999998
 30
0.0
 40
0.5
  1
NO-LUBE
100
AcDbAttributeDefinition
  3

  2
LF
 70
     8
280
     0
  0
ATTDEF
  5
114
330
105
100
AcDbEntity
  8
AM_6
100
AcDbText
 10
5.0425
 20
-3.719999999999998
 30
0.0
 40
0.5
  1
1.02
100
AcDbAttributeDefinition
  3

  2
A
 70
     8
280
     0
  0
ATTDEF
  5
115
330
105
100
AcDbEntity
  8
AM_6
100
AcDbText
 10
5.0425
 20
-4.219999999999998
 30
0.0
 40
0.5
  1
3.56
100
AcDbAttributeDefinition
  3

  2
B
 70
     8
280
     0
  0
ATTDEF
  5
116
330
105
100
AcDbEntity
  8
AM_6
100
AcDbText
 10
5.0425
 20
-4.719999999999998
 30
0.0
 40
0.5
  1
1.21
100
AcDbAttributeDefinition
  3

  2
C
 70
     8
280
     0
  0
ATTDEF
  5
117
330
105
100
AcDbEntity
  8
AM_6
100
AcDbText
 10
5.0425
 20
-5.219999999999998
 30
0.0
 40
0.5
  1
2.81
100
AcDbAttributeDefinition
  3

  2
D
 70
     8
280
     0
  0
ATTDEF
  5
118
330
105
100
AcDbEntity
  8
AM_6
100
AcDbText
 10
5.0425
 20
-5.719999999999998
 30
0.0
 40
0.5
  1
0.34
100
AcDbAttributeDefinition
  3

  2
G
 70
     8
280
     0
  0
ATTDEF
  5
119
330
105
100
AcDbEntity
  8
AM_6
100
AcDbText
 10
5.0425
 20
-6.219999999999998
 30
0.0
 40
0.5
  1
0.42
100
AcDbAttributeDefinition
  3

  2
H
 70
     8
280
     0
  0
ATTDEF
  5
11A
330
105
100
AcDbEntity
  8
AM_6
100
AcDbText
 10
5.0425
 20
-6.719999999999998
 30
0.0
 40
0.5
  1
0.36
100
AcDbAttributeDefinition
  3

  2
J
 70
     8
280
     0
  0
ATTDEF
  5
11B
330
105
100
AcDbEntity
  8
AM_6
100
AcDbText
 10
5.0425
 20
-7.219999999999998
 30
0.0
 40
0.5
  1
1.12
100
AcDbAttributeDefinition
  3

  2
L
 70
     8
280
     0
  0
ATTDEF
  5
11C
330
105
100
AcDbEntity
  8
AM_6
100
AcDbText
 10
5.0425
 20
-7.719999999999998
 30
0.0
 40
0.5
  1
2.38
100
AcDbAttributeDefinition
  3

  2
M
 70
     8
280
     0
  0
ATTDEF
  5
11D
330
105
100
AcDbEntity
  8
AM_6
100
AcDbText
 10
5.0425
 20
-8.219999999999999
 30
0.0
 40
0.5
  1
1.34
100
AcDbAttributeDefinition
  3

  2
N
 70
     8
280
     0
  0
ATTDEF
  5
11E
330
105
100
AcDbEntity
  8
AM_6
100
AcDbText
 10
5.0425
 20
-8.719999999999999
 30
0.0
 40
0.5
  1
1390
100
AcDbAttributeDefinition
  3

  2
CAPS
 70
     8
280
     0
  0
ATTDEF
  5
11F
330
105
100
AcDbEntity
  8
AM_6
100
AcDbText
 10
5.0425
 20
-9.219999999999999
 30
0.0
 40
0.5
  1
2899
100
AcDbAttributeDefinition
  3

  2
CAPD
 70
     8
280
     0
  0
ATTDEF
  5
120
330
105
100
AcDbEntity
  8
AM_6
100
AcDbText
 10
5.0425
 20
-9.719999999999999
 30
0.0
 40
0.5
  1
baldor
100
AcDbAttributeDefinition
  3

  2
COMPANY
 70
     8
280
     0
  0
LINE
  5
121
330
105
100
AcDbEntity
  8
AM_9
100
AcDbLine
 10
-0.51
 20
0.8921284748929439
 30
0.0
 11
-0.105
 21
0.8921284748929439
 31
0.0
  0
LINE
  5
122
330
105
100
AcDbEntity
  8
AM_9
100
AcDbLine
 10
-0.5100000000000001
 20
0.3617983890030333
 30
0.0
 11
-0.105
 21
0.3617983890030333
 31
0.0
  0
LINE
  5
123
330
105
100
AcDbEntity
  8
AM_9
100
AcDbLine
 10
-0.5100000000000001
 20
0.3329026956934032
 30
0.0
 11
-0.51
 21
0.8921284748929439
 31
0.0
  0
LINE
  5
124
330
105
100
AcDbEntity
  8
AM_9
100
AcDbLine
 10
-0.766
 20
0.1618699066648036
 30
0.0
 11
-0.766
 21
0.9481088913245537
 31
0.0
  0
LINE
  5
125
330
105
100
AcDbEntity
  8
AM_9
100
AcDbLine
 10
-0.42
 20
-1.235
 30
0.0
 11
0.0
 21
-1.235
 31
0.0
  0
LINE
  5
126
330
105
100
AcDbEntity
  8
AM_9
100
AcDbLine
 10
-0.42
 20
-1.575
 30
0.0
 11
0.0
 21
-1.575
 31
0.0
  0
LINE
  5
127
330
105
100
AcDbEntity
  8
AM_9
100
AcDbLine
 10
-0.42
 20
1.575
 30
0.0
 11
0.0
 21
1.575
 31
0.0
  0
LINE
  5
128
330
105
100
AcDbEntity
  8
AM_9
100
AcDbLine
 10
-0.42
 20
1.235
 30
0.0
 11
0.0
 21
1.235
 31
0.0
  0
LINE
  5
129
330
105
100
AcDbEntity
  8
AM_9
100
AcDbLine
 10
-0.85
 20
1.03
 30
0.0
 11
-0.42
 21
1.03
 31
0.0
  0
LINE
  5
12A
330
105
100
AcDbEntity
  8
AM_9
100
AcDbLine
 10
-0.42
 20
1.03
 30
0.0
 11
-0.42
 21
1.065049495060945
 31
0.0
  0
LINE
  5
12B
330
105
100
AcDbEntity
  8
AM_9
100
AcDbLine
 10
-0.42
 20
-1.065049495060945
 30
0.0
 11
-0.42
 21
-1.03
 31
0.0
  0
LINE
  5
12C
330
105
100
AcDbEntity
  8
AM_9
100
AcDbLine
 10
-0.42
 20
-1.03
 30
0.0
 11
-0.85
 21
-1.03
 31
0.0
  0
LINE
  5
12D
330
105
100
AcDbEntity
  8
AM_9
100
AcDbLine
 10
-0.51
 20
-0.8921284748929433
 30
0.0
 11
-0.105
 21
-0.8921284748929433
 31
0.0
  0
LINE
  5
12E
330
105
100
AcDbEntity
  8
AM_9
100
AcDbLine
 10
-0.105
 20
-1.057777777777778
 30
0.0
 11
0.0
 21
-1.057777777777778
 31
0.0
  0
LINE
  5
12F
330
105
100
AcDbEntity
  8
AM_9
100
AcDbLine
 10
0.0
 20
1.057777777777778
 30
0.0
 11
-0.105
 21
1.057777777777778
 31
0.0
  0
LINE
  5
130
330
105
100
AcDbEntity
  8
AM_9
100
AcDbLine
 10
-0.105
 20
0.9757893121201897
 30
0.0
 11
0.0
 21
0.9757893121201897
 31
0.0
  0
LINE
  5
131
330
105
100
AcDbEntity
  8
AM_9
100
AcDbLine
 10
-0.105
 20
-0.9757893143363596
 30
0.0
 11
0.0
 21
-0.9757893143363596
 31
0.0
  0
LWPOLYLINE
  5
132
330
105
100
AcDbEntity
  8
AM_9
100
AcDbPolyline
 90
        8
 70
     0
 43
0.0
 10
-0.85
 20
0.8948688329157285
 10
-0.8499339788177044
 20
0.8966908401844499
 10
-0.8479367118057689
 20
0.9049802603250122
 10
-0.8429796008932235
 20
0.9132160178797183
 10
-0.8356054470895978
 20
0.9205033065045192
 10
-0.8253905945739628
 20
0.9272207232884104
 10
-0.8168775635174379
 20
0.9312489879047516
 10
-0.8071380086436353
 20
0.9347114317029974
  0
LINE
  5
133
330
105
100
AcDbEntity
  8
AM_9
100
AcDbLine
 10
-0.1049999999999999
 20
0.9400565255680078
 30
0.0
 11
-0.766
 21
0.9400565255680081
 31
0.0
  0
LWPOLYLINE
  5
134
330
105
100
AcDbEntity
  8
AM_9
100
AcDbPolyline
 90
        4
 70
     0
 43
0.0
 10
-0.8071380086436353
 20
0.9347114317029974
 10
-0.7953828254882619
 20
0.937543784193118
 10
-0.7824907732819714
 20
0.9393092424281144
 10
-0.766
 20
0.9400565255680081
  0
LINE
  5
135
330
105
100
AcDbEntity
  8
AM_9
100
AcDbLine
 10
-0.85
 20
0.9347114317029974
 30
0.0
 11
-0.8071380086436353
 21
0.9347114317029974
 31
0.0
  0
LINE
  5
136
330
105
100
AcDbEntity
  8
AM_9
100
AcDbLine
 10
-0.51
 20
-0.8921284748929433
 30
0.0
 11
-0.51
 21
-0.3329026956934033
 31
0.0
  0
LINE
  5
137
330
105
100
AcDbEntity
  8
AM_9
100
AcDbLine
 10
-0.51
 20
-0.3617983890030333
 30
0.0
 11
-0.1049999999999999
 21
-0.3617983890030333
 31
0.0
  0
LINE
  5
138
330
105
100
AcDbEntity
  8
AM_9
100
AcDbLine
 10
-0.105
 20
0.3329026956934033
 30
0.0
 11
-0.5100000000000001
 21
0.3329026956934032
 31
0.0
  0
LINE
  5
139
330
105
100
AcDbEntity
  8
AM_9
100
AcDbLine
 10
-0.51
 20
0.8632327815833138
 30
0.0
 11
-0.105
 21
0.863232781583314
 31
0.0
  0
LINE
  5
13A
330
105
100
AcDbEntity
  8
AM_9
100
AcDbLine
 10
-0.1049999999999999
 20
-0.3329026956934033
 30
0.0
 11
-0.51
 21
-0.3329026956934033
 31
0.0
  0
LINE
  5
13B
330
105
100
AcDbEntity
  8
AM_9
100
AcDbLine
 10
-0.51
 20
-0.8632327815833137
 30
0.0
 11
-0.105
 21
-0.8632327815833138
 31
0.0
  0
LINE
  5
13C
330
105
100
AcDbEntity
  8
AM_9
100
AcDbLine
 10
-0.85
 20
-0.9252
 30
0.0
 11
-0.105
 21
-0.9252
 31
0.0
  0
LINE
  5
13D
330
105
100
AcDbEntity
  8
AM_9
100
AcDbLine
 10
-0.105
 20
0.9252
 30
0.0
 11
-0.85
 21
0.9252
 31
0.0
  0
LINE
  5
13E
330
105
100
AcDbEntity
  8
AM_9
100
AcDbLine
 10
-0.7133333333333333
 20
0.5950000000000002
 30
0.0
 11
-0.7133333333333333
 21
0.5156666666666669
 31
0.0
  0
LINE
  5
13F
330
105
100
AcDbEntity
  8
AM_9
100
AcDbLine
 10
-0.4133333333333333
 20
0.5156666666666669
 30
0.0
 11
-0.4133333333333333
 21
0.5950000000000002
 31
0.0
  0
ELLIPSE
  5
140
330
105
100
AcDbEntity
  8
AM_9
100
AcDbEllipse
 10
-0.5633333333333332
 20
0.5950000000000001
 30
0.0
 11
-0.1499999999999999
 21
1.836970198721029E-17
 31
0.0
210
0.0
220
0.0
230
1.0
 40
0.8660254037844389
 41
0.0
 42
6.283185307179586
  0
ELLIPSE
  5
141
330
105
100
AcDbEntity
  8
AM_9
100
AcDbEllipse
 10
-0.5633333333333334
 20
0.5156666666666672
 30
0.0
 11
-0.1499999999999998
 21
1.836970198721027E-17
 31
0.0
210
0.0
220
0.0
230
1.0
 40
0.8660254037844388
 41
0.0
 42
6.283185307179586
  0
LINE
  5
144
330
105
100
AcDbEntity
  8
AM_7
100
AcDbLine
 10
0.0425
 20
0.0
 30
0.0
 11
-1.261
 21
0.0
 31
0.0
  0
LINE
  5
145
330
105
100
AcDbEntity
  8
AM_7
100
AcDbLine
 10
-0.3985
 20
1.405
 30
0.0
 11
-0.8714999999999999
 21
1.405
 31
0.0
  0
LINE
  5
146
330
105
100
AcDbEntity
  8
AM_7
100
AcDbLine
 10
-0.3985
 20
-1.405
 30
0.0
 11
-0.8714999999999999
 21
-1.405
 31
0.0
  0
LINE
  5
147
330
105
100
AcDbEntity
  8
AM_4
100
AcDbLine
 10
-0.42
 20
1.065049495060945
 30
0.0
 11
-0.42
 21
1.780000000000002
 31
0.0
  0
LINE
  5
148
330
105
100
AcDbEntity
  8
AM_4
100
AcDbLine
 10
0.0
 20
1.780000000000002
 30
0.0
 11
-0.42
 21
1.780000000000002
 31
0.0
  0
LINE
  5
149
330
105
100
AcDbEntity
  8
AM_4
100
AcDbLine
 10
-0.42
 20
-1.780000000000002
 30
0.0
 11
0.0
 21
-1.780000000000002
 31
0.0
  0
LINE
  5
14A
330
105
100
AcDbEntity
  8
AM_4
100
AcDbLine
 10
-0.42
 20
-1.780000000000002
 30
0.0
 11
-0.42
 21
-1.065049495060945
 31
0.0
  0
LINE
  5
14B
330
105
100
AcDbEntity
  8
AM_4
100
AcDbLine
 10
-0.105
 20
0.969200953272705
 30
0.0
 11
0.0
 21
0.969200953272705
 31
0.0
  0
LINE
  5
14C
330
105
100
AcDbEntity
  8
AM_4
100
AcDbLine
 10
0.0
 20
0.969200953272705
 30
0.0
 11
0.0
 21
1.780000000000002
 31
0.0
  0
LINE
  5
14D
330
105
100
AcDbEntity
  8
AM_4
100
AcDbLine
 10
0.0
 20
-1.780000000000002
 30
0.0
 11
0.0
 21
-0.9692009532727041
 31
0.0
  0
LINE
  5
14E
330
105
100
AcDbEntity
  8
AM_4
100
AcDbLine
 10
0.0
 20
-0.9692009532727041
 30
0.0
 11
-0.105
 21
-0.9692009532727041
 31
0.0
  0
LINE
  5
14F
330
105
100
AcDbEntity
  8
AM_4
100
AcDbLine
 10
-0.105
 20
-1.072759982112051
 30
0.0
 11
0.0
 21
-1.072759982112051
 31
0.0
  0
LINE
  5
150
330
105
100
AcDbEntity
  8
AM_4
100
AcDbLine
 10
-0.42
 20
-1.434219994089596
 30
0.0
 11
0.0
 21
-1.434219994089596
 31
0.0
  0
LINE
  5
151
330
105
100
AcDbEntity
  8
AM_4
100
AcDbLine
 10
0.0
 20
1.072759982112052
 30
0.0
 11
-0.105
 21
1.072759982112052
 31
0.0
  0
LINE
  5
152
330
105
100
AcDbEntity
  8
AM_4
100
AcDbLine
 10
-0.42
 20
1.434220016052462
 30
0.0
 11
0.0
 21
1.434220016052462
 31
0.0
  0
LINE
  5
153
330
105
100
AcDbEntity
  8
AM_4
100
AcDbLine
 10
-0.766
 20
1.156405693950178
 30
0.0
 11
-0.42
 21
1.156405693950178
 31
0.0
  0
LINE
  5
154
330
105
100
AcDbEntity
  8
AM_4
100
AcDbLine
 10
-0.105
 20
1.065049495060945
 30
0.0
 11
-0.42
 21
1.065049495060945
 31
0.0
  0
LINE
  5
155
330
105
100
AcDbEntity
  8
AM_4
100
AcDbLine
 10
-0.766
 20
1.156405693950178
 30
0.0
 11
-0.766
 21
0.9481088913245537
 31
0.0
  0
LWPOLYLINE
  5
156
330
105
100
AcDbEntity
  8
AM_4
100
AcDbPolyline
 90
       13
 70
     0
 43
0.0
 10
-0.766
 20
1.156405693950178
 10
-0.7785132605190281
 20
1.155612168326668
 10
-0.7910265210380565
 20
1.153179868842388
 10
-0.8024732619953111
 20
1.149373708227801
 10
-0.8132117753445479
 20
1.144180102680517
 10
-0.8226672305452726
 20
1.137950014524222
 10
-0.8308774811860227
 20
1.130785556805963
 10
-0.8379401556742434
 20
1.122577334227406
 10
-0.8433446060635275
 20
1.113948396279364
 10
-0.8462082944335426
 20
1.107634754141106
 10
-0.8482313446734064
 20
1.101373056629666
 10
-0.8499824711538649
 20
1.089122655180893
 10
-0.85
 20
1.087770818505338
  0
LINE
  5
157
330
105
100
AcDbEntity
  8
AM_4
100
AcDbLine
 10
-0.1049999999999999
 20
0.9481088913245536
 30
0.0
 11
-0.85
 21
0.9481088913245536
 31
0.0
  0
LINE
  5
158
330
105
100
AcDbEntity
  8
AM_4
100
AcDbLine
 10
-0.42
 20
-1.156405693950178
 30
0.0
 11
-0.766
 21
-1.156405693950178
 31
0.0
  0
LINE
  5
159
330
105
100
AcDbEntity
  8
AM_4
100
AcDbLine
 10
-0.42
 20
-1.065049495060945
 30
0.0
 11
-0.105
 21
-1.065049495060945
 31
0.0
  0
LWPOLYLINE
  5
15A
330
105
100
AcDbEntity
  8
AM_4
100
AcDbPolyline
 90
       12
 70
     0
 43
0.0
 10
-0.85
 20
-1.087770818505338
 10
-0.8495832393875359
 20
-1.094374333121846
 10
-0.8482484444378033
 20
-1.101307339098873
 10
-0.8437960448036806
 20
-1.113068070155542
 10
-0.8402895036584788
 20
-1.119179925608165
 10
-0.8358416725549852
 20
-1.125284487583811
 10
-0.8280131863819882
 20
-1.133515467129568
 10
-0.8180531282676988
 20
-1.141215201254174
 10
-0.8066149276184454
 20
-1.147575544220638
 10
-0.7932734954621828
 20
-1.152558549198856
 10
-0.7801191548911598
 20
-1.155393972087941
 10
-0.766
 20
-1.156405693950178
  0
LINE
  5
15B
330
105
100
AcDbEntity
  8
AM_4
100
AcDbLine
 10
-0.7659999999999998
 20
0.1618699066648036
 30
0.0
 11
-0.766
 21
-1.156405693950178
 31
0.0
  0
LWPOLYLINE
  5
15C
330
105
100
AcDbEntity
  8
AM_4
100
AcDbPolyline
 90
        8
 70
     0
 43
0.0
 10
-0.807138008644543
 20
0.1552885682970028
 10
-0.8187773634177032
 20
0.1510194443770765
 10
-0.8290901892545179
 20
0.1456588810138687
 10
-0.8372505456599585
 20
0.1397050468071266
 10
-0.8435896042240342
 20
0.1330132460221933
 10
-0.8478948057670774
 20
0.1256581114175261
 10
-0.8498838794399637
 20
0.1178617433963547
 10
-0.85
 20
0.1154459695097336
  0
LINE
  5
15D
330
105
100
AcDbEntity
  8
AM_4
100
AcDbLine
 10
-0.105
 20
-1.072759982112051
 30
0.0
 11
-0.105
 21
1.072759982112052
 31
0.0
  0
LINE
  5
15E
330
105
100
AcDbEntity
  8
AM_4
100
AcDbLine
 10
-0.85
 20
-1.087770818505338
 30
0.0
 11
-0.85
 21
1.087770818505338
 31
0.0
  0
LINE
  5
15F
330
105
100
AcDbEntity
  8
AM_4
100
AcDbLine
 10
-0.85
 20
0.8981088913245536
 30
0.0
 11
-0.1049999999999999
 21
0.8981088913245536
 31
0.0
  0
LINE
  5
160
330
105
100
AcDbEntity
  8
AM_4
100
AcDbLine
 10
-0.7659999999999998
 20
0.1618699066648036
 30
0.0
 11
-0.1049999999999999
 21
0.1618699066648038
 31
0.0
  0
LINE
  5
161
330
105
100
AcDbEntity
  8
AM_4
100
AcDbLine
 10
-0.8499999999999999
 20
0.2918911086754466
 30
0.0
 11
-0.1049999999999999
 21
0.2918911086754466
 31
0.0
  0
LINE
  5
162
330
105
100
AcDbEntity
  8
AM_4
100
AcDbLine
 10
-0.8499999999999999
 20
0.1552885682970028
 30
0.0
 11
-0.807138008644543
 21
0.1552885682970028
 31
0.0
  0
LWPOLYLINE
  5
163
330
105
100
AcDbEntity
  8
AM_4
100
AcDbPolyline
 90
        4
 70
     0
 43
0.0
 10
-0.7659999999999998
 20
0.1618699066648036
 10
-0.7790854971159206
 20
0.1611741793558202
 10
-0.7921709942318413
 20
0.1591271973679859
 10
-0.807138008644543
 20
0.1552885682970028
  0
ENDBLK
  5
108
330
105
100
AcDbEntity
  8
0
100
AcDbBlockEnd
  0
ENDSEC
  0
SECTION
  2
ENTITIES
  0
INSERT
  5
6F
330
1F
100
AcDbEntity
  8
0
100
AcDbBlockReference
  2
1_124662_2
 10
0.0
 20
0.0
 30
0.0
  0
POINT
  5
165
330
1F
100
AcDbEntity
  8
ConnectionPoints
100
AcDbPoint
 10
-0.5633333333333332
 20
0.5949999999999999
 30
1.030570230503482
  0
POINT
  5
166
330
1F
100
AcDbEntity
  8
ConnectionPoints
100
AcDbPoint
 10
-0.5633333333333332
 20
0.5949999999999999
 30
1.030570230503482
  0
POINT
  5
167
330
1F
100
AcDbEntity
  8
ConnectionPoints
100
AcDbPoint
 10
-1.21
 20
0.0
 30
0.0000000000000001
  0
ENDSEC
  0
SECTION
  2
OBJECTS
  0
DICTIONARY
  5
C
330
0
100
AcDbDictionary
281
     1
  3
ACAD_DETAILVIEWSTYLE
350
16F
  3
ACAD_GROUP
350
D
  3
ACAD_LAYOUT
350
1A
  3
ACAD_MATERIAL
350
43
  3
ACAD_MLEADERSTYLE
350
6B
  3
ACAD_MLINESTYLE
350
17
  3
ACAD_PLOTSETTINGS
350
19
  3
ACAD_PLOTSTYLENAME
350
E
  3
ACAD_SCALELIST
350
47
  3
ACAD_SECTIONVIEWSTYLE
350
170
  3
ACAD_TABLESTYLE
350
69
  3
ACAD_VISUALSTYLE
350
2A
  3
ACDB_RECOMPOSE_DATA
350
16C
  3
AcDbVariableDictionary
350
168
  0
SUN
  5
6D
330
29
100
AcDbSun
 90
        1
290
     0
 63
     7
421
 16777215
 40
1.0
291
     1
 91
  2455826
 92
 54000000
292
     0
 70
     2
 71
   256
280
     1
  0
DICTIONARY
  5
16F
102
{ACAD_REACTORS
330
C
102
}
330
C
100
AcDbDictionary
281
     1
  0
DICTIONARY
  5
D
102
{ACAD_REACTORS
330
C
102
}
330
C
100
AcDbDictionary
281
     1
  0
DICTIONARY
  5
1A
102
{ACAD_REACTORS
330
C
102
}
330
C
100
AcDbDictionary
281
     1
  3
Layout1
350
1E
  3
Layout2
350
26
  3
Model
350
22
  0
DICTIONARY
  5
43
102
{ACAD_REACTORS
330
C
102
}
330
C
100
AcDbDictionary
281
     1
  3
ByBlock
350
45
  3
ByLayer
350
44
  3
Global
350
46
  0
DICTIONARY
  5
6B
102
{ACAD_REACTORS
330
C
102
}
330
C
100
AcDbDictionary
281
     1
  3
Standard
350
6C
  0
DICTIONARY
  5
17
102
{ACAD_REACTORS
330
C
102
}
330
C
100
AcDbDictionary
281
     1
  3
Standard
350
18
  0
DICTIONARY
  5
19
102
{ACAD_REACTORS
330
C
102
}
330
C
100
AcDbDictionary
281
     1
  0
ACDBDICTIONARYWDFLT
  5
E
102
{ACAD_REACTORS
330
C
102
}
330
C
100
AcDbDictionary
281
     1
  3
Normal
350
F
100
AcDbDictionaryWithDefault
340
F
  0
DICTIONARY
  5
47
102
{ACAD_REACTORS
330
C
102
}
330
C
100
AcDbDictionary
281
     1
  3
A0
350
48
  3
A1
350
49
  3
A2
350
4A
  3
A3
350
4B
  3
A4
350
4C
  3
A5
350
4D
  3
A6
350
4E
  3
A7
350
4F
  3
A8
350
50
  3
A9
350
51
  3
B0
350
52
  3
B1
350
53
  3
B2
350
54
  3
B3
350
55
  3
B4
350
56
  3
B5
350
57
  3
B6
350
58
  3
B7
350
59
  3
B8
350
5A
  3
B9
350
5B
  3
C0
350
5C
  3
C1
350
5D
  3
C2
350
5E
  3
C3
350
5F
  3
C4
350
60
  3
C5
350
61
  3
C6
350
62
  3
C7
350
63
  3
C8
350
64
  3
C9
350
65
  3
D0
350
66
  3
D1
350
67
  3
D2
350
68
  0
DICTIONARY
  5
170
102
{ACAD_REACTORS
330
C
102
}
330
C
100
AcDbDictionary
281
     1
  0
DICTIONARY
  5
69
102
{ACAD_REACTORS
330
C
102
}
330
C
100
AcDbDictionary
281
     1
  3
Standard
350
6A
  0
DICTIONARY
  5
2A
102
{ACAD_REACTORS
330
C
102
}
330
C
100
AcDbDictionary
281
     1
  3
2dWireframe
350
2F
  3
Basic
350
32
  3
Brighten
350
36
  3
ColorChange
350
3A
  3
Conceptual
350
34
  3
Dim
350
35
  3
EdgeColorOff
350
3D
  3
Facepattern
350
39
  3
Flat
350
2B
  3
FlatWithEdges
350
2C
  3
Gouraud
350
2D
  3
GouraudWithEdges
350
2E
  3
Hidden
350
31
  3
JitterOff
350
3B
  3
Linepattern
350
38
  3
OverhangOff
350
3C
  3
Realistic
350
33
  3
Shaded
350
42
  3
Shaded with edges
350
41
  3
Shades of Gray
350
3E
  3
Sketchy
350
3F
  3
Thicken
350
37
  3
Wireframe
350
30
  3
X-Ray
350
40
  0
XRECORD
  5
16C
102
{ACAD_REACTORS
330
C
102
}
330
C
100
AcDbXrecord
280
     1
 90
        1
330
6A
  0
DICTIONARY
  5
168
102
{ACAD_REACTORS
330
C
102
}
330
C
100
AcDbDictionary
281
     1
  3
CANNOSCALE
350
169
  3
CMLEADERSTYLE
350
16E
  3
CTABLESTYLE
350
16D
  0
LAYOUT
  5
1E
102
{ACAD_REACTORS
330
1A
102
}
330
1A
100
AcDbPlotSettings
  1

  2
none_device
  4

  6

 40
0.0
 41
0.0
 42
0.0
 43
0.0
 44
0.0
 45
0.0
 46
0.0
 47
0.0
 48
0.0
 49
0.0
140
0.0
141
0.0
142
1.0
143
1.0
 70
   688
 72
     0
 73
     0
 74
     5
  7

 75
    16
 76
     0
 77
     2
 78
   300
147
1.0
148
0.0
149
0.0
100
AcDbLayout
  1
Layout1
 70
     1
 71
     1
 10
0.0
 20
0.0
 11
12.0
 21
9.0
 12
0.0
 22
0.0
 32
0.0
 14
1.000000000000000E+20
 24
1.000000000000000E+20
 34
1.000000000000000E+20
 15
-1.000000000000000E+20
 25
-1.000000000000000E+20
 35
-1.000000000000000E+20
146
0.0
 13
0.0
 23
0.0
 33
0.0
 16
1.0
 26
0.0
 36
0.0
 17
0.0
 27
1.0
 37
0.0
 76
     0
330
1B
  0
LAYOUT
  5
26
102
{ACAD_REACTORS
330
1A
102
}
330
1A
100
AcDbPlotSettings
  1

  2
none_device
  4

  6

 40
0.0
 41
0.0
 42
0.0
 43
0.0
 44
0.0
 45
0.0
 46
0.0
 47
0.0
 48
0.0
 49
0.0
140
0.0
141
0.0
142
1.0
143
1.0
 70
   688
 72
     0
 73
     0
 74
     5
  7

 75
    16
 76
     0
 77
     2
 78
   300
147
1.0
148
0.0
149
0.0
100
AcDbLayout
  1
Layout2
 70
     1
 71
     2
 10
0.0
 20
0.0
 11
0.0
 21
0.0
 12
0.0
 22
0.0
 32
0.0
 14
0.0
 24
0.0
 34
0.0
 15
0.0
 25
0.0
 35
0.0
146
0.0
 13
0.0
 23
0.0
 33
0.0
 16
1.0
 26
0.0
 36
0.0
 17
0.0
 27
1.0
 37
0.0
 76
     0
330
23
  0
LAYOUT
  5
22
102
{ACAD_REACTORS
330
1A
102
}
330
1A
100
AcDbPlotSettings
  1

  2
none_device
  4
Letter_(8.50_x_11.00_Inches)
  6

 40
6.35
 41
6.35
 42
6.35000508
 43
6.35000508
 44
215.9
 45
279.4
 46
0.0
 47
0.0
 48
0.0
 49
0.0
140
0.0
141
0.0
142
1.0
143
1.0
 70
  1712
 72
     0
 73
     0
 74
     0
  7

 75
     0
 76
     0
 77
     2
 78
   300
147
1.0
148
0.0
149
0.0
100
AcDbLayout
  1
Model
 70
     1
 71
     0
 10
0.0
 20
0.0
 11
12.0
 21
9.0
 12
0.0
 22
0.0
 32
0.0
 14
1.000000000000000E+20
 24
1.000000000000000E+20
 34
1.000000000000000E+20
 15
-1.000000000000000E+20
 25
-1.000000000000000E+20
 35
-1.000000000000000E+20
146
0.0
 13
0.0
 23
0.0
 33
0.0
 16
1.0
 26
0.0
 36
0.0
 17
0.0
 27
1.0
 37
0.0
 76
     0
330
1F
331
29
  0
MATERIAL
  5
45
102
{ACAD_REACTORS
330
43
102
}
330
43
100
AcDbMaterial
  1
ByBlock
 72
     1
 94
      127
  0
MATERIAL
  5
44
102
{ACAD_REACTORS
330
43
102
}
330
43
100
AcDbMaterial
  1
ByLayer
 72
     1
 94
      127
  0
MATERIAL
  5
46
102
{ACAD_REACTORS
330
43
102
}
330
43
100
AcDbMaterial
  1
Global
 72
     1
 94
      127
  0
MLEADERSTYLE
  5
6C
102
{ACAD_REACTORS
330
6B
102
}
330
6B
100
AcDbMLeaderStyle
179
     2
170
     2
171
     1
172
     0
 90
        2
 40
0.0
 41
0.0
173
     1
 91
-1056964608
340
14
 92
       -2
290
     1
 42
0.09
291
     1
 43
0.36
  3
Standard
341
0
 44
0.18
300

342
11
174
     1
178
     6
175
     1
176
     0
 93
-1056964608
 45
0.18
292
     0
297
     0
 46
0.18
343
0
 94
-1056964608
 47
1.0
 49
1.0
140
1.0
293
     1
141
0.0
294
     1
177
     0
142
1.0
295
     0
296
     0
143
0.125
271
     0
272
     9
273
     9
298
     0
  0
MLINESTYLE
  5
18
102
{ACAD_REACTORS
330
17
102
}
330
17
100
AcDbMlineStyle
  2
Standard
 70
     0
  3

 62
   256
 51
90.0
 52
90.0
 71
     2
 49
0.5
 62
   256
  6
BYLAYER
 49
-0.5
 62
   256
  6
BYLAYER
  0
ACDBPLACEHOLDER
  5
F
102
{ACAD_REACTORS
330
E
102
}
330
E
  0
SCALE
  5
48
102
{ACAD_REACTORS
330
47
102
}
330
47
100
AcDbScale
 70
     0
300
1:1
140
1.0
141
1.0
290
     1
  0
SCALE
  5
49
102
{ACAD_REACTORS
330
47
102
}
330
47
100
AcDbScale
 70
     0
300
1:2
140
1.0
141
2.0
290
     0
  0
SCALE
  5
4A
102
{ACAD_REACTORS
330
47
102
}
330
47
100
AcDbScale
 70
     0
300
1:4
140
1.0
141
4.0
290
     0
  0
SCALE
  5
4B
102
{ACAD_REACTORS
330
47
102
}
330
47
100
AcDbScale
 70
     0
300
1:5
140
1.0
141
5.0
290
     0
  0
SCALE
  5
4C
102
{ACAD_REACTORS
330
47
102
}
330
47
100
AcDbScale
 70
     0
300
1:8
140
1.0
141
8.0
290
     0
  0
SCALE
  5
4D
102
{ACAD_REACTORS
330
47
102
}
330
47
100
AcDbScale
 70
     0
300
1:10
140
1.0
141
10.0
290
     0
  0
SCALE
  5
4E
102
{ACAD_REACTORS
330
47
102
}
330
47
100
AcDbScale
 70
     0
300
1:16
140
1.0
141
16.0
290
     0
  0
SCALE
  5
4F
102
{ACAD_REACTORS
330
47
102
}
330
47
100
AcDbScale
 70
     0
300
1:20
140
1.0
141
20.0
290
     0
  0
SCALE
  5
50
102
{ACAD_REACTORS
330
47
102
}
330
47
100
AcDbScale
 70
     0
300
1:30
140
1.0
141
30.0
290
     0
  0
SCALE
  5
51
102
{ACAD_REACTORS
330
47
102
}
330
47
100
AcDbScale
 70
     0
300
1:40
140
1.0
141
40.0
290
     0
  0
SCALE
  5
52
102
{ACAD_REACTORS
330
47
102
}
330
47
100
AcDbScale
 70
     0
300
1:50
140
1.0
141
50.0
290
     0
  0
SCALE
  5
53
102
{ACAD_REACTORS
330
47
102
}
330
47
100
AcDbScale
 70
     0
300
1:100
140
1.0
141
100.0
290
     0
  0
SCALE
  5
54
102
{ACAD_REACTORS
330
47
102
}
330
47
100
AcDbScale
 70
     0
300
2:1
140
2.0
141
1.0
290
     0
  0
SCALE
  5
55
102
{ACAD_REACTORS
330
47
102
}
330
47
100
AcDbScale
 70
     0
300
4:1
140
4.0
141
1.0
290
     0
  0
SCALE
  5
56
102
{ACAD_REACTORS
330
47
102
}
330
47
100
AcDbScale
 70
     0
300
8:1
140
8.0
141
1.0
290
     0
  0
SCALE
  5
57
102
{ACAD_REACTORS
330
47
102
}
330
47
100
AcDbScale
 70
     0
300
10:1
140
10.0
141
1.0
290
     0
  0
SCALE
  5
58
102
{ACAD_REACTORS
330
47
102
}
330
47
100
AcDbScale
 70
     0
300
100:1
140
100.0
141
1.0
290
     0
  0
SCALE
  5
59
102
{ACAD_REACTORS
330
47
102
}
330
47
100
AcDbScale
 70
     0
300
1/128" = 1'-0"
140
0.0078125
141
12.0
290
     0
  0
SCALE
  5
5A
102
{ACAD_REACTORS
330
47
102
}
330
47
100
AcDbScale
 70
     0
300
1/64" = 1'-0"
140
0.015625
141
12.0
290
     0
  0
SCALE
  5
5B
102
{ACAD_REACTORS
330
47
102
}
330
47
100
AcDbScale
 70
     0
300
1/32" = 1'-0"
140
0.03125
141
12.0
290
     0
  0
SCALE
  5
5C
102
{ACAD_REACTORS
330
47
102
}
330
47
100
AcDbScale
 70
     0
300
1/16" = 1'-0"
140
0.0625
141
12.0
290
     0
  0
SCALE
  5
5D
102
{ACAD_REACTORS
330
47
102
}
330
47
100
AcDbScale
 70
     0
300
3/32" = 1'-0"
140
0.09375
141
12.0
290
     0
  0
SCALE
  5
5E
102
{ACAD_REACTORS
330
47
102
}
330
47
100
AcDbScale
 70
     0
300
1/8" = 1'-0"
140
0.125
141
12.0
290
     0
  0
SCALE
  5
5F
102
{ACAD_REACTORS
330
47
102
}
330
47
100
AcDbScale
 70
     0
300
3/16" = 1'-0"
140
0.1875
141
12.0
290
     0
  0
SCALE
  5
60
102
{ACAD_REACTORS
330
47
102
}
330
47
100
AcDbScale
 70
     0
300
1/4" = 1'-0"
140
0.25
141
12.0
290
     0
  0
SCALE
  5
61
102
{ACAD_REACTORS
330
47
102
}
330
47
100
AcDbScale
 70
     0
300
3/8" = 1'-0"
140
0.375
141
12.0
290
     0
  0
SCALE
  5
62
102
{ACAD_REACTORS
330
47
102
}
330
47
100
AcDbScale
 70
     0
300
1/2" = 1'-0"
140
0.5
141
12.0
290
     0
  0
SCALE
  5
63
102
{ACAD_REACTORS
330
47
102
}
330
47
100
AcDbScale
 70
     0
300
3/4" = 1'-0"
140
0.75
141
12.0
290
     0
  0
SCALE
  5
64
102
{ACAD_REACTORS
330
47
102
}
330
47
100
AcDbScale
 70
     0
300
1" = 1'-0"
140
1.0
141
12.0
290
     0
  0
SCALE
  5
65
102
{ACAD_REACTORS
330
47
102
}
330
47
100
AcDbScale
 70
     0
300
1-1/2" = 1'-0"
140
1.5
141
12.0
290
     0
  0
SCALE
  5
66
102
{ACAD_REACTORS
330
47
102
}
330
47
100
AcDbScale
 70
     0
300
3" = 1'-0"
140
3.0
141
12.0
290
     0
  0
SCALE
  5
67
102
{ACAD_REACTORS
330
47
102
}
330
47
100
AcDbScale
 70
     0
300
6" = 1'-0"
140
6.0
141
12.0
290
     0
  0
SCALE
  5
68
102
{ACAD_REACTORS
330
47
102
}
330
47
100
AcDbScale
 70
     0
300
1'-0" = 1'-0"
140
12.0
141
12.0
290
     0
  0
TABLESTYLE
  5
6A
102
{ACAD_REACTORS
330
69
102
}
102
{ACAD_XDICTIONARY
360
16A
102
}
330
69
100
AcDbTableStyle
  3
Standard
 70
     0
 71
     0
 40
0.06
 41
0.06
280
     0
281
     0
  7
Standard
140
0.18
170
     2
 62
     0
 63
   257
283
     0
 90
        4
 91
        0
  1

274
    -2
284
     1
 64
     0
275
    -2
285
     1
 65
     0
276
    -2
286
     1
 66
     0
277
    -2
287
     1
 67
     0
278
    -2
288
     1
 68
     0
279
    -2
289
     1
 69
     0
  7
Standard
140
0.25
170
     5
 62
     0
 63
   257
283
     0
 90
        4
 91
        0
  1

274
    -2
284
     1
 64
     0
275
    -2
285
     1
 65
     0
276
    -2
286
     1
 66
     0
277
    -2
287
     1
 67
     0
278
    -2
288
     1
 68
     0
279
    -2
289
     1
 69
     0
  7
Standard
140
0.18
170
     5
 62
     0
 63
   257
283
     0
 90
        4
 91
        0
  1

274
    -2
284
     1
 64
     0
275
    -2
285
     1
 65
     0
276
    -2
286
     1
 66
     0
277
    -2
287
     1
 67
     0
278
    -2
288
     1
 68
     0
279
    -2
289
     1
 69
     0
  0
VISUALSTYLE
  5
2F
102
{ACAD_REACTORS
330
2A
102
}
330
2A
100
AcDbVisualStyle
  2
2dWireframe
 70
     4
177
     3
291
     0
 70
    58
 90
        0
176
     1
 90
        2
176
     1
 90
        0
176
     1
 90
        0
176
     1
 40
0.6
176
     1
 40
30.0
176
     1
 62
     7
420
 16777215
176
     1
 90
        1
176
     1
 90
        4
176
     1
 62
     7
176
     1
 62
   257
176
     1
 90
        1
176
     1
 90
        1
176
     1
 40
1.0
176
     1
 90
        0
176
     1
 62
   257
176
     1
 40
1.0
176
     1
 90
        1
176
     1
 90
        6
176
     1
 90
        2
176
     1
 62
     7
176
     1
 90
        5
176
     1
 90
        0
176
     1
 90
        0
176
     1
290
     0
176
     1
 90
        1
176
     1
 40
0.0
176
     1
 90
        0
176
     1
290
     1
176
     1
290
     1
176
     1
290
     0
176
     1
290
     0
176
     1
290
     0
176
     1
290
     0
176
     1
290
     0
176
     1
290
     0
176
     1
290
     0
176
     1
 90
       50
176
     1
 40
0.0
176
     1
 40
1.0
176
     1
 90
        0
176
     1
 62
    18
420
        0
176
     1
 90
       50
176
     1
 90
        3
176
     1
 62
     5
420
      255
176
     1
290
     0
176
     1
 90
       50
176
     1
 90
       50
176
     1
 90
       50
176
     1
290
     0
176
     1
 90
       50
176
     1
 62
   256
176
     0
 40
1.0
176
     0
 90
        2
176
     1
  1
strokes_ogs.tif
176
     1
290
     0
176
     1
 40
1.0
176
     1
 40
1.0
176
     1
  0
VISUALSTYLE
  5
32
102
{ACAD_REACTORS
330
2A
102
}
330
2A
100
AcDbVisualStyle
  2
Basic
 70
     7
177
     3
291
     1
 70
    58
 90
        1
176
     1
 90
        0
176
     1
 90
        1
176
     1
 90
        0
176
     1
 40
0.6
176
     1
 40
30.0
176
     1
 62
     7
420
 16777215
176
     1
 90
        0
176
     1
 90
        4
176
     1
 62
     7
176
     1
 62
   257
176
     1
 90
        1
176
     1
 90
        1
176
     1
 40
1.0
176
     1
 90
        8
176
     1
 62
     7
176
     1
 40
1.0
176
     1
 90
        1
176
     1
 90
        6
176
     1
 90
        2
176
     1
 62
     7
176
     1
 90
        5
176
     1
 90
        0
176
     1
 90
        0
176
     1
290
     0
176
     1
 90
        1
176
     1
 40
0.0
176
     1
 90
        0
176
     1
290
     0
176
     1
290
     1
176
     1
290
     1
176
     1
290
     0
176
     1
290
     0
176
     1
290
     0
176
     1
290
     0
176
     1
290
     0
176
     1
290
     0
176
     1
 90
       50
176
     1
 40
0.0
176
     1
 40
1.0
176
     1
 90
        0
176
     1
 62
    18
420
        0
176
     1
 90
       50
176
     1
 90
        3
176
     1
 62
     5
420
      255
176
     1
290
     0
176
     1
 90
       50
176
     1
 90
       50
176
     1
 90
       50
176
     1
290
     0
176
     1
 90
       50
176
     1
 62
   256
176
     0
 40
1.0
176
     0
 90
        2
176
     1
  1
strokes_ogs.tif
176
     1
290
     0
176
     1
 40
1.0
176
     1
 40
1.0
176
     1
  0
VISUALSTYLE
  5
36
102
{ACAD_REACTORS
330
2A
102
}
330
2A
100
AcDbVisualStyle
  2
Brighten
 70
    12
177
     3
291
     1
 70
    58
 90
        2
176
     1
 90
        2
176
     1
 90
        0
176
     1
 90
        0
176
     1
 40
0.6
176
     1
 40
30.0
176
     1
 62
     7
420
 16777215
176
     1
 90
        1
176
     1
 90
        4
176
     1
 62
     7
176
     1
 62
   257
176
     1
 90
        1
176
     1
 90
        1
176
     1
 40
1.0
176
     1
 90
        8
176
     1
 62
     7
176
     1
 40
1.0
176
     1
 90
        1
176
     1
 90
        6
176
     1
 90
        2
176
     1
 62
     7
176
     1
 90
        5
176
     1
 90
        0
176
     1
 90
        0
176
     1
290
     0
176
     1
 90
        1
176
     1
 40
50.0
176
     1
 90
        0
176
     1
290
     0
176
     1
290
     1
176
     1
290
     1
176
     1
290
     0
176
     1
290
     0
176
     1
290
     0
176
     1
290
     0
176
     1
290
     0
176
     1
290
     0
176
     1
 90
       50
176
     1
 40
0.0
176
     1
 40
1.0
176
     1
 90
        0
176
     1
 62
    18
420
        0
176
     1
 90
       50
176
     1
 90
        3
176
     1
 62
     5
420
      255
176
     1
290
     0
176
     1
 90
       50
176
     1
 90
       50
176
     1
 90
       50
176
     1
290
     0
176
     1
 90
       50
176
     1
 62
   256
176
     0
 40
1.0
176
     0
 90
        2
176
     1
  1
strokes_ogs.tif
176
     1
290
     0
176
     1
 40
1.0
176
     1
 40
1.0
176
     1
  0
VISUALSTYLE
  5
3A
102
{ACAD_REACTORS
330
2A
102
}
330
2A
100
AcDbVisualStyle
  2
ColorChange
 70
    16
177
     3
291
     1
 70
    58
 90
        2
176
     1
 90
        2
176
     1
 90
        3
176
     1
 90
        0
176
     1
 40
0.6
176
     1
 40
30.0
176
     1
 62
     8
420
  8421504
176
     1
 90
        1
176
     1
 90
        4
176
     1
 62
     7
176
     1
 62
   257
176
     1
 90
        1
176
     1
 90
        1
176
     1
 40
1.0
176
     1
 90
        8
176
     1
 62
     8
420
  8421504
176
     1
 40
1.0
176
     1
 90
        1
176
     1
 90
        6
176
     1
 90
        2
176
     1
 62
     7
176
     1
 90
        5
176
     1
 90
        0
176
     1
 90
        0
176
     1
290
     0
176
     1
 90
        1
176
     1
 40
0.0
176
     1
 90
        0
176
     1
290
     0
176
     1
290
     1
176
     1
290
     1
176
     1
290
     0
176
     1
290
     0
176
     1
290
     0
176
     1
290
     0
176
     1
290
     0
176
     1
290
     0
176
     1
 90
       50
176
     1
 40
0.0
176
     1
 40
1.0
176
     1
 90
        0
176
     1
 62
    18
420
        0
176
     1
 90
       50
176
     1
 90
        3
176
     1
 62
     5
420
      255
176
     1
290
     0
176
     1
 90
       50
176
     1
 90
       50
176
     1
 90
       50
176
     1
290
     0
176
     1
 90
       50
176
     1
 62
   256
176
     0
 40
1.0
176
     0
 90
        2
176
     1
  1
strokes_ogs.tif
176
     1
290
     0
176
     1
 40
1.0
176
     1
 40
1.0
176
     1
  0
VISUALSTYLE
  5
34
102
{ACAD_REACTORS
330
2A
102
}
330
2A
100
AcDbVisualStyle
  2
Conceptual
 70
     9
177
     3
291
     0
 70
    58
 90
        3
176
     1
 90
        2
176
     1
 90
        0
176
     1
 90
        0
176
     1
 40
0.6
176
     1
 40
30.0
176
     1
 62
     7
420
 16777215
176
     1
 90
        2
176
     1
 90
        2
176
     1
 62
     7
176
     1
 62
   257
176
     1
 90
        1
176
     1
 90
        1
176
     1
 40
179.0
176
     1
 90
        8
176
     1
 62
     7
176
     1
 40
1.0
176
     1
 90
        1
176
     1
 90
        6
176
     1
 90
        2
176
     1
 62
     7
176
     1
 90
        3
176
     1
 90
        0
176
     1
 90
        0
176
     1
290
     0
176
     1
 90
        1
176
     1
 40
0.0
176
     1
 90
        0
176
     1
290
     0
176
     1
290
     1
176
     1
290
     1
176
     1
290
     0
176
     1
290
     0
176
     1
290
     0
176
     1
290
     0
176
     1
290
     0
176
     1
290
     0
176
     1
 90
       50
176
     1
 40
0.0
176
     1
 40
1.0
176
     1
 90
        0
176
     1
 62
    18
420
        0
176
     1
 90
       50
176
     1
 90
        3
176
     1
 62
     5
420
      255
176
     1
290
     0
176
     1
 90
       50
176
     1
 90
       50
176
     1
 90
       50
176
     1
290
     0
176
     1
 90
       50
176
     1
 62
   256
176
     0
 40
1.0
176
     0
 90
        2
176
     1
  1
strokes_ogs.tif
176
     1
290
     0
176
     1
 40
1.0
176
     1
 40
1.0
176
     1
  0
VISUALSTYLE
  5
35
102
{ACAD_REACTORS
330
2A
102
}
330
2A
100
AcDbVisualStyle
  2
Dim
 70
    11
177
     3
291
     1
 70
    58
 90
        2
176
     1
 90
        2
176
     1
 90
        0
176
     1
 90
        0
176
     1
 40
0.6
176
     1
 40
30.0
176
     1
 62
     7
420
 16777215
176
     1
 90
        1
176
     1
 90
        4
176
     1
 62
     7
176
     1
 62
   257
176
     1
 90
        1
176
     1
 90
        1
176
     1
 40
1.0
176
     1
 90
        8
176
     1
 62
     7
176
     1
 40
1.0
176
     1
 90
        1
176
     1
 90
        6
176
     1
 90
        2
176
     1
 62
     7
176
     1
 90
        5
176
     1
 90
        0
176
     1
 90
        0
176
     1
290
     0
176
     1
 90
        1
176
     1
 40
-50.0
176
     1
 90
        0
176
     1
290
     0
176
     1
290
     1
176
     1
290
     1
176
     1
290
     0
176
     1
290
     0
176
     1
290
     0
176
     1
290
     0
176
     1
290
     0
176
     1
290
     0
176
     1
 90
       50
176
     1
 40
0.0
176
     1
 40
1.0
176
     1
 90
        0
176
     1
 62
    18
420
        0
176
     1
 90
       50
176
     1
 90
        3
176
     1
 62
     5
420
      255
176
     1
290
     0
176
     1
 90
       50
176
     1
 90
       50
176
     1
 90
       50
176
     1
290
     0
176
     1
 90
       50
176
     1
 62
   256
176
     0
 40
1.0
176
     0
 90
        2
176
     1
  1
strokes_ogs.tif
176
     1
290
     0
176
     1
 40
1.0
176
     1
 40
1.0
176
     1
  0
VISUALSTYLE
  5
3D
102
{ACAD_REACTORS
330
2A
102
}
330
2A
100
AcDbVisualStyle
  2
EdgeColorOff
 70
    22
177
     3
291
     1
 70
    58
 90
        2
176
     0
 90
        2
176
     0
 90
        0
176
     0
 90
        0
176
     0
 40
0.6
176
     0
 40
30.0
176
     0
 62
     7
420
 16777215
176
     0
 90
        1
176
     0
 90
        4
176
     0
 62
     7
176
     0
 62
   257
176
     0
 90
        1
176
     0
 90
        1
176
     0
 40
1.0
176
     0
 90
        8
176
     2
 62
     7
176
     0
 40
1.0
176
     0
 90
        1
176
     0
 90
        6
176
     0
 90
        2
176
     0
 62
     7
176
     0
 90
        5
176
     0
 90
        0
176
     0
 90
        0
176
     0
290
     0
176
     0
 90
        1
176
     0
 40
0.0
176
     0
 90
        0
176
     0
290
     0
176
     0
290
     1
176
     0
290
     1
176
     0
290
     0
176
     0
290
     0
176
     0
290
     0
176
     0
290
     0
176
     0
290
     0
176
     0
290
     0
176
     0
 90
       50
176
     0
 40
0.0
176
     0
 40
1.0
176
     0
 90
        0
176
     0
 62
    18
420
        0
176
     0
 90
       50
176
     0
 90
        3
176
     0
 62
     5
420
      255
176
     0
290
     0
176
     0
 90
       50
176
     0
 90
       50
176
     0
 90
       50
176
     0
290
     0
176
     0
 90
       50
176
     0
 62
   256
176
     0
 40
1.0
176
     0
 90
        2
176
     0
  1
strokes_ogs.tif
176
     0
290
     0
176
     0
 40
1.0
176
     0
 40
1.0
176
     0
  0
VISUALSTYLE
  5
39
102
{ACAD_REACTORS
330
2A
102
}
330
2A
100
AcDbVisualStyle
  2
Facepattern
 70
    15
177
     3
291
     1
 70
    58
 90
        2
176
     1
 90
        2
176
     1
 90
        0
176
     1
 90
        0
176
     1
 40
0.6
176
     1
 40
30.0
176
     1
 62
     7
420
 16777215
176
     1
 90
        1
176
     1
 90
        4
176
     1
 62
     7
176
     1
 62
   257
176
     1
 90
        1
176
     1
 90
        1
176
     1
 40
1.0
176
     1
 90
        8
176
     1
 62
     7
176
     1
 40
1.0
176
     1
 90
        1
176
     1
 90
        6
176
     1
 90
        2
176
     1
 62
     7
176
     1
 90
        5
176
     1
 90
        0
176
     1
 90
        0
176
     1
290
     0
176
     1
 90
        1
176
     1
 40
0.0
176
     1
 90
        0
176
     1
290
     0
176
     1
290
     1
176
     1
290
     1
176
     1
290
     0
176
     1
290
     0
176
     1
290
     0
176
     1
290
     0
176
     1
290
     0
176
     1
290
     0
176
     1
 90
       50
176
     1
 40
0.0
176
     1
 40
1.0
176
     1
 90
        0
176
     1
 62
    18
420
        0
176
     1
 90
       50
176
     1
 90
        3
176
     1
 62
     5
420
      255
176
     1
290
     0
176
     1
 90
       50
176
     1
 90
       50
176
     1
 90
       50
176
     1
290
     0
176
     1
 90
       50
176
     1
 62
   256
176
     0
 40
1.0
176
     0
 90
        2
176
     1
  1
strokes_ogs.tif
176
     1
290
     0
176
     1
 40
1.0
176
     1
 40
1.0
176
     1
  0
VISUALSTYLE
  5
2B
102
{ACAD_REACTORS
330
2A
102
}
330
2A
100
AcDbVisualStyle
  2
Flat
 70
     0
177
     3
291
     1
 70
    58
 90
        2
176
     1
 90
        1
176
     1
 90
        1
176
     1
 90
        2
176
     1
 40
0.6
176
     1
 40
30.0
176
     1
 62
     7
420
 16777215
176
     1
 90
        0
176
     1
 90
        0
176
     1
 62
     7
176
     1
 62
   257
176
     1
 90
        1
176
     1
 90
        1
176
     1
 40
1.0
176
     1
 90
        8
176
     1
 62
     7
176
     1
 40
1.0
176
     1
 90
        1
176
     1
 90
        6
176
     1
 90
        2
176
     1
 62
     7
176
     1
 90
        5
176
     1
 90
        0
176
     1
 90
        0
176
     1
290
     0
176
     1
 90
       13
176
     1
 40
0.0
176
     1
 90
        0
176
     1
290
     0
176
     1
290
     1
176
     1
290
     1
176
     1
290
     0
176
     1
290
     0
176
     1
290
     0
176
     1
290
     0
176
     1
290
     0
176
     1
290
     0
176
     1
 90
       50
176
     1
 40
0.0
176
     1
 40
1.0
176
     1
 90
        0
176
     1
 62
    18
420
        0
176
     1
 90
       50
176
     1
 90
        3
176
     1
 62
     5
420
      255
176
     1
290
     0
176
     1
 90
       50
176
     1
 90
       50
176
     1
 90
       50
176
     1
290
     0
176
     1
 90
       50
176
     1
 62
   256
176
     0
 40
1.0
176
     0
 90
        2
176
     1
  1
strokes_ogs.tif
176
     1
290
     0
176
     1
 40
1.0
176
     1
 40
1.0
176
     1
  0
VISUALSTYLE
  5
2C
102
{ACAD_REACTORS
330
2A
102
}
330
2A
100
AcDbVisualStyle
  2
FlatWithEdges
 70
     1
177
     3
291
     1
 70
    58
 90
        2
176
     1
 90
        1
176
     1
 90
        1
176
     1
 90
        2
176
     1
 40
0.6
176
     1
 40
30.0
176
     1
 62
     7
420
 16777215
176
     1
 90
        1
176
     1
 90
        0
176
     1
 62
     7
176
     1
 62
   257
176
     1
 90
        1
176
     1
 90
        1
176
     1
 40
1.0
176
     1
 90
        0
176
     1
 62
   257
176
     1
 40
1.0
176
     1
 90
        1
176
     1
 90
        6
176
     1
 90
        2
176
     1
 62
     7
176
     1
 90
        5
176
     1
 90
        0
176
     1
 90
        0
176
     1
290
     0
176
     1
 90
       13
176
     1
 40
0.0
176
     1
 90
        0
176
     1
290
     0
176
     1
290
     1
176
     1
290
     1
176
     1
290
     0
176
     1
290
     0
176
     1
290
     0
176
     1
290
     0
176
     1
290
     0
176
     1
290
     0
176
     1
 90
       50
176
     1
 40
0.0
176
     1
 40
1.0
176
     1
 90
        0
176
     1
 62
    18
420
        0
176
     1
 90
       50
176
     1
 90
        3
176
     1
 62
     5
420
      255
176
     1
290
     0
176
     1
 90
       50
176
     1
 90
       50
176
     1
 90
       50
176
     1
290
     0
176
     1
 90
       50
176
     1
 62
   256
176
     0
 40
1.0
176
     0
 90
        2
176
     1
  1
strokes_ogs.tif
176
     1
290
     0
176
     1
 40
1.0
176
     1
 40
1.0
176
     1
  0
VISUALSTYLE
  5
2D
102
{ACAD_REACTORS
330
2A
102
}
330
2A
100
AcDbVisualStyle
  2
Gouraud
 70
     2
177
     3
291
     1
 70
    58
 90
        2
176
     1
 90
        2
176
     1
 90
        1
176
     1
 90
        2
176
     1
 40
0.6
176
     1
 40
30.0
176
     1
 62
     7
420
 16777215
176
     1
 90
        0
176
     1
 90
        0
176
     1
 62
     7
176
     1
 62
   257
176
     1
 90
        1
176
     1
 90
        1
176
     1
 40
1.0
176
     1
 90
        0
176
     1
 62
     7
176
     1
 40
1.0
176
     1
 90
        1
176
     1
 90
        6
176
     1
 90
        2
176
     1
 62
     7
176
     1
 90
        5
176
     1
 90
        0
176
     1
 90
        0
176
     1
290
     0
176
     1
 90
       13
176
     1
 40
0.0
176
     1
 90
        0
176
     1
290
     0
176
     1
290
     1
176
     1
290
     1
176
     1
290
     0
176
     1
290
     0
176
     1
290
     0
176
     1
290
     0
176
     1
290
     0
176
     1
290
     0
176
     1
 90
       50
176
     1
 40
0.0
176
     1
 40
1.0
176
     1
 90
        0
176
     1
 62
    18
420
        0
176
     1
 90
       50
176
     1
 90
        3
176
     1
 62
     5
420
      255
176
     1
290
     0
176
     1
 90
       50
176
     1
 90
       50
176
     1
 90
       50
176
     1
290
     0
176
     1
 90
       50
176
     1
 62
   256
176
     0
 40
1.0
176
     0
 90
        2
176
     1
  1
strokes_ogs.tif
176
     1
290
     0
176
     1
 40
1.0
176
     1
 40
1.0
176
     1
  0
VISUALSTYLE
  5
2E
102
{ACAD_REACTORS
330
2A
102
}
330
2A
100
AcDbVisualStyle
  2
GouraudWithEdges
 70
     3
177
     3
291
     1
 70
    58
 90
        2
176
     1
 90
        2
176
     1
 90
        1
176
     1
 90
        2
176
     1
 40
0.6
176
     1
 40
30.0
176
     1
 62
     7
420
 16777215
176
     1
 90
        1
176
     1
 90
        0
176
     1
 62
     7
176
     1
 62
   257
176
     1
 90
        1
176
     1
 90
        1
176
     1
 40
1.0
176
     1
 90
        0
176
     1
 62
   257
176
     1
 40
1.0
176
     1
 90
        1
176
     1
 90
        6
176
     1
 90
        2
176
     1
 62
     7
176
     1
 90
        5
176
     1
 90
        0
176
     1
 90
        0
176
     1
290
     0
176
     1
 90
       13
176
     1
 40
0.0
176
     1
 90
        0
176
     1
290
     0
176
     1
290
     1
176
     1
290
     1
176
     1
290
     0
176
     1
290
     0
176
     1
290
     0
176
     1
290
     0
176
     1
290
     0
176
     1
290
     0
176
     1
 90
       50
176
     1
 40
0.0
176
     1
 40
1.0
176
     1
 90
        0
176
     1
 62
    18
420
        0
176
     1
 90
       50
176
     1
 90
        3
176
     1
 62
     5
420
      255
176
     1
290
     0
176
     1
 90
       50
176
     1
 90
       50
176
     1
 90
       50
176
     1
290
     0
176
     1
 90
       50
176
     1
 62
   256
176
     0
 40
1.0
176
     0
 90
        2
176
     1
  1
strokes_ogs.tif
176
     1
290
     0
176
     1
 40
1.0
176
     1
 40
1.0
176
     1
  0
VISUALSTYLE
  5
31
102
{ACAD_REACTORS
330
2A
102
}
330
2A
100
AcDbVisualStyle
  2
Hidden
 70
     6
177
     3
291
     0
 70
    58
 90
        1
176
     1
 90
        2
176
     1
 90
        2
176
     1
 90
        0
176
     1
 40
0.6
176
     1
 40
30.0
176
     1
 62
     7
420
 16777215
176
     1
 90
        2
176
     1
 90
        2
176
     1
 62
     7
176
     1
 62
   257
176
     1
 90
        2
176
     1
 90
        1
176
     1
 40
40.0
176
     1
 90
        0
176
     1
 62
   257
176
     1
 40
1.0
176
     1
 90
        1
176
     1
 90
        6
176
     1
 90
        2
176
     1
 62
     7
176
     1
 90
        3
176
     1
 90
        0
176
     1
 90
        0
176
     1
290
     0
176
     1
 90
        1
176
     1
 40
0.0
176
     1
 90
        0
176
     1
290
     0
176
     1
290
     1
176
     1
290
     1
176
     1
290
     0
176
     1
290
     0
176
     1
290
     0
176
     1
290
     0
176
     1
290
     0
176
     1
290
     0
176
     1
 90
       50
176
     1
 40
0.0
176
     1
 40
1.0
176
     1
 90
        0
176
     1
 62
    18
420
        0
176
     1
 90
       50
176
     1
 90
        3
176
     1
 62
     5
420
      255
176
     1
290
     0
176
     1
 90
       50
176
     1
 90
       50
176
     1
 90
       50
176
     1
290
     0
176
     1
 90
       50
176
     1
 62
   256
176
     0
 40
1.0
176
     0
 90
        2
176
     1
  1
strokes_ogs.tif
176
     1
290
     0
176
     1
 40
1.0
176
     1
 40
1.0
176
     1
  0
VISUALSTYLE
  5
3B
102
{ACAD_REACTORS
330
2A
102
}
330
2A
100
AcDbVisualStyle
  2
JitterOff
 70
    20
177
     3
291
     1
 70
    58
 90
        2
176
     0
 90
        2
176
     0
 90
        0
176
     0
 90
        0
176
     0
 40
0.6
176
     0
 40
30.0
176
     0
 62
     7
420
 16777215
176
     0
 90
        1
176
     0
 90
        4
176
     0
 62
     7
176
     0
 62
   257
176
     0
 90
        1
176
     0
 90
        1
176
     0
 40
1.0
176
     0
 90
       10
176
     2
 62
     7
176
     0
 40
1.0
176
     0
 90
        1
176
     0
 90
        6
176
     0
 90
        2
176
     0
 62
     7
176
     0
 90
        5
176
     0
 90
        0
176
     0
 90
        0
176
     0
290
     0
176
     0
 90
        1
176
     0
 40
0.0
176
     0
 90
        0
176
     0
290
     0
176
     0
290
     1
176
     0
290
     1
176
     0
290
     0
176
     0
290
     0
176
     0
290
     0
176
     0
290
     0
176
     0
290
     0
176
     0
290
     0
176
     0
 90
       50
176
     0
 40
0.0
176
     0
 40
1.0
176
     0
 90
        0
176
     0
 62
    18
420
        0
176
     0
 90
       50
176
     0
 90
        3
176
     0
 62
     5
420
      255
176
     0
290
     0
176
     0
 90
       50
176
     0
 90
       50
176
     0
 90
       50
176
     0
290
     0
176
     0
 90
       50
176
     0
 62
   256
176
     0
 40
1.0
176
     0
 90
        2
176
     0
  1
strokes_ogs.tif
176
     0
290
     0
176
     0
 40
1.0
176
     0
 40
1.0
176
     0
  0
VISUALSTYLE
  5
38
102
{ACAD_REACTORS
330
2A
102
}
330
2A
100
AcDbVisualStyle
  2
Linepattern
 70
    14
177
     3
291
     1
 70
    58
 90
        2
176
     1
 90
        2
176
     1
 90
        0
176
     1
 90
        0
176
     1
 40
0.6
176
     1
 40
30.0
176
     1
 62
     7
420
 16777215
176
     1
 90
        1
176
     1
 90
        4
176
     1
 62
     7
176
     1
 62
   257
176
     1
 90
        7
176
     1
 90
        7
176
     1
 40
1.0
176
     1
 90
        8
176
     1
 62
     7
176
     1
 40
1.0
176
     1
 90
        1
176
     1
 90
        6
176
     1
 90
        2
176
     1
 62
     7
176
     1
 90
        5
176
     1
 90
        0
176
     1
 90
        0
176
     1
290
     0
176
     1
 90
        1
176
     1
 40
0.0
176
     1
 90
        0
176
     1
290
     0
176
     1
290
     1
176
     1
290
     1
176
     1
290
     0
176
     1
290
     0
176
     1
290
     0
176
     1
290
     0
176
     1
290
     0
176
     1
290
     0
176
     1
 90
       50
176
     1
 40
0.0
176
     1
 40
1.0
176
     1
 90
        0
176
     1
 62
    18
420
        0
176
     1
 90
       50
176
     1
 90
        3
176
     1
 62
     5
420
      255
176
     1
290
     0
176
     1
 90
       50
176
     1
 90
       50
176
     1
 90
       50
176
     1
290
     0
176
     1
 90
       50
176
     1
 62
   256
176
     0
 40
1.0
176
     0
 90
        2
176
     1
  1
strokes_ogs.tif
176
     1
290
     0
176
     1
 40
1.0
176
     1
 40
1.0
176
     1
  0
VISUALSTYLE
  5
3C
102
{ACAD_REACTORS
330
2A
102
}
330
2A
100
AcDbVisualStyle
  2
OverhangOff
 70
    21
177
     3
291
     1
 70
    58
 90
        2
176
     0
 90
        2
176
     0
 90
        0
176
     0
 90
        0
176
     0
 40
0.6
176
     0
 40
30.0
176
     0
 62
     7
420
 16777215
176
     0
 90
        1
176
     0
 90
        4
176
     0
 62
     7
176
     0
 62
   257
176
     0
 90
        1
176
     0
 90
        1
176
     0
 40
1.0
176
     0
 90
        9
176
     2
 62
     7
176
     0
 40
1.0
176
     0
 90
        1
176
     0
 90
        6
176
     0
 90
        2
176
     0
 62
     7
176
     0
 90
        5
176
     0
 90
        0
176
     0
 90
        0
176
     0
290
     0
176
     0
 90
        1
176
     0
 40
0.0
176
     0
 90
        0
176
     0
290
     0
176
     0
290
     1
176
     0
290
     1
176
     0
290
     0
176
     0
290
     0
176
     0
290
     0
176
     0
290
     0
176
     0
290
     0
176
     0
290
     0
176
     0
 90
       50
176
     0
 40
0.0
176
     0
 40
1.0
176
     0
 90
        0
176
     0
 62
    18
420
        0
176
     0
 90
       50
176
     0
 90
        3
176
     0
 62
     5
420
      255
176
     0
290
     0
176
     0
 90
       50
176
     0
 90
       50
176
     0
 90
       50
176
     0
290
     0
176
     0
 90
       50
176
     0
 62
   256
176
     0
 40
1.0
176
     0
 90
        2
176
     0
  1
strokes_ogs.tif
176
     0
290
     0
176
     0
 40
1.0
176
     0
 40
1.0
176
     0
  0
VISUALSTYLE
  5
33
102
{ACAD_REACTORS
330
2A
102
}
330
2A
100
AcDbVisualStyle
  2
Realistic
 70
     8
177
     3
291
     0
 70
    58
 90
        2
176
     1
 90
        3
176
     1
 90
        0
176
     1
 90
        2
176
     1
 40
0.6
176
     1
 40
30.0
176
     1
 62
     7
420
 16777215
176
     1
 90
        0
176
     1
 90
        0
176
     1
 62
     7
176
     1
 62
   257
176
     1
 90
        1
176
     1
 90
        1
176
     1
 40
1.0
176
     1
 90
        8
176
     1
 62
   257
176
     1
 40
1.0
176
     1
 90
        1
176
     1
 90
        6
176
     1
 90
        2
176
     1
 62
     7
176
     1
 90
        3
176
     1
 90
        0
176
     1
 90
        0
176
     1
290
     0
176
     1
 90
       13
176
     1
 40
0.0
176
     1
 90
        0
176
     1
290
     0
176
     1
290
     1
176
     1
290
     1
176
     1
290
     0
176
     1
290
     0
176
     1
290
     0
176
     1
290
     0
176
     1
290
     0
176
     1
290
     0
176
     1
 90
       50
176
     1
 40
0.0
176
     1
 40
1.0
176
     1
 90
        0
176
     1
 62
    18
420
        0
176
     1
 90
       50
176
     1
 90
        3
176
     1
 62
     5
420
      255
176
     1
290
     0
176
     1
 90
       50
176
     1
 90
       50
176
     1
 90
       50
176
     1
290
     0
176
     1
 90
       50
176
     1
 62
   256
176
     0
 40
1.0
176
     0
 90
        2
176
     1
  1
strokes_ogs.tif
176
     1
290
     0
176
     1
 40
1.0
176
     1
 40
1.0
176
     1
  0
VISUALSTYLE
  5
42
102
{ACAD_REACTORS
330
2A
102
}
330
2A
100
AcDbVisualStyle
  2
Shaded
 70
    27
177
     3
291
     0
 70
    58
 90
        2
176
     1
 90
        2
176
     1
 90
        1
176
     1
 90
        2
176
     1
 40
0.6
176
     1
 40
30.0
176
     1
 62
     7
420
 16777215
176
     1
 90
        0
176
     1
 90
        4
176
     1
 62
     7
176
     1
 62
   257
176
     1
 90
        1
176
     1
 90
        1
176
     1
 40
1.0
176
     1
 90
        8
176
     1
 62
   257
176
     1
 40
1.0
176
     1
 90
        1
176
     1
 90
        6
176
     1
 90
        2
176
     1
 62
     8
420
  7895160
176
     1
 90
        3
176
     1
 90
        0
176
     1
 90
        0
176
     1
290
     0
176
     1
 90
        5
176
     1
 40
0.0
176
     1
 90
        0
176
     1
290
     0
176
     1
290
     1
176
     1
290
     1
176
     1
290
     0
176
     1
290
     0
176
     1
290
     0
176
     1
290
     0
176
     1
290
     0
176
     1
290
     0
176
     1
 90
       50
176
     1
 40
0.0
176
     1
 40
1.0
176
     1
 90
        0
176
     1
 62
    18
420
        0
176
     1
 90
       50
176
     1
 90
        3
176
     1
 62
     5
420
      255
176
     1
290
     0
176
     1
 90
       50
176
     1
 90
       50
176
     1
 90
       50
176
     1
290
     0
176
     1
 90
       50
176
     1
 62
   256
176
     0
 40
1.0
176
     0
 90
        2
176
     1
  1
strokes_ogs.tif
176
     1
290
     0
176
     1
 40
1.0
176
     1
 40
1.0
176
     1
  0
VISUALSTYLE
  5
41
102
{ACAD_REACTORS
330
2A
102
}
330
2A
100
AcDbVisualStyle
  2
Shaded with edges
 70
    26
177
     3
291
     0
 70
    58
 90
        2
176
     1
 90
        2
176
     1
 90
        1
176
     1
 90
        2
176
     1
 40
0.6
176
     1
 40
30.0
176
     1
 62
     7
420
 16777215
176
     1
 90
        1
176
     1
 90
       10
176
     1
 62
     7
176
     1
 62
   257
176
     1
 90
        2
176
     1
 90
        1
176
     1
 40
1.0
176
     1
 90
        8
176
     1
 62
   257
176
     1
 40
1.0
176
     1
 90
        1
176
     1
 90
        6
176
     1
 90
        2
176
     1
 62
     7
176
     1
 90
        3
176
     1
 90
        0
176
     1
 90
        0
176
     1
290
     0
176
     1
 90
        5
176
     1
 40
0.0
176
     1
 90
        0
176
     1
290
     0
176
     1
290
     1
176
     1
290
     1
176
     1
290
     0
176
     1
290
     0
176
     1
290
     0
176
     1
290
     0
176
     1
290
     0
176
     1
290
     0
176
     1
 90
       50
176
     1
 40
0.0
176
     1
 40
1.0
176
     1
 90
        0
176
     1
 62
    18
420
        0
176
     1
 90
       50
176
     1
 90
        3
176
     1
 62
     5
420
      255
176
     1
290
     0
176
     1
 90
       50
176
     1
 90
       50
176
     1
 90
       50
176
     1
290
     0
176
     1
 90
       50
176
     1
 62
   256
176
     0
 40
1.0
176
     0
 90
        2
176
     1
  1
strokes_ogs.tif
176
     1
290
     0
176
     1
 40
1.0
176
     1
 40
1.0
176
     1
  0
VISUALSTYLE
  5
3E
102
{ACAD_REACTORS
330
2A
102
}
330
2A
100
AcDbVisualStyle
  2
Shades of Gray
 70
    23
177
     3
291
     0
 70
    58
 90
        2
176
     1
 90
        2
176
     1
 90
        3
176
     1
 90
        0
176
     1
 40
0.6
176
     1
 40
30.0
176
     1
 62
     7
420
 16777215
176
     1
 90
        2
176
     1
 90
        2
176
     1
 62
     7
176
     1
 62
     7
176
     1
 90
        1
176
     1
 90
        1
176
     1
 40
40.0
176
     1
 90
        8
176
     1
 62
     7
176
     1
 40
1.0
176
     1
 90
        1
176
     1
 90
        6
176
     1
 90
        2
176
     1
 62
     7
176
     1
 90
        3
176
     1
 90
        0
176
     1
 90
        0
176
     1
290
     0
176
     1
 90
        1
176
     1
 40
0.0
176
     1
 90
        0
176
     1
290
     0
176
     1
290
     1
176
     1
290
     1
176
     1
290
     0
176
     1
290
     0
176
     1
290
     0
176
     1
290
     0
176
     1
290
     0
176
     1
290
     0
176
     1
 90
       50
176
     1
 40
0.0
176
     1
 40
1.0
176
     1
 90
        0
176
     1
 62
    18
420
        0
176
     1
 90
       50
176
     1
 90
        3
176
     1
 62
     5
420
      255
176
     1
290
     0
176
     1
 90
       50
176
     1
 90
       50
176
     1
 90
       50
176
     1
290
     0
176
     1
 90
       50
176
     1
 62
   256
176
     0
 40
1.0
176
     0
 90
        2
176
     1
  1
strokes_ogs.tif
176
     1
290
     0
176
     1
 40
1.0
176
     1
 40
1.0
176
     1
  0
VISUALSTYLE
  5
3F
102
{ACAD_REACTORS
330
2A
102
}
330
2A
100
AcDbVisualStyle
  2
Sketchy
 70
    24
177
     3
291
     0
 70
    58
 90
        1
176
     1
 90
        2
176
     1
 90
        2
176
     1
 90
        0
176
     1
 40
0.6
176
     1
 40
30.0
176
     1
 62
     7
420
 16777215
176
     1
 90
        2
176
     1
 90
        2
176
     1
 62
     7
176
     1
 62
     7
176
     1
 90
        1
176
     1
 90
        1
176
     1
 40
40.0
176
     1
 90
       11
176
     1
 62
     7
176
     1
 40
1.0
176
     1
 90
        1
176
     1
 90
        6
176
     1
 90
        2
176
     1
 62
     7
176
     1
 90
        6
176
     1
 90
        0
176
     1
 90
        0
176
     1
290
     0
176
     1
 90
        1
176
     1
 40
0.0
176
     1
 90
        0
176
     1
290
     0
176
     1
290
     1
176
     1
290
     1
176
     1
290
     0
176
     1
290
     0
176
     1
290
     0
176
     1
290
     0
176
     1
290
     0
176
     1
290
     0
176
     1
 90
       50
176
     1
 40
0.0
176
     1
 40
1.0
176
     1
 90
        0
176
     1
 62
    18
420
        0
176
     1
 90
       50
176
     1
 90
        3
176
     1
 62
     5
420
      255
176
     1
290
     0
176
     1
 90
       50
176
     1
 90
       50
176
     1
 90
       50
176
     1
290
     0
176
     1
 90
       50
176
     1
 62
   256
176
     0
 40
1.0
176
     0
 90
        2
176
     1
  1
strokes_ogs.tif
176
     1
290
     0
176
     1
 40
1.0
176
     1
 40
1.0
176
     1
  0
VISUALSTYLE
  5
37
102
{ACAD_REACTORS
330
2A
102
}
330
2A
100
AcDbVisualStyle
  2
Thicken
 70
    13
177
     3
291
     1
 70
    58
 90
        2
176
     1
 90
        2
176
     1
 90
        0
176
     1
 90
        0
176
     1
 40
0.6
176
     1
 40
30.0
176
     1
 62
     7
420
 16777215
176
     1
 90
        1
176
     1
 90
        4
176
     1
 62
     7
176
     1
 62
   257
176
     1
 90
        1
176
     1
 90
        1
176
     1
 40
1.0
176
     1
 90
       12
176
     1
 62
     7
176
     1
 40
1.0
176
     1
 90
        1
176
     1
 90
        6
176
     1
 90
        2
176
     1
 62
     7
176
     1
 90
        5
176
     1
 90
        0
176
     1
 90
        0
176
     1
290
     0
176
     1
 90
        1
176
     1
 40
0.0
176
     1
 90
        0
176
     1
290
     0
176
     1
290
     1
176
     1
290
     1
176
     1
290
     0
176
     1
290
     0
176
     1
290
     0
176
     1
290
     0
176
     1
290
     0
176
     1
290
     0
176
     1
 90
       50
176
     1
 40
0.0
176
     1
 40
1.0
176
     1
 90
        0
176
     1
 62
    18
420
        0
176
     1
 90
       50
176
     1
 90
        3
176
     1
 62
     5
420
      255
176
     1
290
     0
176
     1
 90
       50
176
     1
 90
       50
176
     1
 90
       50
176
     1
290
     0
176
     1
 90
       50
176
     1
 62
   256
176
     0
 40
1.0
176
     0
 90
        2
176
     1
  1
strokes_ogs.tif
176
     1
290
     0
176
     1
 40
1.0
176
     1
 40
1.0
176
     1
  0
VISUALSTYLE
  5
30
102
{ACAD_REACTORS
330
2A
102
}
330
2A
100
AcDbVisualStyle
  2
Wireframe
 70
     5
177
     3
291
     0
 70
    58
 90
        0
176
     1
 90
        2
176
     1
 90
        0
176
     1
 90
        0
176
     1
 40
0.6
176
     1
 40
30.0
176
     1
 62
     7
420
 16777215
176
     1
 90
        1
176
     1
 90
        4
176
     1
 62
     7
176
     1
 62
   257
176
     1
 90
        1
176
     1
 90
        1
176
     1
 40
1.0
176
     1
 90
        0
176
     1
 62
   257
176
     1
 40
1.0
176
     1
 90
        1
176
     1
 90
        6
176
     1
 90
        2
176
     1
 62
     7
176
     1
 90
        3
176
     1
 90
        0
176
     1
 90
        0
176
     1
290
     0
176
     1
 90
        1
176
     1
 40
0.0
176
     1
 90
        0
176
     1
290
     0
176
     1
290
     1
176
     1
290
     1
176
     1
290
     0
176
     1
290
     0
176
     1
290
     0
176
     1
290
     0
176
     1
290
     0
176
     1
290
     0
176
     1
 90
       50
176
     1
 40
0.0
176
     1
 40
1.0
176
     1
 90
        0
176
     1
 62
    18
420
        0
176
     1
 90
       50
176
     1
 90
        3
176
     1
 62
     5
420
      255
176
     1
290
     0
176
     1
 90
       50
176
     1
 90
       50
176
     1
 90
       50
176
     1
290
     0
176
     1
 90
       50
176
     1
 62
   256
176
     0
 40
1.0
176
     0
 90
        2
176
     1
  1
strokes_ogs.tif
176
     1
290
     0
176
     1
 40
1.0
176
     1
 40
1.0
176
     1
  0
VISUALSTYLE
  5
40
102
{ACAD_REACTORS
330
2A
102
}
330
2A
100
AcDbVisualStyle
  2
X-Ray
 70
    25
177
     3
291
     0
 70
    58
 90
        2
176
     1
 90
        2
176
     1
 90
        1
176
     1
 90
        1
176
     1
 40
0.5
176
     1
 40
30.0
176
     1
 62
     7
420
 16777215
176
     1
 90
        1
176
     1
 90
        0
176
     1
 62
     7
176
     1
 62
   257
176
     1
 90
        1
176
     1
 90
        1
176
     1
 40
1.0
176
     1
 90
        8
176
     1
 62
     7
176
     1
 40
1.0
176
     1
 90
        1
176
     1
 90
        6
176
     1
 90
        2
176
     1
 62
     7
176
     1
 90
        3
176
     1
 90
        0
176
     1
 90
        0
176
     1
290
     0
176
     1
 90
       13
176
     1
 40
0.0
176
     1
 90
        0
176
     1
290
     0
176
     1
290
     1
176
     1
290
     1
176
     1
290
     0
176
     1
290
     0
176
     1
290
     0
176
     1
290
     0
176
     1
290
     0
176
     1
290
     0
176
     1
 90
       50
176
     1
 40
0.0
176
     1
 40
1.0
176
     1
 90
        0
176
     1
 62
    18
420
        0
176
     1
 90
       50
176
     1
 90
        3
176
     1
 62
     5
420
      255
176
     1
290
     0
176
     1
 90
       50
176
     1
 90
       50
176
     1
 90
       50
176
     1
290
     0
176
     1
 90
       50
176
     1
 62
   256
176
     0
 40
1.0
176
     0
 90
        2
176
     1
  1
strokes_ogs.tif
176
     1
290
     0
176
     1
 40
1.0
176
     1
 40
1.0
176
     1
  0
DICTIONARYVAR
  5
169
102
{ACAD_REACTORS
330
168
102
}
330
168
100
DictionaryVariables
280
     0
  1
1:1
  0
DICTIONARYVAR
  5
16E
102
{ACAD_REACTORS
330
168
102
}
330
168
100
DictionaryVariables
280
     0
  1
Standard
  0
DICTIONARYVAR
  5
16D
102
{ACAD_REACTORS
330
168
102
}
330
168
100
DictionaryVariables
280
     0
  1
Standard
  0
DICTIONARY
  5
16A
330
6A
100
AcDbDictionary
280
     1
281
     1
  3
ACAD_ROUNDTRIP_2008_TABLESTYLE_CELLSTYLEMAP
360
16B
  0
CELLSTYLEMAP
  5
16B
102
{ACAD_REACTORS
330
16A
102
}
330
16A
100
AcDbCellStyleMap
 90
        3
300
CELLSTYLE
  1
TABLEFORMAT_BEGIN
 90
        5
170
     1
 91
        0
 92
    32768
 62
   257
 93
        1
300
CONTENTFORMAT
  1
CONTENTFORMAT_BEGIN
 90
        0
 91
        0
 92
        4
 93
        0
300

 40
0.0
140
1.0
 94
        5
 62
     0
340
11
144
0.25
309
CONTENTFORMAT_END
171
     1
301
MARGIN
  1
CELLMARGIN_BEGIN
 40
0.06
 40
0.06
 40
0.06
 40
0.06
 40
0.06
 40
0.06
309
CELLMARGIN_END
 94
        6
 95
        1
302
GRIDFORMAT
  1
GRIDFORMAT_BEGIN
 90
        0
 91
        1
 62
     0
 92
       -2
340
14
 93
        0
 40
0.045
309
GRIDFORMAT_END
 95
        2
302
GRIDFORMAT
  1
GRIDFORMAT_BEGIN
 90
        0
 91
        1
 62
     0
 92
       -2
340
14
 93
        0
 40
0.045
309
GRIDFORMAT_END
 95
        4
302
GRIDFORMAT
  1
GRIDFORMAT_BEGIN
 90
        0
 91
        1
 62
     0
 92
       -2
340
14
 93
        0
 40
0.045
309
GRIDFORMAT_END
 95
        8
302
GRIDFORMAT
  1
GRIDFORMAT_BEGIN
 90
        0
 91
        1
 62
     0
 92
       -2
340
14
 93
        0
 40
0.045
309
GRIDFORMAT_END
 95
       16
302
GRIDFORMAT
  1
GRIDFORMAT_BEGIN
 90
        0
 91
        1
 62
     0
 92
       -2
340
14
 93
        0
 40
0.045
309
GRIDFORMAT_END
 95
       32
302
GRIDFORMAT
  1
GRIDFORMAT_BEGIN
 90
        0
 91
        1
 62
     0
 92
       -2
340
14
 93
        0
 40
0.045
309
GRIDFORMAT_END
309
TABLEFORMAT_END
  1
CELLSTYLE_BEGIN
 90
        1
 91
        1
300
_TITLE
309
CELLSTYLE_END
300
CELLSTYLE
  1
TABLEFORMAT_BEGIN
 90
        5
170
     1
 91
        0
 92
        0
 62
   257
 93
        1
300
CONTENTFORMAT
  1
CONTENTFORMAT_BEGIN
 90
        0
 91
        0
 92
        4
 93
        0
300

 40
0.0
140
1.0
 94
        5
 62
     0
340
11
144
0.18
309
CONTENTFORMAT_END
171
     1
301
MARGIN
  1
CELLMARGIN_BEGIN
 40
0.06
 40
0.06
 40
0.06
 40
0.06
 40
0.06
 40
0.06
309
CELLMARGIN_END
 94
        6
 95
        1
302
GRIDFORMAT
  1
GRIDFORMAT_BEGIN
 90
        0
 91
        1
 62
     0
 92
       -2
340
14
 93
        0
 40
0.045
309
GRIDFORMAT_END
 95
        2
302
GRIDFORMAT
  1
GRIDFORMAT_BEGIN
 90
        0
 91
        1
 62
     0
 92
       -2
340
14
 93
        0
 40
0.045
309
GRIDFORMAT_END
 95
        4
302
GRIDFORMAT
  1
GRIDFORMAT_BEGIN
 90
        0
 91
        1
 62
     0
 92
       -2
340
14
 93
        0
 40
0.045
309
GRIDFORMAT_END
 95
        8
302
GRIDFORMAT
  1
GRIDFORMAT_BEGIN
 90
        0
 91
        1
 62
     0
 92
       -2
340
14
 93
        0
 40
0.045
309
GRIDFORMAT_END
 95
       16
302
GRIDFORMAT
  1
GRIDFORMAT_BEGIN
 90
        0
 91
        1
 62
     0
 92
       -2
340
14
 93
        0
 40
0.045
309
GRIDFORMAT_END
 95
       32
302
GRIDFORMAT
  1
GRIDFORMAT_BEGIN
 90
        0
 91
        1
 62
     0
 92
       -2
340
14
 93
        0
 40
0.045
309
GRIDFORMAT_END
309
TABLEFORMAT_END
  1
CELLSTYLE_BEGIN
 90
        2
 91
        1
300
_HEADER
309
CELLSTYLE_END
300
CELLSTYLE
  1
TABLEFORMAT_BEGIN
 90
        5
170
     1
 91
        0
 92
        0
 62
   257
 93
        1
300
CONTENTFORMAT
  1
CONTENTFORMAT_BEGIN
 90
        0
 91
        0
 92
        4
 93
        0
300

 40
0.0
140
1.0
 94
        2
 62
     0
340
11
144
0.18
309
CONTENTFORMAT_END
171
     1
301
MARGIN
  1
CELLMARGIN_BEGIN
 40
0.06
 40
0.06
 40
0.06
 40
0.06
 40
0.06
 40
0.06
309
CELLMARGIN_END
 94
        6
 95
        1
302
GRIDFORMAT
  1
GRIDFORMAT_BEGIN
 90
        0
 91
        1
 62
     0
 92
       -2
340
14
 93
        0
 40
0.045
309
GRIDFORMAT_END
 95
        2
302
GRIDFORMAT
  1
GRIDFORMAT_BEGIN
 90
        0
 91
        1
 62
     0
 92
       -2
340
14
 93
        0
 40
0.045
309
GRIDFORMAT_END
 95
        4
302
GRIDFORMAT
  1
GRIDFORMAT_BEGIN
 90
        0
 91
        1
 62
     0
 92
       -2
340
14
 93
        0
 40
0.045
309
GRIDFORMAT_END
 95
        8
302
GRIDFORMAT
  1
GRIDFORMAT_BEGIN
 90
        0
 91
        1
 62
     0
 92
       -2
340
14
 93
        0
 40
0.045
309
GRIDFORMAT_END
 95
       16
302
GRIDFORMAT
  1
GRIDFORMAT_BEGIN
 90
        0
 91
        1
 62
     0
 92
       -2
340
14
 93
        0
 40
0.045
309
GRIDFORMAT_END
 95
       32
302
GRIDFORMAT
  1
GRIDFORMAT_BEGIN
 90
        0
 91
        1
 62
     0
 92
       -2
340
14
 93
        0
 40
0.045
309
GRIDFORMAT_END
309
TABLEFORMAT_END
  1
CELLSTYLE_BEGIN
 90
        3
 91
        2
300
_DATA
309
CELLSTYLE_END
  0
ENDSEC
  0
EOF