0
SECTION
  2
HEADER
  9
$ACADVER
  1
AC1027
  9
$ACADMAINTVER
 70
     8
  9
$DWGCODEPAGE
  3
ANSI_1252
  9
$REQUIREDVERSIONS
160
                 0
  9
$COMMENTS
  1
File was created by Cadenas
  9
$CUSTOMPROPERTYTAG
  1
NN
  9
$CUSTOMPROPERTY
  1
Set Screw LFT Duty 2-Bolt Flange Inch Bore
  9
$CUSTOMPROPERTYTAG
  1
NT
  9
$CUSTOMPROPERTY
  1
SC 2 Bolt Flange Bearings -(Normal Duty) -Re-Lube and No-Lube
  9
$CUSTOMPROPERTYTAG
  1
NB
  9
$CUSTOMPROPERTY
  1
124649
  9
$CUSTOMPROPERTYTAG
  1
NBSYN
  9
$CUSTOMPROPERTY
  1
$PN.
  9
$CUSTOMPROPERTYTAG
  1
LINA
  9
$CUSTOMPROPERTY
  1
124649
  9
$CUSTOMPROPERTYTAG
  1
SERIES
  9
$CUSTOMPROPERTY
  1
206
  9
$CUSTOMPROPERTYTAG
  1
SS
  9
$CUSTOMPROPERTY
  1
1-1/4
  9
$CUSTOMPROPERTYTAG
  1
PN
  9
$CUSTOMPROPERTY
  1
124649
  9
$CUSTOMPROPERTYTAG
  1
DESCRIPTION
  9
$CUSTOMPROPERTY
  1
LFT-SC-104S
  9
$CUSTOMPROPERTYTAG
  1
W
  9
$CUSTOMPROPERTY
  1
1.35
  9
$CUSTOMPROPERTYTAG
  1
LF
  9
$CUSTOMPROPERTY
  1
RE-LUBE
  9
$CUSTOMPROPERTYTAG
  1
A
  9
$CUSTOMPROPERTY
  1
1.26
  9
$CUSTOMPROPERTYTAG
  1
B
  9
$CUSTOMPROPERTY
  1
4.44
  9
$CUSTOMPROPERTYTAG
  1
C
  9
$CUSTOMPROPERTY
  1
1.45
  9
$CUSTOMPROPERTYTAG
  1
D
  9
$CUSTOMPROPERTY
  1
3.56
  9
$CUSTOMPROPERTYTAG
  1
G
  9
$CUSTOMPROPERTY
  1
0.41
  9
$CUSTOMPROPERTYTAG
  1
H
  9
$CUSTOMPROPERTY
  1
0.47
  9
$CUSTOMPROPERTYTAG
  1
J
  9
$CUSTOMPROPERTY
  1
0.46
  9
$CUSTOMPROPERTYTAG
  1
L
  9
$CUSTOMPROPERTY
  1
1.57
  9
$CUSTOMPROPERTYTAG
  1
M
  9
$CUSTOMPROPERTY
  1
3.25
  9
$CUSTOMPROPERTYTAG
  1
N
  9
$CUSTOMPROPERTY
  1
1.72
  9
$CUSTOMPROPERTYTAG
  1
COMPANY
  9
$CUSTOMPROPERTY
  1
baldor
  9
$INSBASE
 10
0.0
 20
0.0
 30
0.0
  9
$EXTMIN
 10
1.000000000000000E+20
 20
1.000000000000000E+20
 30
1.000000000000000E+20
  9
$EXTMAX
 10
-1.000000000000000E+20
 20
-1.000000000000000E+20
 30
-1.000000000000000E+20
  9
$LIMMIN
 10
0.0
 20
0.0
  9
$LIMMAX
 10
12.0
 20
9.0
  9
$ORTHOMODE
 70
     0
  9
$REGENMODE
 70
     1
  9
$FILLMODE
 70
     1
  9
$QTEXTMODE
 70
     0
  9
$MIRRTEXT
 70
     1
  9
$LTSCALE
 40
1.0
  9
$ATTMODE
 70
     1
  9
$TEXTSIZE
 40
0.2
  9
$TRACEWID
 40
0.05
  9
$TEXTSTYLE
  7
Standard
  9
$CLAYER
  8
0
  9
$CELTYPE
  6
ByLayer
  9
$CECOLOR
 62
   256
  9
$CELTSCALE
 40
1.0
  9
$DISPSILH
 70
     0
  9
$DIMSCALE
 40
1.0
  9
$DIMASZ
 40
0.18
  9
$DIMEXO
 40
0.0625
  9
$DIMDLI
 40
0.38
  9
$DIMRND
 40
0.0
  9
$DIMDLE
 40
0.0
  9
$DIMEXE
 40
0.18
  9
$DIMTP
 40
0.0
  9
$DIMTM
 40
0.0
  9
$DIMTXT
 40
0.18
  9
$DIMCEN
 40
0.09
  9
$DIMTSZ
 40
0.0
  9
$DIMTOL
 70
     0
  9
$DIMLIM
 70
     0
  9
$DIMTIH
 70
     1
  9
$DIMTOH
 70
     1
  9
$DIMSE1
 70
     0
  9
$DIMSE2
 70
     0
  9
$DIMTAD
 70
     0
  9
$DIMZIN
 70
     0
  9
$DIMBLK
  1

  9
$DIMASO
 70
     1
  9
$DIMSHO
 70
     1
  9
$DIMPOST
  1

  9
$DIMAPOST
  1

  9
$DIMALT
 70
     0
  9
$DIMALTD
 70
     2
  9
$DIMALTF
 40
25.4
  9
$DIMLFAC
 40
1.0
  9
$DIMTOFL
 70
     0
  9
$DIMTVP
 40
0.0
  9
$DIMTIX
 70
     0
  9
$DIMSOXD
 70
     0
  9
$DIMSAH
 70
     0
  9
$DIMBLK1
  1

  9
$DIMBLK2
  1

  9
$DIMSTYLE
  2
Standard
  9
$DIMCLRD
 70
     0
  9
$DIMCLRE
 70
     0
  9
$DIMCLRT
 70
     0
  9
$DIMTFAC
 40
1.0
  9
$DIMGAP
 40
0.09
  9
$DIMJUST
 70
     0
  9
$DIMSD1
 70
     0
  9
$DIMSD2
 70
     0
  9
$DIMTOLJ
 70
     1
  9
$DIMTZIN
 70
     0
  9
$DIMALTZ
 70
     0
  9
$DIMALTTZ
 70
     0
  9
$DIMUPT
 70
     0
  9
$DIMDEC
 70
     4
  9
$DIMTDEC
 70
     4
  9
$DIMALTU
 70
     2
  9
$DIMALTTD
 70
     2
  9
$DIMTXSTY
  7
Standard
  9
$DIMAUNIT
 70
     0
  9
$DIMADEC
 70
     0
  9
$DIMALTRND
 40
0.0
  9
$DIMAZIN
 70
     0
  9
$DIMDSEP
 70
    46
  9
$DIMATFIT
 70
     3
  9
$DIMFRAC
 70
     0
  9
$DIMLDRBLK
  1

  9
$DIMLUNIT
 70
     2
  9
$DIMLWD
 70
    -2
  9
$DIMLWE
 70
    -2
  9
$DIMTMOVE
 70
     0
  9
$DIMFXL
 40
1.0
  9
$DIMFXLON
 70
     0
  9
$DIMJOGANG
 40
0.7853981633974483
  9
$DIMTFILL
 70
     0
  9
$DIMTFILLCLR
 70
     0
  9
$DIMARCSYM
 70
     0
  9
$DIMLTYPE
  6

  9
$DIMLTEX1
  6

  9
$DIMLTEX2
  6

  9
$DIMTXTDIRECTION
 70
     0
  9
$LUNITS
 70
     2
  9
$LUPREC
 70
     4
  9
$SKETCHINC
 40
0.1
  9
$FILLETRAD
 40
0.5
  9
$AUNITS
 70
     0
  9
$AUPREC
 70
     0
  9
$MENU
  1
.
  9
$ELEVATION
 40
0.0
  9
$PELEVATION
 40
0.0
  9
$THICKNESS
 40
0.0
  9
$LIMCHECK
 70
     0
  9
$CHAMFERA
 40
0.0
  9
$CHAMFERB
 40
0.0
  9
$CHAMFERC
 40
0.0
  9
$CHAMFERD
 40
0.0
  9
$SKPOLY
 70
     0
  9
$TDCREATE
 40
2458169.004511759
  9
$TDUCREATE
 40
2458168.962845093
  9
$TDUPDATE
 40
2458169.004511933
  9
$TDUUPDATE
 40
2458168.962845266
  9
$TDINDWG
 40
0.0000000116
  9
$TDUSRTIMER
 40
0.0000000116
  9
$USRTIMER
 70
     1
  9
$ANGBASE
 50
0.0
  9
$ANGDIR
 70
     0
  9
$PDMODE
 70
     0
  9
$PDSIZE
 40
0.0
  9
$PLINEWID
 40
0.0
  9
$SPLFRAME
 70
     0
  9
$SPLINETYPE
 70
     6
  9
$SPLINESEGS
 70
     8
  9
$HANDSEED
  5
1A8
  9
$SURFTAB1
 70
     6
  9
$SURFTAB2
 70
     6
  9
$SURFTYPE
 70
     6
  9
$SURFU
 70
     6
  9
$SURFV
 70
     6
  9
$UCSBASE
  2

  9
$UCSNAME
  2

  9
$UCSORG
 10
0.0
 20
0.0
 30
0.0
  9
$UCSXDIR
 10
1.0
 20
0.0
 30
0.0
  9
$UCSYDIR
 10
0.0
 20
1.0
 30
0.0
  9
$UCSORTHOREF
  2

  9
$UCSORTHOVIEW
 70
     0
  9
$UCSORGTOP
 10
0.0
 20
0.0
 30
0.0
  9
$UCSORGBOTTOM
 10
0.0
 20
0.0
 30
0.0
  9
$UCSORGLEFT
 10
0.0
 20
0.0
 30
0.0
  9
$UCSORGRIGHT
 10
0.0
 20
0.0
 30
0.0
  9
$UCSORGFRONT
 10
0.0
 20
0.0
 30
0.0
  9
$UCSORGBACK
 10
0.0
 20
0.0
 30
0.0
  9
$PUCSBASE
  2

  9
$PUCSNAME
  2

  9
$PUCSORG
 10
0.0
 20
0.0
 30
0.0
  9
$PUCSXDIR
 10
1.0
 20
0.0
 30
0.0
  9
$PUCSYDIR
 10
0.0
 20
1.0
 30
0.0
  9
$PUCSORTHOREF
  2

  9
$PUCSORTHOVIEW
 70
     0
  9
$PUCSORGTOP
 10
0.0
 20
0.0
 30
0.0
  9
$PUCSORGBOTTOM
 10
0.0
 20
0.0
 30
0.0
  9
$PUCSORGLEFT
 10
0.0
 20
0.0
 30
0.0
  9
$PUCSORGRIGHT
 10
0.0
 20
0.0
 30
0.0
  9
$PUCSORGFRONT
 10
0.0
 20
0.0
 30
0.0
  9
$PUCSORGBACK
 10
0.0
 20
0.0
 30
0.0
  9
$USERI1
 70
     0
  9
$USERI2
 70
     0
  9
$USERI3
 70
     0
  9
$USERI4
 70
     0
  9
$USERI5
 70
     0
  9
$USERR1
 40
0.0
  9
$USERR2
 40
0.0
  9
$USERR3
 40
0.0
  9
$USERR4
 40
0.0
  9
$USERR5
 40
0.0
  9
$WORLDVIEW
 70
     1
  9
$SHADEDGE
 70
     3
  9
$SHADEDIF
 70
    70
  9
$TILEMODE
 70
     1
  9
$MAXACTVP
 70
    64
  9
$PINSBASE
 10
0.0
 20
0.0
 30
0.0
  9
$PLIMCHECK
 70
     0
  9
$PEXTMIN
 10
1.000000000000000E+20
 20
1.000000000000000E+20
 30
1.000000000000000E+20
  9
$PEXTMAX
 10
-1.000000000000000E+20
 20
-1.000000000000000E+20
 30
-1.000000000000000E+20
  9
$PLIMMIN
 10
0.0
 20
0.0
  9
$PLIMMAX
 10
12.0
 20
9.0
  9
$UNITMODE
 70
     0
  9
$VISRETAIN
 70
     1
  9
$PLINEGEN
 70
     0
  9
$PSLTSCALE
 70
     1
  9
$TREEDEPTH
 70
  3020
  9
$CMLSTYLE
  2
Standard
  9
$CMLJUST
 70
     0
  9
$CMLSCALE
 40
1.0
  9
$PROXYGRAPHICS
 70
     1
  9
$MEASUREMENT
 70
     0
  9
$CELWEIGHT
370
    -1
  9
$ENDCAPS
280
     0
  9
$JOINSTYLE
280
     0
  9
$LWDISPLAY
290
     0
  9
$INSUNITS
 70
     1
  9
$HYPERLINKBASE
  1

  9
$STYLESHEET
  1

  9
$XEDIT
290
     1
  9
$CEPSNTYPE
380
     0
  9
$PSTYLEMODE
290
     1
  9
$FINGERPRINTGUID
  2
{1F0182DD-3913-4B33-94F7-87D631472CD7}
  9
$VERSIONGUID
  2
{FAEB1C32-E019-11D5-929B-00C0DF256EC4}
  9
$EXTNAMES
290
     1
  9
$PSVPSCALE
 40
0.0
  9
$OLESTARTUP
290
     0
  9
$SORTENTS
280
   127
  9
$INDEXCTL
280
     0
  9
$HIDETEXT
280
     1
  9
$XCLIPFRAME
280
     2
  9
$HALOGAP
280
     0
  9
$OBSCOLOR
 70
   257
  9
$OBSLTYPE
280
     0
  9
$INTERSECTIONDISPLAY
280
     0
  9
$INTERSECTIONCOLOR
 70
   257
  9
$DIMASSOC
280
     2
  9
$PROJECTNAME
  1

  9
$CAMERADISPLAY
290
     0
  9
$LENSLENGTH
 40
50.0
  9
$CAMERAHEIGHT
 40
0.0
  9
$STEPSPERSEC
 40
2.0
  9
$STEPSIZE
 40
6.0
  9
$3DDWFPREC
 40
2.0
  9
$PSOLWIDTH
 40
0.25
  9
$PSOLHEIGHT
 40
4.0
  9
$LOFTANG1
 40
1.570796326794897
  9
$LOFTANG2
 40
1.570796326794897
  9
$LOFTMAG1
 40
0.0
  9
$LOFTMAG2
 40
0.0
  9
$LOFTPARAM
 70
     7
  9
$LOFTNORMALS
280
     1
  9
$LATITUDE
 40
37.795
  9
$LONGITUDE
 40
-122.394
  9
$NORTHDIRECTION
 40
0.0
  9
$TIMEZONE
 70
 -8000
  9
$LIGHTGLYPHDISPLAY
280
     1
  9
$TILEMODELIGHTSYNCH
280
     1
  9
$CMATERIAL
347
44
  9
$SOLIDHIST
280
     0
  9
$SHOWHIST
280
     1
  9
$DWFFRAME
280
     2
  9
$DGNFRAME
280
     2
  9
$REALWORLDSCALE
290
     1
  9
$INTERFERECOLOR
 62
   256
  9
$CSHADOW
280
     0
  9
$SHADOWPLANELOCATION
 40
0.0
  0
ENDSEC
  0
SECTION
  2
CLASSES
  0
CLASS
  1
ACDBDICTIONARYWDFLT
  2
AcDbDictionaryWithDefault
  3
ObjectDBX Classes
 90
        0
 91
        4
280
     0
281
     0
  0
CLASS
  1
VISUALSTYLE
  2
AcDbVisualStyle
  3
ObjectDBX Classes
 90
     4095
 91
        4
280
     0
281
     0
  0
CLASS
  1
MATERIAL
  2
AcDbMaterial
  3
ObjectDBX Classes
 90
     1153
 91
        4
280
     0
281
     0
  0
CLASS
  1
SCALE
  2
AcDbScale
  3
ObjectDBX Classes
 90
     1153
 91
        4
280
     0
281
     0
  0
CLASS
  1
TABLESTYLE
  2
AcDbTableStyle
  3
ObjectDBX Classes
 90
     4095
 91
        4
280
     0
281
     0
  0
CLASS
  1
MLEADERSTYLE
  2
AcDbMLeaderStyle
  3
ACDB_MLEADERSTYLE_CLASS
 90
     4095
 91
        4
280
     0
281
     0
  0
CLASS
  1
SUN
  2
AcDbSun
  3
SCENEOE
 90
     1153
 91
        4
280
     0
281
     0
  0
CLASS
  1
DICTIONARYVAR
  2
AcDbDictionaryVar
  3
ObjectDBX Classes
 90
        0
 91
        4
280
     0
281
     0
  0
CLASS
  1
CELLSTYLEMAP
  2
AcDbCellStyleMap
  3
ObjectDBX Classes
 90
     1152
 91
        4
280
     0
281
     0
  0
ENDSEC
  0
SECTION
  2
TABLES
  0
TABLE
  2
VPORT
  5
8
330
0
100
AcDbSymbolTable
 70
     1
  0
VPORT
  5
29
330
8
100
AcDbSymbolTableRecord
100
AcDbViewportTableRecord
  2
*Active
 70
     0
 10
0.0
 20
0.0
 11
1.0
 21
1.0
 12
-0.7317499999999999
 22
0.0
 13
0.0
 23
0.0
 14
0.5
 24
0.5
 15
0.5
 25
0.5
 16
0.0
 26
0.0
 36
1.0
 17
0.0
 27
0.0
 37
0.0
 40
4.528799999999998
 41
0.3519144144144146
 42
50.0
 43
0.0
 44
0.0
 50
0.0
 51
0.0
 71
     0
 72
   100
 73
     1
 74
     3
 75
     0
 76
     0
 77
     0
 78
     0
281
     0
 65
     1
110
0.0
120
0.0
130
0.0
111
1.0
121
0.0
131
0.0
112
0.0
122
1.0
132
0.0
 79
     0
146
0.0
348
2F
 60
     3
 61
     5
292
     1
282
     1
141
0.0
142
0.0
 63
   250
361
6D
  0
ENDTAB
  0
TABLE
  2
LTYPE
  5
5
330
0
100
AcDbSymbolTable
 70
     3
  0
LTYPE
  5
14
330
5
100
AcDbSymbolTableRecord
100
AcDbLinetypeTableRecord
  2
ByBlock
 70
     0
  3

 72
    65
 73
     0
 40
0.0
  0
LTYPE
  5
15
330
5
100
AcDbSymbolTableRecord
100
AcDbLinetypeTableRecord
  2
ByLayer
 70
     0
  3

 72
    65
 73
     0
 40
0.0
  0
LTYPE
  5
16
330
5
100
AcDbSymbolTableRecord
100
AcDbLinetypeTableRecord
  2
Continuous
 70
     0
  3
Solid line
 72
    65
 73
     0
 40
0.0
  0
LTYPE
  5
9F
330
5
100
AcDbSymbolTableRecord
100
AcDbLinetypeTableRecord
  2
Dashed
 70
     0
  3

 72
    65
 73
     2
 40
2.0
 49
1.0
 74
     0
 49
-1.0
 74
     0
  0
LTYPE
  5
179
330
5
100
AcDbSymbolTableRecord
100
AcDbLinetypeTableRecord
  2
Center
 70
     0
  3

 72
    65
 73
     4
 40
1.5
 49
0.45
 74
     0
 49
-0.5
 74
     0
 49
0.05
 74
     0
 49
-0.5
 74
     0
  0
ENDTAB
  0
TABLE
  2
LAYER
  5
2
330
0
100
AcDbSymbolTable
 70
     6
  0
LAYER
  5
10
330
2
100
AcDbSymbolTableRecord
100
AcDbLayerTableRecord
  2
0
 70
     0
 62
     7
  6
Continuous
370
    -3
390
F
347
46
348
0
  0
LAYER
  5
72
330
2
100
AcDbSymbolTableRecord
100
AcDbLayerTableRecord
  2
AM_6
 70
     0
 62
    -2
  6
Continuous
370
    35
390
F
347
46
348
0
  0
LAYER
  5
A0
330
2
100
AcDbSymbolTableRecord
100
AcDbLayerTableRecord
  2
AM_9
 70
     0
 62
     6
  6
Dashed
370
    25
390
F
347
46
348
0
  0
LAYER
  5
D8
330
2
100
AcDbSymbolTableRecord
100
AcDbLayerTableRecord
  2
AM_4
 70
     0
 62
     7
  6
Continuous
370
    50
390
F
347
46
348
0
  0
LAYER
  5
17A
330
2
100
AcDbSymbolTableRecord
100
AcDbLayerTableRecord
  2
AM_7
 70
     0
 62
     7
  6
Center
370
    25
390
F
347
46
348
0
  0
LAYER
  5
19B
330
2
100
AcDbSymbolTableRecord
100
AcDbLayerTableRecord
  2
ConnectionPoints
 70
     0
 62
     7
  6
Continuous
370
    50
390
F
347
46
348
0
  0
ENDTAB
  0
TABLE
  2
STYLE
  5
3
330
0
100
AcDbSymbolTable
 70
     1
  0
STYLE
  5
11
330
3
100
AcDbSymbolTableRecord
100
AcDbTextStyleTableRecord
  2
Standard
 70
     0
 40
0.0
 41
1.0
 50
0.0
 71
     0
 42
0.2
  3
txt
  4

  0
ENDTAB
  0
TABLE
  2
VIEW
  5
6
330
0
100
AcDbSymbolTable
 70
     0
  0
ENDTAB
  0
TABLE
  2
UCS
  5
7
330
0
100
AcDbSymbolTable
 70
     0
  0
ENDTAB
  0
TABLE
  2
APPID
  5
9
330
0
100
AcDbSymbolTable
 70
     1
  0
APPID
  5
12
330
9
100
AcDbSymbolTableRecord
100
AcDbRegAppTableRecord
  2
ACAD
 70
     0
  0
ENDTAB
  0
TABLE
  2
DIMSTYLE
  5
A
330
0
100
AcDbSymbolTable
 70
     1
100
AcDbDimStyleTable
  0
DIMSTYLE
105
27
330
A
100
AcDbSymbolTableRecord
100
AcDbDimStyleTableRecord
  2
Standard
 70
     0
178
     0
340
11
  0
ENDTAB
  0
TABLE
  2
BLOCK_RECORD
  5
1
330
0
100
AcDbSymbolTable
 70
     5
  0
BLOCK_RECORD
  5
1F
330
1
100
AcDbSymbolTableRecord
100
AcDbBlockTableRecord
  2
*Model_Space
340
22
 70
     0
280
     1
281
     0
  0
BLOCK_RECORD
  5
1B
330
1
100
AcDbSymbolTableRecord
100
AcDbBlockTableRecord
  2
*Paper_Space
340
1E
 70
     0
280
     1
281
     0
  0
BLOCK_RECORD
  5
23
330
1
100
AcDbSymbolTableRecord
100
AcDbBlockTableRecord
  2
*Paper_Space0
340
26
 70
     0
280
     1
281
     0
  0
BLOCK_RECORD
  5
6E
330
1
100
AcDbSymbolTableRecord
100
AcDbBlockTableRecord
  2
1_124649_2
340
0
102
{BLKREFS
331
6F
102
}
 70
     0
280
     1
281
     0
  0
BLOCK_RECORD
  5
89
330
1
100
AcDbSymbolTableRecord
100
AcDbBlockTableRecord
  2
2_077983_0_in_124649_2
340
0
102
{BLKREFS
331
8A
102
}
 70
     0
280
     1
281
     0
  0
BLOCK_RECORD
  5
E9
330
1
100
AcDbSymbolTableRecord
100
AcDbBlockTableRecord
  2
3_405015E_Inch_0_in_124649_2
340
0
102
{BLKREFS
331
EA
102
}
 70
     0
280
     1
281
     0
  0
BLOCK_RECORD
  5
13C
330
1
100
AcDbSymbolTableRecord
100
AcDbBlockTableRecord
  2
4_124649H_0_in_124649_2
340
0
102
{BLKREFS
331
13D
102
}
 70
     0
280
     1
281
     0
  0
ENDTAB
  0
ENDSEC
  0
SECTION
  2
BLOCKS
  0
BLOCK
  5
20
330
1F
100
AcDbEntity
  8
0
100
AcDbBlockBegin
  2
*Model_Space
 70
     0
 10
0.0
 20
0.0
 30
0.0
  3
*Model_Space
  1

  0
ENDBLK
  5
21
330
1F
100
AcDbEntity
  8
0
100
AcDbBlockEnd
  0
BLOCK
  5
1C
330
1B
100
AcDbEntity
 67
     1
  8
0
100
AcDbBlockBegin
  2
*Paper_Space
 70
     0
 10
0.0
 20
0.0
 30
0.0
  3
*Paper_Space
  1

  0
ENDBLK
  5
1D
330
1B
100
AcDbEntity
 67
     1
  8
0
100
AcDbBlockEnd
  0
BLOCK
  5
24
330
23
100
AcDbEntity
  8
0
100
AcDbBlockBegin
  2
*Paper_Space0
 70
     0
 10
0.0
 20
0.0
 30
0.0
  3
*Paper_Space0
  1

  0
ENDBLK
  5
25
330
23
100
AcDbEntity
  8
0
100
AcDbBlockEnd
  0
BLOCK
  5
70
330
6E
100
AcDbEntity
  8
0
100
AcDbBlockBegin
  2
1_124649_2
 70
     2
 10
0.0
 20
0.0
 30
0.0
  3
1_124649_2
  1

  0
ATTDEF
  5
73
330
6E
100
AcDbEntity
  8
AM_6
100
AcDbText
 10
5.0495
 20
2.219999999999999
 30
0.0
 40
0.5
  1
Set Screw LFT Duty 2-Bolt Flange Inch Bore
100
AcDbAttributeDefinition
  3

  2
NN
 70
     8
280
     0
  0
ATTDEF
  5
74
330
6E
100
AcDbEntity
  8
AM_6
100
AcDbText
 10
5.0495
 20
1.719999999999999
 30
0.0
 40
0.5
  1
SC 2 Bolt Flange Bearings -(Normal Duty) -Re-Lube and No-Lube
100
AcDbAttributeDefinition
  3

  2
NT
 70
     8
280
     0
  0
ATTDEF
  5
75
330
6E
100
AcDbEntity
  8
AM_6
100
AcDbText
 10
5.0495
 20
1.219999999999999
 30
0.0
 40
0.5
  1
124649
100
AcDbAttributeDefinition
  3

  2
NB
 70
     8
280
     0
  0
ATTDEF
  5
76
330
6E
100
AcDbEntity
  8
AM_6
100
AcDbText
 10
5.0495
 20
0.7199999999999993
 30
0.0
 40
0.5
  1
$PN.
100
AcDbAttributeDefinition
  3

  2
NBSYN
 70
     8
280
     0
  0
ATTDEF
  5
77
330
6E
100
AcDbEntity
  8
AM_6
100
AcDbText
 10
5.0495
 20
0.2199999999999993
 30
0.0
 40
0.5
  1
124649
100
AcDbAttributeDefinition
  3

  2
LINA
 70
     8
280
     0
  0
ATTDEF
  5
78
330
6E
100
AcDbEntity
  8
AM_6
100
AcDbText
 10
5.0495
 20
-0.2800000000000007
 30
0.0
 40
0.5
  1
206
100
AcDbAttributeDefinition
  3

  2
SERIES
 70
     8
280
     0
  0
ATTDEF
  5
79
330
6E
100
AcDbEntity
  8
AM_6
100
AcDbText
 10
5.0495
 20
-0.7800000000000007
 30
0.0
 40
0.5
  1
1-1/4
100
AcDbAttributeDefinition
  3

  2
SS
 70
     8
280
     0
  0
ATTDEF
  5
7A
330
6E
100
AcDbEntity
  8
AM_6
100
AcDbText
 10
5.0495
 20
-1.280000000000001
 30
0.0
 40
0.5
  1
124649
100
AcDbAttributeDefinition
  3

  2
PN
 70
     8
280
     0
  0
ATTDEF
  5
7B
330
6E
100
AcDbEntity
  8
AM_6
100
AcDbText
 10
5.0495
 20
-1.780000000000001
 30
0.0
 40
0.5
  1
LFT-SC-104S
100
AcDbAttributeDefinition
  3

  2
DESCRIPTION
 70
     8
280
     0
  0
ATTDEF
  5
7C
330
6E
100
AcDbEntity
  8
AM_6
100
AcDbText
 10
5.0495
 20
-2.280000000000001
 30
0.0
 40
0.5
  1
1.35
100
AcDbAttributeDefinition
  3

  2
W
 70
     8
280
     0
  0
ATTDEF
  5
7D
330
6E
100
AcDbEntity
  8
AM_6
100
AcDbText
 10
5.0495
 20
-2.780000000000001
 30
0.0
 40
0.5
  1
RE-LUBE
100
AcDbAttributeDefinition
  3

  2
LF
 70
     8
280
     0
  0
ATTDEF
  5
7E
330
6E
100
AcDbEntity
  8
AM_6
100
AcDbText
 10
5.0495
 20
-3.280000000000001
 30
0.0
 40
0.5
  1
1.26
100
AcDbAttributeDefinition
  3

  2
A
 70
     8
280
     0
  0
ATTDEF
  5
7F
330
6E
100
AcDbEntity
  8
AM_6
100
AcDbText
 10
5.0495
 20
-3.780000000000001
 30
0.0
 40
0.5
  1
4.44
100
AcDbAttributeDefinition
  3

  2
B
 70
     8
280
     0
  0
ATTDEF
  5
80
330
6E
100
AcDbEntity
  8
AM_6
100
AcDbText
 10
5.0495
 20
-4.280000000000001
 30
0.0
 40
0.5
  1
1.45
100
AcDbAttributeDefinition
  3

  2
C
 70
     8
280
     0
  0
ATTDEF
  5
81
330
6E
100
AcDbEntity
  8
AM_6
100
AcDbText
 10
5.0495
 20
-4.780000000000001
 30
0.0
 40
0.5
  1
3.56
100
AcDbAttributeDefinition
  3

  2
D
 70
     8
280
     0
  0
ATTDEF
  5
82
330
6E
100
AcDbEntity
  8
AM_6
100
AcDbText
 10
5.0495
 20
-5.280000000000001
 30
0.0
 40
0.5
  1
0.41
100
AcDbAttributeDefinition
  3

  2
G
 70
     8
280
     0
  0
ATTDEF
  5
83
330
6E
100
AcDbEntity
  8
AM_6
100
AcDbText
 10
5.0495
 20
-5.780000000000001
 30
0.0
 40
0.5
  1
0.47
100
AcDbAttributeDefinition
  3

  2
H
 70
     8
280
     0
  0
ATTDEF
  5
84
330
6E
100
AcDbEntity
  8
AM_6
100
AcDbText
 10
5.0495
 20
-6.280000000000001
 30
0.0
 40
0.5
  1
0.46
100
AcDbAttributeDefinition
  3

  2
J
 70
     8
280
     0
  0
ATTDEF
  5
85
330
6E
100
AcDbEntity
  8
AM_6
100
AcDbText
 10
5.0495
 20
-6.780000000000001
 30
0.0
 40
0.5
  1
1.57
100
AcDbAttributeDefinition
  3

  2
L
 70
     8
280
     0
  0
ATTDEF
  5
86
330
6E
100
AcDbEntity
  8
AM_6
100
AcDbText
 10
5.0495
 20
-7.280000000000001
 30
0.0
 40
0.5
  1
3.25
100
AcDbAttributeDefinition
  3

  2
M
 70
     8
280
     0
  0
ATTDEF
  5
87
330
6E
100
AcDbEntity
  8
AM_6
100
AcDbText
 10
5.0495
 20
-7.780000000000001
 30
0.0
 40
0.5
  1
1.72
100
AcDbAttributeDefinition
  3

  2
N
 70
     8
280
     0
  0
ATTDEF
  5
88
330
6E
100
AcDbEntity
  8
AM_6
100
AcDbText
 10
5.0495
 20
-8.280000000000001
 30
0.0
 40
0.5
  1
baldor
100
AcDbAttributeDefinition
  3

  2
COMPANY
 70
     8
280
     0
  0
INSERT
  5
8A
330
6E
100
AcDbEntity
  8
0
100
AcDbBlockReference
  2
2_077983_0_in_124649_2
 10
0.0
 20
0.0
 30
0.0
  0
INSERT
  5
EA
330
6E
100
AcDbEntity
  8
0
100
AcDbBlockReference
  2
3_405015E_Inch_0_in_124649_2
 10
0.0
 20
0.0
 30
0.0
  0
INSERT
  5
13D
330
6E
100
AcDbEntity
  8
0
100
AcDbBlockReference
  2
4_124649H_0_in_124649_2
 10
0.0
 20
0.0
 30
0.0
  0
ENDBLK
  5
71
330
6E
100
AcDbEntity
  8
0
100
AcDbBlockEnd
  0
BLOCK
  5
8B
330
89
100
AcDbEntity
  8
0
100
AcDbBlockBegin
  2
2_077983_0_in_124649_2
 70
     2
 10
0.0
 20
0.0
 30
0.0
  3
2_077983_0_in_124649_2
  1

  0
ATTDEF
  5
8D
330
89
100
AcDbEntity
  8
AM_6
100
AcDbText
 10
4.81
 20
1.219872827703252
 30
0.0
 40
0.5
  1
Set Screw Light Duty Insert with Pin Inch Bore
100
AcDbAttributeDefinition
  3

  2
NN
 70
     8
280
     0
  0
ATTDEF
  5
8E
330
89
100
AcDbEntity
  8
AM_6
100
AcDbText
 10
4.81
 20
0.7198728277032524
 30
0.0
 40
0.5
  1
SCP Bearing Inserts
100
AcDbAttributeDefinition
  3

  2
NT
 70
     8
280
     0
  0
ATTDEF
  5
8F
330
89
100
AcDbEntity
  8
AM_6
100
AcDbText
 10
4.81
 20
0.2198728277032524
 30
0.0
 40
0.5
  1
077983
100
AcDbAttributeDefinition
  3

  2
NB
 70
     8
280
     0
  0
ATTDEF
  5
90
330
89
100
AcDbEntity
  8
AM_6
100
AcDbText
 10
4.81
 20
-0.2801271722967476
 30
0.0
 40
0.5
  1
$PN.
100
AcDbAttributeDefinition
  3

  2
NBSYN
 70
     8
280
     0
  0
ATTDEF
  5
91
330
89
100
AcDbEntity
  8
AM_6
100
AcDbText
 10
4.81
 20
-0.7801271722967476
 30
0.0
 40
0.5
  1
077983
100
AcDbAttributeDefinition
  3

  2
LINA
 70
     8
280
     0
  0
ATTDEF
  5
92
330
89
100
AcDbEntity
  8
AM_6
100
AcDbText
 10
4.81
 20
-1.280127172296748
 30
0.0
 40
0.5
  1
206
100
AcDbAttributeDefinition
  3

  2
SERIES
 70
     8
280
     0
  0
ATTDEF
  5
93
330
89
100
AcDbEntity
  8
AM_6
100
AcDbText
 10
4.81
 20
-1.780127172296748
 30
0.0
 40
0.5
  1
1-1/4
100
AcDbAttributeDefinition
  3

  2
SS
 70
     8
280
     0
  0
ATTDEF
  5
94
330
89
100
AcDbEntity
  8
AM_6
100
AcDbText
 10
4.81
 20
-2.280127172296748
 30
0.0
 40
0.5
  1
077983
100
AcDbAttributeDefinition
  3

  2
PN
 70
     8
280
     0
  0
ATTDEF
  5
95
330
89
100
AcDbEntity
  8
AM_6
100
AcDbText
 10
4.81
 20
-2.780127172296748
 30
0.0
 40
0.5
  1
INS-SCP-104S
100
AcDbAttributeDefinition
  3

  2
DESCRIPTION
 70
     8
280
     0
  0
ATTDEF
  5
96
330
89
100
AcDbEntity
  8
AM_6
100
AcDbText
 10
4.81
 20
-3.280127172296748
 30
0.0
 40
0.5
  1
1.26
100
AcDbAttributeDefinition
  3

  2
A
 70
     8
280
     0
  0
ATTDEF
  5
97
330
89
100
AcDbEntity
  8
AM_6
100
AcDbText
 10
4.81
 20
-3.780127172296748
 30
0.0
 40
0.5
  1
0.69
100
AcDbAttributeDefinition
  3

  2
C
 70
     8
280
     0
  0
ATTDEF
  5
98
330
89
100
AcDbEntity
  8
AM_6
100
AcDbText
 10
4.81
 20
-4.280127172296748
 30
0.0
 40
0.5
  1
2.4409
100
AcDbAttributeDefinition
  3

  2
D
 70
     8
280
     0
  0
ATTDEF
  5
99
330
89
100
AcDbEntity
  8
AM_6
100
AcDbText
 10
4.81
 20
-4.780127172296748
 30
0.0
 40
0.5
  1
0.16
100
AcDbAttributeDefinition
  3

  2
J
 70
     8
280
     0
  0
ATTDEF
  5
9A
330
89
100
AcDbEntity
  8
AM_6
100
AcDbText
 10
4.81
 20
-5.280127172296748
 30
0.0
 40
0.5
  1
1.57
100
AcDbAttributeDefinition
  3

  2
L
 70
     8
280
     0
  0
ATTDEF
  5
9B
330
89
100
AcDbEntity
  8
AM_6
100
AcDbText
 10
4.81
 20
-5.780127172296748
 30
0.0
 40
0.5
  1
5/16 - 24
100
AcDbAttributeDefinition
  3

  2
N
 70
     8
280
     0
  0
ATTDEF
  5
9C
330
89
100
AcDbEntity
  8
AM_6
100
AcDbText
 10
4.81
 20
-6.280127172296748
 30
0.0
 40
0.5
  1
0.35
100
AcDbAttributeDefinition
  3

  2
W
 70
     8
280
     0
  0
ATTDEF
  5
9D
330
89
100
AcDbEntity
  8
AM_6
100
AcDbText
 10
4.81
 20
-6.780127172296748
 30
0.0
 40
0.5
  1
0.91
100
AcDbAttributeDefinition
  3

  2
Y
 70
     8
280
     0
  0
ATTDEF
  5
9E
330
89
100
AcDbEntity
  8
AM_6
100
AcDbText
 10
4.81
 20
-7.280127172296748
 30
0.0
 40
0.5
  1
baldor
100
AcDbAttributeDefinition
  3

  2
COMPANY
 70
     8
280
     0
  0
ELLIPSE
  5
A1
330
89
100
AcDbEntity
  8
AM_9
100
AcDbEllipse
 10
-0.3799999999999999
 20
0.907182644923281
 30
0.0
 11
0.04143939393938961
 21
0.0
 31
0.0
210
0.0
220
0.0
230
1.0
 40
0.7071067811865481
 41
0.0
 42
6.283185307179586
  0
LWPOLYLINE
  5
A2
330
89
100
AcDbEntity
  8
AM_9
100
AcDbPolyline
 90
       17
 70
     0
 43
0.0
 10
-0.3799999999999999
 20
0.9548571142025644
 10
-0.3871501085542981
 20
0.9546461629701155
 10
-0.397814861703045
 20
0.9535386487254945
 10
-0.4083777138633562
 20
0.9514686990969103
 10
-0.4187295434008287
 20
0.9484251687217865
 10
-0.4287464646014151
 20
0.944406745824018
 10
-0.4382904426210543
 20
0.939429979941831
 10
-0.4472139740127052
 20
0.9335379175576163
 10
-0.4553733658238061
 20
0.926803485420614
 10
-0.4619329875819146
 20
0.9201335304439922
 10
-0.4683083338621148
 20
0.9121091584331861
 10
-0.4736567602247179
 20
0.9035457042220928
 10
-0.4779191409744143
 20
0.8945866309804832
 10
-0.4810762672510941
 20
0.885353763695615
 10
-0.4831271028610815
 20
0.8759636320042062
 10
-0.4840846650265255
 20
0.866526371183609
 10
-0.4841666666164165
 20
0.8628248692068217
  0
LWPOLYLINE
  5
A3
330
89
100
AcDbEntity
  8
AM_9
100
AcDbPolyline
 90
       18
 70
     0
 43
0.0
 10
-0.2758333346622827
 20
0.8628128723014881
 10
-0.276081492746198
 20
0.8692591235731937
 10
-0.2773117527669573
 20
0.8784747035138473
 10
-0.2795356368798603
 20
0.887443109378669
 10
-0.2827099211797375
 20
0.8960907652021936
 10
-0.2867909338110633
 20
0.9043529137480538
 10
-0.2917363273169156
 20
0.9121723314847237
 10
-0.2975060652384712
 20
0.9194973442404751
 10
-0.3040620992727254
 20
0.9262792034988108
 10
-0.3113661743974719
 20
0.9324691599075672
 10
-0.319375498795765
 20
0.9380159772447282
 10
-0.3280368965763558
 20
0.9428650027443145
 10
-0.3372814320588783
 20
0.9469598112624801
 10
-0.3470224219226322
 20
0.9502464002997785
 10
-0.357158748516799
 20
0.9526781960299076
 10
-0.3675822890460413
 20
0.954219181640527
 10
-0.3776965760957092
 20
0.9548352465339036
 10
-0.3799999999999999
 20
0.9548571142025644
  0
LINE
  5
A4
330
89
100
AcDbEntity
  8
AM_9
100
AcDbLine
 10
-0.2758333333333379
 20
0.8425619314122701
 30
0.0
 11
-0.2758333333333379
 21
0.8628277650124888
 31
0.0
  0
LWPOLYLINE
  5
A5
330
89
100
AcDbEntity
  8
AM_9
100
AcDbPolyline
 90
       21
 70
     0
 43
0.0
 10
-0.2758333337090322
 20
0.8425364258187328
 10
-0.2760120236663205
 20
0.8467299432530473
 10
-0.2784444617006556
 20
0.8591665842466224
 10
-0.2837224775742677
 20
0.8713785945384165
 10
-0.2916536122335981
 20
0.8830541373207589
 10
-0.302083542177327
 20
0.8938943788876134
 10
-0.3146547409978998
 20
0.9035698508893594
 10
-0.3291536544523299
 20
0.911855564457899
 10
-0.345056703002318
 20
0.9184666104449811
 10
-0.3620792651220477
 20
0.9232313396106151
 10
-0.379602085618325
 20
0.9259826990487768
 10
-0.3972314523728526
 20
0.9266140141905875
 10
-0.4143755405403641
 20
0.9251145465757119
 10
-0.430536568569974
 20
0.9214928854900231
 10
-0.4452628519479858
 20
0.9158755536213373
 10
-0.4580386242247875
 20
0.9084339383535853
 10
-0.4685977753392081
 20
0.8993760657518831
 10
-0.4765359283122664
 20
0.8890284126944735
 10
-0.4817501266990169
 20
0.8776341396559013
 10
-0.4840363736347909
 20
0.865601984276275
 10
-0.4841666660966476
 20
0.8620926321756398
  0
LWPOLYLINE
  5
A6
330
89
100
AcDbEntity
  8
AM_9
100
AcDbPolyline
 90
       16
 70
     0
 43
0.0
 10
-0.4841666660966476
 20
0.8620926321756398
 10
-0.483417951761085
 20
0.8532000686419559
 10
-0.4798901946575129
 20
0.8408256457990714
 10
-0.4736009478186819
 20
0.8287808541800317
 10
-0.4646797192365177
 20
0.8173916203754502
 10
-0.4534292494974513
 20
0.8069839624239047
 10
-0.4400514921844761
 20
0.7978049240352835
 10
-0.425019024275913
 20
0.7901557221008645
 10
-0.4085951836516236
 20
0.7842234590703415
 10
-0.3913774370558547
 20
0.7802145243419817
 10
-0.3737214104925131
 20
0.7782584437574235
 10
-0.3562422632651976
 20
0.7784152475337984
 10
-0.3394043524155128
 20
0.7807198485199459
 10
-0.3237173526374079
 20
0.7850849891895905
 10
-0.3145650588189293
 20
0.7888910595217593
 10
-0.3061715550236195
 20
0.7934441500715869
  0
ELLIPSE
  5
A7
330
89
100
AcDbEntity
  8
AM_9
100
AcDbEllipse
 10
-1.1675
 20
0.4332115489098093
 30
0.0
 11
0.1261999999999992
 21
0.0
 31
0.0
210
0.0
220
0.0
230
1.0
 40
0.7071067811865476
 41
4.509613981979758
 42
4.915163978789622
  0
LINE
  5
A8
330
89
100
AcDbEntity
  8
AM_9
100
AcDbLine
 10
-1.0413
 20
0.4419159042050992
 30
0.0
 11
-1.0413
 21
0.5386686366066284
 31
0.0
  0
LINE
  5
A9
330
89
100
AcDbEntity
  8
AM_9
100
AcDbLine
 10
-1.2937
 20
0.5386686366066284
 30
0.0
 11
-1.2937
 21
0.4419159042050992
 31
0.0
  0
LWPOLYLINE
  5
AA
330
89
100
AcDbEntity
  8
AM_9
100
AcDbPolyline
 90
        5
 70
     0
 43
0.0
 10
-1.041300000536806
 20
0.4419335074355257
 10
-1.042669247189432
 20
0.4547938510632236
 10
-1.04742264386407
 20
0.4685457978033805
 10
-1.055463363014747
 20
0.4810849775994424
 10
-1.063047779021746
 20
0.4891757957786651
  0
LWPOLYLINE
  5
AB
330
89
100
AcDbEntity
  8
AM_9
100
AcDbPolyline
 90
       10
 70
     0
 43
0.0
 10
-1.293699999463194
 20
0.4419499688943693
 10
-1.292330752810568
 20
0.4286976404593864
 10
-1.287577356135929
 20
0.4136300706679747
 10
-1.279536636985253
 20
0.3989714874657435
 10
-1.268477643554194
 20
0.3851629244152889
 10
-1.254416647775197
 20
0.3724934232241736
 10
-1.237930131590425
 20
0.3616468469242861
 10
-1.219224357692737
 20
0.3529967658445872
 10
-1.199009693777457
 20
0.3470011227327106
 10
-1.192915196589308
 20
0.3458030030394917
  0
ELLIPSE
  5
AC
330
89
100
AcDbEntity
  8
AM_9
100
AcDbEllipse
 10
-1.1675
 20
-0.2095398884449114
 30
0.0
 11
-0.1262000000000012
 21
1.545504260523974E-17
 31
0.0
210
0.0
220
0.0
230
1.0
 40
0.9396926207859158
 41
4.509613981979758
 42
4.91516397878962
  0
LINE
  5
AD
330
89
100
AcDbEntity
  8
AM_9
100
AcDbLine
 10
-1.2937
 20
-0.2137500939256952
 30
0.0
 11
-1.2937
 21
-0.260548377132077
 31
0.0
  0
LINE
  5
AE
330
89
100
AcDbEntity
  8
AM_9
100
AcDbLine
 10
-1.0413
 20
-0.260548377132077
 30
0.0
 11
-1.0413
 21
-0.2137500939256951
 31
0.0
  0
LWPOLYLINE
  5
AF
330
89
100
AcDbEntity
  8
AM_9
100
AcDbPolyline
 90
        3
 70
     0
 43
0.0
 10
-1.293699999463194
 20
-0.2137516515107416
 10
-1.292330752810568
 20
-0.231007757091701
 10
-1.291237958000714
 20
-0.2369045475404328
  0
LWPOLYLINE
  5
B0
330
89
100
AcDbEntity
  8
AM_9
100
AcDbPolyline
 90
       10
 70
     0
 43
0.0
 10
-1.041300000536806
 20
-0.2137735275721999
 10
-1.042669247189432
 20
-0.1963278230458789
 10
-1.047422643864071
 20
-0.1768601433853287
 10
-1.055463363014748
 20
-0.1582756689131563
 10
-1.066522356445808
 20
-0.1410575755814494
 10
-1.080583352224805
 20
-0.1254948040257428
 10
-1.097069868409577
 20
-0.1123372199972535
 10
-1.115775642307265
 20
-0.1019494596230764
 10
-1.135990306222546
 20
-0.0948034239229985
 10
-1.142084803410691
 20
-0.0933803949520938
  0
LWPOLYLINE
  5
B1
330
89
100
AcDbEntity
  8
AM_9
100
AcDbPolyline
 90
        4
 70
     0
 43
0.0
 10
-1.192915196589309
 20
0.3458030030394924
 10
-1.176037987533183
 20
0.3433442061833284
 10
-1.158368153505211
 20
0.3433888481838487
 10
-1.142084803410691
 20
0.3458030030394924
  0
LWPOLYLINE
  5
B2
330
89
100
AcDbEntity
  8
AM_9
100
AcDbPolyline
 90
       10
 70
     0
 43
0.0
 10
-1.142084803410691
 20
0.3458030030394924
 10
-1.121749193443589
 20
0.3508920321516829
 10
-1.102725330044757
 20
0.3586697654631023
 10
-1.085571032162478
 20
0.368835168566464
 10
-1.07070452419877
 20
0.380958279596186
 10
-1.058445773203587
 20
0.3947625027021491
 10
-1.049279124700161
 20
0.4096100127214561
 10
-1.043549710461277
 20
0.4248984517866294
 10
-1.041323731635991
 20
0.4402078442110125
 10
-1.041300000536806
 20
0.4419335074355257
  0
LWPOLYLINE
  5
B3
330
89
100
AcDbEntity
  8
AM_9
100
AcDbPolyline
 90
        4
 70
     0
 43
0.0
 10
-1.142084803410691
 20
0.5206200947801274
 10
-1.158962012466838
 20
0.5222449196309537
 10
-1.176631846494833
 20
0.5222155675034663
 10
-1.192915196589309
 20
0.5206200947801274
  0
LWPOLYLINE
  5
B4
330
89
100
AcDbEntity
  8
AM_9
100
AcDbPolyline
 90
        6
 70
     0
 43
0.0
 10
-1.272037993084405
 20
0.4890964384812972
 10
-1.276554226796413
 20
0.4845446702923059
 10
-1.285720875299839
 20
0.4720642302466146
 10
-1.291450289538723
 20
0.4583449988679983
 10
-1.293676268364008
 20
0.4436688561248049
 10
-1.293699999463194
 20
0.4419499688943693
  0
LWPOLYLINE
  5
B5
330
89
100
AcDbEntity
  8
AM_9
100
AcDbPolyline
 90
        5
 70
     0
 43
0.0
 10
-1.192915196589311
 20
-0.3256993819377236
 10
-1.184284978834104
 20
-0.3273025577971648
 10
-1.166878965044173
 20
-0.3285247807243763
 10
-1.148922582901989
 20
-0.3270252716814421
 10
-1.142084803410688
 20
-0.3256993819377236
  0
LWPOLYLINE
  5
B6
330
89
100
AcDbEntity
  8
AM_9
100
AcDbPolyline
 90
        4
 70
     0
 43
0.0
 10
-1.044005162921871
 20
-0.238000033568256
 10
-1.043549710461277
 20
-0.2358317965129888
 10
-1.041323731635991
 20
-0.2160606652464722
 10
-1.041300000536806
 20
-0.2137735275721999
  0
LWPOLYLINE
  5
B7
330
89
100
AcDbEntity
  8
AM_9
100
AcDbPolyline
 90
        5
 70
     0
 43
0.0
 10
-1.142084803410691
 20
-0.0933803949520947
 10
-1.152804821051465
 20
-0.0911875898922416
 10
-1.163837750294389
 20
-0.0901659655954765
 10
-1.178335710527354
 20
-0.0906896793527354
 10
-1.192915196589309
 20
-0.0933803949520947
  0
LWPOLYLINE
  5
B8
330
89
100
AcDbEntity
  8
AM_9
100
AcDbPolyline
 90
       10
 70
     0
 43
0.0
 10
-1.192915196589309
 20
-0.0933803949520947
 10
-1.213250806556411
 20
-0.0994356729091496
 10
-1.232274669955242
 20
-0.1087519343774496
 10
-1.249428967837522
 20
-0.1210402994048224
 10
-1.26429547580123
 20
-0.1358685383623411
 10
-1.276554226796413
 20
-0.1529989039343798
 10
-1.285720875299839
 20
-0.1717297797608516
 10
-1.291450289538723
 20
-0.1913838088549028
 10
-1.293676268364008
 20
-0.2114612363591078
 10
-1.293699999463194
 20
-0.2137516515107416
  0
LINE
  5
B9
330
89
100
AcDbEntity
  8
AM_9
100
AcDbLine
 10
-0.2213999999999999
 20
0.625
 30
0.0
 11
-1.4186
 21
0.625
 31
0.0
  0
LINE
  5
BA
330
89
100
AcDbEntity
  8
AM_9
100
AcDbLine
 10
-1.4186
 20
-0.625
 30
0.0
 11
-0.2213999999999999
 21
-0.625
 31
0.0
  0
LINE
  5
BB
330
89
100
AcDbEntity
  8
AM_9
100
AcDbLine
 10
-1.4186
 20
0.625
 30
0.0
 11
-1.45
 21
0.6563999999999816
 31
0.0
  0
LINE
  5
BC
330
89
100
AcDbEntity
  8
AM_9
100
AcDbLine
 10
-1.45
 20
-0.6563999999999816
 30
0.0
 11
-1.4186
 21
-0.625
 31
0.0
  0
LINE
  5
BD
330
89
100
AcDbEntity
  8
AM_9
100
AcDbLine
 10
-0.2213999999999999
 20
-0.625
 30
0.0
 11
-0.2213999999999999
 21
0.625
 31
0.0
  0
LINE
  5
BE
330
89
100
AcDbEntity
  8
AM_9
100
AcDbLine
 10
-0.2213999999999999
 20
-0.625
 30
0.0
 11
-0.1899999999999999
 21
-0.6563999999999816
 31
0.0
  0
LINE
  5
BF
330
89
100
AcDbEntity
  8
AM_9
100
AcDbLine
 10
-0.1899999999999999
 20
0.6563999999999816
 30
0.0
 11
-0.2213999999999999
 21
0.625
 31
0.0
  0
LINE
  5
C0
330
89
100
AcDbEntity
  8
AM_9
100
AcDbLine
 10
-0.885
 20
0.7849999999999931
 30
0.0
 11
-0.9899999999999998
 21
0.7849999999999931
 31
0.0
  0
LINE
  5
C1
330
89
100
AcDbEntity
  8
AM_9
100
AcDbLine
 10
-0.9899999999999998
 20
-0.7849999999999931
 30
0.0
 11
-0.885
 21
-0.7849999999999931
 31
0.0
  0
LINE
  5
C2
330
89
100
AcDbEntity
  8
AM_9
100
AcDbLine
 10
-0.1899999999999999
 20
-0.7849999999999931
 30
0.0
 11
-0.1899999999999999
 21
0.7849999999999931
 31
0.0
  0
LINE
  5
C3
330
89
100
AcDbEntity
  8
AM_9
100
AcDbLine
 10
-0.1899999999999999
 20
0.7849999999999931
 30
0.0
 11
-0.195
 21
0.7849999999999931
 31
0.0
  0
LINE
  5
C4
330
89
100
AcDbEntity
  8
AM_9
100
AcDbLine
 10
-0.195
 20
-0.7849999999999931
 30
0.0
 11
-0.1899999999999999
 21
-0.7849999999999931
 31
0.0
  0
LINE
  5
C5
330
89
100
AcDbEntity
  8
AM_9
100
AcDbLine
 10
-0.6679999999999998
 20
1.167116666666663
 30
0.0
 11
-0.732
 21
1.167116666666663
 31
0.0
  0
LINE
  5
C6
330
89
100
AcDbEntity
  8
AM_9
100
AcDbLine
 10
-0.732
 20
-1.167116666666663
 30
0.0
 11
-0.6679999999999998
 21
-1.167116666666663
 31
0.0
  0
LINE
  5
C7
330
89
100
AcDbEntity
  8
AM_9
100
AcDbLine
 10
-0.195
 20
-1.146492216502152
 30
0.0
 11
-0.195
 21
1.146492216502152
 31
0.0
  0
ARC
  5
C8
330
89
100
AcDbEntity
  8
AM_9
100
AcDbCircle
 10
-0.2270000000000005
 20
1.146492216502151
 30
0.0
 40
0.0320000000000005
100
AcDbArc
 50
0.0
 51
74.72994563633361
  0
ARC
  5
C9
330
89
100
AcDbEntity
  8
AM_9
100
AcDbCircle
 10
-0.227
 20
-1.146492216502152
 30
0.0
 40
0.0319999999999999
100
AcDbArc
 50
285.2700543636656
 51
0.0
  0
LINE
  5
CA
330
89
100
AcDbEntity
  8
AM_9
100
AcDbLine
 10
-0.8849999999999999
 20
-1.146492216502148
 30
0.0
 11
-0.8849999999999999
 21
1.146492216502148
 31
0.0
  0
ARC
  5
CB
330
89
100
AcDbEntity
  8
AM_9
100
AcDbCircle
 10
-0.8530000000000001
 20
1.146492216502148
 30
0.0
 40
0.0319999999999998
100
AcDbArc
 50
105.270043571561
 51
180.0
  0
ARC
  5
CC
330
89
100
AcDbEntity
  8
AM_9
100
AcDbCircle
 10
-0.8530000000000001
 20
-1.146492216502148
 30
0.0
 40
0.0319999999999998
100
AcDbArc
 50
180.0
 51
254.729956428439
  0
LINE
  5
CD
330
89
100
AcDbEntity
  8
AM_9
100
AcDbLine
 10
-0.8614277986033017
 20
0.9785306445546869
 30
0.0
 11
-0.8614277986033017
 21
1.177362464487866
 31
0.0
  0
ARC
  5
CE
330
89
100
AcDbEntity
  8
AM_9
100
AcDbCircle
 10
-0.539999999994436
 20
-0.0000000000258336
 30
0.0
 40
1.220450000026348
100
AcDbArc
 50
99.05131675804398
 51
105.2700173381318
  0
ARC
  5
CF
330
89
100
AcDbEntity
  8
AM_9
100
AcDbCircle
 10
-0.5399999999674143
 20
0.000000000151414
 30
0.0
 40
1.220450000154425
100
AcDbArc
 50
254.7299826621947
 51
260.9486832416293
  0
LINE
  5
D0
330
89
100
AcDbEntity
  8
AM_9
100
AcDbLine
 10
-0.732
 20
-1.205252754611844
 30
0.0
 11
-0.732
 21
1.205252754612038
 31
0.0
  0
LINE
  5
D1
330
89
100
AcDbEntity
  8
AM_9
100
AcDbLine
 10
-0.8614277986033017
 20
-1.177362464487672
 30
0.0
 11
-0.8614277986033017
 21
0.7579703216105381
 31
0.0
  0
LWPOLYLINE
  5
D2
330
89
100
AcDbEntity
  8
AM_9
100
AcDbPolyline
 90
        6
 70
     0
 43
0.0
 10
-0.3061715550236195
 20
0.7934441500715869
 10
-0.2949469616127463
 20
0.8018312868460082
 10
-0.286083193294566
 20
0.8116412168488291
 10
-0.2798748317726046
 20
0.8226232632593838
 10
-0.2764715782071936
 20
0.8344495075341629
 10
-0.2758333337090322
 20
0.8425364258187328
  0
ARC
  5
D3
330
89
100
AcDbEntity
  8
AM_9
100
AcDbCircle
 10
-0.5399999999999958
 20
0.0000000000000431
 30
0.0
 40
1.220449999999956
100
AcDbArc
 50
74.7299823788337
 51
96.02021531655168
  0
ARC
  5
D4
330
89
100
AcDbEntity
  8
AM_9
100
AcDbCircle
 10
-0.540000000000051
 20
0.0000000000006473
 30
0.0
 40
1.220450000000627
100
AcDbArc
 50
263.9797846834542
 51
285.2700176211603
  0
LINE
  5
D5
330
89
100
AcDbEntity
  8
AM_9
100
AcDbLine
 10
-0.2185721955820478
 20
-1.177362462900456
 30
0.0
 11
-0.2185721955820478
 21
1.177362462900466
 31
0.0
  0
LINE
  5
D6
330
89
100
AcDbEntity
  8
AM_9
100
AcDbLine
 10
-0.6679999999999998
 20
-1.213719161297198
 30
0.0
 11
-0.6679999999999998
 21
1.213719161297207
 31
0.0
  0
ELLIPSE
  5
D7
330
89
100
AcDbEntity
  8
AM_9
100
AcDbEllipse
 10
-0.3800000000000002
 20
0.8628277650124889
 30
0.0
 11
-0.1041666666666619
 21
1.275673749111767E-17
 31
0.0
210
0.0
220
0.0
230
1.0
 40
0.7071067811865482
 41
0.0
 42
6.283185307179586
  0
ELLIPSE
  5
D9
330
89
100
AcDbEntity
  8
AM_4
100
AcDbEllipse
 10
-1.1675
 20
0.4332115489098105
 30
0.0
 11
0.1261999999999992
 21
0.0
 31
0.0
210
0.0
220
0.0
230
1.0
 40
0.7071067811865471
 41
1.368021328389966
 42
1.773571325199828
  0
LWPOLYLINE
  5
DA
330
89
100
AcDbEntity
  8
AM_4
100
AcDbPolyline
 90
        7
 70
     0
 43
0.0
 10
-1.063047779021746
 20
0.4891757957786651
 10
-1.066522356445806
 20
0.4922138982758029
 10
-1.080583352224803
 20
0.501868719985406
 10
-1.097069868409574
 20
0.5097416582051364
 10
-1.115775642307263
 20
0.5157710345095411
 10
-1.135990306222543
 20
0.5198222973500063
 10
-1.142084803410691
 20
0.5206200947801279
  0
ELLIPSE
  5
DB
330
89
100
AcDbEntity
  8
AM_4
100
AcDbEllipse
 10
-1.1675
 20
-0.2095398884449095
 30
0.0
 11
-0.1261999999999996
 21
1.545504260523955E-17
 31
0.0
210
0.0
220
0.0
230
1.0
 40
0.9396926207859104
 41
1.368021328389943
 42
1.773571325199851
  0
LWPOLYLINE
  5
DC
330
89
100
AcDbEntity
  8
AM_4
100
AcDbPolyline
 90
        9
 70
     0
 43
0.0
 10
-1.291237958000714
 20
-0.2369045475404328
 10
-1.287577356135929
 20
-0.2498390836631215
 10
-1.279536636985253
 20
-0.2673984249078534
 10
-1.268477643554193
 20
-0.283320403291672
 10
-1.254416647775197
 20
-0.2974250059600466
 10
-1.237930131590425
 20
-0.3091442723971431
 10
-1.219224357692737
 20
-0.3182644253226177
 10
-1.199009693777456
 20
-0.3244699846522223
 10
-1.192915196589311
 20
-0.3256993819377237
  0
LWPOLYLINE
  5
DD
330
89
100
AcDbEntity
  8
AM_4
100
AcDbPolyline
 90
        6
 70
     0
 43
0.0
 10
-1.192915196589309
 20
0.5206200947801274
 10
-1.21325080655641
 20
0.5172055446414825
 10
-1.232274669955242
 20
0.5118407949183451
 10
-1.249428967837521
 20
0.5045638234411486
 10
-1.264295475801229
 20
0.495475316445849
 10
-1.272037993084405
 20
0.4890964384812972
  0
LWPOLYLINE
  5
DE
330
89
100
AcDbEntity
  8
AM_4
100
AcDbPolyline
 90
        8
 70
     0
 43
0.0
 10
-1.142084803410688
 20
-0.3256993819377236
 10
-1.121749193443586
 20
-0.3204540319205004
 10
-1.102725330044755
 20
-0.3123049053385631
 10
-1.085571032162476
 20
-0.3014136444332997
 10
-1.070704524198768
 20
-0.2880532116606519
 10
-1.058445773203586
 20
-0.2723127651606301
 10
-1.04927912470016
 20
-0.2547268162860386
 10
-1.044005162921871
 20
-0.238000033568256
  0
LWPOLYLINE
  5
DF
330
89
100
AcDbEntity
  8
AM_4
100
AcDbPolyline
 90
       45
 70
     0
 43
0.0
 10
-1.065179115483918
 20
0.4799035901208688
 10
-1.082117665717538
 20
0.469743288211854
 10
-1.100668273443186
 20
0.4614637481187694
 10
-1.124525017545299
 20
0.4542836074123799
 10
-1.149491865878055
 20
0.4502693186958306
 10
-1.175990973526476
 20
0.449630840253894
 10
-1.20225505677819
 20
0.4525778350710321
 10
-1.219430576982192
 20
0.4565719639325668
 10
-1.235994420789611
 20
0.4621130747804025
 10
-1.251611005400598
 20
0.4690834807914033
 10
-1.265820975517665
 20
0.4772492970661503
 10
-1.278777066339401
 20
0.4866190375185071
 10
-1.290162313777021
 20
0.4969810587279304
 10
-1.299228801985681
 20
0.5074976459077453
 10
-1.30661158776633
 20
0.5186458542272432
 10
-1.312093512987756
 20
0.5301563260529005
 10
-1.316263319647719
 20
0.5461558826842584
 10
-1.316520000158463
 20
0.5620048180741303
 10
-1.313119769454811
 20
0.5762834112255548
 10
-1.306395736495897
 20
0.5896218585657735
 10
-1.296425924054441
 20
0.6018683020052399
 10
-1.283671695241863
 20
0.612675711309434
 10
-1.267332803205901
 20
0.6225099537458598
 10
-1.248742287375381
 20
0.6304922383791461
 10
-1.22656929216501
 20
0.6370107655190661
 10
-1.202930085158108
 20
0.6413152390032897
 10
-1.176969312215285
 20
0.6434449775590106
 10
-1.150752033341119
 20
0.6431054839949089
 10
-1.133135490428443
 20
0.6414483737630705
 10
-1.115899038343882
 20
0.6386352039734474
 10
-1.099377978664139
 20
0.6346815710772957
 10
-1.083879026242518
 20
0.6296089778884187
 10
-1.069426484478779
 20
0.623386562040617
 10
-1.056348718345111
 20
0.6160686714646457
 10
-1.045346775691558
 20
0.6080538462583435
 10
-1.03592202118116
 20
0.5990561217276076
 10
-1.028338621399827
 20
0.5892119624576706
 10
-1.02124095136588
 20
0.5744365551352504
 10
-1.018190785785841
 20
0.5585796527055318
 10
-1.019171727597652
 20
0.5434217118230036
 10
-1.023684378471617
 20
0.5282088408540697
 10
-1.031459235973714
 20
0.5135977725724553
 10
-1.042191623480245
 20
0.4997890823962809
 10
-1.052921383887972
 20
0.4893725505867423
 10
-1.065179115377277
 20
0.4799035898802559
  0
LWPOLYLINE
  5
E0
330
89
100
AcDbEntity
  8
AM_4
100
AcDbPolyline
 90
       45
 70
     0
 43
0.0
 10
-1.051340682083353
 20
-0.3478778334006627
 10
-1.066645125142119
 20
-0.3613147658023451
 10
-1.083968580790934
 20
-0.3725386999628993
 10
-1.105901846574781
 20
-0.3825438944396098
 10
-1.129362323105939
 20
-0.3893490204107773
 10
-1.15519681552698
 20
-0.3929499739957867
 10
-1.181363266865217
 20
-0.3928487485849279
 10
-1.199023021153503
 20
-0.3906299076524034
 10
-1.216339548968286
 20
-0.3866867281684459
 10
-1.232977822013299
 20
-0.3810650842092243
 10
-1.248655992323133
 20
-0.3738119156273612
 10
-1.263322316835166
 20
-0.3649339110106505
 10
-1.276647263974933
 20
-0.3545518148299996
 10
-1.287943958059528
 20
-0.343239986336129
 10
-1.297684805442168
 20
-0.3306532202503843
 10
-1.305599381895147
 20
-0.3170184915102612
 10
-1.313176133901715
 20
-0.2967868786834998
 10
-1.316691273340345
 20
-0.2753949003595647
 10
-1.316109709704743
 20
-0.2552928284313146
 10
-1.311962863616003
 20
-0.2353820711193114
 10
-1.304540098877688
 20
-0.2165755343933327
 10
-1.294131458247671
 20
-0.1989877904428544
 10
-1.28029868371044
 20
-0.1822522739094274
 10
-1.263988902881791
 20
-0.1676859402881312
 10
-1.243980043098416
 20
-0.154692157168205
 10
-1.22214744207117
 20
-0.1448652415977141
 10
-1.197327735227574
 20
-0.1381125322588482
 10
-1.171724371034459
 20
-0.1353766390054485
 10
-1.145105034697993
 20
-0.1368959284901804
 10
-1.119114597381096
 20
-0.1427486074846847
 10
-1.102478798084666
 20
-0.1490455394683142
 10
-1.086631583319566
 20
-0.157178649282771
 10
-1.071907136913015
 20
-0.1670033063559072
 10
-1.058875143678514
 20
-0.1781043369140612
 10
-1.047241390454959
 20
-0.1906307370960794
 10
-1.037307500355978
 20
-0.2043291623319874
 10
-1.029796428524521
 20
-0.2179593099738371
 10
-1.024016658186431
 20
-0.2323350397877408
 10
-1.020141722238373
 20
-0.2471329612438032
 10
-1.018112821977724
 20
-0.2677067556388352
 10
-1.019855311842456
 20
-0.2881005222244601
 10
-1.025037591694824
 20
-0.3068650220569313
 10
-1.033391068375214
 20
-0.3244427154762123
 10
-1.041625992430716
 20
-0.3366674299614043
 10
-1.051340680736681
 20
-0.3478778326268608
  0
LINE
  5
E1
330
89
100
AcDbEntity
  8
AM_4
100
AcDbLine
 10
-0.9899999999999998
 20
0.7849999999999931
 30
0.0
 11
-1.4186
 21
0.7849999999999931
 31
0.0
  0
LINE
  5
E2
330
89
100
AcDbEntity
  8
AM_4
100
AcDbLine
 10
-1.4186
 20
-0.7849999999999931
 30
0.0
 11
-0.9899999999999998
 21
-0.7849999999999931
 31
0.0
  0
LINE
  5
E3
330
89
100
AcDbEntity
  8
AM_4
100
AcDbLine
 10
-1.4186
 20
-0.7849999999999931
 30
0.0
 11
-1.4186
 21
0.7849999999999931
 31
0.0
  0
LINE
  5
E4
330
89
100
AcDbEntity
  8
AM_4
100
AcDbLine
 10
-1.45
 20
-0.7535999999999832
 30
0.0
 11
-1.45
 21
0.7535999999999832
 31
0.0
  0
LINE
  5
E5
330
89
100
AcDbEntity
  8
AM_4
100
AcDbLine
 10
-1.45
 20
-0.7535999999999832
 30
0.0
 11
-1.4186
 21
-0.7849999999999931
 31
0.0
  0
LINE
  5
E6
330
89
100
AcDbEntity
  8
AM_4
100
AcDbLine
 10
-1.4186
 20
0.7849999999999931
 30
0.0
 11
-1.45
 21
0.7535999999999832
 31
0.0
  0
ELLIPSE
  5
E7
330
89
100
AcDbEntity
  8
AM_4
100
AcDbEllipse
 10
-1.1675
 20
0.5386686366066283
 30
0.0
 11
0.1262000000000001
 21
0.0
 31
0.0
210
0.0
220
0.0
230
1.0
 40
0.7071067811865483
 41
0.0
 42
6.283185307179586
  0
ELLIPSE
  5
E8
330
89
100
AcDbEntity
  8
AM_4
100
AcDbEllipse
 10
-1.1675
 20
-0.2605483771320768
 30
0.0
 11
-0.1262000000000001
 21
1.545504260523961E-17
 31
0.0
210
0.0
220
0.0
230
1.0
 40
0.9396926207859084
 41
0.0
 42
6.283185307179586
  0
ENDBLK
  5
8C
330
89
100
AcDbEntity
  8
0
100
AcDbBlockEnd
  0
BLOCK
  5
EB
330
E9
100
AcDbEntity
  8
0
100
AcDbBlockBegin
  2
3_405015E_Inch_0_in_124649_2
 70
     2
 10
0.0
 20
0.0
 30
0.0
  3
3_405015E_Inch_0_in_124649_2
  1

  0
ATTDEF
  5
ED
330
E9
100
AcDbEntity
  8
AM_6
100
AcDbText
 10
4.575416666666666
 20
1.098916964602642
 30
0.0
 40
0.5
  1
405015E -Inch
100
AcDbAttributeDefinition
  3

  2
NN
 70
     8
280
     0
  0
ATTDEF
  5
EE
330
E9
100
AcDbEntity
  8
AM_6
100
AcDbText
 10
4.575416666666666
 20
0.5989169646026424
 30
0.0
 40
0.5
  1
Grease Fitting
100
AcDbAttributeDefinition
  3

  2
NT
 70
     8
280
     0
  0
ATTDEF
  5
EF
330
E9
100
AcDbEntity
  8
AM_6
100
AcDbText
 10
4.575416666666666
 20
0.0989169646026424
 30
0.0
 40
0.5
  1
405015E-Inch
100
AcDbAttributeDefinition
  3

  2
NB
 70
     8
280
     0
  0
ATTDEF
  5
F0
330
E9
100
AcDbEntity
  8
AM_6
100
AcDbText
 10
4.575416666666666
 20
-0.4010830353973576
 30
0.0
 40
0.5
  1
$MN.-Inch
100
AcDbAttributeDefinition
  3

  2
NBSYN
 70
     8
280
     0
  0
ATTDEF
  5
F1
330
E9
100
AcDbEntity
  8
AM_6
100
AcDbText
 10
4.575416666666666
 20
-0.9010830353973576
 30
0.0
 40
0.5
  1
405015E
100
AcDbAttributeDefinition
  3

  2
LINA
 70
     8
280
     0
  0
ATTDEF
  5
F2
330
E9
100
AcDbEntity
  8
AM_6
100
AcDbText
 10
4.575416666666666
 20
-1.401083035397358
 30
0.0
 40
0.5
  1
405015E
100
AcDbAttributeDefinition
  3

  2
MN
 70
     8
280
     0
  0
ATTDEF
  5
F3
330
E9
100
AcDbEntity
  8
AM_6
100
AcDbText
 10
4.575416666666666
 20
-1.901083035397358
 30
0.0
 40
0.5
  1
1/8 x 27PTF
100
AcDbAttributeDefinition
  3

  2
T
 70
     8
280
     0
  0
ATTDEF
  5
F4
330
E9
100
AcDbEntity
  8
AM_6
100
AcDbText
 10
4.575416666666666
 20
-2.401083035397358
 30
0.0
 40
0.5
  1
baldor
100
AcDbAttributeDefinition
  3

  2
COMPANY
 70
     8
280
     0
  0
ELLIPSE
  5
F5
330
E9
100
AcDbEntity
  8
AM_9
100
AcDbEllipse
 10
-0.6433333333333332
 20
0.6899999999999998
 30
0.0
 11
-0.161902872472269
 21
1.982738345459263E-17
 31
0.0
210
0.0
220
0.0
230
1.0
 40
0.866025403784439
 41
0.0
 42
6.283185307179586
  0
LWPOLYLINE
  5
F6
330
E9
100
AcDbEntity
  8
AM_9
100
AcDbPolyline
 90
        3
 70
     0
 43
0.0
 10
-0.713943173574195
 20
1.006552361091046
 10
-0.6980208333333332
 20
1.015102940392517
 10
-0.6433333333333332
 20
1.045783799848307
  0
LINE
  5
F7
330
E9
100
AcDbEntity
  8
AM_9
100
AcDbLine
 10
-0.7527083333333332
 20
0.9865624999999999
 30
0.0
 11
-0.713943173574195
 21
1.006552361091046
 31
0.0
  0
LINE
  5
F8
330
E9
100
AcDbEntity
  8
AM_9
100
AcDbLine
 10
-0.5726338987602675
 20
1.006504788394424
 30
0.0
 11
-0.5339583333333332
 21
0.9865624999999999
 31
0.0
  0
LINE
  5
F9
330
E9
100
AcDbEntity
  8
AM_9
100
AcDbLine
 10
-0.6053674843691881
 20
1.024279996357925
 30
0.0
 11
-0.5726338987602675
 21
1.006504788394424
 31
0.0
  0
LINE
  5
FA
330
E9
100
AcDbEntity
  8
AM_9
100
AcDbLine
 10
-0.6433333333333332
 20
1.045783799848307
 30
0.0
 11
-0.6053674843691881
 21
1.024279996357925
 31
0.0
  0
LWPOLYLINE
  5
FB
330
E9
100
AcDbEntity
  8
AM_9
100
AcDbPolyline
 90
        4
 70
     0
 43
0.0
 10
-0.6433333333333332
 20
1.086716200151693
 10
-0.6977749436074828
 20
1.062821932388115
 10
-0.7252033344240983
 20
1.050007718547504
 10
-0.7527083333333332
 20
1.0365625
  0
LWPOLYLINE
  5
FC
330
E9
100
AcDbEntity
  8
AM_9
100
AcDbPolyline
 90
        4
 70
     0
 43
0.0
 10
-0.5339583333333333
 20
1.0365625
 10
-0.5613020833333333
 20
1.049930667998
 10
-0.5886458333333333
 20
1.062709559607483
 10
-0.6433333333333332
 20
1.086716200151693
  0
LWPOLYLINE
  5
FD
330
E9
100
AcDbEntity
  8
AM_9
100
AcDbPolyline
 90
        4
 70
     0
 43
0.0
 10
-0.5339583333333332
 20
0.9865624999999999
 10
-0.5066145833333332
 20
0.9731943320019996
 10
-0.4792708333333333
 20
0.9604154403925173
 10
-0.4245833333333333
 20
0.9364087998483072
  0
ELLIPSE
  5
FE
330
E9
100
AcDbEntity
  8
AM_9
100
AcDbEllipse
 10
-0.6433333333333332
 20
0.8225000000000003
 30
0.0
 11
0.21875
 21
0.0
 31
0.0
210
0.0
220
0.0
230
1.0
 40
0.8660254037844375
 41
2.094395102393196
 42
3.141592653589793
  0
LWPOLYLINE
  5
FF
330
E9
100
AcDbEntity
  8
AM_9
100
AcDbPolyline
 90
        4
 70
     0
 43
0.0
 10
-0.8620833333333332
 20
0.9364087998483072
 10
-0.8076417230591836
 20
0.9603030676118847
 10
-0.7802133322425681
 20
0.9731172814524961
 10
-0.7527083333333332
 20
0.9865624999999999
  0
LINE
  5
100
330
E9
100
AcDbEntity
  8
AM_9
100
AcDbLine
 10
-0.6433333333333332
 20
1.086716200151693
 30
0.0
 11
-0.6433333333333332
 21
1.045783799848307
 31
0.0
  0
LINE
  5
101
330
E9
100
AcDbEntity
  8
AM_9
100
AcDbLine
 10
-0.7527083333333332
 20
1.0365625
 30
0.0
 11
-0.7546841881499549
 21
1.035572978617129
 31
0.0
  0
LINE
  5
102
330
E9
100
AcDbEntity
  8
AM_9
100
AcDbLine
 10
-0.5322448535512686
 20
1.035704561349023
 30
0.0
 11
-0.5339583333333333
 21
1.0365625
 31
0.0
  0
ELLIPSE
  5
103
330
E9
100
AcDbEntity
  8
AM_9
100
AcDbEllipse
 10
-0.6433333333333338
 20
0.8225000000000003
 30
0.0
 11
0.2057518972230702
 21
0.0
 31
0.0
210
0.0
220
0.0
230
1.0
 40
0.8660254037844388
 41
4.71238898038469
 42
9.478933721329764
  0
ELLIPSE
  5
104
330
E9
100
AcDbEntity
  8
AM_9
100
AcDbEllipse
 10
-0.6433333333333335
 20
0.7083573771544736
 30
0.0
 11
0.1986176267812158
 21
0.0
 31
0.0
210
0.0
220
0.0
230
1.0
 40
0.8660254037844393
 41
4.71238898038469
 42
9.478933721329765
  0
LINE
  5
105
330
E9
100
AcDbEntity
  8
AM_9
100
AcDbLine
 10
-0.4450068928706453
 20
0.6990467106261545
 30
0.0
 11
-0.4378830817318198
 21
0.81285489783229
 31
0.0
  0
LINE
  5
106
330
E9
100
AcDbEntity
  8
AM_9
100
AcDbLine
 10
-0.8487835849348466
 20
0.8128548978322901
 30
0.0
 11
-0.8416597737960212
 21
0.6990467106261545
 31
0.0
  0
ELLIPSE
  5
107
330
E9
100
AcDbEntity
  8
AM_9
100
AcDbEllipse
 10
-0.643333333333333
 20
0.8225000000000001
 30
0.0
 11
0.2057518972230697
 21
0.0
 31
0.0
210
0.0
220
0.0
230
1.0
 40
0.8660254037844397
 41
3.195748414150179
 42
4.71238898038469
  0
ELLIPSE
  5
108
330
E9
100
AcDbEntity
  8
AM_9
100
AcDbEllipse
 10
-0.6433333333333329
 20
0.7083573771544736
 30
0.0
 11
0.1986176267812158
 21
0.0
 31
0.0
210
0.0
220
0.0
230
1.0
 40
0.866025403784439
 41
3.195748414150177
 42
4.71238898038469
  0
ELLIPSE
  5
109
330
E9
100
AcDbEntity
  8
AM_9
100
AcDbEllipse
 10
-0.6433333333333332
 20
0.8224999999999996
 30
0.0
 11
0.21875
 21
0.0
 31
0.0
210
0.0
220
0.0
230
1.0
 40
0.8660254037844369
 41
3.141592653589793
 42
5.23598775598299
  0
ELLIPSE
  5
10A
330
E9
100
AcDbEntity
  8
AM_9
100
AcDbEllipse
 10
-0.6433333333333335
 20
0.8224999999999995
 30
0.0
 11
0.2187500000000002
 21
0.0
 31
0.0
210
0.0
220
0.0
230
1.0
 40
0.8660254037844365
 41
5.23598775598299
 42
8.37758040957278
  0
ELLIPSE
  5
10B
330
E9
100
AcDbEntity
  8
AM_9
100
AcDbEllipse
 10
-0.6433333333318583
 20
0.8724999999972051
 30
0.0
 11
0.218750000002907
 21
0.0
 31
0.0
210
0.0
220
0.0
230
1.0
 40
0.8660254037868859
 41
-4.188790204786705
 42
-4.17456298320542
  0
ELLIPSE
  5
10C
330
E9
100
AcDbEntity
  8
AM_9
100
AcDbEllipse
 10
-0.6433333333337924
 20
0.8725000000005876
 30
0.0
 11
0.2187500000009165
 21
0.0
 31
0.0
210
0.0
220
0.0
230
1.0
 40
0.8660254037793987
 41
1.032970329614203
 42
2.094395102390409
  0
ELLIPSE
  5
10D
330
E9
100
AcDbEntity
  8
AM_9
100
AcDbEllipse
 10
-0.6433333333333331
 20
0.8724999999999998
 30
0.0
 11
0.2137499999999997
 21
0.0
 31
0.0
210
0.0
220
0.0
230
1.0
 40
0.8660254037844404
 41
0.986286852235275
 42
2.155305801354577
  0
ELLIPSE
  5
10E
330
E9
100
AcDbEntity
  8
AM_9
100
AcDbEllipse
 10
-0.6433333333333333
 20
0.8816590992704412
 30
0.0
 11
0.1725340532830153
 21
0.0
 31
0.0
210
0.0
220
0.0
230
1.0
 40
0.8660254037844383
 41
0.6732704101475298
 42
2.46832224344219
  0
ELLIPSE
  5
10F
330
E9
100
AcDbEntity
  8
AM_9
100
AcDbEllipse
 10
-0.6433333333333335
 20
0.9088765608092855
 30
0.0
 11
0.1188200907348979
 21
0.0
 31
0.0
210
0.0
220
0.0
230
1.0
 40
0.8660254037844414
 41
0.0521714424109714
 42
2.305085124374383
  0
LINE
  5
110
330
E9
100
AcDbEntity
  8
AM_9
100
AcDbLine
 10
-0.7136895697306846
 20
0.9924999999999998
 30
0.0
 11
-0.7229498513571351
 21
0.9852609048531488
 31
0.0
  0
LINE
  5
111
330
E9
100
AcDbEntity
  8
AM_9
100
AcDbLine
 10
-0.5637168153095312
 20
0.9852609048531488
 30
0.0
 11
-0.5729770969359816
 21
0.9924999999999998
 31
0.0
  0
ELLIPSE
  5
112
330
E9
100
AcDbEntity
  8
AM_9
100
AcDbEllipse
 10
-0.6433333333333335
 20
0.9250000000000002
 30
0.0
 11
0.1049999999999996
 21
0.0
 31
0.0
210
0.0
220
0.0
230
1.0
 40
0.8660254037844385
 41
2.305085124374387
 42
3.566671979497805
  0
ELLIPSE
  5
113
330
E9
100
AcDbEntity
  8
AM_9
100
AcDbEllipse
 10
-0.6433333333333338
 20
0.908876560809286
 30
0.0
 11
0.1188200907348971
 21
0.0
 31
0.0
210
0.0
220
0.0
230
1.0
 40
0.8660254037844387
 41
2.305085124374384
 42
3.089421211178383
  0
ELLIPSE
  5
114
330
E9
100
AcDbEntity
  8
AM_9
100
AcDbEllipse
 10
-0.6433333333333326
 20
0.9250000000000022
 30
0.0
 11
0.1049999999999994
 21
1.564621925353996E-9
 31
0.0
210
0.0
220
0.0
230
1.0
 40
0.8660254037844444
 41
5.858105964796542
 42
8.588270416717885
  0
LINE
  5
115
330
E9
100
AcDbEntity
  8
AM_9
100
AcDbLine
 10
-0.5383333333333332
 20
0.9249999999999998
 30
0.0
 11
-0.5383333333333332
 21
0.9399999999999998
 31
0.0
  0
LINE
  5
116
330
E9
100
AcDbEntity
  8
AM_9
100
AcDbLine
 10
-0.7483333333333332
 20
0.94
 30
0.0
 11
-0.7483333333333332
 21
0.9249999999999998
 31
0.0
  0
ELLIPSE
  5
117
330
E9
100
AcDbEntity
  8
AM_9
100
AcDbEllipse
 10
-0.6433333333333332
 20
0.94
 30
0.0
 11
0.1049999999999999
 21
0.0
 31
0.0
210
0.0
220
0.0
230
1.0
 40
0.8660254037844396
 41
0.0
 42
4.188790204786391
  0
ELLIPSE
  5
118
330
E9
100
AcDbEntity
  8
AM_9
100
AcDbEllipse
 10
-0.6433333333333326
 20
0.9399999999999993
 30
0.0
 11
0.1049999999999994
 21
1.564621925353996E-9
 31
0.0
210
0.0
220
0.0
230
1.0
 40
0.866025403784437
 41
5.235987742002805
 42
6.283187037607677
  0
ELLIPSE
  5
119
330
E9
100
AcDbEntity
  8
AM_9
100
AcDbEllipse
 10
-0.6433333333333332
 20
0.9699999999999996
 30
0.0
 11
0.1350000000000002
 21
0.0
 31
0.0
210
0.0
220
0.0
230
1.0
 40
0.8660254037844388
 41
0.7751090107151217
 42
2.366483642874669
  0
LWPOLYLINE
  5
11A
330
E9
100
AcDbEntity
  8
AM_4
100
AcDbPolyline
 90
        4
 70
     0
 43
0.0
 10
-0.7546841881499549
 20
1.035572978617129
 10
-0.7800520833333331
 20
1.022586917998
 10
-0.8073958333333332
 20
1.008022059607483
 10
-0.8620833333333332
 20
0.9773412001516927
  0
LWPOLYLINE
  5
11B
330
E9
100
AcDbEntity
  8
AM_4
100
AcDbPolyline
 90
        4
 70
     0
 43
0.0
 10
-0.4245833333333333
 20
0.9773412001516927
 10
-0.4790249436074828
 20
1.007888542662265
 10
-0.5064533344240983
 20
1.022502719638269
 10
-0.5322448535512686
 20
1.035704561349023
  0
ELLIPSE
  5
11C
330
E9
100
AcDbEntity
  8
AM_4
100
AcDbEllipse
 10
-0.6433333333333338
 20
0.8724999999999999
 30
0.0
 11
0.2187499999999994
 21
3.259629011154167E-9
 31
0.0
210
0.0
220
0.0
230
1.0
 40
0.8660254037844386
 41
2.108622309941075
 42
3.141592638688632
  0
ELLIPSE
  5
11D
330
E9
100
AcDbEntity
  8
AM_4
100
AcDbEllipse
 10
-0.6433333333333329
 20
0.8725000000000008
 30
0.0
 11
0.2187500000000004
 21
0.0
 31
0.0
210
0.0
220
0.0
230
1.0
 40
0.86602540378444
 41
3.141592653589793
 42
4.188790204786391
  0
ELLIPSE
  5
11E
330
E9
100
AcDbEntity
  8
AM_4
100
AcDbEllipse
 10
-0.6433333333333335
 20
0.8725000000000007
 30
0.0
 11
0.2187500000000003
 21
0.0
 31
0.0
210
0.0
220
0.0
230
1.0
 40
0.8660254037844398
 41
4.188790204786393
 42
7.316155636794616
  0
ELLIPSE
  5
11F
330
E9
100
AcDbEntity
  8
AM_4
100
AcDbEllipse
 10
-0.6433333333333334
 20
0.8724999999999997
 30
0.0
 11
0.2137499999999998
 21
0.0
 31
0.0
210
0.0
220
0.0
230
1.0
 40
0.8660254037844382
 41
2.155305801354574
 42
7.26947215941486
  0
LINE
  5
120
330
E9
100
AcDbEntity
  8
AM_4
100
AcDbLine
 10
-0.4245833333333333
 20
0.9773412001516927
 30
0.0
 11
-0.4245833333333333
 21
0.717658799848307
 31
0.0
  0
LWPOLYLINE
  5
121
330
E9
100
AcDbEntity
  8
AM_4
100
AcDbPolyline
 90
        4
 70
     0
 43
0.0
 10
-0.5339583333333333
 20
0.7084374999999999
 10
-0.5066145833333332
 20
0.7218056679980003
 10
-0.4792708333333333
 20
0.7345845596074826
 10
-0.4245833333333333
 20
0.7585912001516927
  0
LWPOLYLINE
  5
122
330
E9
100
AcDbEntity
  8
AM_4
100
AcDbPolyline
 90
        4
 70
     0
 43
0.0
 10
-0.5339583333333332
 20
0.6584374999999999
 10
-0.5613020833333332
 20
0.6450693320019995
 10
-0.5886458333333332
 20
0.6322904403925171
 10
-0.6433333333333332
 20
0.6082837998483072
  0
LWPOLYLINE
  5
123
330
E9
100
AcDbEntity
  8
AM_4
100
AcDbPolyline
 90
        4
 70
     0
 43
0.0
 10
-0.4245833333333333
 20
0.717658799848307
 10
-0.4790249436074828
 20
0.6871114573377352
 10
-0.5064533344240983
 20
0.6724972803617311
 10
-0.5339583333333332
 20
0.6584374999999999
  0
LINE
  5
124
330
E9
100
AcDbEntity
  8
AM_4
100
AcDbLine
 10
-0.6433333333333332
 20
0.6492162001516927
 30
0.0
 11
-0.6433333333333332
 21
0.6082837998483072
 31
0.0
  0
LWPOLYLINE
  5
125
330
E9
100
AcDbEntity
  8
AM_4
100
AcDbPolyline
 90
        4
 70
     0
 43
0.0
 10
-0.8620833333333332
 20
0.7585912001516927
 10
-0.8076417230591836
 20
0.7346969323881152
 10
-0.7802133322425681
 20
0.7218827185475037
 10
-0.7527083333333332
 20
0.7084374999999999
  0
LINE
  5
126
330
E9
100
AcDbEntity
  8
AM_4
100
AcDbLine
 10
-0.8620833333333332
 20
0.9773412001516927
 30
0.0
 11
-0.8620833333333332
 21
0.7176587998483072
 31
0.0
  0
LWPOLYLINE
  5
127
330
E9
100
AcDbEntity
  8
AM_4
100
AcDbPolyline
 90
        4
 70
     0
 43
0.0
 10
-0.7527083333333332
 20
0.6584374999999999
 10
-0.7800520833333331
 20
0.6724130820019996
 10
-0.8073958333333332
 20
0.6869779403925171
 10
-0.8620833333333332
 20
0.7176587998483072
  0
LWPOLYLINE
  5
128
330
E9
100
AcDbEntity
  8
AM_4
100
AcDbPolyline
 90
        4
 70
     0
 43
0.0
 10
-0.6433333333333332
 20
0.6082837998483072
 10
-0.6977749436074828
 20
0.6321780676118848
 10
-0.7252033344240983
 20
0.6449922814524962
 10
-0.7527083333333332
 20
0.6584374999999999
  0
LWPOLYLINE
  5
129
330
E9
100
AcDbEntity
  8
AM_4
100
AcDbPolyline
 90
        4
 70
     0
 43
0.0
 10
-0.7527083333333332
 20
0.7084374999999999
 10
-0.7253645833333333
 20
0.6944619179980004
 10
-0.6980208333333332
 20
0.6798970596074826
 10
-0.6433333333333332
 20
0.6492162001516927
  0
LWPOLYLINE
  5
12A
330
E9
100
AcDbEntity
  8
AM_4
100
AcDbPolyline
 90
        4
 70
     0
 43
0.0
 10
-0.6433333333333332
 20
0.6492162001516927
 10
-0.5888917230591836
 20
0.6797635426622647
 10
-0.5614633322425682
 20
0.6943777196382687
 10
-0.5339583333333333
 20
0.7084374999999999
  0
ELLIPSE
  5
12B
330
E9
100
AcDbEntity
  8
AM_4
100
AcDbEllipse
 10
-0.6433333333333333
 20
0.8816590992704408
 30
0.0
 11
0.1725340532830153
 21
0.0
 31
0.0
210
0.0
220
0.0
230
1.0
 40
0.8660254037844392
 41
2.46832224344219
 42
4.71238898038469
  0
ELLIPSE
  5
12C
330
E9
100
AcDbEntity
  8
AM_4
100
AcDbEllipse
 10
-0.6433333333333332
 20
0.881659099270441
 30
0.0
 11
0.1725340532830154
 21
0.0
 31
0.0
210
0.0
220
0.0
230
1.0
 40
0.866025403784439
 41
4.71238898038469
 42
6.956455717327116
  0
ELLIPSE
  5
12D
330
E9
100
AcDbEntity
  8
AM_4
100
AcDbEllipse
 10
-0.6433333333333333
 20
0.9088765608092862
 30
0.0
 11
0.1188200907348979
 21
0.0
 31
0.0
210
0.0
220
0.0
230
1.0
 40
0.8660254037844385
 41
4.71238898038469
 42
6.33535674959055
  0
ELLIPSE
  5
12E
330
E9
100
AcDbEntity
  8
AM_4
100
AcDbEllipse
 10
-0.6433333333333333
 20
0.9088765608092861
 30
0.0
 11
0.1188200907348975
 21
0.0
 31
0.0
210
0.0
220
0.0
230
1.0
 40
0.8660254037844382
 41
3.089421211178383
 42
4.71238898038469
  0
ELLIPSE
  5
12F
330
E9
100
AcDbEntity
  8
AM_4
100
AcDbEllipse
 10
-0.6433333333333329
 20
0.9249999999999989
 30
0.0
 11
0.1049999999999994
 21
1.564621925353996E-9
 31
0.0
210
0.0
220
0.0
230
1.0
 40
0.8660254037844348
 41
3.566671963022976
 42
5.858105964796571
  0
ELLIPSE
  5
130
330
E9
100
AcDbEntity
  8
AM_4
100
AcDbEllipse
 10
-0.6433333333333319
 20
0.9399999999999934
 30
0.0
 11
0.1049999999999952
 21
0.0
 31
0.0
210
0.0
220
0.0
230
1.0
 40
0.8660254037844157
 41
4.71238898038469
 42
5.235987755983002
  0
LINE
  5
131
330
E9
100
AcDbEntity
  8
AM_4
100
AcDbLine
 10
-0.5908333333333332
 20
0.8612499999999998
 30
0.0
 11
-0.5758333333333332
 21
0.8687499999999998
 31
0.0
  0
LINE
  5
132
330
E9
100
AcDbEntity
  8
AM_4
100
AcDbLine
 10
-0.7108333333333331
 20
0.8687499999999998
 30
0.0
 11
-0.6958333333333331
 21
0.8612499999999998
 31
0.0
  0
ELLIPSE
  5
133
330
E9
100
AcDbEntity
  8
AM_4
100
AcDbEllipse
 10
-0.6433333333333332
 20
0.9699999999999996
 30
0.0
 11
0.135
 21
0.0
 31
0.0
210
0.0
220
0.0
230
1.0
 40
0.8660254037844387
 41
5.23598775598299
 42
7.058294317894709
  0
ELLIPSE
  5
134
330
E9
100
AcDbEntity
  8
AM_4
100
AcDbEllipse
 10
-0.6433333333333344
 20
0.9699999999999982
 30
0.0
 11
0.1349999999999961
 21
2.011656761169376E-9
 31
0.0
210
0.0
220
0.0
230
1.0
 40
0.8660254037844511
 41
2.366483627774823
 42
4.712388967479914
  0
ELLIPSE
  5
135
330
E9
100
AcDbEntity
  8
AM_4
100
AcDbEllipse
 10
-0.6433333333333346
 20
0.9399999999999928
 30
0.0
 11
0.1049999999999945
 21
0.0
 31
0.0
210
0.0
220
0.0
230
1.0
 40
0.8660254037844181
 41
4.188790204786375
 42
4.71238898038469
  0
ELLIPSE
  5
136
330
E9
100
AcDbEntity
  8
AM_4
100
AcDbEllipse
 10
-0.6433333333333333
 20
1.01
 30
0.0
 11
0.1026779019331876
 21
0.0
 31
0.0
210
0.0
220
0.0
230
1.0
 40
0.866025403784439
 41
4.71238898038469
 42
7.058294317894704
  0
ELLIPSE
  5
137
330
E9
100
AcDbEntity
  8
AM_4
100
AcDbEllipse
 10
-0.6433333333333322
 20
0.9699999999999991
 30
0.0
 11
0.134999999999997
 21
0.0
 31
0.0
210
0.0
220
0.0
230
1.0
 40
0.8660254037844505
 41
4.71238898038469
 42
5.235987755982991
  0
LINE
  5
138
330
E9
100
AcDbEntity
  8
AM_4
100
AcDbLine
 10
-0.7166807538552019
 20
1.072226847792107
 30
0.0
 11
-0.7397698750236322
 21
1.051815310731619
 31
0.0
  0
LINE
  5
139
330
E9
100
AcDbEntity
  8
AM_4
100
AcDbLine
 10
-0.5468967916430341
 20
1.051815310731619
 30
0.0
 11
-0.5699859128114645
 21
1.072226847792107
 31
0.0
  0
ELLIPSE
  5
13A
330
E9
100
AcDbEntity
  8
AM_4
100
AcDbEllipse
 10
-0.6433333333333332
 20
1.01
 30
0.0
 11
0.1026779019331869
 21
0.0
 31
0.0
210
0.0
220
0.0
230
1.0
 40
0.8660254037844382
 41
0.7751090107151155
 42
2.366483642874678
  0
ELLIPSE
  5
13B
330
E9
100
AcDbEntity
  8
AM_4
100
AcDbEllipse
 10
-0.6433333333333331
 20
1.01
 30
0.0
 11
0.1026779019331876
 21
0.0
 31
0.0
210
0.0
220
0.0
230
1.0
 40
0.866025403784439
 41
2.366483642874673
 42
4.71238898038469
  0
ENDBLK
  5
EC
330
E9
100
AcDbEntity
  8
0
100
AcDbBlockEnd
  0
BLOCK
  5
13E
330
13C
100
AcDbEntity
  8
0
100
AcDbBlockBegin
  2
4_124649H_0_in_124649_2
 70
     2
 10
0.0
 20
0.0
 30
0.0
  3
4_124649H_0_in_124649_2
  1

  0
ATTDEF
  5
140
330
13C
100
AcDbEntity
  8
AM_6
100
AcDbText
 10
5.0495
 20
2.219999999999999
 30
0.0
 40
0.5
  1
LFT-SC and  LFT-SC-NL -Inch - housing
100
AcDbAttributeDefinition
  3

  2
NN
 70
     8
280
     0
  0
ATTDEF
  5
141
330
13C
100
AcDbEntity
  8
AM_6
100
AcDbText
 10
5.0495
 20
1.719999999999999
 30
0.0
 40
0.5
  1
SC 2 Bolt Flange Bearings -(Normal Duty) -Re-Lube and No-Lube
100
AcDbAttributeDefinition
  3

  2
NT
 70
     8
280
     0
  0
ATTDEF
  5
142
330
13C
100
AcDbEntity
  8
AM_6
100
AcDbText
 10
5.0495
 20
1.219999999999999
 30
0.0
 40
0.5
  1
124649H
100
AcDbAttributeDefinition
  3

  2
NB
 70
     8
280
     0
  0
ATTDEF
  5
143
330
13C
100
AcDbEntity
  8
AM_6
100
AcDbText
 10
5.0495
 20
0.7199999999999993
 30
0.0
 40
0.5
  1
$PN.H
100
AcDbAttributeDefinition
  3

  2
NBSYN
 70
     8
280
     0
  0
ATTDEF
  5
144
330
13C
100
AcDbEntity
  8
AM_6
100
AcDbText
 10
5.0495
 20
0.2199999999999993
 30
0.0
 40
0.5
  1
124649
100
AcDbAttributeDefinition
  3

  2
LINA
 70
     8
280
     0
  0
ATTDEF
  5
145
330
13C
100
AcDbEntity
  8
AM_6
100
AcDbText
 10
5.0495
 20
-0.2800000000000007
 30
0.0
 40
0.5
  1
206
100
AcDbAttributeDefinition
  3

  2
SERIES
 70
     8
280
     0
  0
ATTDEF
  5
146
330
13C
100
AcDbEntity
  8
AM_6
100
AcDbText
 10
5.0495
 20
-0.7800000000000007
 30
0.0
 40
0.5
  1
1-1/4
100
AcDbAttributeDefinition
  3

  2
SS
 70
     8
280
     0
  0
ATTDEF
  5
147
330
13C
100
AcDbEntity
  8
AM_6
100
AcDbText
 10
5.0495
 20
-1.280000000000001
 30
0.0
 40
0.5
  1
124649
100
AcDbAttributeDefinition
  3

  2
PN
 70
     8
280
     0
  0
ATTDEF
  5
148
330
13C
100
AcDbEntity
  8
AM_6
100
AcDbText
 10
5.0495
 20
-1.780000000000001
 30
0.0
 40
0.5
  1
LFT-SC-104S
100
AcDbAttributeDefinition
  3

  2
DESCRIPTION
 70
     8
280
     0
  0
ATTDEF
  5
149
330
13C
100
AcDbEntity
  8
AM_6
100
AcDbText
 10
5.0495
 20
-2.280000000000001
 30
0.0
 40
0.5
  1
1.35
100
AcDbAttributeDefinition
  3

  2
W
 70
     8
280
     0
  0
ATTDEF
  5
14A
330
13C
100
AcDbEntity
  8
AM_6
100
AcDbText
 10
5.0495
 20
-2.780000000000001
 30
0.0
 40
0.5
  1
RE-LUBE
100
AcDbAttributeDefinition
  3

  2
LF
 70
     8
280
     0
  0
ATTDEF
  5
14B
330
13C
100
AcDbEntity
  8
AM_6
100
AcDbText
 10
5.0495
 20
-3.280000000000001
 30
0.0
 40
0.5
  1
1.26
100
AcDbAttributeDefinition
  3

  2
A
 70
     8
280
     0
  0
ATTDEF
  5
14C
330
13C
100
AcDbEntity
  8
AM_6
100
AcDbText
 10
5.0495
 20
-3.780000000000001
 30
0.0
 40
0.5
  1
4.44
100
AcDbAttributeDefinition
  3

  2
B
 70
     8
280
     0
  0
ATTDEF
  5
14D
330
13C
100
AcDbEntity
  8
AM_6
100
AcDbText
 10
5.0495
 20
-4.280000000000001
 30
0.0
 40
0.5
  1
1.45
100
AcDbAttributeDefinition
  3

  2
C
 70
     8
280
     0
  0
ATTDEF
  5
14E
330
13C
100
AcDbEntity
  8
AM_6
100
AcDbText
 10
5.0495
 20
-4.780000000000001
 30
0.0
 40
0.5
  1
3.56
100
AcDbAttributeDefinition
  3

  2
D
 70
     8
280
     0
  0
ATTDEF
  5
14F
330
13C
100
AcDbEntity
  8
AM_6
100
AcDbText
 10
5.0495
 20
-5.280000000000001
 30
0.0
 40
0.5
  1
0.41
100
AcDbAttributeDefinition
  3

  2
G
 70
     8
280
     0
  0
ATTDEF
  5
150
330
13C
100
AcDbEntity
  8
AM_6
100
AcDbText
 10
5.0495
 20
-5.780000000000001
 30
0.0
 40
0.5
  1
0.47
100
AcDbAttributeDefinition
  3

  2
H
 70
     8
280
     0
  0
ATTDEF
  5
151
330
13C
100
AcDbEntity
  8
AM_6
100
AcDbText
 10
5.0495
 20
-6.280000000000001
 30
0.0
 40
0.5
  1
0.46
100
AcDbAttributeDefinition
  3

  2
J
 70
     8
280
     0
  0
ATTDEF
  5
152
330
13C
100
AcDbEntity
  8
AM_6
100
AcDbText
 10
5.0495
 20
-6.780000000000001
 30
0.0
 40
0.5
  1
1.57
100
AcDbAttributeDefinition
  3

  2
L
 70
     8
280
     0
  0
ATTDEF
  5
153
330
13C
100
AcDbEntity
  8
AM_6
100
AcDbText
 10
5.0495
 20
-7.280000000000001
 30
0.0
 40
0.5
  1
3.25
100
AcDbAttributeDefinition
  3

  2
M
 70
     8
280
     0
  0
ATTDEF
  5
154
330
13C
100
AcDbEntity
  8
AM_6
100
AcDbText
 10
5.0495
 20
-7.780000000000001
 30
0.0
 40
0.5
  1
1.72
100
AcDbAttributeDefinition
  3

  2
N
 70
     8
280
     0
  0
ATTDEF
  5
155
330
13C
100
AcDbEntity
  8
AM_6
100
AcDbText
 10
5.0495
 20
-8.280000000000001
 30
0.0
 40
0.5
  1
2250
100
AcDbAttributeDefinition
  3

  2
CAPS
 70
     8
280
     0
  0
ATTDEF
  5
156
330
13C
100
AcDbEntity
  8
AM_6
100
AcDbText
 10
5.0495
 20
-8.780000000000001
 30
0.0
 40
0.5
  1
4368
100
AcDbAttributeDefinition
  3

  2
CAPD
 70
     8
280
     0
  0
ATTDEF
  5
157
330
13C
100
AcDbEntity
  8
AM_6
100
AcDbText
 10
5.0495
 20
-9.280000000000001
 30
0.0
 40
0.5
  1
baldor
100
AcDbAttributeDefinition
  3

  2
COMPANY
 70
     8
280
     0
  0
LINE
  5
158
330
13C
100
AcDbEntity
  8
AM_9
100
AcDbLine
 10
-0.594
 20
1.234196653814856
 30
0.0
 11
-0.1175
 21
1.234196653814856
 31
0.0
  0
LINE
  5
159
330
13C
100
AcDbEntity
  8
AM_9
100
AcDbLine
 10
-0.594
 20
0.3503131773316718
 30
0.0
 11
-0.1175
 21
0.3503131773316718
 31
0.0
  0
LINE
  5
15A
330
13C
100
AcDbEntity
  8
AM_9
100
AcDbLine
 10
-0.8959999999999996
 20
0.3988614245040424
 30
0.0
 11
-0.8959999999999996
 21
1.164809341049433
 31
0.0
  0
LINE
  5
15B
330
13C
100
AcDbEntity
  8
AM_9
100
AcDbLine
 10
-0.47
 20
1.985
 30
0.0
 11
0.0
 21
1.985
 31
0.0
  0
LINE
  5
15C
330
13C
100
AcDbEntity
  8
AM_9
100
AcDbLine
 10
-0.47
 20
1.575
 30
0.0
 11
0.0
 21
1.575
 31
0.0
  0
LINE
  5
15D
330
13C
100
AcDbEntity
  8
AM_9
100
AcDbLine
 10
-0.47
 20
-1.575
 30
0.0
 11
0.0
 21
-1.575
 31
0.0
  0
LINE
  5
15E
330
13C
100
AcDbEntity
  8
AM_9
100
AcDbLine
 10
-0.47
 20
-1.985
 30
0.0
 11
0.0
 21
-1.985
 31
0.0
  0
LINE
  5
15F
330
13C
100
AcDbEntity
  8
AM_9
100
AcDbLine
 10
-0.594
 20
-1.234196653814856
 30
0.0
 11
-0.1175
 21
-1.234196653814856
 31
0.0
  0
LINE
  5
160
330
13C
100
AcDbEntity
  8
AM_9
100
AcDbLine
 10
-0.99
 20
1.34
 30
0.0
 11
-0.47
 21
1.34
 31
0.0
  0
LINE
  5
161
330
13C
100
AcDbEntity
  8
AM_9
100
AcDbLine
 10
-0.47
 20
1.34
 30
0.0
 11
-0.47
 21
1.493945548406101
 31
0.0
  0
LINE
  5
162
330
13C
100
AcDbEntity
  8
AM_9
100
AcDbLine
 10
-0.47
 20
-1.493945548406102
 30
0.0
 11
-0.47
 21
-1.34
 31
0.0
  0
LINE
  5
163
330
13C
100
AcDbEntity
  8
AM_9
100
AcDbLine
 10
-0.47
 20
-1.34
 30
0.0
 11
-0.99
 21
-1.34
 31
0.0
  0
LINE
  5
164
330
13C
100
AcDbEntity
  8
AM_9
100
AcDbLine
 10
-0.1175
 20
-1.444444444444444
 30
0.0
 11
0.0
 21
-1.444444444444444
 31
0.0
  0
LINE
  5
165
330
13C
100
AcDbEntity
  8
AM_9
100
AcDbLine
 10
0.0
 20
1.444444444444444
 30
0.0
 11
-0.1175
 21
1.444444444444444
 31
0.0
  0
LINE
  5
166
330
13C
100
AcDbEntity
  8
AM_9
100
AcDbLine
 10
-0.1175
 20
1.34591112701917
 30
0.0
 11
0.0
 21
1.34591112701917
 31
0.0
  0
LINE
  5
167
330
13C
100
AcDbEntity
  8
AM_9
100
AcDbLine
 10
-0.1175
 20
-1.34591112701917
 30
0.0
 11
0.0
 21
-1.34591112701917
 31
0.0
  0
LWPOLYLINE
  5
168
330
13C
100
AcDbEntity
  8
AM_9
100
AcDbPolyline
 90
        6
 70
     0
 43
0.0
 10
-0.99
 20
1.121398010779039
 10
-0.9897095748684452
 20
1.125259473996596
 10
-0.9870117366209491
 20
1.133689059210932
 10
-0.9813247516839817
 20
1.142006036226668
 10
-0.9759090629217096
 20
1.147255087594213
 10
-0.9691715263441483
 20
1.152211431702998
  0
LINE
  5
169
330
13C
100
AcDbEntity
  8
AM_9
100
AcDbLine
 10
-0.1175
 20
-0.2992981697841426
 30
0.0
 11
-0.5939999999999999
 21
-0.2992981697841426
 31
0.0
  0
LINE
  5
16A
330
13C
100
AcDbEntity
  8
AM_9
100
AcDbLine
 10
-0.1175000000000001
 20
0.2992981697841424
 30
0.0
 11
-0.594
 21
0.2992981697841425
 31
0.0
  0
LINE
  5
16B
330
13C
100
AcDbEntity
  8
AM_9
100
AcDbLine
 10
-0.594
 20
1.234196653814856
 30
0.0
 11
-0.594
 21
0.2992981697841425
 31
0.0
  0
LINE
  5
16C
330
13C
100
AcDbEntity
  8
AM_9
100
AcDbLine
 10
-0.594
 20
1.183181646267327
 30
0.0
 11
-0.1175000000000001
 21
1.183181646267327
 31
0.0
  0
LINE
  5
16D
330
13C
100
AcDbEntity
  8
AM_9
100
AcDbLine
 10
-0.594
 20
-1.183181646267327
 30
0.0
 11
-0.1175
 21
-1.183181646267327
 31
0.0
  0
LINE
  5
16E
330
13C
100
AcDbEntity
  8
AM_9
100
AcDbLine
 10
-0.99
 20
-1.22045
 30
0.0
 11
-0.1175
 21
-1.22045
 31
0.0
  0
LINE
  5
16F
330
13C
100
AcDbEntity
  8
AM_9
100
AcDbLine
 10
-0.1175
 20
1.22045
 30
0.0
 11
-0.99
 21
1.22045
 31
0.0
  0
LINE
  5
170
330
13C
100
AcDbEntity
  8
AM_9
100
AcDbLine
 10
-0.1175
 20
1.164809341049433
 30
0.0
 11
-0.8959999999999994
 21
1.164809341049433
 31
0.0
  0
LWPOLYLINE
  5
171
330
13C
100
AcDbEntity
  8
AM_9
100
AcDbPolyline
 90
        7
 70
     0
 43
0.0
 10
-0.9691715263441483
 20
1.152211431702998
 10
-0.958145083483626
 20
1.157674482551803
 10
-0.9450402468263817
 20
1.161343216782524
 10
-0.9308364826449848
 20
1.163421070614445
 10
-0.9148734720467123
 20
1.164474159063905
 10
-0.9055117791422777
 20
1.164730793616672
 10
-0.8959999999999994
 20
1.164809341049433
  0
LINE
  5
172
330
13C
100
AcDbEntity
  8
AM_9
100
AcDbLine
 10
-0.99
 20
1.152211431702998
 30
0.0
 11
-0.9691715263441483
 21
1.152211431702998
 31
0.0
  0
LINE
  5
173
330
13C
100
AcDbEntity
  8
AM_9
100
AcDbLine
 10
-0.594
 20
-1.234196653814856
 30
0.0
 11
-0.5939999999999999
 21
-0.2992981697841426
 31
0.0
  0
LINE
  5
174
330
13C
100
AcDbEntity
  8
AM_9
100
AcDbLine
 10
-0.5939999999999999
 20
-0.3503131773316727
 30
0.0
 11
-0.1174999999999999
 21
-0.3503131773316727
 31
0.0
  0
LINE
  5
175
330
13C
100
AcDbEntity
  8
AM_9
100
AcDbLine
 10
-0.7933333333333332
 20
0.8125000000000001
 30
0.0
 11
-0.7933333333333332
 21
0.7041666666666668
 31
0.0
  0
LINE
  5
176
330
13C
100
AcDbEntity
  8
AM_9
100
AcDbLine
 10
-0.4933333333333332
 20
0.7041666666666668
 30
0.0
 11
-0.4933333333333332
 21
0.8125000000000001
 31
0.0
  0
ELLIPSE
  5
177
330
13C
100
AcDbEntity
  8
AM_9
100
AcDbEllipse
 10
-0.643333333333332
 20
0.7041666666666668
 30
0.0
 11
-0.1499999999999988
 21
1.836970198721015E-17
 31
0.0
210
0.0
220
0.0
230
1.0
 40
0.8660254037844379
 41
0.0
 42
6.283185307179586
  0
ELLIPSE
  5
178
330
13C
100
AcDbEntity
  8
AM_9
100
AcDbEllipse
 10
-0.6433333333333318
 20
0.8124999999999998
 30
0.0
 11
-0.1500000000000015
 21
1.836970198721048E-17
 31
0.0
210
0.0
220
0.0
230
1.0
 40
0.8660254037844388
 41
0.0
 42
6.283185307179586
  0
LINE
  5
17B
330
13C
100
AcDbEntity
  8
AM_7
100
AcDbLine
 10
0.0495
 20
0.0
 30
0.0
 11
-1.513
 21
0.0
 31
0.0
  0
LINE
  5
17C
330
13C
100
AcDbEntity
  8
AM_7
100
AcDbLine
 10
-0.444
 20
1.78
 30
0.0
 11
-1.016
 21
1.78
 31
0.0
  0
LINE
  5
17D
330
13C
100
AcDbEntity
  8
AM_7
100
AcDbLine
 10
-0.444
 20
-1.78
 30
0.0
 11
-1.016
 21
-1.78
 31
0.0
  0
LINE
  5
17E
330
13C
100
AcDbEntity
  8
AM_4
100
AcDbLine
 10
-0.47
 20
-2.219999999999999
 30
0.0
 11
0.0
 21
-2.219999999999999
 31
0.0
  0
LINE
  5
17F
330
13C
100
AcDbEntity
  8
AM_4
100
AcDbLine
 10
-0.47
 20
-2.219999999999999
 30
0.0
 11
-0.4699999999999999
 21
-1.493945548406102
 31
0.0
  0
LINE
  5
180
330
13C
100
AcDbEntity
  8
AM_4
100
AcDbLine
 10
-0.4699999999999999
 20
1.493945548406101
 30
0.0
 11
-0.47
 21
2.219999999999999
 31
0.0
  0
LINE
  5
181
330
13C
100
AcDbEntity
  8
AM_4
100
AcDbLine
 10
0.0
 20
2.219999999999999
 30
0.0
 11
-0.47
 21
2.219999999999999
 31
0.0
  0
LINE
  5
182
330
13C
100
AcDbEntity
  8
AM_4
100
AcDbLine
 10
-0.47
 20
-1.86749644276532
 30
0.0
 11
0.0
 21
-1.86749644276532
 31
0.0
  0
LINE
  5
183
330
13C
100
AcDbEntity
  8
AM_4
100
AcDbLine
 10
-0.47
 20
1.867496442765321
 30
0.0
 11
0.0
 21
1.867496442765321
 31
0.0
  0
LINE
  5
184
330
13C
100
AcDbEntity
  8
AM_4
100
AcDbLine
 10
-0.1175
 20
1.338919051224954
 30
0.0
 11
0.0
 21
1.338919051224954
 31
0.0
  0
LINE
  5
185
330
13C
100
AcDbEntity
  8
AM_4
100
AcDbLine
 10
0.0
 20
1.338919051224954
 30
0.0
 11
0.0
 21
2.219999999999999
 31
0.0
  0
LINE
  5
186
330
13C
100
AcDbEntity
  8
AM_4
100
AcDbLine
 10
0.0
 20
-2.219999999999999
 30
0.0
 11
0.0
 21
-1.338919051224952
 31
0.0
  0
LINE
  5
187
330
13C
100
AcDbEntity
  8
AM_4
100
AcDbLine
 10
0.0
 20
-1.338919051224952
 30
0.0
 11
-0.1175
 21
-1.338919051224952
 31
0.0
  0
LINE
  5
188
330
13C
100
AcDbEntity
  8
AM_4
100
AcDbLine
 10
-0.8959999999999996
 20
1.577366573033708
 30
0.0
 11
-0.47
 21
1.577366573033708
 31
0.0
  0
LINE
  5
189
330
13C
100
AcDbEntity
  8
AM_4
100
AcDbLine
 10
-0.1175
 20
1.488108663640088
 30
0.0
 11
0.0
 21
1.488108663640087
 31
0.0
  0
LINE
  5
18A
330
13C
100
AcDbEntity
  8
AM_4
100
AcDbLine
 10
0.0
 20
1.493945548406101
 30
0.0
 11
-0.4699999999999999
 21
1.493945548406101
 31
0.0
  0
LINE
  5
18B
330
13C
100
AcDbEntity
  8
AM_4
100
AcDbLine
 10
-0.8959999999999996
 20
1.577366573033708
 30
0.0
 11
-0.8959999999999994
 21
1.165608891324554
 31
0.0
  0
LWPOLYLINE
  5
18C
330
13C
100
AcDbEntity
  8
AM_4
100
AcDbPolyline
 90
       11
 70
     0
 43
0.0
 10
-0.8959999999999996
 20
1.577366573033708
 10
-0.9111392704960214
 20
1.576246708498438
 10
-0.9262785409920435
 20
1.572799835793734
 10
-0.9401493231911993
 20
1.567346612564511
 10
-0.9531519179062993
 20
1.559788808110248
 10
-0.9642478059436809
 20
1.550804697572043
 10
-0.9737464474492921
 20
1.540261766524637
 10
-0.9810774524429359
 20
1.528863941162717
 10
-0.9863200639973904
 20
1.516625220500937
 10
-0.9890783135086585
 20
1.505376702751354
 10
-0.99
 20
1.494033988764045
  0
LINE
  5
18D
330
13C
100
AcDbEntity
  8
AM_4
100
AcDbLine
 10
-0.1175
 20
1.165608891324554
 30
0.0
 11
-0.9899999999999998
 21
1.165608891324554
 31
0.0
  0
LINE
  5
18E
330
13C
100
AcDbEntity
  8
AM_4
100
AcDbLine
 10
-0.99
 20
-1.494033988764045
 30
0.0
 11
-0.99
 21
1.494033988764045
 31
0.0
  0
LINE
  5
18F
330
13C
100
AcDbEntity
  8
AM_4
100
AcDbLine
 10
-0.9899999999999998
 20
1.115608891324554
 30
0.0
 11
-0.1175
 21
1.115608891324554
 31
0.0
  0
LINE
  5
190
330
13C
100
AcDbEntity
  8
AM_4
100
AcDbLine
 10
-0.9899999999999998
 20
0.5093911086754467
 30
0.0
 11
-0.1174999999999999
 21
0.5093911086754467
 31
0.0
  0
LINE
  5
191
330
13C
100
AcDbEntity
  8
AM_4
100
AcDbLine
 10
-0.9899999999999998
 20
0.3727885682970028
 30
0.0
 11
-0.9691715263441493
 21
0.3727885682970028
 31
0.0
  0
LINE
  5
192
330
13C
100
AcDbEntity
  8
AM_4
100
AcDbLine
 10
-0.47
 20
-1.577366573033708
 30
0.0
 11
-0.8959999999999996
 21
-1.577366573033708
 31
0.0
  0
LINE
  5
193
330
13C
100
AcDbEntity
  8
AM_4
100
AcDbLine
 10
-0.4699999999999999
 20
-1.493945548406102
 30
0.0
 11
0.0
 21
-1.493945548406101
 31
0.0
  0
LINE
  5
194
330
13C
100
AcDbEntity
  8
AM_4
100
AcDbLine
 10
0.0
 20
-1.488108663640086
 30
0.0
 11
-0.1175
 21
-1.488108663640087
 31
0.0
  0
LINE
  5
195
330
13C
100
AcDbEntity
  8
AM_4
100
AcDbLine
 10
-0.1175
 20
-1.488108663640087
 30
0.0
 11
-0.1175
 21
1.488108663640088
 31
0.0
  0
LINE
  5
196
330
13C
100
AcDbEntity
  8
AM_4
100
AcDbLine
 10
-0.8959999999999994
 20
0.3988614245040424
 30
0.0
 11
-0.1174999999999999
 21
0.3988614245040427
 31
0.0
  0
LWPOLYLINE
  5
197
330
13C
100
AcDbEntity
  8
AM_4
100
AcDbPolyline
 90
       11
 70
     0
 43
0.0
 10
-0.99
 20
-1.494033988764045
 10
-0.9898002471791912
 20
-1.499312574363653
 10
-0.9868009711156063
 20
-1.515113054290285
 10
-0.9797224396348964
 20
-1.531306713106428
 10
-0.9708468688318642
 20
-1.54385509485682
 10
-0.9589447251244436
 20
-1.555450759978958
 10
-0.9465552595679199
 20
-1.563959831619008
 10
-0.9322149205070607
 20
-1.570756984884301
 10
-0.9177216963815957
 20
-1.575045759471744
 10
-0.9021712779548718
 20
-1.57718144705929
 10
-0.8959999999999996
 20
-1.577366573033708
  0
LINE
  5
198
330
13C
100
AcDbEntity
  8
AM_4
100
AcDbLine
 10
-0.8959999999999994
 20
0.3988614245040424
 30
0.0
 11
-0.8959999999999996
 21
-1.577366573033708
 31
0.0
  0
LWPOLYLINE
  5
199
330
13C
100
AcDbEntity
  8
AM_4
100
AcDbPolyline
 90
        7
 70
     0
 43
0.0
 10
-0.8959999999999994
 20
0.3988614245040424
 10
-0.9099706031636143
 20
0.3978096939681082
 10
-0.9239412063272293
 20
0.3947100068778126
 10
-0.9366092863861974
 20
0.3902541178563941
 10
-0.9485596968574899
 20
0.3847607781787724
 10
-0.9594174603370007
 20
0.37881024503557
 10
-0.9691715263441493
 20
0.3727885682970028
  0
LWPOLYLINE
  5
19A
330
13C
100
AcDbEntity
  8
AM_4
100
AcDbPolyline
 90
        5
 70
     0
 43
0.0
 10
-0.9691715263441493
 20
0.3727885682970028
 10
-0.9781700361140655
 20
0.3658232863085615
 10
-0.9848770187071895
 20
0.3579718010450405
 10
-0.9886814122556392
 20
0.3501784177210041
 10
-0.9899999999999998
 20
0.3419751473730437
  0
ENDBLK
  5
13F
330
13C
100
AcDbEntity
  8
0
100
AcDbBlockEnd
  0
ENDSEC
  0
SECTION
  2
ENTITIES
  0
INSERT
  5
6F
330
1F
100
AcDbEntity
  8
0
100
AcDbBlockReference
  2
1_124649_2
 10
0.0
 20
0.0
 30
0.0
  0
POINT
  5
19C
330
1F
100
AcDbEntity
  8
ConnectionPoints
100
AcDbPoint
 10
-0.6433333333333332
 20
0.8224999999999999
 30
1.424611789225402
  0
POINT
  5
19D
330
1F
100
AcDbEntity
  8
ConnectionPoints
100
AcDbPoint
 10
-0.6433333333333332
 20
0.8124999999999999
 30
1.407291281149713
  0
POINT
  5
19E
330
1F
100
AcDbEntity
  8
ConnectionPoints
100
AcDbPoint
 10
-1.45
 20
0.0
 30
0.0000000000000001
  0
ENDSEC
  0
SECTION
  2
OBJECTS
  0
DICTIONARY
  5
C
330
0
100
AcDbDictionary
281
     1
  3
ACAD_DETAILVIEWSTYLE
350
1A6
  3
ACAD_GROUP
350
D
  3
ACAD_LAYOUT
350
1A
  3
ACAD_MATERIAL
350
43
  3
ACAD_MLEADERSTYLE
350
6B
  3
ACAD_MLINESTYLE
350
17
  3
ACAD_PLOTSETTINGS
350
19
  3
ACAD_PLOTSTYLENAME
350
E
  3
ACAD_SCALELIST
350
47
  3
ACAD_SECTIONVIEWSTYLE
350
1A7
  3
ACAD_TABLESTYLE
350
69
  3
ACAD_VISUALSTYLE
350
2A
  3
ACDB_RECOMPOSE_DATA
350
1A3
  3
AcDbVariableDictionary
350
19F
  0
SUN
  5
6D
330
29
100
AcDbSun
 90
        1
290
     0
 63
     7
421
 16777215
 40
1.0
291
     1
 91
  2455826
 92
 54000000
292
     0
 70
     2
 71
   256
280
     1
  0
DICTIONARY
  5
1A6
102
{ACAD_REACTORS
330
C
102
}
330
C
100
AcDbDictionary
281
     1
  0
DICTIONARY
  5
D
102
{ACAD_REACTORS
330
C
102
}
330
C
100
AcDbDictionary
281
     1
  0
DICTIONARY
  5
1A
102
{ACAD_REACTORS
330
C
102
}
330
C
100
AcDbDictionary
281
     1
  3
Layout1
350
1E
  3
Layout2
350
26
  3
Model
350
22
  0
DICTIONARY
  5
43
102
{ACAD_REACTORS
330
C
102
}
330
C
100
AcDbDictionary
281
     1
  3
ByBlock
350
45
  3
ByLayer
350
44
  3
Global
350
46
  0
DICTIONARY
  5
6B
102
{ACAD_REACTORS
330
C
102
}
330
C
100
AcDbDictionary
281
     1
  3
Standard
350
6C
  0
DICTIONARY
  5
17
102
{ACAD_REACTORS
330
C
102
}
330
C
100
AcDbDictionary
281
     1
  3
Standard
350
18
  0
DICTIONARY
  5
19
102
{ACAD_REACTORS
330
C
102
}
330
C
100
AcDbDictionary
281
     1
  0
ACDBDICTIONARYWDFLT
  5
E
102
{ACAD_REACTORS
330
C
102
}
330
C
100
AcDbDictionary
281
     1
  3
Normal
350
F
100
AcDbDictionaryWithDefault
340
F
  0
DICTIONARY
  5
47
102
{ACAD_REACTORS
330
C
102
}
330
C
100
AcDbDictionary
281
     1
  3
A0
350
48
  3
A1
350
49
  3
A2
350
4A
  3
A3
350
4B
  3
A4
350
4C
  3
A5
350
4D
  3
A6
350
4E
  3
A7
350
4F
  3
A8
350
50
  3
A9
350
51
  3
B0
350
52
  3
B1
350
53
  3
B2
350
54
  3
B3
350
55
  3
B4
350
56
  3
B5
350
57
  3
B6
350
58
  3
B7
350
59
  3
B8
350
5A
  3
B9
350
5B
  3
C0
350
5C
  3
C1
350
5D
  3
C2
350
5E
  3
C3
350
5F
  3
C4
350
60
  3
C5
350
61
  3
C6
350
62
  3
C7
350
63
  3
C8
350
64
  3
C9
350
65
  3
D0
350
66
  3
D1
350
67
  3
D2
350
68
  0
DICTIONARY
  5
1A7
102
{ACAD_REACTORS
330
C
102
}
330
C
100
AcDbDictionary
281
     1
  0
DICTIONARY
  5
69
102
{ACAD_REACTORS
330
C
102
}
330
C
100
AcDbDictionary
281
     1
  3
Standard
350
6A
  0
DICTIONARY
  5
2A
102
{ACAD_REACTORS
330
C
102
}
330
C
100
AcDbDictionary
281
     1
  3
2dWireframe
350
2F
  3
Basic
350
32
  3
Brighten
350
36
  3
ColorChange
350
3A
  3
Conceptual
350
34
  3
Dim
350
35
  3
EdgeColorOff
350
3D
  3
Facepattern
350
39
  3
Flat
350
2B
  3
FlatWithEdges
350
2C
  3
Gouraud
350
2D
  3
GouraudWithEdges
350
2E
  3
Hidden
350
31
  3
JitterOff
350
3B
  3
Linepattern
350
38
  3
OverhangOff
350
3C
  3
Realistic
350
33
  3
Shaded
350
42
  3
Shaded with edges
350
41
  3
Shades of Gray
350
3E
  3
Sketchy
350
3F
  3
Thicken
350
37
  3
Wireframe
350
30
  3
X-Ray
350
40
  0
XRECORD
  5
1A3
102
{ACAD_REACTORS
330
C
102
}
330
C
100
AcDbXrecord
280
     1
 90
        1
330
6A
  0
DICTIONARY
  5
19F
102
{ACAD_REACTORS
330
C
102
}
330
C
100
AcDbDictionary
281
     1
  3
CANNOSCALE
350
1A0
  3
CMLEADERSTYLE
350
1A5
  3
CTABLESTYLE
350
1A4
  0
LAYOUT
  5
1E
102
{ACAD_REACTORS
330
1A
102
}
330
1A
100
AcDbPlotSettings
  1

  2
none_device
  4

  6

 40
0.0
 41
0.0
 42
0.0
 43
0.0
 44
0.0
 45
0.0
 46
0.0
 47
0.0
 48
0.0
 49
0.0
140
0.0
141
0.0
142
1.0
143
1.0
 70
   688
 72
     0
 73
     0
 74
     5
  7

 75
    16
 76
     0
 77
     2
 78
   300
147
1.0
148
0.0
149
0.0
100
AcDbLayout
  1
Layout1
 70
     1
 71
     1
 10
0.0
 20
0.0
 11
12.0
 21
9.0
 12
0.0
 22
0.0
 32
0.0
 14
1.000000000000000E+20
 24
1.000000000000000E+20
 34
1.000000000000000E+20
 15
-1.000000000000000E+20
 25
-1.000000000000000E+20
 35
-1.000000000000000E+20
146
0.0
 13
0.0
 23
0.0
 33
0.0
 16
1.0
 26
0.0
 36
0.0
 17
0.0
 27
1.0
 37
0.0
 76
     0
330
1B
  0
LAYOUT
  5
26
102
{ACAD_REACTORS
330
1A
102
}
330
1A
100
AcDbPlotSettings
  1

  2
none_device
  4

  6

 40
0.0
 41
0.0
 42
0.0
 43
0.0
 44
0.0
 45
0.0
 46
0.0
 47
0.0
 48
0.0
 49
0.0
140
0.0
141
0.0
142
1.0
143
1.0
 70
   688
 72
     0
 73
     0
 74
     5
  7

 75
    16
 76
     0
 77
     2
 78
   300
147
1.0
148
0.0
149
0.0
100
AcDbLayout
  1
Layout2
 70
     1
 71
     2
 10
0.0
 20
0.0
 11
0.0
 21
0.0
 12
0.0
 22
0.0
 32
0.0
 14
0.0
 24
0.0
 34
0.0
 15
0.0
 25
0.0
 35
0.0
146
0.0
 13
0.0
 23
0.0
 33
0.0
 16
1.0
 26
0.0
 36
0.0
 17
0.0
 27
1.0
 37
0.0
 76
     0
330
23
  0
LAYOUT
  5
22
102
{ACAD_REACTORS
330
1A
102
}
330
1A
100
AcDbPlotSettings
  1

  2
none_device
  4
Letter_(8.50_x_11.00_Inches)
  6

 40
6.35
 41
6.35
 42
6.35000508
 43
6.35000508
 44
215.9
 45
279.4
 46
0.0
 47
0.0
 48
0.0
 49
0.0
140
0.0
141
0.0
142
1.0
143
1.0
 70
  1712
 72
     0
 73
     0
 74
     0
  7

 75
     0
 76
     0
 77
     2
 78
   300
147
1.0
148
0.0
149
0.0
100
AcDbLayout
  1
Model
 70
     1
 71
     0
 10
0.0
 20
0.0
 11
12.0
 21
9.0
 12
0.0
 22
0.0
 32
0.0
 14
1.000000000000000E+20
 24
1.000000000000000E+20
 34
1.000000000000000E+20
 15
-1.000000000000000E+20
 25
-1.000000000000000E+20
 35
-1.000000000000000E+20
146
0.0
 13
0.0
 23
0.0
 33
0.0
 16
1.0
 26
0.0
 36
0.0
 17
0.0
 27
1.0
 37
0.0
 76
     0
330
1F
331
29
  0
MATERIAL
  5
45
102
{ACAD_REACTORS
330
43
102
}
330
43
100
AcDbMaterial
  1
ByBlock
 72
     1
 94
      127
  0
MATERIAL
  5
44
102
{ACAD_REACTORS
330
43
102
}
330
43
100
AcDbMaterial
  1
ByLayer
 72
     1
 94
      127
  0
MATERIAL
  5
46
102
{ACAD_REACTORS
330
43
102
}
330
43
100
AcDbMaterial
  1
Global
 72
     1
 94
      127
  0
MLEADERSTYLE
  5
6C
102
{ACAD_REACTORS
330
6B
102
}
330
6B
100
AcDbMLeaderStyle
179
     2
170
     2
171
     1
172
     0
 90
        2
 40
0.0
 41
0.0
173
     1
 91
-1056964608
340
14
 92
       -2
290
     1
 42
0.09
291
     1
 43
0.36
  3
Standard
341
0
 44
0.18
300

342
11
174
     1
178
     6
175
     1
176
     0
 93
-1056964608
 45
0.18
292
     0
297
     0
 46
0.18
343
0
 94
-1056964608
 47
1.0
 49
1.0
140
1.0
293
     1
141
0.0
294
     1
177
     0
142
1.0
295
     0
296
     0
143
0.125
271
     0
272
     9
273
     9
298
     0
  0
MLINESTYLE
  5
18
102
{ACAD_REACTORS
330
17
102
}
330
17
100
AcDbMlineStyle
  2
Standard
 70
     0
  3

 62
   256
 51
90.0
 52
90.0
 71
     2
 49
0.5
 62
   256
  6
BYLAYER
 49
-0.5
 62
   256
  6
BYLAYER
  0
ACDBPLACEHOLDER
  5
F
102
{ACAD_REACTORS
330
E
102
}
330
E
  0
SCALE
  5
48
102
{ACAD_REACTORS
330
47
102
}
330
47
100
AcDbScale
 70
     0
300
1:1
140
1.0
141
1.0
290
     1
  0
SCALE
  5
49
102
{ACAD_REACTORS
330
47
102
}
330
47
100
AcDbScale
 70
     0
300
1:2
140
1.0
141
2.0
290
     0
  0
SCALE
  5
4A
102
{ACAD_REACTORS
330
47
102
}
330
47
100
AcDbScale
 70
     0
300
1:4
140
1.0
141
4.0
290
     0
  0
SCALE
  5
4B
102
{ACAD_REACTORS
330
47
102
}
330
47
100
AcDbScale
 70
     0
300
1:5
140
1.0
141
5.0
290
     0
  0
SCALE
  5
4C
102
{ACAD_REACTORS
330
47
102
}
330
47
100
AcDbScale
 70
     0
300
1:8
140
1.0
141
8.0
290
     0
  0
SCALE
  5
4D
102
{ACAD_REACTORS
330
47
102
}
330
47
100
AcDbScale
 70
     0
300
1:10
140
1.0
141
10.0
290
     0
  0
SCALE
  5
4E
102
{ACAD_REACTORS
330
47
102
}
330
47
100
AcDbScale
 70
     0
300
1:16
140
1.0
141
16.0
290
     0
  0
SCALE
  5
4F
102
{ACAD_REACTORS
330
47
102
}
330
47
100
AcDbScale
 70
     0
300
1:20
140
1.0
141
20.0
290
     0
  0
SCALE
  5
50
102
{ACAD_REACTORS
330
47
102
}
330
47
100
AcDbScale
 70
     0
300
1:30
140
1.0
141
30.0
290
     0
  0
SCALE
  5
51
102
{ACAD_REACTORS
330
47
102
}
330
47
100
AcDbScale
 70
     0
300
1:40
140
1.0
141
40.0
290
     0
  0
SCALE
  5
52
102
{ACAD_REACTORS
330
47
102
}
330
47
100
AcDbScale
 70
     0
300
1:50
140
1.0
141
50.0
290
     0
  0
SCALE
  5
53
102
{ACAD_REACTORS
330
47
102
}
330
47
100
AcDbScale
 70
     0
300
1:100
140
1.0
141
100.0
290
     0
  0
SCALE
  5
54
102
{ACAD_REACTORS
330
47
102
}
330
47
100
AcDbScale
 70
     0
300
2:1
140
2.0
141
1.0
290
     0
  0
SCALE
  5
55
102
{ACAD_REACTORS
330
47
102
}
330
47
100
AcDbScale
 70
     0
300
4:1
140
4.0
141
1.0
290
     0
  0
SCALE
  5
56
102
{ACAD_REACTORS
330
47
102
}
330
47
100
AcDbScale
 70
     0
300
8:1
140
8.0
141
1.0
290
     0
  0
SCALE
  5
57
102
{ACAD_REACTORS
330
47
102
}
330
47
100
AcDbScale
 70
     0
300
10:1
140
10.0
141
1.0
290
     0
  0
SCALE
  5
58
102
{ACAD_REACTORS
330
47
102
}
330
47
100
AcDbScale
 70
     0
300
100:1
140
100.0
141
1.0
290
     0
  0
SCALE
  5
59
102
{ACAD_REACTORS
330
47
102
}
330
47
100
AcDbScale
 70
     0
300
1/128" = 1'-0"
140
0.0078125
141
12.0
290
     0
  0
SCALE
  5
5A
102
{ACAD_REACTORS
330
47
102
}
330
47
100
AcDbScale
 70
     0
300
1/64" = 1'-0"
140
0.015625
141
12.0
290
     0
  0
SCALE
  5
5B
102
{ACAD_REACTORS
330
47
102
}
330
47
100
AcDbScale
 70
     0
300
1/32" = 1'-0"
140
0.03125
141
12.0
290
     0
  0
SCALE
  5
5C
102
{ACAD_REACTORS
330
47
102
}
330
47
100
AcDbScale
 70
     0
300
1/16" = 1'-0"
140
0.0625
141
12.0
290
     0
  0
SCALE
  5
5D
102
{ACAD_REACTORS
330
47
102
}
330
47
100
AcDbScale
 70
     0
300
3/32" = 1'-0"
140
0.09375
141
12.0
290
     0
  0
SCALE
  5
5E
102
{ACAD_REACTORS
330
47
102
}
330
47
100
AcDbScale
 70
     0
300
1/8" = 1'-0"
140
0.125
141
12.0
290
     0
  0
SCALE
  5
5F
102
{ACAD_REACTORS
330
47
102
}
330
47
100
AcDbScale
 70
     0
300
3/16" = 1'-0"
140
0.1875
141
12.0
290
     0
  0
SCALE
  5
60
102
{ACAD_REACTORS
330
47
102
}
330
47
100
AcDbScale
 70
     0
300
1/4" = 1'-0"
140
0.25
141
12.0
290
     0
  0
SCALE
  5
61
102
{ACAD_REACTORS
330
47
102
}
330
47
100
AcDbScale
 70
     0
300
3/8" = 1'-0"
140
0.375
141
12.0
290
     0
  0
SCALE
  5
62
102
{ACAD_REACTORS
330
47
102
}
330
47
100
AcDbScale
 70
     0
300
1/2" = 1'-0"
140
0.5
141
12.0
290
     0
  0
SCALE
  5
63
102
{ACAD_REACTORS
330
47
102
}
330
47
100
AcDbScale
 70
     0
300
3/4" = 1'-0"
140
0.75
141
12.0
290
     0
  0
SCALE
  5
64
102
{ACAD_REACTORS
330
47
102
}
330
47
100
AcDbScale
 70
     0
300
1" = 1'-0"
140
1.0
141
12.0
290
     0
  0
SCALE
  5
65
102
{ACAD_REACTORS
330
47
102
}
330
47
100
AcDbScale
 70
     0
300
1-1/2" = 1'-0"
140
1.5
141
12.0
290
     0
  0
SCALE
  5
66
102
{ACAD_REACTORS
330
47
102
}
330
47
100
AcDbScale
 70
     0
300
3" = 1'-0"
140
3.0
141
12.0
290
     0
  0
SCALE
  5
67
102
{ACAD_REACTORS
330
47
102
}
330
47
100
AcDbScale
 70
     0
300
6" = 1'-0"
140
6.0
141
12.0
290
     0
  0
SCALE
  5
68
102
{ACAD_REACTORS
330
47
102
}
330
47
100
AcDbScale
 70
     0
300
1'-0" = 1'-0"
140
12.0
141
12.0
290
     0
  0
TABLESTYLE
  5
6A
102
{ACAD_REACTORS
330
69
102
}
102
{ACAD_XDICTIONARY
360
1A1
102
}
330
69
100
AcDbTableStyle
  3
Standard
 70
     0
 71
     0
 40
0.06
 41
0.06
280
     0
281
     0
  7
Standard
140
0.18
170
     2
 62
     0
 63
   257
283
     0
 90
        4
 91
        0
  1

274
    -2
284
     1
 64
     0
275
    -2
285
     1
 65
     0
276
    -2
286
     1
 66
     0
277
    -2
287
     1
 67
     0
278
    -2
288
     1
 68
     0
279
    -2
289
     1
 69
     0
  7
Standard
140
0.25
170
     5
 62
     0
 63
   257
283
     0
 90
        4
 91
        0
  1

274
    -2
284
     1
 64
     0
275
    -2
285
     1
 65
     0
276
    -2
286
     1
 66
     0
277
    -2
287
     1
 67
     0
278
    -2
288
     1
 68
     0
279
    -2
289
     1
 69
     0
  7
Standard
140
0.18
170
     5
 62
     0
 63
   257
283
     0
 90
        4
 91
        0
  1

274
    -2
284
     1
 64
     0
275
    -2
285
     1
 65
     0
276
    -2
286
     1
 66
     0
277
    -2
287
     1
 67
     0
278
    -2
288
     1
 68
     0
279
    -2
289
     1
 69
     0
  0
VISUALSTYLE
  5
2F
102
{ACAD_REACTORS
330
2A
102
}
330
2A
100
AcDbVisualStyle
  2
2dWireframe
 70
     4
177
     3
291
     0
 70
    58
 90
        0
176
     1
 90
        2
176
     1
 90
        0
176
     1
 90
        0
176
     1
 40
0.6
176
     1
 40
30.0
176
     1
 62
     7
420
 16777215
176
     1
 90
        1
176
     1
 90
        4
176
     1
 62
     7
176
     1
 62
   257
176
     1
 90
        1
176
     1
 90
        1
176
     1
 40
1.0
176
     1
 90
        0
176
     1
 62
   257
176
     1
 40
1.0
176
     1
 90
        1
176
     1
 90
        6
176
     1
 90
        2
176
     1
 62
     7
176
     1
 90
        5
176
     1
 90
        0
176
     1
 90
        0
176
     1
290
     0
176
     1
 90
        1
176
     1
 40
0.0
176
     1
 90
        0
176
     1
290
     1
176
     1
290
     1
176
     1
290
     0
176
     1
290
     0
176
     1
290
     0
176
     1
290
     0
176
     1
290
     0
176
     1
290
     0
176
     1
290
     0
176
     1
 90
       50
176
     1
 40
0.0
176
     1
 40
1.0
176
     1
 90
        0
176
     1
 62
    18
420
        0
176
     1
 90
       50
176
     1
 90
        3
176
     1
 62
     5
420
      255
176
     1
290
     0
176
     1
 90
       50
176
     1
 90
       50
176
     1
 90
       50
176
     1
290
     0
176
     1
 90
       50
176
     1
 62
   256
176
     0
 40
1.0
176
     0
 90
        2
176
     1
  1
strokes_ogs.tif
176
     1
290
     0
176
     1
 40
1.0
176
     1
 40
1.0
176
     1
  0
VISUALSTYLE
  5
32
102
{ACAD_REACTORS
330
2A
102
}
330
2A
100
AcDbVisualStyle
  2
Basic
 70
     7
177
     3
291
     1
 70
    58
 90
        1
176
     1
 90
        0
176
     1
 90
        1
176
     1
 90
        0
176
     1
 40
0.6
176
     1
 40
30.0
176
     1
 62
     7
420
 16777215
176
     1
 90
        0
176
     1
 90
        4
176
     1
 62
     7
176
     1
 62
   257
176
     1
 90
        1
176
     1
 90
        1
176
     1
 40
1.0
176
     1
 90
        8
176
     1
 62
     7
176
     1
 40
1.0
176
     1
 90
        1
176
     1
 90
        6
176
     1
 90
        2
176
     1
 62
     7
176
     1
 90
        5
176
     1
 90
        0
176
     1
 90
        0
176
     1
290
     0
176
     1
 90
        1
176
     1
 40
0.0
176
     1
 90
        0
176
     1
290
     0
176
     1
290
     1
176
     1
290
     1
176
     1
290
     0
176
     1
290
     0
176
     1
290
     0
176
     1
290
     0
176
     1
290
     0
176
     1
290
     0
176
     1
 90
       50
176
     1
 40
0.0
176
     1
 40
1.0
176
     1
 90
        0
176
     1
 62
    18
420
        0
176
     1
 90
       50
176
     1
 90
        3
176
     1
 62
     5
420
      255
176
     1
290
     0
176
     1
 90
       50
176
     1
 90
       50
176
     1
 90
       50
176
     1
290
     0
176
     1
 90
       50
176
     1
 62
   256
176
     0
 40
1.0
176
     0
 90
        2
176
     1
  1
strokes_ogs.tif
176
     1
290
     0
176
     1
 40
1.0
176
     1
 40
1.0
176
     1
  0
VISUALSTYLE
  5
36
102
{ACAD_REACTORS
330
2A
102
}
330
2A
100
AcDbVisualStyle
  2
Brighten
 70
    12
177
     3
291
     1
 70
    58
 90
        2
176
     1
 90
        2
176
     1
 90
        0
176
     1
 90
        0
176
     1
 40
0.6
176
     1
 40
30.0
176
     1
 62
     7
420
 16777215
176
     1
 90
        1
176
     1
 90
        4
176
     1
 62
     7
176
     1
 62
   257
176
     1
 90
        1
176
     1
 90
        1
176
     1
 40
1.0
176
     1
 90
        8
176
     1
 62
     7
176
     1
 40
1.0
176
     1
 90
        1
176
     1
 90
        6
176
     1
 90
        2
176
     1
 62
     7
176
     1
 90
        5
176
     1
 90
        0
176
     1
 90
        0
176
     1
290
     0
176
     1
 90
        1
176
     1
 40
50.0
176
     1
 90
        0
176
     1
290
     0
176
     1
290
     1
176
     1
290
     1
176
     1
290
     0
176
     1
290
     0
176
     1
290
     0
176
     1
290
     0
176
     1
290
     0
176
     1
290
     0
176
     1
 90
       50
176
     1
 40
0.0
176
     1
 40
1.0
176
     1
 90
        0
176
     1
 62
    18
420
        0
176
     1
 90
       50
176
     1
 90
        3
176
     1
 62
     5
420
      255
176
     1
290
     0
176
     1
 90
       50
176
     1
 90
       50
176
     1
 90
       50
176
     1
290
     0
176
     1
 90
       50
176
     1
 62
   256
176
     0
 40
1.0
176
     0
 90
        2
176
     1
  1
strokes_ogs.tif
176
     1
290
     0
176
     1
 40
1.0
176
     1
 40
1.0
176
     1
  0
VISUALSTYLE
  5
3A
102
{ACAD_REACTORS
330
2A
102
}
330
2A
100
AcDbVisualStyle
  2
ColorChange
 70
    16
177
     3
291
     1
 70
    58
 90
        2
176
     1
 90
        2
176
     1
 90
        3
176
     1
 90
        0
176
     1
 40
0.6
176
     1
 40
30.0
176
     1
 62
     8
420
  8421504
176
     1
 90
        1
176
     1
 90
        4
176
     1
 62
     7
176
     1
 62
   257
176
     1
 90
        1
176
     1
 90
        1
176
     1
 40
1.0
176
     1
 90
        8
176
     1
 62
     8
420
  8421504
176
     1
 40
1.0
176
     1
 90
        1
176
     1
 90
        6
176
     1
 90
        2
176
     1
 62
     7
176
     1
 90
        5
176
     1
 90
        0
176
     1
 90
        0
176
     1
290
     0
176
     1
 90
        1
176
     1
 40
0.0
176
     1
 90
        0
176
     1
290
     0
176
     1
290
     1
176
     1
290
     1
176
     1
290
     0
176
     1
290
     0
176
     1
290
     0
176
     1
290
     0
176
     1
290
     0
176
     1
290
     0
176
     1
 90
       50
176
     1
 40
0.0
176
     1
 40
1.0
176
     1
 90
        0
176
     1
 62
    18
420
        0
176
     1
 90
       50
176
     1
 90
        3
176
     1
 62
     5
420
      255
176
     1
290
     0
176
     1
 90
       50
176
     1
 90
       50
176
     1
 90
       50
176
     1
290
     0
176
     1
 90
       50
176
     1
 62
   256
176
     0
 40
1.0
176
     0
 90
        2
176
     1
  1
strokes_ogs.tif
176
     1
290
     0
176
     1
 40
1.0
176
     1
 40
1.0
176
     1
  0
VISUALSTYLE
  5
34
102
{ACAD_REACTORS
330
2A
102
}
330
2A
100
AcDbVisualStyle
  2
Conceptual
 70
     9
177
     3
291
     0
 70
    58
 90
        3
176
     1
 90
        2
176
     1
 90
        0
176
     1
 90
        0
176
     1
 40
0.6
176
     1
 40
30.0
176
     1
 62
     7
420
 16777215
176
     1
 90
        2
176
     1
 90
        2
176
     1
 62
     7
176
     1
 62
   257
176
     1
 90
        1
176
     1
 90
        1
176
     1
 40
179.0
176
     1
 90
        8
176
     1
 62
     7
176
     1
 40
1.0
176
     1
 90
        1
176
     1
 90
        6
176
     1
 90
        2
176
     1
 62
     7
176
     1
 90
        3
176
     1
 90
        0
176
     1
 90
        0
176
     1
290
     0
176
     1
 90
        1
176
     1
 40
0.0
176
     1
 90
        0
176
     1
290
     0
176
     1
290
     1
176
     1
290
     1
176
     1
290
     0
176
     1
290
     0
176
     1
290
     0
176
     1
290
     0
176
     1
290
     0
176
     1
290
     0
176
     1
 90
       50
176
     1
 40
0.0
176
     1
 40
1.0
176
     1
 90
        0
176
     1
 62
    18
420
        0
176
     1
 90
       50
176
     1
 90
        3
176
     1
 62
     5
420
      255
176
     1
290
     0
176
     1
 90
       50
176
     1
 90
       50
176
     1
 90
       50
176
     1
290
     0
176
     1
 90
       50
176
     1
 62
   256
176
     0
 40
1.0
176
     0
 90
        2
176
     1
  1
strokes_ogs.tif
176
     1
290
     0
176
     1
 40
1.0
176
     1
 40
1.0
176
     1
  0
VISUALSTYLE
  5
35
102
{ACAD_REACTORS
330
2A
102
}
330
2A
100
AcDbVisualStyle
  2
Dim
 70
    11
177
     3
291
     1
 70
    58
 90
        2
176
     1
 90
        2
176
     1
 90
        0
176
     1
 90
        0
176
     1
 40
0.6
176
     1
 40
30.0
176
     1
 62
     7
420
 16777215
176
     1
 90
        1
176
     1
 90
        4
176
     1
 62
     7
176
     1
 62
   257
176
     1
 90
        1
176
     1
 90
        1
176
     1
 40
1.0
176
     1
 90
        8
176
     1
 62
     7
176
     1
 40
1.0
176
     1
 90
        1
176
     1
 90
        6
176
     1
 90
        2
176
     1
 62
     7
176
     1
 90
        5
176
     1
 90
        0
176
     1
 90
        0
176
     1
290
     0
176
     1
 90
        1
176
     1
 40
-50.0
176
     1
 90
        0
176
     1
290
     0
176
     1
290
     1
176
     1
290
     1
176
     1
290
     0
176
     1
290
     0
176
     1
290
     0
176
     1
290
     0
176
     1
290
     0
176
     1
290
     0
176
     1
 90
       50
176
     1
 40
0.0
176
     1
 40
1.0
176
     1
 90
        0
176
     1
 62
    18
420
        0
176
     1
 90
       50
176
     1
 90
        3
176
     1
 62
     5
420
      255
176
     1
290
     0
176
     1
 90
       50
176
     1
 90
       50
176
     1
 90
       50
176
     1
290
     0
176
     1
 90
       50
176
     1
 62
   256
176
     0
 40
1.0
176
     0
 90
        2
176
     1
  1
strokes_ogs.tif
176
     1
290
     0
176
     1
 40
1.0
176
     1
 40
1.0
176
     1
  0
VISUALSTYLE
  5
3D
102
{ACAD_REACTORS
330
2A
102
}
330
2A
100
AcDbVisualStyle
  2
EdgeColorOff
 70
    22
177
     3
291
     1
 70
    58
 90
        2
176
     0
 90
        2
176
     0
 90
        0
176
     0
 90
        0
176
     0
 40
0.6
176
     0
 40
30.0
176
     0
 62
     7
420
 16777215
176
     0
 90
        1
176
     0
 90
        4
176
     0
 62
     7
176
     0
 62
   257
176
     0
 90
        1
176
     0
 90
        1
176
     0
 40
1.0
176
     0
 90
        8
176
     2
 62
     7
176
     0
 40
1.0
176
     0
 90
        1
176
     0
 90
        6
176
     0
 90
        2
176
     0
 62
     7
176
     0
 90
        5
176
     0
 90
        0
176
     0
 90
        0
176
     0
290
     0
176
     0
 90
        1
176
     0
 40
0.0
176
     0
 90
        0
176
     0
290
     0
176
     0
290
     1
176
     0
290
     1
176
     0
290
     0
176
     0
290
     0
176
     0
290
     0
176
     0
290
     0
176
     0
290
     0
176
     0
290
     0
176
     0
 90
       50
176
     0
 40
0.0
176
     0
 40
1.0
176
     0
 90
        0
176
     0
 62
    18
420
        0
176
     0
 90
       50
176
     0
 90
        3
176
     0
 62
     5
420
      255
176
     0
290
     0
176
     0
 90
       50
176
     0
 90
       50
176
     0
 90
       50
176
     0
290
     0
176
     0
 90
       50
176
     0
 62
   256
176
     0
 40
1.0
176
     0
 90
        2
176
     0
  1
strokes_ogs.tif
176
     0
290
     0
176
     0
 40
1.0
176
     0
 40
1.0
176
     0
  0
VISUALSTYLE
  5
39
102
{ACAD_REACTORS
330
2A
102
}
330
2A
100
AcDbVisualStyle
  2
Facepattern
 70
    15
177
     3
291
     1
 70
    58
 90
        2
176
     1
 90
        2
176
     1
 90
        0
176
     1
 90
        0
176
     1
 40
0.6
176
     1
 40
30.0
176
     1
 62
     7
420
 16777215
176
     1
 90
        1
176
     1
 90
        4
176
     1
 62
     7
176
     1
 62
   257
176
     1
 90
        1
176
     1
 90
        1
176
     1
 40
1.0
176
     1
 90
        8
176
     1
 62
     7
176
     1
 40
1.0
176
     1
 90
        1
176
     1
 90
        6
176
     1
 90
        2
176
     1
 62
     7
176
     1
 90
        5
176
     1
 90
        0
176
     1
 90
        0
176
     1
290
     0
176
     1
 90
        1
176
     1
 40
0.0
176
     1
 90
        0
176
     1
290
     0
176
     1
290
     1
176
     1
290
     1
176
     1
290
     0
176
     1
290
     0
176
     1
290
     0
176
     1
290
     0
176
     1
290
     0
176
     1
290
     0
176
     1
 90
       50
176
     1
 40
0.0
176
     1
 40
1.0
176
     1
 90
        0
176
     1
 62
    18
420
        0
176
     1
 90
       50
176
     1
 90
        3
176
     1
 62
     5
420
      255
176
     1
290
     0
176
     1
 90
       50
176
     1
 90
       50
176
     1
 90
       50
176
     1
290
     0
176
     1
 90
       50
176
     1
 62
   256
176
     0
 40
1.0
176
     0
 90
        2
176
     1
  1
strokes_ogs.tif
176
     1
290
     0
176
     1
 40
1.0
176
     1
 40
1.0
176
     1
  0
VISUALSTYLE
  5
2B
102
{ACAD_REACTORS
330
2A
102
}
330
2A
100
AcDbVisualStyle
  2
Flat
 70
     0
177
     3
291
     1
 70
    58
 90
        2
176
     1
 90
        1
176
     1
 90
        1
176
     1
 90
        2
176
     1
 40
0.6
176
     1
 40
30.0
176
     1
 62
     7
420
 16777215
176
     1
 90
        0
176
     1
 90
        0
176
     1
 62
     7
176
     1
 62
   257
176
     1
 90
        1
176
     1
 90
        1
176
     1
 40
1.0
176
     1
 90
        8
176
     1
 62
     7
176
     1
 40
1.0
176
     1
 90
        1
176
     1
 90
        6
176
     1
 90
        2
176
     1
 62
     7
176
     1
 90
        5
176
     1
 90
        0
176
     1
 90
        0
176
     1
290
     0
176
     1
 90
       13
176
     1
 40
0.0
176
     1
 90
        0
176
     1
290
     0
176
     1
290
     1
176
     1
290
     1
176
     1
290
     0
176
     1
290
     0
176
     1
290
     0
176
     1
290
     0
176
     1
290
     0
176
     1
290
     0
176
     1
 90
       50
176
     1
 40
0.0
176
     1
 40
1.0
176
     1
 90
        0
176
     1
 62
    18
420
        0
176
     1
 90
       50
176
     1
 90
        3
176
     1
 62
     5
420
      255
176
     1
290
     0
176
     1
 90
       50
176
     1
 90
       50
176
     1
 90
       50
176
     1
290
     0
176
     1
 90
       50
176
     1
 62
   256
176
     0
 40
1.0
176
     0
 90
        2
176
     1
  1
strokes_ogs.tif
176
     1
290
     0
176
     1
 40
1.0
176
     1
 40
1.0
176
     1
  0
VISUALSTYLE
  5
2C
102
{ACAD_REACTORS
330
2A
102
}
330
2A
100
AcDbVisualStyle
  2
FlatWithEdges
 70
     1
177
     3
291
     1
 70
    58
 90
        2
176
     1
 90
        1
176
     1
 90
        1
176
     1
 90
        2
176
     1
 40
0.6
176
     1
 40
30.0
176
     1
 62
     7
420
 16777215
176
     1
 90
        1
176
     1
 90
        0
176
     1
 62
     7
176
     1
 62
   257
176
     1
 90
        1
176
     1
 90
        1
176
     1
 40
1.0
176
     1
 90
        0
176
     1
 62
   257
176
     1
 40
1.0
176
     1
 90
        1
176
     1
 90
        6
176
     1
 90
        2
176
     1
 62
     7
176
     1
 90
        5
176
     1
 90
        0
176
     1
 90
        0
176
     1
290
     0
176
     1
 90
       13
176
     1
 40
0.0
176
     1
 90
        0
176
     1
290
     0
176
     1
290
     1
176
     1
290
     1
176
     1
290
     0
176
     1
290
     0
176
     1
290
     0
176
     1
290
     0
176
     1
290
     0
176
     1
290
     0
176
     1
 90
       50
176
     1
 40
0.0
176
     1
 40
1.0
176
     1
 90
        0
176
     1
 62
    18
420
        0
176
     1
 90
       50
176
     1
 90
        3
176
     1
 62
     5
420
      255
176
     1
290
     0
176
     1
 90
       50
176
     1
 90
       50
176
     1
 90
       50
176
     1
290
     0
176
     1
 90
       50
176
     1
 62
   256
176
     0
 40
1.0
176
     0
 90
        2
176
     1
  1
strokes_ogs.tif
176
     1
290
     0
176
     1
 40
1.0
176
     1
 40
1.0
176
     1
  0
VISUALSTYLE
  5
2D
102
{ACAD_REACTORS
330
2A
102
}
330
2A
100
AcDbVisualStyle
  2
Gouraud
 70
     2
177
     3
291
     1
 70
    58
 90
        2
176
     1
 90
        2
176
     1
 90
        1
176
     1
 90
        2
176
     1
 40
0.6
176
     1
 40
30.0
176
     1
 62
     7
420
 16777215
176
     1
 90
        0
176
     1
 90
        0
176
     1
 62
     7
176
     1
 62
   257
176
     1
 90
        1
176
     1
 90
        1
176
     1
 40
1.0
176
     1
 90
        0
176
     1
 62
     7
176
     1
 40
1.0
176
     1
 90
        1
176
     1
 90
        6
176
     1
 90
        2
176
     1
 62
     7
176
     1
 90
        5
176
     1
 90
        0
176
     1
 90
        0
176
     1
290
     0
176
     1
 90
       13
176
     1
 40
0.0
176
     1
 90
        0
176
     1
290
     0
176
     1
290
     1
176
     1
290
     1
176
     1
290
     0
176
     1
290
     0
176
     1
290
     0
176
     1
290
     0
176
     1
290
     0
176
     1
290
     0
176
     1
 90
       50
176
     1
 40
0.0
176
     1
 40
1.0
176
     1
 90
        0
176
     1
 62
    18
420
        0
176
     1
 90
       50
176
     1
 90
        3
176
     1
 62
     5
420
      255
176
     1
290
     0
176
     1
 90
       50
176
     1
 90
       50
176
     1
 90
       50
176
     1
290
     0
176
     1
 90
       50
176
     1
 62
   256
176
     0
 40
1.0
176
     0
 90
        2
176
     1
  1
strokes_ogs.tif
176
     1
290
     0
176
     1
 40
1.0
176
     1
 40
1.0
176
     1
  0
VISUALSTYLE
  5
2E
102
{ACAD_REACTORS
330
2A
102
}
330
2A
100
AcDbVisualStyle
  2
GouraudWithEdges
 70
     3
177
     3
291
     1
 70
    58
 90
        2
176
     1
 90
        2
176
     1
 90
        1
176
     1
 90
        2
176
     1
 40
0.6
176
     1
 40
30.0
176
     1
 62
     7
420
 16777215
176
     1
 90
        1
176
     1
 90
        0
176
     1
 62
     7
176
     1
 62
   257
176
     1
 90
        1
176
     1
 90
        1
176
     1
 40
1.0
176
     1
 90
        0
176
     1
 62
   257
176
     1
 40
1.0
176
     1
 90
        1
176
     1
 90
        6
176
     1
 90
        2
176
     1
 62
     7
176
     1
 90
        5
176
     1
 90
        0
176
     1
 90
        0
176
     1
290
     0
176
     1
 90
       13
176
     1
 40
0.0
176
     1
 90
        0
176
     1
290
     0
176
     1
290
     1
176
     1
290
     1
176
     1
290
     0
176
     1
290
     0
176
     1
290
     0
176
     1
290
     0
176
     1
290
     0
176
     1
290
     0
176
     1
 90
       50
176
     1
 40
0.0
176
     1
 40
1.0
176
     1
 90
        0
176
     1
 62
    18
420
        0
176
     1
 90
       50
176
     1
 90
        3
176
     1
 62
     5
420
      255
176
     1
290
     0
176
     1
 90
       50
176
     1
 90
       50
176
     1
 90
       50
176
     1
290
     0
176
     1
 90
       50
176
     1
 62
   256
176
     0
 40
1.0
176
     0
 90
        2
176
     1
  1
strokes_ogs.tif
176
     1
290
     0
176
     1
 40
1.0
176
     1
 40
1.0
176
     1
  0
VISUALSTYLE
  5
31
102
{ACAD_REACTORS
330
2A
102
}
330
2A
100
AcDbVisualStyle
  2
Hidden
 70
     6
177
     3
291
     0
 70
    58
 90
        1
176
     1
 90
        2
176
     1
 90
        2
176
     1
 90
        0
176
     1
 40
0.6
176
     1
 40
30.0
176
     1
 62
     7
420
 16777215
176
     1
 90
        2
176
     1
 90
        2
176
     1
 62
     7
176
     1
 62
   257
176
     1
 90
        2
176
     1
 90
        1
176
     1
 40
40.0
176
     1
 90
        0
176
     1
 62
   257
176
     1
 40
1.0
176
     1
 90
        1
176
     1
 90
        6
176
     1
 90
        2
176
     1
 62
     7
176
     1
 90
        3
176
     1
 90
        0
176
     1
 90
        0
176
     1
290
     0
176
     1
 90
        1
176
     1
 40
0.0
176
     1
 90
        0
176
     1
290
     0
176
     1
290
     1
176
     1
290
     1
176
     1
290
     0
176
     1
290
     0
176
     1
290
     0
176
     1
290
     0
176
     1
290
     0
176
     1
290
     0
176
     1
 90
       50
176
     1
 40
0.0
176
     1
 40
1.0
176
     1
 90
        0
176
     1
 62
    18
420
        0
176
     1
 90
       50
176
     1
 90
        3
176
     1
 62
     5
420
      255
176
     1
290
     0
176
     1
 90
       50
176
     1
 90
       50
176
     1
 90
       50
176
     1
290
     0
176
     1
 90
       50
176
     1
 62
   256
176
     0
 40
1.0
176
     0
 90
        2
176
     1
  1
strokes_ogs.tif
176
     1
290
     0
176
     1
 40
1.0
176
     1
 40
1.0
176
     1
  0
VISUALSTYLE
  5
3B
102
{ACAD_REACTORS
330
2A
102
}
330
2A
100
AcDbVisualStyle
  2
JitterOff
 70
    20
177
     3
291
     1
 70
    58
 90
        2
176
     0
 90
        2
176
     0
 90
        0
176
     0
 90
        0
176
     0
 40
0.6
176
     0
 40
30.0
176
     0
 62
     7
420
 16777215
176
     0
 90
        1
176
     0
 90
        4
176
     0
 62
     7
176
     0
 62
   257
176
     0
 90
        1
176
     0
 90
        1
176
     0
 40
1.0
176
     0
 90
       10
176
     2
 62
     7
176
     0
 40
1.0
176
     0
 90
        1
176
     0
 90
        6
176
     0
 90
        2
176
     0
 62
     7
176
     0
 90
        5
176
     0
 90
        0
176
     0
 90
        0
176
     0
290
     0
176
     0
 90
        1
176
     0
 40
0.0
176
     0
 90
        0
176
     0
290
     0
176
     0
290
     1
176
     0
290
     1
176
     0
290
     0
176
     0
290
     0
176
     0
290
     0
176
     0
290
     0
176
     0
290
     0
176
     0
290
     0
176
     0
 90
       50
176
     0
 40
0.0
176
     0
 40
1.0
176
     0
 90
        0
176
     0
 62
    18
420
        0
176
     0
 90
       50
176
     0
 90
        3
176
     0
 62
     5
420
      255
176
     0
290
     0
176
     0
 90
       50
176
     0
 90
       50
176
     0
 90
       50
176
     0
290
     0
176
     0
 90
       50
176
     0
 62
   256
176
     0
 40
1.0
176
     0
 90
        2
176
     0
  1
strokes_ogs.tif
176
     0
290
     0
176
     0
 40
1.0
176
     0
 40
1.0
176
     0
  0
VISUALSTYLE
  5
38
102
{ACAD_REACTORS
330
2A
102
}
330
2A
100
AcDbVisualStyle
  2
Linepattern
 70
    14
177
     3
291
     1
 70
    58
 90
        2
176
     1
 90
        2
176
     1
 90
        0
176
     1
 90
        0
176
     1
 40
0.6
176
     1
 40
30.0
176
     1
 62
     7
420
 16777215
176
     1
 90
        1
176
     1
 90
        4
176
     1
 62
     7
176
     1
 62
   257
176
     1
 90
        7
176
     1
 90
        7
176
     1
 40
1.0
176
     1
 90
        8
176
     1
 62
     7
176
     1
 40
1.0
176
     1
 90
        1
176
     1
 90
        6
176
     1
 90
        2
176
     1
 62
     7
176
     1
 90
        5
176
     1
 90
        0
176
     1
 90
        0
176
     1
290
     0
176
     1
 90
        1
176
     1
 40
0.0
176
     1
 90
        0
176
     1
290
     0
176
     1
290
     1
176
     1
290
     1
176
     1
290
     0
176
     1
290
     0
176
     1
290
     0
176
     1
290
     0
176
     1
290
     0
176
     1
290
     0
176
     1
 90
       50
176
     1
 40
0.0
176
     1
 40
1.0
176
     1
 90
        0
176
     1
 62
    18
420
        0
176
     1
 90
       50
176
     1
 90
        3
176
     1
 62
     5
420
      255
176
     1
290
     0
176
     1
 90
       50
176
     1
 90
       50
176
     1
 90
       50
176
     1
290
     0
176
     1
 90
       50
176
     1
 62
   256
176
     0
 40
1.0
176
     0
 90
        2
176
     1
  1
strokes_ogs.tif
176
     1
290
     0
176
     1
 40
1.0
176
     1
 40
1.0
176
     1
  0
VISUALSTYLE
  5
3C
102
{ACAD_REACTORS
330
2A
102
}
330
2A
100
AcDbVisualStyle
  2
OverhangOff
 70
    21
177
     3
291
     1
 70
    58
 90
        2
176
     0
 90
        2
176
     0
 90
        0
176
     0
 90
        0
176
     0
 40
0.6
176
     0
 40
30.0
176
     0
 62
     7
420
 16777215
176
     0
 90
        1
176
     0
 90
        4
176
     0
 62
     7
176
     0
 62
   257
176
     0
 90
        1
176
     0
 90
        1
176
     0
 40
1.0
176
     0
 90
        9
176
     2
 62
     7
176
     0
 40
1.0
176
     0
 90
        1
176
     0
 90
        6
176
     0
 90
        2
176
     0
 62
     7
176
     0
 90
        5
176
     0
 90
        0
176
     0
 90
        0
176
     0
290
     0
176
     0
 90
        1
176
     0
 40
0.0
176
     0
 90
        0
176
     0
290
     0
176
     0
290
     1
176
     0
290
     1
176
     0
290
     0
176
     0
290
     0
176
     0
290
     0
176
     0
290
     0
176
     0
290
     0
176
     0
290
     0
176
     0
 90
       50
176
     0
 40
0.0
176
     0
 40
1.0
176
     0
 90
        0
176
     0
 62
    18
420
        0
176
     0
 90
       50
176
     0
 90
        3
176
     0
 62
     5
420
      255
176
     0
290
     0
176
     0
 90
       50
176
     0
 90
       50
176
     0
 90
       50
176
     0
290
     0
176
     0
 90
       50
176
     0
 62
   256
176
     0
 40
1.0
176
     0
 90
        2
176
     0
  1
strokes_ogs.tif
176
     0
290
     0
176
     0
 40
1.0
176
     0
 40
1.0
176
     0
  0
VISUALSTYLE
  5
33
102
{ACAD_REACTORS
330
2A
102
}
330
2A
100
AcDbVisualStyle
  2
Realistic
 70
     8
177
     3
291
     0
 70
    58
 90
        2
176
     1
 90
        3
176
     1
 90
        0
176
     1
 90
        2
176
     1
 40
0.6
176
     1
 40
30.0
176
     1
 62
     7
420
 16777215
176
     1
 90
        0
176
     1
 90
        0
176
     1
 62
     7
176
     1
 62
   257
176
     1
 90
        1
176
     1
 90
        1
176
     1
 40
1.0
176
     1
 90
        8
176
     1
 62
   257
176
     1
 40
1.0
176
     1
 90
        1
176
     1
 90
        6
176
     1
 90
        2
176
     1
 62
     7
176
     1
 90
        3
176
     1
 90
        0
176
     1
 90
        0
176
     1
290
     0
176
     1
 90
       13
176
     1
 40
0.0
176
     1
 90
        0
176
     1
290
     0
176
     1
290
     1
176
     1
290
     1
176
     1
290
     0
176
     1
290
     0
176
     1
290
     0
176
     1
290
     0
176
     1
290
     0
176
     1
290
     0
176
     1
 90
       50
176
     1
 40
0.0
176
     1
 40
1.0
176
     1
 90
        0
176
     1
 62
    18
420
        0
176
     1
 90
       50
176
     1
 90
        3
176
     1
 62
     5
420
      255
176
     1
290
     0
176
     1
 90
       50
176
     1
 90
       50
176
     1
 90
       50
176
     1
290
     0
176
     1
 90
       50
176
     1
 62
   256
176
     0
 40
1.0
176
     0
 90
        2
176
     1
  1
strokes_ogs.tif
176
     1
290
     0
176
     1
 40
1.0
176
     1
 40
1.0
176
     1
  0
VISUALSTYLE
  5
42
102
{ACAD_REACTORS
330
2A
102
}
330
2A
100
AcDbVisualStyle
  2
Shaded
 70
    27
177
     3
291
     0
 70
    58
 90
        2
176
     1
 90
        2
176
     1
 90
        1
176
     1
 90
        2
176
     1
 40
0.6
176
     1
 40
30.0
176
     1
 62
     7
420
 16777215
176
     1
 90
        0
176
     1
 90
        4
176
     1
 62
     7
176
     1
 62
   257
176
     1
 90
        1
176
     1
 90
        1
176
     1
 40
1.0
176
     1
 90
        8
176
     1
 62
   257
176
     1
 40
1.0
176
     1
 90
        1
176
     1
 90
        6
176
     1
 90
        2
176
     1
 62
     8
420
  7895160
176
     1
 90
        3
176
     1
 90
        0
176
     1
 90
        0
176
     1
290
     0
176
     1
 90
        5
176
     1
 40
0.0
176
     1
 90
        0
176
     1
290
     0
176
     1
290
     1
176
     1
290
     1
176
     1
290
     0
176
     1
290
     0
176
     1
290
     0
176
     1
290
     0
176
     1
290
     0
176
     1
290
     0
176
     1
 90
       50
176
     1
 40
0.0
176
     1
 40
1.0
176
     1
 90
        0
176
     1
 62
    18
420
        0
176
     1
 90
       50
176
     1
 90
        3
176
     1
 62
     5
420
      255
176
     1
290
     0
176
     1
 90
       50
176
     1
 90
       50
176
     1
 90
       50
176
     1
290
     0
176
     1
 90
       50
176
     1
 62
   256
176
     0
 40
1.0
176
     0
 90
        2
176
     1
  1
strokes_ogs.tif
176
     1
290
     0
176
     1
 40
1.0
176
     1
 40
1.0
176
     1
  0
VISUALSTYLE
  5
41
102
{ACAD_REACTORS
330
2A
102
}
330
2A
100
AcDbVisualStyle
  2
Shaded with edges
 70
    26
177
     3
291
     0
 70
    58
 90
        2
176
     1
 90
        2
176
     1
 90
        1
176
     1
 90
        2
176
     1
 40
0.6
176
     1
 40
30.0
176
     1
 62
     7
420
 16777215
176
     1
 90
        1
176
     1
 90
       10
176
     1
 62
     7
176
     1
 62
   257
176
     1
 90
        2
176
     1
 90
        1
176
     1
 40
1.0
176
     1
 90
        8
176
     1
 62
   257
176
     1
 40
1.0
176
     1
 90
        1
176
     1
 90
        6
176
     1
 90
        2
176
     1
 62
     7
176
     1
 90
        3
176
     1
 90
        0
176
     1
 90
        0
176
     1
290
     0
176
     1
 90
        5
176
     1
 40
0.0
176
     1
 90
        0
176
     1
290
     0
176
     1
290
     1
176
     1
290
     1
176
     1
290
     0
176
     1
290
     0
176
     1
290
     0
176
     1
290
     0
176
     1
290
     0
176
     1
290
     0
176
     1
 90
       50
176
     1
 40
0.0
176
     1
 40
1.0
176
     1
 90
        0
176
     1
 62
    18
420
        0
176
     1
 90
       50
176
     1
 90
        3
176
     1
 62
     5
420
      255
176
     1
290
     0
176
     1
 90
       50
176
     1
 90
       50
176
     1
 90
       50
176
     1
290
     0
176
     1
 90
       50
176
     1
 62
   256
176
     0
 40
1.0
176
     0
 90
        2
176
     1
  1
strokes_ogs.tif
176
     1
290
     0
176
     1
 40
1.0
176
     1
 40
1.0
176
     1
  0
VISUALSTYLE
  5
3E
102
{ACAD_REACTORS
330
2A
102
}
330
2A
100
AcDbVisualStyle
  2
Shades of Gray
 70
    23
177
     3
291
     0
 70
    58
 90
        2
176
     1
 90
        2
176
     1
 90
        3
176
     1
 90
        0
176
     1
 40
0.6
176
     1
 40
30.0
176
     1
 62
     7
420
 16777215
176
     1
 90
        2
176
     1
 90
        2
176
     1
 62
     7
176
     1
 62
     7
176
     1
 90
        1
176
     1
 90
        1
176
     1
 40
40.0
176
     1
 90
        8
176
     1
 62
     7
176
     1
 40
1.0
176
     1
 90
        1
176
     1
 90
        6
176
     1
 90
        2
176
     1
 62
     7
176
     1
 90
        3
176
     1
 90
        0
176
     1
 90
        0
176
     1
290
     0
176
     1
 90
        1
176
     1
 40
0.0
176
     1
 90
        0
176
     1
290
     0
176
     1
290
     1
176
     1
290
     1
176
     1
290
     0
176
     1
290
     0
176
     1
290
     0
176
     1
290
     0
176
     1
290
     0
176
     1
290
     0
176
     1
 90
       50
176
     1
 40
0.0
176
     1
 40
1.0
176
     1
 90
        0
176
     1
 62
    18
420
        0
176
     1
 90
       50
176
     1
 90
        3
176
     1
 62
     5
420
      255
176
     1
290
     0
176
     1
 90
       50
176
     1
 90
       50
176
     1
 90
       50
176
     1
290
     0
176
     1
 90
       50
176
     1
 62
   256
176
     0
 40
1.0
176
     0
 90
        2
176
     1
  1
strokes_ogs.tif
176
     1
290
     0
176
     1
 40
1.0
176
     1
 40
1.0
176
     1
  0
VISUALSTYLE
  5
3F
102
{ACAD_REACTORS
330
2A
102
}
330
2A
100
AcDbVisualStyle
  2
Sketchy
 70
    24
177
     3
291
     0
 70
    58
 90
        1
176
     1
 90
        2
176
     1
 90
        2
176
     1
 90
        0
176
     1
 40
0.6
176
     1
 40
30.0
176
     1
 62
     7
420
 16777215
176
     1
 90
        2
176
     1
 90
        2
176
     1
 62
     7
176
     1
 62
     7
176
     1
 90
        1
176
     1
 90
        1
176
     1
 40
40.0
176
     1
 90
       11
176
     1
 62
     7
176
     1
 40
1.0
176
     1
 90
        1
176
     1
 90
        6
176
     1
 90
        2
176
     1
 62
     7
176
     1
 90
        6
176
     1
 90
        0
176
     1
 90
        0
176
     1
290
     0
176
     1
 90
        1
176
     1
 40
0.0
176
     1
 90
        0
176
     1
290
     0
176
     1
290
     1
176
     1
290
     1
176
     1
290
     0
176
     1
290
     0
176
     1
290
     0
176
     1
290
     0
176
     1
290
     0
176
     1
290
     0
176
     1
 90
       50
176
     1
 40
0.0
176
     1
 40
1.0
176
     1
 90
        0
176
     1
 62
    18
420
        0
176
     1
 90
       50
176
     1
 90
        3
176
     1
 62
     5
420
      255
176
     1
290
     0
176
     1
 90
       50
176
     1
 90
       50
176
     1
 90
       50
176
     1
290
     0
176
     1
 90
       50
176
     1
 62
   256
176
     0
 40
1.0
176
     0
 90
        2
176
     1
  1
strokes_ogs.tif
176
     1
290
     0
176
     1
 40
1.0
176
     1
 40
1.0
176
     1
  0
VISUALSTYLE
  5
37
102
{ACAD_REACTORS
330
2A
102
}
330
2A
100
AcDbVisualStyle
  2
Thicken
 70
    13
177
     3
291
     1
 70
    58
 90
        2
176
     1
 90
        2
176
     1
 90
        0
176
     1
 90
        0
176
     1
 40
0.6
176
     1
 40
30.0
176
     1
 62
     7
420
 16777215
176
     1
 90
        1
176
     1
 90
        4
176
     1
 62
     7
176
     1
 62
   257
176
     1
 90
        1
176
     1
 90
        1
176
     1
 40
1.0
176
     1
 90
       12
176
     1
 62
     7
176
     1
 40
1.0
176
     1
 90
        1
176
     1
 90
        6
176
     1
 90
        2
176
     1
 62
     7
176
     1
 90
        5
176
     1
 90
        0
176
     1
 90
        0
176
     1
290
     0
176
     1
 90
        1
176
     1
 40
0.0
176
     1
 90
        0
176
     1
290
     0
176
     1
290
     1
176
     1
290
     1
176
     1
290
     0
176
     1
290
     0
176
     1
290
     0
176
     1
290
     0
176
     1
290
     0
176
     1
290
     0
176
     1
 90
       50
176
     1
 40
0.0
176
     1
 40
1.0
176
     1
 90
        0
176
     1
 62
    18
420
        0
176
     1
 90
       50
176
     1
 90
        3
176
     1
 62
     5
420
      255
176
     1
290
     0
176
     1
 90
       50
176
     1
 90
       50
176
     1
 90
       50
176
     1
290
     0
176
     1
 90
       50
176
     1
 62
   256
176
     0
 40
1.0
176
     0
 90
        2
176
     1
  1
strokes_ogs.tif
176
     1
290
     0
176
     1
 40
1.0
176
     1
 40
1.0
176
     1
  0
VISUALSTYLE
  5
30
102
{ACAD_REACTORS
330
2A
102
}
330
2A
100
AcDbVisualStyle
  2
Wireframe
 70
     5
177
     3
291
     0
 70
    58
 90
        0
176
     1
 90
        2
176
     1
 90
        0
176
     1
 90
        0
176
     1
 40
0.6
176
     1
 40
30.0
176
     1
 62
     7
420
 16777215
176
     1
 90
        1
176
     1
 90
        4
176
     1
 62
     7
176
     1
 62
   257
176
     1
 90
        1
176
     1
 90
        1
176
     1
 40
1.0
176
     1
 90
        0
176
     1
 62
   257
176
     1
 40
1.0
176
     1
 90
        1
176
     1
 90
        6
176
     1
 90
        2
176
     1
 62
     7
176
     1
 90
        3
176
     1
 90
        0
176
     1
 90
        0
176
     1
290
     0
176
     1
 90
        1
176
     1
 40
0.0
176
     1
 90
        0
176
     1
290
     0
176
     1
290
     1
176
     1
290
     1
176
     1
290
     0
176
     1
290
     0
176
     1
290
     0
176
     1
290
     0
176
     1
290
     0
176
     1
290
     0
176
     1
 90
       50
176
     1
 40
0.0
176
     1
 40
1.0
176
     1
 90
        0
176
     1
 62
    18
420
        0
176
     1
 90
       50
176
     1
 90
        3
176
     1
 62
     5
420
      255
176
     1
290
     0
176
     1
 90
       50
176
     1
 90
       50
176
     1
 90
       50
176
     1
290
     0
176
     1
 90
       50
176
     1
 62
   256
176
     0
 40
1.0
176
     0
 90
        2
176
     1
  1
strokes_ogs.tif
176
     1
290
     0
176
     1
 40
1.0
176
     1
 40
1.0
176
     1
  0
VISUALSTYLE
  5
40
102
{ACAD_REACTORS
330
2A
102
}
330
2A
100
AcDbVisualStyle
  2
X-Ray
 70
    25
177
     3
291
     0
 70
    58
 90
        2
176
     1
 90
        2
176
     1
 90
        1
176
     1
 90
        1
176
     1
 40
0.5
176
     1
 40
30.0
176
     1
 62
     7
420
 16777215
176
     1
 90
        1
176
     1
 90
        0
176
     1
 62
     7
176
     1
 62
   257
176
     1
 90
        1
176
     1
 90
        1
176
     1
 40
1.0
176
     1
 90
        8
176
     1
 62
     7
176
     1
 40
1.0
176
     1
 90
        1
176
     1
 90
        6
176
     1
 90
        2
176
     1
 62
     7
176
     1
 90
        3
176
     1
 90
        0
176
     1
 90
        0
176
     1
290
     0
176
     1
 90
       13
176
     1
 40
0.0
176
     1
 90
        0
176
     1
290
     0
176
     1
290
     1
176
     1
290
     1
176
     1
290
     0
176
     1
290
     0
176
     1
290
     0
176
     1
290
     0
176
     1
290
     0
176
     1
290
     0
176
     1
 90
       50
176
     1
 40
0.0
176
     1
 40
1.0
176
     1
 90
        0
176
     1
 62
    18
420
        0
176
     1
 90
       50
176
     1
 90
        3
176
     1
 62
     5
420
      255
176
     1
290
     0
176
     1
 90
       50
176
     1
 90
       50
176
     1
 90
       50
176
     1
290
     0
176
     1
 90
       50
176
     1
 62
   256
176
     0
 40
1.0
176
     0
 90
        2
176
     1
  1
strokes_ogs.tif
176
     1
290
     0
176
     1
 40
1.0
176
     1
 40
1.0
176
     1
  0
DICTIONARYVAR
  5
1A0
102
{ACAD_REACTORS
330
19F
102
}
330
19F
100
DictionaryVariables
280
     0
  1
1:1
  0
DICTIONARYVAR
  5
1A5
102
{ACAD_REACTORS
330
19F
102
}
330
19F
100
DictionaryVariables
280
     0
  1
Standard
  0
DICTIONARYVAR
  5
1A4
102
{ACAD_REACTORS
330
19F
102
}
330
19F
100
DictionaryVariables
280
     0
  1
Standard
  0
DICTIONARY
  5
1A1
330
6A
100
AcDbDictionary
280
     1
281
     1
  3
ACAD_ROUNDTRIP_2008_TABLESTYLE_CELLSTYLEMAP
360
1A2
  0
CELLSTYLEMAP
  5
1A2
102
{ACAD_REACTORS
330
1A1
102
}
330
1A1
100
AcDbCellStyleMap
 90
        3
300
CELLSTYLE
  1
TABLEFORMAT_BEGIN
 90
        5
170
     1
 91
        0
 92
    32768
 62
   257
 93
        1
300
CONTENTFORMAT
  1
CONTENTFORMAT_BEGIN
 90
        0
 91
        0
 92
        4
 93
        0
300

 40
0.0
140
1.0
 94
        5
 62
     0
340
11
144
0.25
309
CONTENTFORMAT_END
171
     1
301
MARGIN
  1
CELLMARGIN_BEGIN
 40
0.06
 40
0.06
 40
0.06
 40
0.06
 40
0.06
 40
0.06
309
CELLMARGIN_END
 94
        6
 95
        1
302
GRIDFORMAT
  1
GRIDFORMAT_BEGIN
 90
        0
 91
        1
 62
     0
 92
       -2
340
14
 93
        0
 40
0.045
309
GRIDFORMAT_END
 95
        2
302
GRIDFORMAT
  1
GRIDFORMAT_BEGIN
 90
        0
 91
        1
 62
     0
 92
       -2
340
14
 93
        0
 40
0.045
309
GRIDFORMAT_END
 95
        4
302
GRIDFORMAT
  1
GRIDFORMAT_BEGIN
 90
        0
 91
        1
 62
     0
 92
       -2
340
14
 93
        0
 40
0.045
309
GRIDFORMAT_END
 95
        8
302
GRIDFORMAT
  1
GRIDFORMAT_BEGIN
 90
        0
 91
        1
 62
     0
 92
       -2
340
14
 93
        0
 40
0.045
309
GRIDFORMAT_END
 95
       16
302
GRIDFORMAT
  1
GRIDFORMAT_BEGIN
 90
        0
 91
        1
 62
     0
 92
       -2
340
14
 93
        0
 40
0.045
309
GRIDFORMAT_END
 95
       32
302
GRIDFORMAT
  1
GRIDFORMAT_BEGIN
 90
        0
 91
        1
 62
     0
 92
       -2
340
14
 93
        0
 40
0.045
309
GRIDFORMAT_END
309
TABLEFORMAT_END
  1
CELLSTYLE_BEGIN
 90
        1
 91
        1
300
_TITLE
309
CELLSTYLE_END
300
CELLSTYLE
  1
TABLEFORMAT_BEGIN
 90
        5
170
     1
 91
        0
 92
        0
 62
   257
 93
        1
300
CONTENTFORMAT
  1
CONTENTFORMAT_BEGIN
 90
        0
 91
        0
 92
        4
 93
        0
300

 40
0.0
140
1.0
 94
        5
 62
     0
340
11
144
0.18
309
CONTENTFORMAT_END
171
     1
301
MARGIN
  1
CELLMARGIN_BEGIN
 40
0.06
 40
0.06
 40
0.06
 40
0.06
 40
0.06
 40
0.06
309
CELLMARGIN_END
 94
        6
 95
        1
302
GRIDFORMAT
  1
GRIDFORMAT_BEGIN
 90
        0
 91
        1
 62
     0
 92
       -2
340
14
 93
        0
 40
0.045
309
GRIDFORMAT_END
 95
        2
302
GRIDFORMAT
  1
GRIDFORMAT_BEGIN
 90
        0
 91
        1
 62
     0
 92
       -2
340
14
 93
        0
 40
0.045
309
GRIDFORMAT_END
 95
        4
302
GRIDFORMAT
  1
GRIDFORMAT_BEGIN
 90
        0
 91
        1
 62
     0
 92
       -2
340
14
 93
        0
 40
0.045
309
GRIDFORMAT_END
 95
        8
302
GRIDFORMAT
  1
GRIDFORMAT_BEGIN
 90
        0
 91
        1
 62
     0
 92
       -2
340
14
 93
        0
 40
0.045
309
GRIDFORMAT_END
 95
       16
302
GRIDFORMAT
  1
GRIDFORMAT_BEGIN
 90
        0
 91
        1
 62
     0
 92
       -2
340
14
 93
        0
 40
0.045
309
GRIDFORMAT_END
 95
       32
302
GRIDFORMAT
  1
GRIDFORMAT_BEGIN
 90
        0
 91
        1
 62
     0
 92
       -2
340
14
 93
        0
 40
0.045
309
GRIDFORMAT_END
309
TABLEFORMAT_END
  1
CELLSTYLE_BEGIN
 90
        2
 91
        1
300
_HEADER
309
CELLSTYLE_END
300
CELLSTYLE
  1
TABLEFORMAT_BEGIN
 90
        5
170
     1
 91
        0
 92
        0
 62
   257
 93
        1
300
CONTENTFORMAT
  1
CONTENTFORMAT_BEGIN
 90
        0
 91
        0
 92
        4
 93
        0
300

 40
0.0
140
1.0
 94
        2
 62
     0
340
11
144
0.18
309
CONTENTFORMAT_END
171
     1
301
MARGIN
  1
CELLMARGIN_BEGIN
 40
0.06
 40
0.06
 40
0.06
 40
0.06
 40
0.06
 40
0.06
309
CELLMARGIN_END
 94
        6
 95
        1
302
GRIDFORMAT
  1
GRIDFORMAT_BEGIN
 90
        0
 91
        1
 62
     0
 92
       -2
340
14
 93
        0
 40
0.045
309
GRIDFORMAT_END
 95
        2
302
GRIDFORMAT
  1
GRIDFORMAT_BEGIN
 90
        0
 91
        1
 62
     0
 92
       -2
340
14
 93
        0
 40
0.045
309
GRIDFORMAT_END
 95
        4
302
GRIDFORMAT
  1
GRIDFORMAT_BEGIN
 90
        0
 91
        1
 62
     0
 92
       -2
340
14
 93
        0
 40
0.045
309
GRIDFORMAT_END
 95
        8
302
GRIDFORMAT
  1
GRIDFORMAT_BEGIN
 90
        0
 91
        1
 62
     0
 92
       -2
340
14
 93
        0
 40
0.045
309
GRIDFORMAT_END
 95
       16
302
GRIDFORMAT
  1
GRIDFORMAT_BEGIN
 90
        0
 91
        1
 62
     0
 92
       -2
340
14
 93
        0
 40
0.045
309
GRIDFORMAT_END
 95
       32
302
GRIDFORMAT
  1
GRIDFORMAT_BEGIN
 90
        0
 91
        1
 62
     0
 92
       -2
340
14
 93
        0
 40
0.045
309
GRIDFORMAT_END
309
TABLEFORMAT_END
  1
CELLSTYLE_BEGIN
 90
        3
 91
        2
300
_DATA
309
CELLSTYLE_END
  0
ENDSEC
  0
EOF