0
SECTION
  2
HEADER
  9
$ACADVER
  1
AC1027
  9
$ACADMAINTVER
 70
     8
  9
$DWGCODEPAGE
  3
ANSI_1252
  9
$REQUIREDVERSIONS
160
                 0
  9
$COMMENTS
  1
File was created by Cadenas
  9
$CUSTOMPROPERTYTAG
  1
NN
  9
$CUSTOMPROPERTY
  1
Set Screw LFT Duty 2-Bolt Flange Inch Bore
  9
$CUSTOMPROPERTYTAG
  1
NT
  9
$CUSTOMPROPERTY
  1
SC 2 Bolt Flange Bearings -(Normal Duty) -Re-Lube and No-Lube
  9
$CUSTOMPROPERTYTAG
  1
NB
  9
$CUSTOMPROPERTY
  1
124643
  9
$CUSTOMPROPERTYTAG
  1
NBSYN
  9
$CUSTOMPROPERTY
  1
$PN.
  9
$CUSTOMPROPERTYTAG
  1
LINA
  9
$CUSTOMPROPERTY
  1
124643
  9
$CUSTOMPROPERTYTAG
  1
SERIES
  9
$CUSTOMPROPERTY
  1
205
  9
$CUSTOMPROPERTYTAG
  1
SS
  9
$CUSTOMPROPERTY
  1
7/8
  9
$CUSTOMPROPERTYTAG
  1
PN
  9
$CUSTOMPROPERTY
  1
124643
  9
$CUSTOMPROPERTYTAG
  1
DESCRIPTION
  9
$CUSTOMPROPERTY
  1
LFT-SC-014
  9
$CUSTOMPROPERTYTAG
  1
W
  9
$CUSTOMPROPERTY
  1
0.95
  9
$CUSTOMPROPERTYTAG
  1
LF
  9
$CUSTOMPROPERTY
  1
RE-LUBE
  9
$CUSTOMPROPERTYTAG
  1
A
  9
$CUSTOMPROPERTY
  1
1.06
  9
$CUSTOMPROPERTYTAG
  1
B
  9
$CUSTOMPROPERTY
  1
3.75
  9
$CUSTOMPROPERTYTAG
  1
C
  9
$CUSTOMPROPERTY
  1
1.24
  9
$CUSTOMPROPERTYTAG
  1
D
  9
$CUSTOMPROPERTY
  1
3.00
  9
$CUSTOMPROPERTYTAG
  1
G
  9
$CUSTOMPROPERTY
  1
0.34
  9
$CUSTOMPROPERTYTAG
  1
H
  9
$CUSTOMPROPERTY
  1
0.42
  9
$CUSTOMPROPERTYTAG
  1
J
  9
$CUSTOMPROPERTY
  1
0.37
  9
$CUSTOMPROPERTYTAG
  1
L
  9
$CUSTOMPROPERTY
  1
1.32
  9
$CUSTOMPROPERTYTAG
  1
M
  9
$CUSTOMPROPERTY
  1
2.63
  9
$CUSTOMPROPERTYTAG
  1
N
  9
$CUSTOMPROPERTY
  1
1.44
  9
$CUSTOMPROPERTYTAG
  1
COMPANY
  9
$CUSTOMPROPERTY
  1
baldor
  9
$INSBASE
 10
0.0
 20
0.0
 30
0.0
  9
$EXTMIN
 10
1.000000000000000E+20
 20
1.000000000000000E+20
 30
1.000000000000000E+20
  9
$EXTMAX
 10
-1.000000000000000E+20
 20
-1.000000000000000E+20
 30
-1.000000000000000E+20
  9
$LIMMIN
 10
0.0
 20
0.0
  9
$LIMMAX
 10
12.0
 20
9.0
  9
$ORTHOMODE
 70
     0
  9
$REGENMODE
 70
     1
  9
$FILLMODE
 70
     1
  9
$QTEXTMODE
 70
     0
  9
$MIRRTEXT
 70
     1
  9
$LTSCALE
 40
1.0
  9
$ATTMODE
 70
     1
  9
$TEXTSIZE
 40
0.2
  9
$TRACEWID
 40
0.05
  9
$TEXTSTYLE
  7
Standard
  9
$CLAYER
  8
0
  9
$CELTYPE
  6
ByLayer
  9
$CECOLOR
 62
   256
  9
$CELTSCALE
 40
1.0
  9
$DISPSILH
 70
     0
  9
$DIMSCALE
 40
1.0
  9
$DIMASZ
 40
0.18
  9
$DIMEXO
 40
0.0625
  9
$DIMDLI
 40
0.38
  9
$DIMRND
 40
0.0
  9
$DIMDLE
 40
0.0
  9
$DIMEXE
 40
0.18
  9
$DIMTP
 40
0.0
  9
$DIMTM
 40
0.0
  9
$DIMTXT
 40
0.18
  9
$DIMCEN
 40
0.09
  9
$DIMTSZ
 40
0.0
  9
$DIMTOL
 70
     0
  9
$DIMLIM
 70
     0
  9
$DIMTIH
 70
     1
  9
$DIMTOH
 70
     1
  9
$DIMSE1
 70
     0
  9
$DIMSE2
 70
     0
  9
$DIMTAD
 70
     0
  9
$DIMZIN
 70
     0
  9
$DIMBLK
  1

  9
$DIMASO
 70
     1
  9
$DIMSHO
 70
     1
  9
$DIMPOST
  1

  9
$DIMAPOST
  1

  9
$DIMALT
 70
     0
  9
$DIMALTD
 70
     2
  9
$DIMALTF
 40
25.4
  9
$DIMLFAC
 40
1.0
  9
$DIMTOFL
 70
     0
  9
$DIMTVP
 40
0.0
  9
$DIMTIX
 70
     0
  9
$DIMSOXD
 70
     0
  9
$DIMSAH
 70
     0
  9
$DIMBLK1
  1

  9
$DIMBLK2
  1

  9
$DIMSTYLE
  2
Standard
  9
$DIMCLRD
 70
     0
  9
$DIMCLRE
 70
     0
  9
$DIMCLRT
 70
     0
  9
$DIMTFAC
 40
1.0
  9
$DIMGAP
 40
0.09
  9
$DIMJUST
 70
     0
  9
$DIMSD1
 70
     0
  9
$DIMSD2
 70
     0
  9
$DIMTOLJ
 70
     1
  9
$DIMTZIN
 70
     0
  9
$DIMALTZ
 70
     0
  9
$DIMALTTZ
 70
     0
  9
$DIMUPT
 70
     0
  9
$DIMDEC
 70
     4
  9
$DIMTDEC
 70
     4
  9
$DIMALTU
 70
     2
  9
$DIMALTTD
 70
     2
  9
$DIMTXSTY
  7
Standard
  9
$DIMAUNIT
 70
     0
  9
$DIMADEC
 70
     0
  9
$DIMALTRND
 40
0.0
  9
$DIMAZIN
 70
     0
  9
$DIMDSEP
 70
    46
  9
$DIMATFIT
 70
     3
  9
$DIMFRAC
 70
     0
  9
$DIMLDRBLK
  1

  9
$DIMLUNIT
 70
     2
  9
$DIMLWD
 70
    -2
  9
$DIMLWE
 70
    -2
  9
$DIMTMOVE
 70
     0
  9
$DIMFXL
 40
1.0
  9
$DIMFXLON
 70
     0
  9
$DIMJOGANG
 40
0.7853981633974483
  9
$DIMTFILL
 70
     0
  9
$DIMTFILLCLR
 70
     0
  9
$DIMARCSYM
 70
     0
  9
$DIMLTYPE
  6

  9
$DIMLTEX1
  6

  9
$DIMLTEX2
  6

  9
$DIMTXTDIRECTION
 70
     0
  9
$LUNITS
 70
     2
  9
$LUPREC
 70
     4
  9
$SKETCHINC
 40
0.1
  9
$FILLETRAD
 40
0.5
  9
$AUNITS
 70
     0
  9
$AUPREC
 70
     0
  9
$MENU
  1
.
  9
$ELEVATION
 40
0.0
  9
$PELEVATION
 40
0.0
  9
$THICKNESS
 40
0.0
  9
$LIMCHECK
 70
     0
  9
$CHAMFERA
 40
0.0
  9
$CHAMFERB
 40
0.0
  9
$CHAMFERC
 40
0.0
  9
$CHAMFERD
 40
0.0
  9
$SKPOLY
 70
     0
  9
$TDCREATE
 40
2458168.967565532
  9
$TDUCREATE
 40
2458168.925898866
  9
$TDUPDATE
 40
2458168.967565718
  9
$TDUUPDATE
 40
2458168.925899051
  9
$TDINDWG
 40
0.0000000116
  9
$TDUSRTIMER
 40
0.0000000116
  9
$USRTIMER
 70
     1
  9
$ANGBASE
 50
0.0
  9
$ANGDIR
 70
     0
  9
$PDMODE
 70
     0
  9
$PDSIZE
 40
0.0
  9
$PLINEWID
 40
0.0
  9
$SPLFRAME
 70
     0
  9
$SPLINETYPE
 70
     6
  9
$SPLINESEGS
 70
     8
  9
$HANDSEED
  5
198
  9
$SURFTAB1
 70
     6
  9
$SURFTAB2
 70
     6
  9
$SURFTYPE
 70
     6
  9
$SURFU
 70
     6
  9
$SURFV
 70
     6
  9
$UCSBASE
  2

  9
$UCSNAME
  2

  9
$UCSORG
 10
0.0
 20
0.0
 30
0.0
  9
$UCSXDIR
 10
1.0
 20
0.0
 30
0.0
  9
$UCSYDIR
 10
0.0
 20
1.0
 30
0.0
  9
$UCSORTHOREF
  2

  9
$UCSORTHOVIEW
 70
     0
  9
$UCSORGTOP
 10
0.0
 20
0.0
 30
0.0
  9
$UCSORGBOTTOM
 10
0.0
 20
0.0
 30
0.0
  9
$UCSORGLEFT
 10
0.0
 20
0.0
 30
0.0
  9
$UCSORGRIGHT
 10
0.0
 20
0.0
 30
0.0
  9
$UCSORGFRONT
 10
0.0
 20
0.0
 30
0.0
  9
$UCSORGBACK
 10
0.0
 20
0.0
 30
0.0
  9
$PUCSBASE
  2

  9
$PUCSNAME
  2

  9
$PUCSORG
 10
0.0
 20
0.0
 30
0.0
  9
$PUCSXDIR
 10
1.0
 20
0.0
 30
0.0
  9
$PUCSYDIR
 10
0.0
 20
1.0
 30
0.0
  9
$PUCSORTHOREF
  2

  9
$PUCSORTHOVIEW
 70
     0
  9
$PUCSORGTOP
 10
0.0
 20
0.0
 30
0.0
  9
$PUCSORGBOTTOM
 10
0.0
 20
0.0
 30
0.0
  9
$PUCSORGLEFT
 10
0.0
 20
0.0
 30
0.0
  9
$PUCSORGRIGHT
 10
0.0
 20
0.0
 30
0.0
  9
$PUCSORGFRONT
 10
0.0
 20
0.0
 30
0.0
  9
$PUCSORGBACK
 10
0.0
 20
0.0
 30
0.0
  9
$USERI1
 70
     0
  9
$USERI2
 70
     0
  9
$USERI3
 70
     0
  9
$USERI4
 70
     0
  9
$USERI5
 70
     0
  9
$USERR1
 40
0.0
  9
$USERR2
 40
0.0
  9
$USERR3
 40
0.0
  9
$USERR4
 40
0.0
  9
$USERR5
 40
0.0
  9
$WORLDVIEW
 70
     1
  9
$SHADEDGE
 70
     3
  9
$SHADEDIF
 70
    70
  9
$TILEMODE
 70
     1
  9
$MAXACTVP
 70
    64
  9
$PINSBASE
 10
0.0
 20
0.0
 30
0.0
  9
$PLIMCHECK
 70
     0
  9
$PEXTMIN
 10
1.000000000000000E+20
 20
1.000000000000000E+20
 30
1.000000000000000E+20
  9
$PEXTMAX
 10
-1.000000000000000E+20
 20
-1.000000000000000E+20
 30
-1.000000000000000E+20
  9
$PLIMMIN
 10
0.0
 20
0.0
  9
$PLIMMAX
 10
12.0
 20
9.0
  9
$UNITMODE
 70
     0
  9
$VISRETAIN
 70
     1
  9
$PLINEGEN
 70
     0
  9
$PSLTSCALE
 70
     1
  9
$TREEDEPTH
 70
  3020
  9
$CMLSTYLE
  2
Standard
  9
$CMLJUST
 70
     0
  9
$CMLSCALE
 40
1.0
  9
$PROXYGRAPHICS
 70
     1
  9
$MEASUREMENT
 70
     0
  9
$CELWEIGHT
370
    -1
  9
$ENDCAPS
280
     0
  9
$JOINSTYLE
280
     0
  9
$LWDISPLAY
290
     0
  9
$INSUNITS
 70
     1
  9
$HYPERLINKBASE
  1

  9
$STYLESHEET
  1

  9
$XEDIT
290
     1
  9
$CEPSNTYPE
380
     0
  9
$PSTYLEMODE
290
     1
  9
$FINGERPRINTGUID
  2
{8FC138D3-1BB1-4703-B55F-29064E6C5908}
  9
$VERSIONGUID
  2
{FAEB1C32-E019-11D5-929B-00C0DF256EC4}
  9
$EXTNAMES
290
     1
  9
$PSVPSCALE
 40
0.0
  9
$OLESTARTUP
290
     0
  9
$SORTENTS
280
   127
  9
$INDEXCTL
280
     0
  9
$HIDETEXT
280
     1
  9
$XCLIPFRAME
280
     2
  9
$HALOGAP
280
     0
  9
$OBSCOLOR
 70
   257
  9
$OBSLTYPE
280
     0
  9
$INTERSECTIONDISPLAY
280
     0
  9
$INTERSECTIONCOLOR
 70
   257
  9
$DIMASSOC
280
     2
  9
$PROJECTNAME
  1

  9
$CAMERADISPLAY
290
     0
  9
$LENSLENGTH
 40
50.0
  9
$CAMERAHEIGHT
 40
0.0
  9
$STEPSPERSEC
 40
2.0
  9
$STEPSIZE
 40
6.0
  9
$3DDWFPREC
 40
2.0
  9
$PSOLWIDTH
 40
0.25
  9
$PSOLHEIGHT
 40
4.0
  9
$LOFTANG1
 40
1.570796326794897
  9
$LOFTANG2
 40
1.570796326794897
  9
$LOFTMAG1
 40
0.0
  9
$LOFTMAG2
 40
0.0
  9
$LOFTPARAM
 70
     7
  9
$LOFTNORMALS
280
     1
  9
$LATITUDE
 40
37.795
  9
$LONGITUDE
 40
-122.394
  9
$NORTHDIRECTION
 40
0.0
  9
$TIMEZONE
 70
 -8000
  9
$LIGHTGLYPHDISPLAY
280
     1
  9
$TILEMODELIGHTSYNCH
280
     1
  9
$CMATERIAL
347
44
  9
$SOLIDHIST
280
     0
  9
$SHOWHIST
280
     1
  9
$DWFFRAME
280
     2
  9
$DGNFRAME
280
     2
  9
$REALWORLDSCALE
290
     1
  9
$INTERFERECOLOR
 62
   256
  9
$CSHADOW
280
     0
  9
$SHADOWPLANELOCATION
 40
0.0
  0
ENDSEC
  0
SECTION
  2
CLASSES
  0
CLASS
  1
ACDBDICTIONARYWDFLT
  2
AcDbDictionaryWithDefault
  3
ObjectDBX Classes
 90
        0
 91
        4
280
     0
281
     0
  0
CLASS
  1
VISUALSTYLE
  2
AcDbVisualStyle
  3
ObjectDBX Classes
 90
     4095
 91
        4
280
     0
281
     0
  0
CLASS
  1
MATERIAL
  2
AcDbMaterial
  3
ObjectDBX Classes
 90
     1153
 91
        4
280
     0
281
     0
  0
CLASS
  1
SCALE
  2
AcDbScale
  3
ObjectDBX Classes
 90
     1153
 91
        4
280
     0
281
     0
  0
CLASS
  1
TABLESTYLE
  2
AcDbTableStyle
  3
ObjectDBX Classes
 90
     4095
 91
        4
280
     0
281
     0
  0
CLASS
  1
MLEADERSTYLE
  2
AcDbMLeaderStyle
  3
ACDB_MLEADERSTYLE_CLASS
 90
     4095
 91
        4
280
     0
281
     0
  0
CLASS
  1
SUN
  2
AcDbSun
  3
SCENEOE
 90
     1153
 91
        4
280
     0
281
     0
  0
CLASS
  1
DICTIONARYVAR
  2
AcDbDictionaryVar
  3
ObjectDBX Classes
 90
        0
 91
        4
280
     0
281
     0
  0
CLASS
  1
CELLSTYLEMAP
  2
AcDbCellStyleMap
  3
ObjectDBX Classes
 90
     1152
 91
        4
280
     0
281
     0
  0
ENDSEC
  0
SECTION
  2
TABLES
  0
TABLE
  2
VPORT
  5
8
330
0
100
AcDbSymbolTable
 70
     1
  0
VPORT
  5
29
330
8
100
AcDbSymbolTableRecord
100
AcDbViewportTableRecord
  2
*Active
 70
     0
 10
0.0
 20
0.0
 11
1.0
 21
1.0
 12
-0.6247499999999988
 22
0.0
 13
0.0
 23
0.0
 14
0.5
 24
0.5
 15
0.5
 25
0.5
 16
0.0
 26
0.0
 36
1.0
 17
0.0
 27
0.0
 37
0.0
 40
3.825000000000001
 41
0.3564000000000002
 42
50.0
 43
0.0
 44
0.0
 50
0.0
 51
0.0
 71
     0
 72
   100
 73
     1
 74
     3
 75
     0
 76
     0
 77
     0
 78
     0
281
     0
 65
     1
110
0.0
120
0.0
130
0.0
111
1.0
121
0.0
131
0.0
112
0.0
122
1.0
132
0.0
 79
     0
146
0.0
348
2F
 60
     3
 61
     5
292
     1
282
     1
141
0.0
142
0.0
 63
   250
361
6D
  0
ENDTAB
  0
TABLE
  2
LTYPE
  5
5
330
0
100
AcDbSymbolTable
 70
     3
  0
LTYPE
  5
14
330
5
100
AcDbSymbolTableRecord
100
AcDbLinetypeTableRecord
  2
ByBlock
 70
     0
  3

 72
    65
 73
     0
 40
0.0
  0
LTYPE
  5
15
330
5
100
AcDbSymbolTableRecord
100
AcDbLinetypeTableRecord
  2
ByLayer
 70
     0
  3

 72
    65
 73
     0
 40
0.0
  0
LTYPE
  5
16
330
5
100
AcDbSymbolTableRecord
100
AcDbLinetypeTableRecord
  2
Continuous
 70
     0
  3
Solid line
 72
    65
 73
     0
 40
0.0
  0
LTYPE
  5
9F
330
5
100
AcDbSymbolTableRecord
100
AcDbLinetypeTableRecord
  2
Dashed
 70
     0
  3

 72
    65
 73
     2
 40
2.0
 49
1.0
 74
     0
 49
-1.0
 74
     0
  0
LTYPE
  5
169
330
5
100
AcDbSymbolTableRecord
100
AcDbLinetypeTableRecord
  2
Center
 70
     0
  3

 72
    65
 73
     4
 40
1.5
 49
0.45
 74
     0
 49
-0.5
 74
     0
 49
0.05
 74
     0
 49
-0.5
 74
     0
  0
ENDTAB
  0
TABLE
  2
LAYER
  5
2
330
0
100
AcDbSymbolTable
 70
     6
  0
LAYER
  5
10
330
2
100
AcDbSymbolTableRecord
100
AcDbLayerTableRecord
  2
0
 70
     0
 62
     7
  6
Continuous
370
    -3
390
F
347
46
348
0
  0
LAYER
  5
72
330
2
100
AcDbSymbolTableRecord
100
AcDbLayerTableRecord
  2
AM_6
 70
     0
 62
    -2
  6
Continuous
370
    35
390
F
347
46
348
0
  0
LAYER
  5
A0
330
2
100
AcDbSymbolTableRecord
100
AcDbLayerTableRecord
  2
AM_9
 70
     0
 62
     6
  6
Dashed
370
    25
390
F
347
46
348
0
  0
LAYER
  5
D1
330
2
100
AcDbSymbolTableRecord
100
AcDbLayerTableRecord
  2
AM_4
 70
     0
 62
     7
  6
Continuous
370
    50
390
F
347
46
348
0
  0
LAYER
  5
16A
330
2
100
AcDbSymbolTableRecord
100
AcDbLayerTableRecord
  2
AM_7
 70
     0
 62
     7
  6
Center
370
    25
390
F
347
46
348
0
  0
LAYER
  5
18B
330
2
100
AcDbSymbolTableRecord
100
AcDbLayerTableRecord
  2
ConnectionPoints
 70
     0
 62
     7
  6
Continuous
370
    50
390
F
347
46
348
0
  0
ENDTAB
  0
TABLE
  2
STYLE
  5
3
330
0
100
AcDbSymbolTable
 70
     1
  0
STYLE
  5
11
330
3
100
AcDbSymbolTableRecord
100
AcDbTextStyleTableRecord
  2
Standard
 70
     0
 40
0.0
 41
1.0
 50
0.0
 71
     0
 42
0.2
  3
txt
  4

  0
ENDTAB
  0
TABLE
  2
VIEW
  5
6
330
0
100
AcDbSymbolTable
 70
     0
  0
ENDTAB
  0
TABLE
  2
UCS
  5
7
330
0
100
AcDbSymbolTable
 70
     0
  0
ENDTAB
  0
TABLE
  2
APPID
  5
9
330
0
100
AcDbSymbolTable
 70
     1
  0
APPID
  5
12
330
9
100
AcDbSymbolTableRecord
100
AcDbRegAppTableRecord
  2
ACAD
 70
     0
  0
ENDTAB
  0
TABLE
  2
DIMSTYLE
  5
A
330
0
100
AcDbSymbolTable
 70
     1
100
AcDbDimStyleTable
  0
DIMSTYLE
105
27
330
A
100
AcDbSymbolTableRecord
100
AcDbDimStyleTableRecord
  2
Standard
 70
     0
178
     0
340
11
  0
ENDTAB
  0
TABLE
  2
BLOCK_RECORD
  5
1
330
0
100
AcDbSymbolTable
 70
     5
  0
BLOCK_RECORD
  5
1F
330
1
100
AcDbSymbolTableRecord
100
AcDbBlockTableRecord
  2
*Model_Space
340
22
 70
     0
280
     1
281
     0
  0
BLOCK_RECORD
  5
1B
330
1
100
AcDbSymbolTableRecord
100
AcDbBlockTableRecord
  2
*Paper_Space
340
1E
 70
     0
280
     1
281
     0
  0
BLOCK_RECORD
  5
23
330
1
100
AcDbSymbolTableRecord
100
AcDbBlockTableRecord
  2
*Paper_Space0
340
26
 70
     0
280
     1
281
     0
  0
BLOCK_RECORD
  5
6E
330
1
100
AcDbSymbolTableRecord
100
AcDbBlockTableRecord
  2
1_124643_2
340
0
102
{BLKREFS
331
6F
102
}
 70
     0
280
     1
281
     0
  0
BLOCK_RECORD
  5
89
330
1
100
AcDbSymbolTableRecord
100
AcDbBlockTableRecord
  2
2_077977_0_in_124643_2
340
0
102
{BLKREFS
331
8A
102
}
 70
     0
280
     1
281
     0
  0
BLOCK_RECORD
  5
DD
330
1
100
AcDbSymbolTableRecord
100
AcDbBlockTableRecord
  2
3_405015E_Inch_0_in_124643_2
340
0
102
{BLKREFS
331
DE
102
}
 70
     0
280
     1
281
     0
  0
BLOCK_RECORD
  5
12C
330
1
100
AcDbSymbolTableRecord
100
AcDbBlockTableRecord
  2
4_124643H_0_in_124643_2
340
0
102
{BLKREFS
331
12D
102
}
 70
     0
280
     1
281
     0
  0
ENDTAB
  0
ENDSEC
  0
SECTION
  2
BLOCKS
  0
BLOCK
  5
20
330
1F
100
AcDbEntity
  8
0
100
AcDbBlockBegin
  2
*Model_Space
 70
     0
 10
0.0
 20
0.0
 30
0.0
  3
*Model_Space
  1

  0
ENDBLK
  5
21
330
1F
100
AcDbEntity
  8
0
100
AcDbBlockEnd
  0
BLOCK
  5
1C
330
1B
100
AcDbEntity
 67
     1
  8
0
100
AcDbBlockBegin
  2
*Paper_Space
 70
     0
 10
0.0
 20
0.0
 30
0.0
  3
*Paper_Space
  1

  0
ENDBLK
  5
1D
330
1B
100
AcDbEntity
 67
     1
  8
0
100
AcDbBlockEnd
  0
BLOCK
  5
24
330
23
100
AcDbEntity
  8
0
100
AcDbBlockBegin
  2
*Paper_Space0
 70
     0
 10
0.0
 20
0.0
 30
0.0
  3
*Paper_Space0
  1

  0
ENDBLK
  5
25
330
23
100
AcDbEntity
  8
0
100
AcDbBlockEnd
  0
BLOCK
  5
70
330
6E
100
AcDbEntity
  8
0
100
AcDbBlockBegin
  2
1_124643_2
 70
     2
 10
0.0
 20
0.0
 30
0.0
  3
1_124643_2
  1

  0
ATTDEF
  5
73
330
6E
100
AcDbEntity
  8
AM_6
100
AcDbText
 10
5.0435
 20
1.875000000000001
 30
0.0
 40
0.5
  1
Set Screw LFT Duty 2-Bolt Flange Inch Bore
100
AcDbAttributeDefinition
  3

  2
NN
 70
     8
280
     0
  0
ATTDEF
  5
74
330
6E
100
AcDbEntity
  8
AM_6
100
AcDbText
 10
5.0435
 20
1.375000000000001
 30
0.0
 40
0.5
  1
SC 2 Bolt Flange Bearings -(Normal Duty) -Re-Lube and No-Lube
100
AcDbAttributeDefinition
  3

  2
NT
 70
     8
280
     0
  0
ATTDEF
  5
75
330
6E
100
AcDbEntity
  8
AM_6
100
AcDbText
 10
5.0435
 20
0.8750000000000007
 30
0.0
 40
0.5
  1
124643
100
AcDbAttributeDefinition
  3

  2
NB
 70
     8
280
     0
  0
ATTDEF
  5
76
330
6E
100
AcDbEntity
  8
AM_6
100
AcDbText
 10
5.0435
 20
0.3750000000000007
 30
0.0
 40
0.5
  1
$PN.
100
AcDbAttributeDefinition
  3

  2
NBSYN
 70
     8
280
     0
  0
ATTDEF
  5
77
330
6E
100
AcDbEntity
  8
AM_6
100
AcDbText
 10
5.0435
 20
-0.1249999999999993
 30
0.0
 40
0.5
  1
124643
100
AcDbAttributeDefinition
  3

  2
LINA
 70
     8
280
     0
  0
ATTDEF
  5
78
330
6E
100
AcDbEntity
  8
AM_6
100
AcDbText
 10
5.0435
 20
-0.6249999999999993
 30
0.0
 40
0.5
  1
205
100
AcDbAttributeDefinition
  3

  2
SERIES
 70
     8
280
     0
  0
ATTDEF
  5
79
330
6E
100
AcDbEntity
  8
AM_6
100
AcDbText
 10
5.0435
 20
-1.124999999999999
 30
0.0
 40
0.5
  1
7/8
100
AcDbAttributeDefinition
  3

  2
SS
 70
     8
280
     0
  0
ATTDEF
  5
7A
330
6E
100
AcDbEntity
  8
AM_6
100
AcDbText
 10
5.0435
 20
-1.624999999999999
 30
0.0
 40
0.5
  1
124643
100
AcDbAttributeDefinition
  3

  2
PN
 70
     8
280
     0
  0
ATTDEF
  5
7B
330
6E
100
AcDbEntity
  8
AM_6
100
AcDbText
 10
5.0435
 20
-2.124999999999999
 30
0.0
 40
0.5
  1
LFT-SC-014
100
AcDbAttributeDefinition
  3

  2
DESCRIPTION
 70
     8
280
     0
  0
ATTDEF
  5
7C
330
6E
100
AcDbEntity
  8
AM_6
100
AcDbText
 10
5.0435
 20
-2.624999999999999
 30
0.0
 40
0.5
  1
0.95
100
AcDbAttributeDefinition
  3

  2
W
 70
     8
280
     0
  0
ATTDEF
  5
7D
330
6E
100
AcDbEntity
  8
AM_6
100
AcDbText
 10
5.0435
 20
-3.124999999999999
 30
0.0
 40
0.5
  1
RE-LUBE
100
AcDbAttributeDefinition
  3

  2
LF
 70
     8
280
     0
  0
ATTDEF
  5
7E
330
6E
100
AcDbEntity
  8
AM_6
100
AcDbText
 10
5.0435
 20
-3.624999999999999
 30
0.0
 40
0.5
  1
1.06
100
AcDbAttributeDefinition
  3

  2
A
 70
     8
280
     0
  0
ATTDEF
  5
7F
330
6E
100
AcDbEntity
  8
AM_6
100
AcDbText
 10
5.0435
 20
-4.124999999999999
 30
0.0
 40
0.5
  1
3.75
100
AcDbAttributeDefinition
  3

  2
B
 70
     8
280
     0
  0
ATTDEF
  5
80
330
6E
100
AcDbEntity
  8
AM_6
100
AcDbText
 10
5.0435
 20
-4.624999999999999
 30
0.0
 40
0.5
  1
1.24
100
AcDbAttributeDefinition
  3

  2
C
 70
     8
280
     0
  0
ATTDEF
  5
81
330
6E
100
AcDbEntity
  8
AM_6
100
AcDbText
 10
5.0435
 20
-5.124999999999999
 30
0.0
 40
0.5
  1
3.00
100
AcDbAttributeDefinition
  3

  2
D
 70
     8
280
     0
  0
ATTDEF
  5
82
330
6E
100
AcDbEntity
  8
AM_6
100
AcDbText
 10
5.0435
 20
-5.624999999999999
 30
0.0
 40
0.5
  1
0.34
100
AcDbAttributeDefinition
  3

  2
G
 70
     8
280
     0
  0
ATTDEF
  5
83
330
6E
100
AcDbEntity
  8
AM_6
100
AcDbText
 10
5.0435
 20
-6.124999999999999
 30
0.0
 40
0.5
  1
0.42
100
AcDbAttributeDefinition
  3

  2
H
 70
     8
280
     0
  0
ATTDEF
  5
84
330
6E
100
AcDbEntity
  8
AM_6
100
AcDbText
 10
5.0435
 20
-6.624999999999999
 30
0.0
 40
0.5
  1
0.37
100
AcDbAttributeDefinition
  3

  2
J
 70
     8
280
     0
  0
ATTDEF
  5
85
330
6E
100
AcDbEntity
  8
AM_6
100
AcDbText
 10
5.0435
 20
-7.124999999999999
 30
0.0
 40
0.5
  1
1.32
100
AcDbAttributeDefinition
  3

  2
L
 70
     8
280
     0
  0
ATTDEF
  5
86
330
6E
100
AcDbEntity
  8
AM_6
100
AcDbText
 10
5.0435
 20
-7.624999999999999
 30
0.0
 40
0.5
  1
2.63
100
AcDbAttributeDefinition
  3

  2
M
 70
     8
280
     0
  0
ATTDEF
  5
87
330
6E
100
AcDbEntity
  8
AM_6
100
AcDbText
 10
5.0435
 20
-8.125
 30
0.0
 40
0.5
  1
1.44
100
AcDbAttributeDefinition
  3

  2
N
 70
     8
280
     0
  0
ATTDEF
  5
88
330
6E
100
AcDbEntity
  8
AM_6
100
AcDbText
 10
5.0435
 20
-8.625
 30
0.0
 40
0.5
  1
baldor
100
AcDbAttributeDefinition
  3

  2
COMPANY
 70
     8
280
     0
  0
INSERT
  5
8A
330
6E
100
AcDbEntity
  8
0
100
AcDbBlockReference
  2
2_077977_0_in_124643_2
 10
0.0
 20
0.0
 30
0.0
  0
INSERT
  5
DE
330
6E
100
AcDbEntity
  8
0
100
AcDbBlockReference
  2
3_405015E_Inch_0_in_124643_2
 10
0.0
 20
0.0
 30
0.0
  0
INSERT
  5
12D
330
6E
100
AcDbEntity
  8
0
100
AcDbBlockReference
  2
4_124643H_0_in_124643_2
 10
0.0
 20
0.0
 30
0.0
  0
ENDBLK
  5
71
330
6E
100
AcDbEntity
  8
0
100
AcDbBlockEnd
  0
BLOCK
  5
8B
330
89
100
AcDbEntity
  8
0
100
AcDbBlockBegin
  2
2_077977_0_in_124643_2
 70
     2
 10
0.0
 20
0.0
 30
0.0
  3
2_077977_0_in_124643_2
  1

  0
ATTDEF
  5
8D
330
89
100
AcDbEntity
  8
AM_6
100
AcDbText
 10
4.82
 20
1.023071041545318
 30
0.0
 40
0.5
  1
Set Screw Light Duty Insert with Pin Inch Bore
100
AcDbAttributeDefinition
  3

  2
NN
 70
     8
280
     0
  0
ATTDEF
  5
8E
330
89
100
AcDbEntity
  8
AM_6
100
AcDbText
 10
4.82
 20
0.5230710415453177
 30
0.0
 40
0.5
  1
SCP Bearing Inserts
100
AcDbAttributeDefinition
  3

  2
NT
 70
     8
280
     0
  0
ATTDEF
  5
8F
330
89
100
AcDbEntity
  8
AM_6
100
AcDbText
 10
4.82
 20
0.0230710415453177
 30
0.0
 40
0.5
  1
077977
100
AcDbAttributeDefinition
  3

  2
NB
 70
     8
280
     0
  0
ATTDEF
  5
90
330
89
100
AcDbEntity
  8
AM_6
100
AcDbText
 10
4.82
 20
-0.4769289584546823
 30
0.0
 40
0.5
  1
$PN.
100
AcDbAttributeDefinition
  3

  2
NBSYN
 70
     8
280
     0
  0
ATTDEF
  5
91
330
89
100
AcDbEntity
  8
AM_6
100
AcDbText
 10
4.82
 20
-0.9769289584546823
 30
0.0
 40
0.5
  1
077977
100
AcDbAttributeDefinition
  3

  2
LINA
 70
     8
280
     0
  0
ATTDEF
  5
92
330
89
100
AcDbEntity
  8
AM_6
100
AcDbText
 10
4.82
 20
-1.476928958454682
 30
0.0
 40
0.5
  1
205
100
AcDbAttributeDefinition
  3

  2
SERIES
 70
     8
280
     0
  0
ATTDEF
  5
93
330
89
100
AcDbEntity
  8
AM_6
100
AcDbText
 10
4.82
 20
-1.976928958454682
 30
0.0
 40
0.5
  1
7/8
100
AcDbAttributeDefinition
  3

  2
SS
 70
     8
280
     0
  0
ATTDEF
  5
94
330
89
100
AcDbEntity
  8
AM_6
100
AcDbText
 10
4.82
 20
-2.476928958454682
 30
0.0
 40
0.5
  1
077977
100
AcDbAttributeDefinition
  3

  2
PN
 70
     8
280
     0
  0
ATTDEF
  5
95
330
89
100
AcDbEntity
  8
AM_6
100
AcDbText
 10
4.82
 20
-2.976928958454682
 30
0.0
 40
0.5
  1
INS-SCP-014
100
AcDbAttributeDefinition
  3

  2
DESCRIPTION
 70
     8
280
     0
  0
ATTDEF
  5
96
330
89
100
AcDbEntity
  8
AM_6
100
AcDbText
 10
4.82
 20
-3.476928958454682
 30
0.0
 40
0.5
  1
1.06
100
AcDbAttributeDefinition
  3

  2
A
 70
     8
280
     0
  0
ATTDEF
  5
97
330
89
100
AcDbEntity
  8
AM_6
100
AcDbText
 10
4.82
 20
-3.976928958454682
 30
0.0
 40
0.5
  1
0.59
100
AcDbAttributeDefinition
  3

  2
C
 70
     8
280
     0
  0
ATTDEF
  5
98
330
89
100
AcDbEntity
  8
AM_6
100
AcDbText
 10
4.82
 20
-4.476928958454682
 30
0.0
 40
0.5
  1
2.0472
100
AcDbAttributeDefinition
  3

  2
D
 70
     8
280
     0
  0
ATTDEF
  5
99
330
89
100
AcDbEntity
  8
AM_6
100
AcDbText
 10
4.82
 20
-4.976928958454682
 30
0.0
 40
0.5
  1
0.16
100
AcDbAttributeDefinition
  3

  2
J
 70
     8
280
     0
  0
ATTDEF
  5
9A
330
89
100
AcDbEntity
  8
AM_6
100
AcDbText
 10
4.82
 20
-5.476928958454682
 30
0.0
 40
0.5
  1
1.32
100
AcDbAttributeDefinition
  3

  2
L
 70
     8
280
     0
  0
ATTDEF
  5
9B
330
89
100
AcDbEntity
  8
AM_6
100
AcDbText
 10
4.82
 20
-5.976928958454682
 30
0.0
 40
0.5
  1
1/4 - 28
100
AcDbAttributeDefinition
  3

  2
N
 70
     8
280
     0
  0
ATTDEF
  5
9C
330
89
100
AcDbEntity
  8
AM_6
100
AcDbText
 10
4.82
 20
-6.476928958454682
 30
0.0
 40
0.5
  1
0.30
100
AcDbAttributeDefinition
  3

  2
W
 70
     8
280
     0
  0
ATTDEF
  5
9D
330
89
100
AcDbEntity
  8
AM_6
100
AcDbText
 10
4.82
 20
-6.976928958454682
 30
0.0
 40
0.5
  1
0.76
100
AcDbAttributeDefinition
  3

  2
Y
 70
     8
280
     0
  0
ATTDEF
  5
9E
330
89
100
AcDbEntity
  8
AM_6
100
AcDbText
 10
4.82
 20
-7.476928958454682
 30
0.0
 40
0.5
  1
baldor
100
AcDbAttributeDefinition
  3

  2
COMPANY
 70
     8
280
     0
  0
ELLIPSE
  5
A1
330
89
100
AcDbEntity
  8
AM_9
100
AcDbEllipse
 10
-0.32
 20
0.7547304228994615
 30
0.0
 11
0.02969696969697255
 21
0.0
 31
0.0
210
0.0
220
0.0
230
1.0
 40
0.7071067811865467
 41
0.0
 42
6.283185307179586
  0
LWPOLYLINE
  5
A2
330
89
100
AcDbEntity
  8
AM_9
100
AcDbPolyline
 90
       15
 70
     0
 43
0.0
 10
-0.32
 20
0.7914390787437866
 10
-0.3261525023850627
 20
0.7912408766729914
 10
-0.3349845517895625
 20
0.7902546093141074
 10
-0.3437314195404864
 20
0.7884267137027553
 10
-0.3522902275286243
 20
0.7857463626554451
 10
-0.3605454085476886
 20
0.7822138894705561
 10
-0.368367802558601
 20
0.7778496222247645
 10
-0.3756230250770442
 20
0.7727008746311032
 10
-0.381518536445389
 20
0.7675018927798544
 10
-0.3867814852071036
 20
0.7618117731483275
 10
-0.3913719992464606
 20
0.7556864110916115
 10
-0.3956387646994305
 20
0.7484490215743999
 10
-0.398981080712467
 20
0.7408722218843942
 10
-0.4013733150942625
 20
0.7330839148841386
 10
-0.4021994810454871
 20
0.7292198268534681
  0
LWPOLYLINE
  5
A3
330
89
100
AcDbEntity
  8
AM_9
100
AcDbPolyline
 90
       17
 70
     0
 43
0.0
 10
-0.236666671391043
 20
0.7168292245555989
 10
-0.2369486258960453
 20
0.72301257068071
 10
-0.2380907482377948
 20
0.730705212941979
 10
-0.2400749184941693
 20
0.7381695303090935
 10
-0.2428609987108193
 20
0.7453410345891395
 10
-0.2464084366477573
 20
0.7521633078853438
 10
-0.2506779015769825
 20
0.75858685205001
 10
-0.2556322551455953
 20
0.7645673252218325
 10
-0.2612363887564548
 20
0.7700632029222194
 10
-0.2674553961323958
 20
0.7750331420332113
 10
-0.2742507934968805
 20
0.7794337035087644
 10
-0.2815753054518876
 20
0.7832184522536584
 10
-0.2893680486156869
 20
0.7863393755994671
 10
-0.2975528568298749
 20
0.7887505681843044
 10
-0.3060414785810047
 20
0.7904124888396696
 10
-0.3147402800820329
 20
0.7912942831967044
 10
-0.32
 20
0.7914390787437866
  0
LWPOLYLINE
  5
A4
330
89
100
AcDbEntity
  8
AM_9
100
AcDbPolyline
 90
        7
 70
     0
 43
0.0
 10
-0.4022007674074536
 20
0.7292128258174725
 10
-0.4003933538337979
 20
0.7358450895987724
 10
-0.3958737323512375
 20
0.7447505070132243
 10
-0.3892192279641146
 20
0.7527432954539035
 10
-0.3806145186441206
 20
0.7595589245205202
 10
-0.3703094063613268
 20
0.765041599137006
 10
-0.3587588156064313
 20
0.7689679439629261
  0
ELLIPSE
  5
A5
330
89
100
AcDbEntity
  8
AM_9
100
AcDbEllipse
 10
-0.3200000000000002
 20
0.7168037864540012
 30
0.0
 11
-0.08333333333333826
 21
1.020538999289521E-17
 31
0.0
210
0.0
220
0.0
230
1.0
 40
0.7071067811865479
 41
1.087042220127445
 42
5.196143087051976
  0
LINE
  5
A6
330
89
100
AcDbEntity
  8
AM_9
100
AcDbLine
 10
-0.2366666666666619
 20
0.7030554150958506
 30
0.0
 11
-0.2366666666666619
 21
0.7168037864540011
 31
0.0
  0
LWPOLYLINE
  5
A7
330
89
100
AcDbEntity
  8
AM_9
100
AcDbPolyline
 90
       14
 70
     0
 43
0.0
 10
-0.2366666668950761
 20
0.7030411011656401
 10
-0.2376505125935597
 20
0.7121464542598718
 10
-0.2408934841090208
 20
0.722054676945649
 10
-0.2463322781831957
 20
0.7316776793358443
 10
-0.2537770166012419
 20
0.7407595993536439
 10
-0.2631096835745291
 20
0.7490980200756863
 10
-0.27399039301202
 20
0.7564100413373875
 10
-0.2862810786024041
 20
0.7625487798871301
 10
-0.2994982704248778
 20
0.7672735857055083
 10
-0.3134417937289132
 20
0.7704651077139623
 10
-0.3275689178233957
 20
0.7719963029806182
 10
-0.3415625274907175
 20
0.7717945754270866
 10
-0.3549465499575938
 20
0.7698720321385876
 10
-0.3587588156064314
 20
0.7689679439629264
  0
LINE
  5
A8
330
89
100
AcDbEntity
  8
AM_9
100
AcDbLine
 10
-0.90955
 20
0.309328715506552
 30
0.0
 11
-0.90955
 21
0.4532588278671175
 31
0.0
  0
LINE
  5
A9
330
89
100
AcDbEntity
  8
AM_9
100
AcDbLine
 10
-1.10545
 20
0.4532588278671175
 30
0.0
 11
-1.10545
 21
0.309305961479705
 31
0.0
  0
LWPOLYLINE
  5
AA
330
89
100
AcDbEntity
  8
AM_9
100
AcDbPolyline
 90
       21
 70
     0
 43
0.0
 10
-1.105449999785469
 20
0.309363800758953
 10
-1.104920105467638
 20
0.3020809089973854
 10
-1.101923655729719
 20
0.2904174721169511
 10
-1.096399841019361
 20
0.2789119727004118
 10
-1.088410232031243
 20
0.2678603545971809
 10
-1.078241867403823
 20
0.2577225336276367
 10
-1.065854187314039
 20
0.2486979505156532
 10
-1.051804435211044
 20
0.2413584260720658
 10
-1.036401189600561
 20
0.2360312876438621
 10
-1.020141996915132
 20
0.2329569358420238
 10
-1.003854546116965
 20
0.2323147160942026
 10
-0.987672072509849
 20
0.234004876301737
 10
-0.9722573246588497
 20
0.2379208829737925
 10
-0.9578115146676405
 20
0.2438587730270453
 10
-0.9445299476818944
 20
0.251733584960579
 10
-0.9329812645472102
 20
0.2611251787984287
 10
-0.9233292462785078
 20
0.2719153495032977
 10
-0.9160658865173739
 20
0.2835208383636951
 10
-0.9114685462446899
 20
0.2954543349299628
 10
-0.9095894124793212
 20
0.3073883727974191
 10
-0.9095500005743835
 20
0.3093517159541758
  0
LWPOLYLINE
  5
AB
330
89
100
AcDbEntity
  8
AM_9
100
AcDbPolyline
 90
       11
 70
     0
 43
0.0
 10
-0.9095500005743835
 20
0.3093517159541758
 10
-0.9104816406326081
 20
0.3186898961993402
 10
-0.9140063998551441
 20
0.3293226809606167
 10
-0.920063934961795
 20
0.338983747219982
 10
-0.9284520773706499
 20
0.3475436733082413
 10
-0.9391986649962969
 20
0.3549861882238168
 10
-0.9518426994131473
 20
0.3610572368687542
 10
-0.9662810546080989
 20
0.3657360735614222
 10
-0.9819299883017951
 20
0.3689073726081515
 10
-0.9945979550593188
 20
0.3703002388596613
 10
-1.0075
 20
0.3707673674441454
  0
LWPOLYLINE
  5
AC
330
89
100
AcDbEntity
  8
AM_9
100
AcDbPolyline
 90
       11
 70
     0
 43
0.0
 10
-1.0075
 20
0.3707673674441454
 10
-1.02371053540495
 20
0.3700259065411277
 10
-1.039458383460478
 20
0.3678227848169917
 10
-1.054279045226838
 20
0.3641618897276567
 10
-1.067805986590095
 20
0.3590842875152924
 10
-1.079841737575817
 20
0.3525009401135122
 10
-1.089862486205457
 20
0.3445669772445826
 10
-1.09763454313033
 20
0.3352601054969467
 10
-1.102834524334585
 20
0.3248490160429924
 10
-1.105240080044419
 20
0.3137409340070839
 10
-1.105449999785469
 20
0.309363800758953
  0
LINE
  5
AD
330
89
100
AcDbEntity
  8
AM_9
100
AcDbLine
 10
-0.2063999999999999
 20
0.4375000000000001
 30
0.0
 11
-1.2136
 21
0.4375000000000001
 31
0.0
  0
LINE
  5
AE
330
89
100
AcDbEntity
  8
AM_9
100
AcDbLine
 10
-1.2136
 20
-0.4375000000000001
 30
0.0
 11
-0.2063999999999999
 21
-0.4375000000000001
 31
0.0
  0
LINE
  5
AF
330
89
100
AcDbEntity
  8
AM_9
100
AcDbLine
 10
-0.2063999999999999
 20
-0.4374999999999999
 30
0.0
 11
-0.2063999999999999
 21
0.4374999999999999
 31
0.0
  0
LINE
  5
B0
330
89
100
AcDbEntity
  8
AM_9
100
AcDbLine
 10
-0.2063999999999999
 20
-0.4374999999999999
 30
0.0
 11
-0.18
 21
-0.4639000000000049
 31
0.0
  0
LINE
  5
B1
330
89
100
AcDbEntity
  8
AM_9
100
AcDbLine
 10
-0.18
 20
0.4639000000000049
 30
0.0
 11
-0.2063999999999999
 21
0.4374999999999999
 31
0.0
  0
LINE
  5
B2
330
89
100
AcDbEntity
  8
AM_9
100
AcDbLine
 10
-1.2136
 20
0.4375000000000001
 30
0.0
 11
-1.24
 21
0.4639000000000049
 31
0.0
  0
LINE
  5
B3
330
89
100
AcDbEntity
  8
AM_9
100
AcDbLine
 10
-1.24
 20
-0.4639000000000049
 30
0.0
 11
-1.2136
 21
-0.4375000000000001
 31
0.0
  0
LWPOLYLINE
  5
B4
330
89
100
AcDbEntity
  8
AM_9
100
AcDbPolyline
 90
       11
 70
     0
 43
0.0
 10
-1.0075
 20
-0.0537925267095589
 10
-1.023479191730239
 20
-0.0551279429332038
 10
-1.039458383460478
 20
-0.0592385470197362
 10
-1.054086024269056
 20
-0.0657371490745223
 10
-1.067805986590095
 20
-0.0747574193324431
 10
-1.079692849307076
 20
-0.0857035703026597
 10
-1.089862486205457
 20
-0.0987130348518992
 10
-1.097546932997538
 20
-0.1128310474379449
 10
-1.102834524334585
 20
-0.1283080162263306
 10
-1.105234741047366
 20
-0.143518539533087
 10
-1.105449999791013
 20
-0.1496278000918369
  0
LINE
  5
B5
330
89
100
AcDbEntity
  8
AM_9
100
AcDbLine
 10
-1.10545
 20
-0.1496080069160496
 30
0.0
 11
-1.10545
 21
-0.2192365472872449
 31
0.0
  0
LINE
  5
B6
330
89
100
AcDbEntity
  8
AM_9
100
AcDbLine
 10
-0.9095499999999999
 20
-0.2192365472872449
 30
0.0
 11
-0.9095499999999999
 21
-0.1496195425928597
 31
0.0
  0
LWPOLYLINE
  5
B7
330
89
100
AcDbEntity
  8
AM_9
100
AcDbPolyline
 90
        5
 70
     0
 43
0.0
 10
-0.9171097119667486
 20
-0.1845338980974817
 10
-0.9160658865173739
 20
-0.1821605948941792
 10
-0.9115072094489459
 20
-0.1677933823894979
 10
-0.9095894124793212
 20
-0.1522416110645616
 10
-0.9095500005097619
 20
-0.1496432031237173
  0
LWPOLYLINE
  5
B8
330
89
100
AcDbEntity
  8
AM_9
100
AcDbPolyline
 90
        4
 70
     0
 43
0.0
 10
-1.105449999791013
 20
-0.1496278000918369
 10
-1.104920105467638
 20
-0.1591544792464016
 10
-1.101992766971642
 20
-0.1736117582062133
 10
-1.098017081312203
 20
-0.1842561205878501
  0
LWPOLYLINE
  5
B9
330
89
100
AcDbEntity
  8
AM_9
100
AcDbPolyline
 90
       11
 70
     0
 43
0.0
 10
-0.9095500005097619
 20
-0.1496432031237173
 10
-0.9104400814078955
 20
-0.1371857113249906
 10
-0.914006399855144
 20
-0.1218527439960592
 10
-0.9199565970632372
 20
-0.1075912098747533
 10
-0.9284520773706499
 20
-0.0939671640042001
 10
-0.9390289616690344
 20
-0.0818855353701389
 10
-0.9518426994131473
 20
-0.0713327008452469
 10
-0.9660535376309077
 20
-0.0631259212884148
 10
-0.9819299883017951
 20
-0.057246118426705
 10
-0.99447978180443
 20
-0.054677307684053
 10
-1.0075
 20
-0.0537925267095589
  0
LINE
  5
BA
330
89
100
AcDbEntity
  8
AM_9
100
AcDbLine
 10
-0.775
 20
0.6599999999999927
 30
0.0
 11
-0.8699999999999999
 21
0.6599999999999927
 31
0.0
  0
LINE
  5
BB
330
89
100
AcDbEntity
  8
AM_9
100
AcDbLine
 10
-0.87
 20
-0.6599999999999927
 30
0.0
 11
-0.775
 21
-0.6599999999999927
 31
0.0
  0
LINE
  5
BC
330
89
100
AcDbEntity
  8
AM_9
100
AcDbLine
 10
-0.18
 20
-0.6599999999999931
 30
0.0
 11
-0.18
 21
0.6599999999999931
 31
0.0
  0
LINE
  5
BD
330
89
100
AcDbEntity
  8
AM_9
100
AcDbLine
 10
-0.18
 20
0.6599999999999931
 30
0.0
 11
-0.185
 21
0.6599999999999931
 31
0.0
  0
LINE
  5
BE
330
89
100
AcDbEntity
  8
AM_9
100
AcDbLine
 10
-0.185
 20
-0.6599999999999931
 30
0.0
 11
-0.18
 21
-0.6599999999999931
 31
0.0
  0
LINE
  5
BF
330
89
100
AcDbEntity
  8
AM_9
100
AcDbLine
 10
-0.608
 20
0.9702666666666678
 30
0.0
 11
-0.6719999999999999
 21
0.9702666666666678
 31
0.0
  0
LINE
  5
C0
330
89
100
AcDbEntity
  8
AM_9
100
AcDbLine
 10
-0.6719999999999999
 20
-0.9702666666666678
 30
0.0
 11
-0.608
 21
-0.9702666666666678
 31
0.0
  0
LINE
  5
C1
330
89
100
AcDbEntity
  8
AM_9
100
AcDbLine
 10
-0.1849999999999999
 20
-0.9560865860370594
 30
0.0
 11
-0.1849999999999999
 21
0.9560865860370594
 31
0.0
  0
ARC
  5
C2
330
89
100
AcDbEntity
  8
AM_9
100
AcDbCircle
 10
-0.2170000000000005
 20
0.9560865860370593
 30
0.0
 40
0.0320000000000007
100
AcDbArc
 50
0.0
 51
74.61950405088118
  0
ARC
  5
C3
330
89
100
AcDbEntity
  8
AM_9
100
AcDbCircle
 10
-0.2170000000000005
 20
-0.9560865860370593
 30
0.0
 40
0.0320000000000006
100
AcDbArc
 50
285.3804959491188
 51
0.0
  0
LINE
  5
C4
330
89
100
AcDbEntity
  8
AM_9
100
AcDbLine
 10
-0.775
 20
-0.9560865860370598
 30
0.0
 11
-0.775
 21
0.9560865860370598
 31
0.0
  0
ARC
  5
C5
330
89
100
AcDbEntity
  8
AM_9
100
AcDbCircle
 10
-0.7429999999999992
 20
0.9560865860370591
 30
0.0
 40
0.0320000000000008
100
AcDbArc
 50
105.380493060878
 51
180.0
  0
ARC
  5
C6
330
89
100
AcDbEntity
  8
AM_9
100
AcDbCircle
 10
-0.7429999999999997
 20
-0.9560865860370594
 30
0.0
 40
0.0320000000000004
100
AcDbArc
 50
180.0
 51
254.6195069391227
  0
ARC
  5
C7
330
89
100
AcDbEntity
  8
AM_9
100
AcDbCircle
 10
-0.4800000000080329
 20
0.0000000000345668
 30
0.0
 40
1.023599999964569
100
AcDbArc
 50
100.8111968127735
 51
105.3804958589041
  0
ARC
  5
C8
330
89
100
AcDbEntity
  8
AM_9
100
AcDbCircle
 10
-0.4800000000470159
 20
-0.0000000002022639
 30
0.0
 40
1.023599999792674
100
AcDbArc
 50
254.6195041407122
 51
259.1888031876106
  0
LINE
  5
C9
330
89
100
AcDbEntity
  8
AM_9
100
AcDbLine
 10
-0.6720000000000002
 20
-1.005431728164743
 30
0.0
 11
-0.6720000000000002
 21
1.005431728164602
 31
0.0
  0
LINE
  5
CA
330
89
100
AcDbEntity
  8
AM_9
100
AcDbLine
 10
-0.7514872917080866
 20
-0.9869405303468611
 30
0.0
 11
-0.7514872917080866
 21
0.9869405303467202
 31
0.0
  0
LWPOLYLINE
  5
CB
330
89
100
AcDbEntity
  8
AM_9
100
AcDbPolyline
 90
        9
 70
     0
 43
0.0
 10
-0.3587588156064437
 20
0.6646396289450806
 10
-0.3701366440181687
 20
0.67103986449175
 10
-0.3801910338742729
 20
0.6785552314894651
 10
-0.3887894557308296
 20
0.6871742907591133
 10
-0.3954975576460627
 20
0.6964964701164059
 10
-0.4001285722249845
 20
0.7063307240590386
 10
-0.4025371002086866
 20
0.7163372278465728
 10
-0.4026215005641848
 20
0.7262850421929512
 10
-0.4022007674074536
 20
0.7292128258174725
  0
LWPOLYLINE
  5
CC
330
89
100
AcDbEntity
  8
AM_9
100
AcDbPolyline
 90
       14
 70
     0
 43
0.0
 10
-0.3587588156064438
 20
0.6646396289450806
 10
-0.3456912379051041
 20
0.6592947187515049
 10
-0.3319023956283841
 20
0.6554787150160232
 10
-0.3177513952569568
 20
0.6533141207199156
 10
-0.3036642274338442
 20
0.6528459733060655
 10
-0.2900064477061084
 20
0.65411900378543
 10
-0.2772003695507617
 20
0.6570827451604728
 10
-0.2656780961780016
 20
0.6616617128876435
 10
-0.2557062592081374
 20
0.6677202698243326
 10
-0.2476856685727849
 20
0.6750269716862354
 10
-0.2417175982706508
 20
0.6834171314126425
 10
-0.2380494652091174
 20
0.6925466508570872
 10
-0.23667442230674
 20
0.7022424352846435
 10
-0.2366666668950761
 20
0.7030411011656401
  0
ARC
  5
CD
330
89
100
AcDbEntity
  8
AM_9
100
AcDbCircle
 10
-0.4800000000000436
 20
0.0000000000006211
 30
0.0
 40
1.023600000000599
100
AcDbArc
 50
262.8164233462959
 51
285.380495949111
  0
ARC
  5
CE
330
89
100
AcDbEntity
  8
AM_9
100
AcDbCircle
 10
-0.4799999999999932
 20
0.0000000000001046
 30
0.0
 40
1.023599999999895
100
AcDbArc
 50
74.61950405088108
 51
97.18357665371184
  0
LINE
  5
CF
330
89
100
AcDbEntity
  8
AM_9
100
AcDbLine
 10
-0.2085127067365871
 20
-0.9869405299188404
 30
0.0
 11
-0.2085127067365871
 21
0.9869405299188505
 31
0.0
  0
LINE
  5
D0
330
89
100
AcDbEntity
  8
AM_9
100
AcDbLine
 10
-0.608
 20
-1.015565340093869
 30
0.0
 11
-0.608
 21
1.015565340093879
 31
0.0
  0
LWPOLYLINE
  5
D2
330
89
100
AcDbEntity
  8
AM_4
100
AcDbPolyline
 90
       16
 70
     0
 43
0.0
 10
-1.098017081312203
 20
-0.1842561205878501
 10
-1.096399841019361
 20
-0.1876134213016177
 10
-1.088542062582912
 20
-0.2001410828349421
 10
-1.078241867403823
 20
-0.211491158650326
 10
-1.066048819190597
 20
-0.2209935593373109
 10
-1.051804435211044
 20
-0.2287096678602367
 10
-1.036642843622313
 20
-0.234050206533856
 10
-1.020141996915132
 20
-0.2371725505766173
 10
-1.004093807138676
 20
-0.237827294218331
 10
-0.987672072509849
 20
-0.2361303310461597
 10
-0.9724617021322118
 20
-0.2322794134783014
 10
-0.9578115146676406
 20
-0.2261428940127469
 10
-0.9446961887108865
 20
-0.2180415051368138
 10
-0.9329812645472104
 20
-0.2077821521261888
 10
-0.9234447691132941
 20
-0.1958976358253657
 10
-0.9171097119667486
 20
-0.1845338980974817
  0
LWPOLYLINE
  5
D3
330
89
100
AcDbEntity
  8
AM_4
100
AcDbPolyline
 90
       39
 70
     0
 43
0.0
 10
-0.9271037726986063
 20
0.4079708268859528
 10
-0.9403498091850492
 20
0.3999941120646766
 10
-0.954877462934364
 20
0.393489095901768
 10
-0.9734874024370478
 20
0.387862374119107
 10
-0.9929776721112378
 20
0.3846901028444334
 10
-1.01365540379116
 20
0.3841320081869979
 10
-1.034162835074476
 20
0.3863500980124935
 10
-1.054134806727379
 20
0.3913840378322499
 10
-1.072752145769712
 20
0.3990192905741081
 10
-1.089104471650518
 20
0.4088338974664386
 10
-1.102996661672844
 20
0.4205819684571837
 10
-1.113275327384064
 20
0.4330604639249868
 10
-1.120420296913159
 20
0.4464426442374407
 10
-1.123851806006338
 20
0.459053852906752
 10
-1.124201274614034
 20
0.4715848251224779
 10
-1.121642140121868
 20
0.4829508665051221
 10
-1.116432958768331
 20
0.4935995638553261
 10
-1.108651350678786
 20
0.5033798544002874
 10
-1.098645498428971
 20
0.5120329634073828
 10
-1.085857718937163
 20
0.5198835948292394
 10
-1.071280718396633
 20
0.5262716803446189
 10
-1.053960586430781
 20
0.5314762341445824
 10
-1.035481785484865
 20
0.5349270494329369
 10
-1.015224378789859
 20
0.5366478124833219
 10
-0.9947576949674954
 20
0.5364106575026043
 10
-0.9742168953350273
 20
0.5341282326428359
 10
-0.9546283578702898
 20
0.5298035477663022
 10
-0.9367370549308228
 20
0.5234778957011874
 10
-0.920957885672327
 20
0.5151764741221894
 10
-0.9084308166976223
 20
0.5054336301291122
 10
-0.8988872075163488
 20
0.494096746531076
 10
-0.8931903519677917
 20
0.4824547218149582
 10
-0.8906640123116307
 20
0.4699722268531893
 10
-0.8913190031561906
 20
0.4579791306791213
 10
-0.8947794225747452
 20
0.4459448276154026
 10
-0.9008379484873793
 20
0.4343927945614433
 10
-0.9092586311793882
 20
0.4234781474022543
 10
-0.9175838172079236
 20
0.4153581436019929
 10
-0.9271037725701932
 20
0.4079708265953259
  0
LWPOLYLINE
  5
D4
330
89
100
AcDbEntity
  8
AM_4
100
AcDbPolyline
 90
       39
 70
     0
 43
0.0
 10
-0.9161852079205077
 20
-0.2878878557284106
 10
-0.928105823960352
 20
-0.2985543956082765
 10
-0.9416296097810877
 20
-0.3074869249779929
 10
-0.9587248789236411
 20
-0.3154506540427941
 10
-0.9770343791762455
 20
-0.3209015534915046
 10
-0.9971753151555413
 20
-0.3238319561138689
 10
-1.017594725844426
 20
-0.3238565782559009
 10
-1.038205292762595
 20
-0.3208387969030967
 10
-1.0579399383943
 20
-0.3148160541585393
 10
-1.076086912908907
 20
-0.3058941425408225
 10
-1.092191460034521
 20
-0.294217582838747
 10
-1.105126271258354
 20
-0.2805951145852167
 10
-1.115115910902679
 20
-0.264927478166427
 10
-1.121251322656702
 20
-0.2490238114391262
 10
-1.124206306342539
 20
-0.232191986813778
 10
-1.123924069347829
 20
-0.2162692660546322
 10
-1.120807091368136
 20
-0.2004781379284244
 10
-1.11507753529551
 20
-0.185555650580698
 10
-1.106959249745153
 20
-0.1715861267179832
 10
-1.096163702989883
 20
-0.1583476708551444
 10
-1.083392121340318
 20
-0.1468136023225187
 10
-1.067776456308797
 20
-0.1365677260156647
 10
-1.050713265502481
 20
-0.1287987865640154
 10
-1.031360170572237
 20
-0.1234459921943682
 10
-1.011379662502821
 20
-0.1212215272819743
 10
-0.9906009107289822
 20
-0.1223085551599085
 10
-0.9702963876546935
 20
-0.1267715422610019
 10
-0.9509914126023976
 20
-0.1345823152152417
 10
-0.9333464819397349
 20
-0.1454907399890643
 10
-0.918383376950456
 20
-0.1588351344179066
 10
-0.9061167729003105
 20
-0.1744703577113854
 10
-0.8976373544216402
 20
-0.1906980104431422
 10
-0.892345252403008
 20
-0.2079848919899923
 10
-0.8905809963324571
 20
-0.224251747012164
 10
-0.8918000942647346
 20
-0.2404119795809187
 10
-0.8957639755349945
 20
-0.2553394393877543
 10
-0.9022612393715136
 20
-0.269349657036395
 10
-0.9086400425718337
 20
-0.2790110820670882
 10
-0.9161852068212045
 20
-0.2878878551039792
  0
LINE
  5
D5
330
89
100
AcDbEntity
  8
AM_4
100
AcDbLine
 10
-0.8699999999999999
 20
0.6599999999999927
 30
0.0
 11
-1.2136
 21
0.6599999999999927
 31
0.0
  0
LINE
  5
D6
330
89
100
AcDbEntity
  8
AM_4
100
AcDbLine
 10
-1.2136
 20
-0.6599999999999927
 30
0.0
 11
-0.87
 21
-0.6599999999999927
 31
0.0
  0
LINE
  5
D7
330
89
100
AcDbEntity
  8
AM_4
100
AcDbLine
 10
-1.2136
 20
-0.6599999999999931
 30
0.0
 11
-1.2136
 21
0.6599999999999931
 31
0.0
  0
LINE
  5
D8
330
89
100
AcDbEntity
  8
AM_4
100
AcDbLine
 10
-1.24
 20
-0.6336000000000167
 30
0.0
 11
-1.24
 21
0.6336000000000167
 31
0.0
  0
LINE
  5
D9
330
89
100
AcDbEntity
  8
AM_4
100
AcDbLine
 10
-1.24
 20
-0.6336000000000167
 30
0.0
 11
-1.2136
 21
-0.6599999999999931
 31
0.0
  0
LINE
  5
DA
330
89
100
AcDbEntity
  8
AM_4
100
AcDbLine
 10
-1.2136
 20
0.6599999999999931
 30
0.0
 11
-1.24
 21
0.6336000000000167
 31
0.0
  0
ELLIPSE
  5
DB
330
89
100
AcDbEntity
  8
AM_4
100
AcDbEllipse
 10
-1.0075
 20
0.4532588278671175
 30
0.0
 11
0.09794999999999998
 21
0.0
 31
0.0
210
0.0
220
0.0
230
1.0
 40
0.7071067811865478
 41
0.0
 42
6.283185307179586
  0
ELLIPSE
  5
DC
330
89
100
AcDbEntity
  8
AM_4
100
AcDbEllipse
 10
-1.0075
 20
-0.2192365472872448
 30
0.0
 11
-0.0979500000000002
 21
1.199541539764835E-17
 31
0.0
210
0.0
220
0.0
230
1.0
 40
0.939692620785908
 41
0.0
 42
6.283185307179586
  0
ENDBLK
  5
8C
330
89
100
AcDbEntity
  8
0
100
AcDbBlockEnd
  0
BLOCK
  5
DF
330
DD
100
AcDbEntity
  8
0
100
AcDbBlockBegin
  2
3_405015E_Inch_0_in_124643_2
 70
     2
 10
0.0
 20
0.0
 30
0.0
  3
3_405015E_Inch_0_in_124643_2
  1

  0
ATTDEF
  5
E1
330
DD
100
AcDbEntity
  8
AM_6
100
AcDbText
 10
4.648750000000001
 20
0.9439169646026424
 30
0.0
 40
0.5
  1
405015E -Inch
100
AcDbAttributeDefinition
  3

  2
NN
 70
     8
280
     0
  0
ATTDEF
  5
E2
330
DD
100
AcDbEntity
  8
AM_6
100
AcDbText
 10
4.648750000000001
 20
0.4439169646026424
 30
0.0
 40
0.5
  1
Grease Fitting
100
AcDbAttributeDefinition
  3

  2
NT
 70
     8
280
     0
  0
ATTDEF
  5
E3
330
DD
100
AcDbEntity
  8
AM_6
100
AcDbText
 10
4.648750000000001
 20
-0.0560830353973576
 30
0.0
 40
0.5
  1
405015E-Inch
100
AcDbAttributeDefinition
  3

  2
NB
 70
     8
280
     0
  0
ATTDEF
  5
E4
330
DD
100
AcDbEntity
  8
AM_6
100
AcDbText
 10
4.648750000000001
 20
-0.5560830353973576
 30
0.0
 40
0.5
  1
$MN.-Inch
100
AcDbAttributeDefinition
  3

  2
NBSYN
 70
     8
280
     0
  0
ATTDEF
  5
E5
330
DD
100
AcDbEntity
  8
AM_6
100
AcDbText
 10
4.648750000000001
 20
-1.056083035397358
 30
0.0
 40
0.5
  1
405015E
100
AcDbAttributeDefinition
  3

  2
LINA
 70
     8
280
     0
  0
ATTDEF
  5
E6
330
DD
100
AcDbEntity
  8
AM_6
100
AcDbText
 10
4.648750000000001
 20
-1.556083035397358
 30
0.0
 40
0.5
  1
405015E
100
AcDbAttributeDefinition
  3

  2
MN
 70
     8
280
     0
  0
ATTDEF
  5
E7
330
DD
100
AcDbEntity
  8
AM_6
100
AcDbText
 10
4.648750000000001
 20
-2.056083035397358
 30
0.0
 40
0.5
  1
1/8 x 27PTF
100
AcDbAttributeDefinition
  3

  2
T
 70
     8
280
     0
  0
ATTDEF
  5
E8
330
DD
100
AcDbEntity
  8
AM_6
100
AcDbText
 10
4.648750000000001
 20
-2.556083035397358
 30
0.0
 40
0.5
  1
baldor
100
AcDbAttributeDefinition
  3

  2
COMPANY
 70
     8
280
     0
  0
ELLIPSE
  5
E9
330
DD
100
AcDbEntity
  8
AM_9
100
AcDbEllipse
 10
-0.5699999999999998
 20
0.5349999999999999
 30
0.0
 11
-0.161902872472269
 21
1.982738345459263E-17
 31
0.0
210
0.0
220
0.0
230
1.0
 40
0.8660254037844383
 41
0.0
 42
6.283185307179586
  0
LINE
  5
EA
330
DD
100
AcDbEntity
  8
AM_9
100
AcDbLine
 10
-0.6062513670223859
 20
0.8702317691790716
 30
0.0
 11
-0.5699999999999998
 21
0.8907837998483071
 31
0.0
  0
LINE
  5
EB
330
DD
100
AcDbEntity
  8
AM_9
100
AcDbLine
 10
-0.6424624579067139
 20
0.8505699167929514
 30
0.0
 11
-0.6062513670223859
 21
0.8702317691790716
 31
0.0
  0
LINE
  5
EC
330
DD
100
AcDbEntity
  8
AM_9
100
AcDbLine
 10
-0.679375
 20
0.8315624999999999
 30
0.0
 11
-0.6424624579067139
 21
0.8505699167929514
 31
0.0
  0
LINE
  5
ED
330
DD
100
AcDbEntity
  8
AM_9
100
AcDbLine
 10
-0.4986629840979354
 20
0.8511664243423166
 30
0.0
 11
-0.4606249999999999
 21
0.8315624999999999
 31
0.0
  0
LWPOLYLINE
  5
EE
330
DD
100
AcDbEntity
  8
AM_9
100
AcDbPolyline
 90
        4
 70
     0
 43
0.0
 10
-0.5699999999999998
 20
0.8907837998483071
 10
-0.5428325951815902
 20
0.875306705361599
 10
-0.5155583897258502
 20
0.860236457337735
 10
-0.4986629840979354
 20
0.8511664243423166
  0
LWPOLYLINE
  5
EF
330
DD
100
AcDbEntity
  8
AM_9
100
AcDbPolyline
 90
        5
 70
     0
 43
0.0
 10
-0.5699999999999998
 20
0.9317162001516927
 10
-0.5971674048184096
 20
0.920025889819991
 10
-0.6244416102741494
 20
0.9078219323881151
 10
-0.6518700010907649
 20
0.8950077185475036
 10
-0.679375
 20
0.8815624999999999
  0
LWPOLYLINE
  5
F0
330
DD
100
AcDbEntity
  8
AM_9
100
AcDbPolyline
 90
        5
 70
     0
 43
0.0
 10
-0.460625
 20
0.8815624999999999
 10
-0.48796875
 20
0.8949306679980004
 10
-0.5153125
 20
0.9077095596074826
 10
-0.5426863491615617
 20
0.9199617663331986
 10
-0.5699999999999998
 20
0.9317162001516927
  0
LWPOLYLINE
  5
F1
330
DD
100
AcDbEntity
  8
AM_9
100
AcDbPolyline
 90
        5
 70
     0
 43
0.0
 10
-0.4606249999999999
 20
0.8315624999999999
 10
-0.4332812499999999
 20
0.8181943320019995
 10
-0.4059374999999999
 20
0.8054154403925172
 10
-0.3785636508384382
 20
0.7931632336668011
 10
-0.3512499999999998
 20
0.7814087998483071
  0
LWPOLYLINE
  5
F2
330
DD
100
AcDbEntity
  8
AM_9
100
AcDbPolyline
 90
        5
 70
     0
 43
0.0
 10
-0.7887499999999998
 20
0.7814087998483071
 10
-0.7615825951815901
 20
0.7930991101800088
 10
-0.7343083897258503
 20
0.8053030676118846
 10
-0.7068799989092348
 20
0.8181172814524962
 10
-0.679375
 20
0.8315624999999999
  0
LINE
  5
F3
330
DD
100
AcDbEntity
  8
AM_9
100
AcDbLine
 10
-0.5699999999999998
 20
0.9317162001516927
 30
0.0
 11
-0.5699999999999998
 21
0.8907837998483071
 31
0.0
  0
LINE
  5
F4
330
DD
100
AcDbEntity
  8
AM_9
100
AcDbLine
 10
-0.4588393116863175
 20
0.8806683539216482
 30
0.0
 11
-0.460625
 21
0.8815624999999999
 31
0.0
  0
LINE
  5
F5
330
DD
100
AcDbEntity
  8
AM_9
100
AcDbLine
 10
-0.679375
 20
0.8815624999999999
 30
0.0
 11
-0.681971764344854
 21
0.8802613646906163
 31
0.0
  0
ELLIPSE
  5
F6
330
DD
100
AcDbEntity
  8
AM_9
100
AcDbEllipse
 10
-0.5700000000000001
 20
0.6675000000000003
 30
0.0
 11
0.2057518972230699
 21
0.0
 31
0.0
210
0.0
220
0.0
230
1.0
 40
0.8660254037844392
 41
4.71238898038469
 42
9.478933721329764
  0
ELLIPSE
  5
F7
330
DD
100
AcDbEntity
  8
AM_9
100
AcDbEllipse
 10
-0.5699999999999998
 20
0.5533573771544729
 30
0.0
 11
0.1986176267812153
 21
2.959633272606364E-9
 31
0.0
210
0.0
220
0.0
230
1.0
 40
0.8660254037844382
 41
4.712388967479907
 42
9.478933704135985
  0
LINE
  5
F8
330
DD
100
AcDbEntity
  8
AM_9
100
AcDbLine
 10
-0.3716735595373119
 20
0.5440467106261545
 30
0.0
 11
-0.3645497483984864
 21
0.65785489783229
 31
0.0
  0
LINE
  5
F9
330
DD
100
AcDbEntity
  8
AM_9
100
AcDbLine
 10
-0.7754502516015134
 20
0.6578548978322901
 30
0.0
 11
-0.7683264404626878
 21
0.5440467106261545
 31
0.0
  0
ELLIPSE
  5
FA
330
DD
100
AcDbEntity
  8
AM_9
100
AcDbEllipse
 10
-0.5699999999999994
 20
0.6675000000000004
 30
0.0
 11
0.2057518972230701
 21
0.0
 31
0.0
210
0.0
220
0.0
230
1.0
 40
0.8660254037844394
 41
3.195748414150181
 42
4.71238898038469
  0
ELLIPSE
  5
FB
330
DD
100
AcDbEntity
  8
AM_9
100
AcDbEllipse
 10
-0.57
 20
0.5533573771544729
 30
0.0
 11
0.1986176267812153
 21
0.0
 31
0.0
210
0.0
220
0.0
230
1.0
 40
0.8660254037844377
 41
3.195748414150174
 42
4.71238898038469
  0
ELLIPSE
  5
FC
330
DD
100
AcDbEntity
  8
AM_9
100
AcDbEllipse
 10
-0.5699999999999998
 20
0.6675000000000009
 30
0.0
 11
0.2187500000000004
 21
0.0
 31
0.0
210
0.0
220
0.0
230
1.0
 40
0.8660254037844413
 41
2.0943951023932
 42
5.235987755982985
  0
ELLIPSE
  5
FD
330
DD
100
AcDbEntity
  8
AM_9
100
AcDbEllipse
 10
-0.57
 20
0.6674999999999995
 30
0.0
 11
0.2187500000000001
 21
3.259629011154178E-9
 31
0.0
210
0.0
220
0.0
230
1.0
 40
0.8660254037844373
 41
5.235987742002806
 42
8.377580395592599
  0
ELLIPSE
  5
FE
330
DD
100
AcDbEntity
  8
AM_9
100
AcDbEllipse
 10
-0.5699999999995109
 20
0.717499999997557
 30
0.0
 11
0.2187500000009659
 21
0.0
 31
0.0
210
0.0
220
0.0
230
1.0
 40
0.8660254037912296
 41
-4.188790204787508
 42
-4.174562983206017
  0
ELLIPSE
  5
FF
330
DD
100
AcDbEntity
  8
AM_9
100
AcDbEllipse
 10
-0.5699999999976124
 20
0.7175000000050499
 30
0.0
 11
0.2187499999952864
 21
0.0
 31
0.0
210
0.0
220
0.0
230
1.0
 40
0.866025403778409
 41
1.032970329613777
 42
2.094395102412961
  0
ELLIPSE
  5
100
330
DD
100
AcDbEntity
  8
AM_9
100
AcDbEllipse
 10
-0.57
 20
0.7175
 30
0.0
 11
0.2137499999999997
 21
0.0
 31
0.0
210
0.0
220
0.0
230
1.0
 40
0.8660254037844404
 41
0.9862868522353478
 42
2.155305801354412
  0
ELLIPSE
  5
101
330
DD
100
AcDbEntity
  8
AM_9
100
AcDbEllipse
 10
-0.5699999999999998
 20
0.7266590992704407
 30
0.0
 11
0.1725340532830155
 21
0.0
 31
0.0
210
0.0
220
0.0
230
1.0
 40
0.86602540378444
 41
0.6732704101475449
 42
2.468322243442171
  0
ELLIPSE
  5
102
330
DD
100
AcDbEntity
  8
AM_9
100
AcDbEllipse
 10
-0.5699999999999987
 20
0.7538765608092878
 30
0.0
 11
0.1188200907348964
 21
0.0
 31
0.0
210
0.0
220
0.0
230
1.0
 40
0.8660254037844342
 41
0.0521714424106055
 42
2.305085124374404
  0
LINE
  5
103
330
DD
100
AcDbEntity
  8
AM_9
100
AcDbLine
 10
-0.6403562363973514
 20
0.8374999999999999
 30
0.0
 11
-0.6496165180238018
 21
0.8302609048531487
 31
0.0
  0
LINE
  5
104
330
DD
100
AcDbEntity
  8
AM_9
100
AcDbLine
 10
-0.4903834819761979
 20
0.8302609048531487
 30
0.0
 11
-0.4996437636026483
 21
0.8374999999999999
 31
0.0
  0
ELLIPSE
  5
105
330
DD
100
AcDbEntity
  8
AM_9
100
AcDbEllipse
 10
-0.5700000000000007
 20
0.7538765608092866
 30
0.0
 11
0.1188200907348967
 21
0.0
 31
0.0
210
0.0
220
0.0
230
1.0
 40
0.8660254037844387
 41
2.305085124374387
 42
3.089421211179135
  0
ELLIPSE
  5
106
330
DD
100
AcDbEntity
  8
AM_9
100
AcDbEllipse
 10
-0.5699999999999985
 20
0.7699999999999998
 30
0.0
 11
0.1049999999999987
 21
0.0
 31
0.0
210
0.0
220
0.0
230
1.0
 40
0.8660254037844408
 41
5.858105981270608
 42
9.42477796076938
  0
LINE
  5
107
330
DD
100
AcDbEntity
  8
AM_9
100
AcDbLine
 10
-0.4649999999999998
 20
0.7699999999999998
 30
0.0
 11
-0.4649999999999998
 21
0.7849999999999998
 31
0.0
  0
LINE
  5
108
330
DD
100
AcDbEntity
  8
AM_9
100
AcDbLine
 10
-0.6749999999999999
 20
0.7849999999999999
 30
0.0
 11
-0.6749999999999999
 21
0.77
 31
0.0
  0
ELLIPSE
  5
109
330
DD
100
AcDbEntity
  8
AM_9
100
AcDbEllipse
 10
-0.5699999999999998
 20
0.7849999999999999
 30
0.0
 11
0.1050000000000001
 21
0.0
 31
0.0
210
0.0
220
0.0
230
1.0
 40
0.8660254037844389
 41
0.0
 42
4.188790204786391
  0
ELLIPSE
  5
10A
330
DD
100
AcDbEntity
  8
AM_9
100
AcDbEllipse
 10
-0.5699999999999935
 20
0.7700000000000026
 30
0.0
 11
0.1050000000000064
 21
0.0
 31
0.0
210
0.0
220
0.0
230
1.0
 40
0.8660254037844438
 41
3.141592653589793
 42
3.566671979499285
  0
ELLIPSE
  5
10B
330
DD
100
AcDbEntity
  8
AM_9
100
AcDbEllipse
 10
-0.5699999999999998
 20
0.7849999999999995
 30
0.0
 11
0.105
 21
0.0
 31
0.0
210
0.0
220
0.0
230
1.0
 40
0.8660254037844362
 41
5.235987755982988
 42
6.283185307179586
  0
ELLIPSE
  5
10C
330
DD
100
AcDbEntity
  8
AM_9
100
AcDbEllipse
 10
-0.5699999999999998
 20
0.815
 30
0.0
 11
0.1349999999999998
 21
0.0
 31
0.0
210
0.0
220
0.0
230
1.0
 40
0.8660254037844408
 41
0.77510901071512
 42
2.366483642874674
  0
LWPOLYLINE
  5
10D
330
DD
100
AcDbEntity
  8
AM_4
100
AcDbPolyline
 90
        5
 70
     0
 43
0.0
 10
-0.3512499999999998
 20
0.8223412001516927
 10
-0.3784174048184096
 20
0.8378182946384007
 10
-0.4056916102741495
 20
0.8528885426622648
 10
-0.433120001090765
 20
0.8675027196382687
 10
-0.4588393116863175
 20
0.8806683539216482
  0
LWPOLYLINE
  5
10E
330
DD
100
AcDbEntity
  8
AM_4
100
AcDbPolyline
 90
        5
 70
     0
 43
0.0
 10
-0.681971764344854
 20
0.8802613646906163
 10
-0.7067187499999998
 20
0.8675869179980004
 10
-0.7340624999999997
 20
0.8530220596074827
 10
-0.7614363491615616
 20
0.837900417171637
 10
-0.7887499999999998
 20
0.8223412001516927
  0
ELLIPSE
  5
10F
330
DD
100
AcDbEntity
  8
AM_4
100
AcDbEllipse
 10
-0.5700000000000001
 20
0.7174999999999995
 30
0.0
 11
0.2187500000000003
 21
0.0
 31
0.0
210
0.0
220
0.0
230
1.0
 40
0.8660254037844368
 41
2.108622323974804
 42
7.316155636794583
  0
ELLIPSE
  5
110
330
DD
100
AcDbEntity
  8
AM_4
100
AcDbEllipse
 10
-0.57
 20
0.7175
 30
0.0
 11
0.21375
 21
3.185123205184937E-9
 31
0.0
210
0.0
220
0.0
230
1.0
 40
0.8660254037844388
 41
2.15530578713991
 42
7.269472145200433
  0
LINE
  5
111
330
DD
100
AcDbEntity
  8
AM_4
100
AcDbLine
 10
-0.3512499999999998
 20
0.8223412001516927
 30
0.0
 11
-0.3512499999999998
 21
0.5626587998483071
 31
0.0
  0
LWPOLYLINE
  5
112
330
DD
100
AcDbEntity
  8
AM_4
100
AcDbPolyline
 90
        5
 70
     0
 43
0.0
 10
-0.460625
 20
0.5534374999999999
 10
-0.4332812499999999
 20
0.5668056679980003
 10
-0.4059374999999999
 20
0.5795845596074826
 10
-0.3785636508384381
 20
0.5918367663331987
 10
-0.3512499999999998
 20
0.6035912001516927
  0
LWPOLYLINE
  5
113
330
DD
100
AcDbEntity
  8
AM_4
100
AcDbPolyline
 90
        5
 70
     0
 43
0.0
 10
-0.4606249999999999
 20
0.5034375
 10
-0.4879687499999999
 20
0.4900693320019995
 10
-0.5153124999999998
 20
0.4772904403925172
 10
-0.5426863491615616
 20
0.4650382336668011
 10
-0.5699999999999998
 20
0.4532837998483072
  0
LWPOLYLINE
  5
114
330
DD
100
AcDbEntity
  8
AM_4
100
AcDbPolyline
 90
        5
 70
     0
 43
0.0
 10
-0.3512499999999998
 20
0.5626587998483071
 10
-0.3784174048184096
 20
0.547181705361599
 10
-0.4056916102741494
 20
0.5321114573377351
 10
-0.433120001090765
 20
0.517497280361731
 10
-0.4606249999999999
 20
0.5034375
  0
LWPOLYLINE
  5
115
330
DD
100
AcDbEntity
  8
AM_4
100
AcDbPolyline
 90
        5
 70
     0
 43
0.0
 10
-0.5699999999999998
 20
0.4942162001516927
 10
-0.5428325951815901
 20
0.5096932946384007
 10
-0.5155583897258502
 20
0.5247635426622647
 10
-0.4881299989092348
 20
0.5393777196382687
 10
-0.460625
 20
0.5534374999999999
  0
LINE
  5
116
330
DD
100
AcDbEntity
  8
AM_4
100
AcDbLine
 10
-0.5699999999999998
 20
0.4942162001516927
 30
0.0
 11
-0.5699999999999998
 21
0.4532837998483072
 31
0.0
  0
LWPOLYLINE
  5
117
330
DD
100
AcDbEntity
  8
AM_4
100
AcDbPolyline
 90
        5
 70
     0
 43
0.0
 10
-0.679375
 20
0.5534374999999999
 10
-0.6520312499999998
 20
0.5394619179980004
 10
-0.6246874999999997
 20
0.5248970596074826
 10
-0.5973136508384381
 20
0.5097754171716371
 10
-0.5699999999999998
 20
0.4942162001516927
  0
LWPOLYLINE
  5
118
330
DD
100
AcDbEntity
  8
AM_4
100
AcDbPolyline
 90
        5
 70
     0
 43
0.0
 10
-0.7887499999999998
 20
0.6035912001516927
 10
-0.7615825951815901
 20
0.591900889819991
 10
-0.7343083897258503
 20
0.5796969323881151
 10
-0.7068799989092348
 20
0.5668827185475037
 10
-0.679375
 20
0.5534374999999999
  0
LINE
  5
119
330
DD
100
AcDbEntity
  8
AM_4
100
AcDbLine
 10
-0.7887499999999998
 20
0.8223412001516927
 30
0.0
 11
-0.7887499999999998
 21
0.5626587998483071
 31
0.0
  0
LWPOLYLINE
  5
11A
330
DD
100
AcDbEntity
  8
AM_4
100
AcDbPolyline
 90
        5
 70
     0
 43
0.0
 10
-0.679375
 20
0.5034375
 10
-0.7067187499999998
 20
0.5174130820019994
 10
-0.7340624999999997
 20
0.5319779403925172
 10
-0.7614363491615616
 20
0.5470995828283628
 10
-0.7887499999999998
 20
0.5626587998483071
  0
LWPOLYLINE
  5
11B
330
DD
100
AcDbEntity
  8
AM_4
100
AcDbPolyline
 90
        5
 70
     0
 43
0.0
 10
-0.5699999999999998
 20
0.4532837998483072
 10
-0.5971674048184096
 20
0.4649741101800087
 10
-0.6244416102741494
 20
0.4771780676118847
 10
-0.6518700010907649
 20
0.4899922814524962
 10
-0.679375
 20
0.5034375
  0
ELLIPSE
  5
11C
330
DD
100
AcDbEntity
  8
AM_4
100
AcDbEllipse
 10
-0.5699999999999998
 20
0.7266590992704409
 30
0.0
 11
0.1725340532830154
 21
0.0
 31
0.0
210
0.0
220
0.0
230
1.0
 40
0.866025403784439
 41
2.468322243442172
 42
4.71238898038469
  0
ELLIPSE
  5
11D
330
DD
100
AcDbEntity
  8
AM_4
100
AcDbEllipse
 10
-0.57
 20
0.726659099270441
 30
0.0
 11
0.1725340532830155
 21
0.0
 31
0.0
210
0.0
220
0.0
230
1.0
 40
0.8660254037844385
 41
4.71238898038469
 42
6.956455717327129
  0
ELLIPSE
  5
11E
330
DD
100
AcDbEntity
  8
AM_4
100
AcDbEllipse
 10
-0.5699999999999998
 20
0.7538765608092862
 30
0.0
 11
0.1188200907348976
 21
0.0
 31
0.0
210
0.0
220
0.0
230
1.0
 40
0.8660254037844397
 41
4.71238898038469
 42
6.335356749590209
  0
ELLIPSE
  5
11F
330
DD
100
AcDbEntity
  8
AM_4
100
AcDbEllipse
 10
-0.5699999999999998
 20
0.7538765608092862
 30
0.0
 11
0.1188200907348976
 21
1.770557325108314E-9
 31
0.0
210
0.0
220
0.0
230
1.0
 40
0.8660254037844394
 41
3.089421193984452
 42
4.712388967479907
  0
ELLIPSE
  5
120
330
DD
100
AcDbEntity
  8
AM_4
100
AcDbEllipse
 10
-0.5699999999999994
 20
0.7699999999999992
 30
0.0
 11
0.1049999999999993
 21
0.0
 31
0.0
210
0.0
220
0.0
230
1.0
 40
0.8660254037844379
 41
3.566671979499276
 42
5.858105981270616
  0
ELLIPSE
  5
121
330
DD
100
AcDbEntity
  8
AM_4
100
AcDbEllipse
 10
-0.5700000000000002
 20
0.7850000000000008
 30
0.0
 11
0.1050000000000015
 21
0.0
 31
0.0
210
0.0
220
0.0
230
1.0
 40
0.8660254037844344
 41
4.71238898038469
 42
5.235987755982984
  0
LINE
  5
122
330
DD
100
AcDbEntity
  8
AM_4
100
AcDbLine
 10
-0.5174999999999998
 20
0.7062499999999998
 30
0.0
 11
-0.5025
 21
0.7137499999999999
 31
0.0
  0
LINE
  5
123
330
DD
100
AcDbEntity
  8
AM_4
100
AcDbLine
 10
-0.6374999999999998
 20
0.7137499999999999
 30
0.0
 11
-0.6224999999999998
 21
0.7062499999999998
 31
0.0
  0
ELLIPSE
  5
124
330
DD
100
AcDbEntity
  8
AM_4
100
AcDbEllipse
 10
-0.5699999999999997
 20
0.8149999999999998
 30
0.0
 11
0.1349999999999999
 21
0.0
 31
0.0
210
0.0
220
0.0
230
1.0
 40
0.8660254037844385
 41
4.71238898038469
 42
7.058294317894709
  0
ELLIPSE
  5
125
330
DD
100
AcDbEntity
  8
AM_4
100
AcDbEllipse
 10
-0.5699999999999992
 20
0.8150000000000038
 30
0.0
 11
0.1350000000000023
 21
0.0
 31
0.0
210
0.0
220
0.0
230
1.0
 40
0.8660254037844517
 41
4.188790204786397
 42
4.71238898038469
  0
ELLIPSE
  5
126
330
DD
100
AcDbEntity
  8
AM_4
100
AcDbEllipse
 10
-0.5699999999999995
 20
0.7850000000000008
 30
0.0
 11
0.1050000000000016
 21
0.0
 31
0.0
210
0.0
220
0.0
230
1.0
 40
0.8660254037844345
 41
4.188790204786395
 42
4.71238898038469
  0
ELLIPSE
  5
127
330
DD
100
AcDbEntity
  8
AM_4
100
AcDbEllipse
 10
-0.57
 20
0.8549999999999999
 30
0.0
 11
0.1026779019331875
 21
0.0
 31
0.0
210
0.0
220
0.0
230
1.0
 40
0.8660254037844384
 41
4.71238898038469
 42
7.058294317894705
  0
LINE
  5
128
330
DD
100
AcDbEntity
  8
AM_4
100
AcDbLine
 10
-0.6433474205218686
 20
0.9172268477921071
 30
0.0
 11
-0.666436541690299
 21
0.8968153107316191
 31
0.0
  0
LINE
  5
129
330
DD
100
AcDbEntity
  8
AM_4
100
AcDbLine
 10
-0.4735634583097008
 20
0.8968153107316191
 30
0.0
 11
-0.4966525794781311
 21
0.917226847792107
 31
0.0
  0
ELLIPSE
  5
12A
330
DD
100
AcDbEntity
  8
AM_4
100
AcDbEllipse
 10
-0.5699999999999998
 20
0.8550000000000002
 30
0.0
 11
0.1026779019331874
 21
0.0
 31
0.0
210
0.0
220
0.0
230
1.0
 40
0.8660254037844365
 41
0.7751090107151191
 42
4.71238898038469
  0
ELLIPSE
  5
12B
330
DD
100
AcDbEntity
  8
AM_4
100
AcDbEllipse
 10
-0.57
 20
0.8149999999999998
 30
0.0
 11
0.1349999999999999
 21
0.0
 31
0.0
210
0.0
220
0.0
230
1.0
 40
0.8660254037844385
 41
2.366483642874672
 42
4.188790204786391
  0
ENDBLK
  5
E0
330
DD
100
AcDbEntity
  8
0
100
AcDbBlockEnd
  0
BLOCK
  5
12E
330
12C
100
AcDbEntity
  8
0
100
AcDbBlockBegin
  2
4_124643H_0_in_124643_2
 70
     2
 10
0.0
 20
0.0
 30
0.0
  3
4_124643H_0_in_124643_2
  1

  0
ATTDEF
  5
130
330
12C
100
AcDbEntity
  8
AM_6
100
AcDbText
 10
5.0435
 20
1.875000000000001
 30
0.0
 40
0.5
  1
LFT-SC and  LFT-SC-NL -Inch - housing
100
AcDbAttributeDefinition
  3

  2
NN
 70
     8
280
     0
  0
ATTDEF
  5
131
330
12C
100
AcDbEntity
  8
AM_6
100
AcDbText
 10
5.0435
 20
1.375000000000001
 30
0.0
 40
0.5
  1
SC 2 Bolt Flange Bearings -(Normal Duty) -Re-Lube and No-Lube
100
AcDbAttributeDefinition
  3

  2
NT
 70
     8
280
     0
  0
ATTDEF
  5
132
330
12C
100
AcDbEntity
  8
AM_6
100
AcDbText
 10
5.0435
 20
0.8750000000000007
 30
0.0
 40
0.5
  1
124643H
100
AcDbAttributeDefinition
  3

  2
NB
 70
     8
280
     0
  0
ATTDEF
  5
133
330
12C
100
AcDbEntity
  8
AM_6
100
AcDbText
 10
5.0435
 20
0.3750000000000007
 30
0.0
 40
0.5
  1
$PN.H
100
AcDbAttributeDefinition
  3

  2
NBSYN
 70
     8
280
     0
  0
ATTDEF
  5
134
330
12C
100
AcDbEntity
  8
AM_6
100
AcDbText
 10
5.0435
 20
-0.1249999999999993
 30
0.0
 40
0.5
  1
124643
100
AcDbAttributeDefinition
  3

  2
LINA
 70
     8
280
     0
  0
ATTDEF
  5
135
330
12C
100
AcDbEntity
  8
AM_6
100
AcDbText
 10
5.0435
 20
-0.6249999999999993
 30
0.0
 40
0.5
  1
205
100
AcDbAttributeDefinition
  3

  2
SERIES
 70
     8
280
     0
  0
ATTDEF
  5
136
330
12C
100
AcDbEntity
  8
AM_6
100
AcDbText
 10
5.0435
 20
-1.124999999999999
 30
0.0
 40
0.5
  1
7/8
100
AcDbAttributeDefinition
  3

  2
SS
 70
     8
280
     0
  0
ATTDEF
  5
137
330
12C
100
AcDbEntity
  8
AM_6
100
AcDbText
 10
5.0435
 20
-1.624999999999999
 30
0.0
 40
0.5
  1
124643
100
AcDbAttributeDefinition
  3

  2
PN
 70
     8
280
     0
  0
ATTDEF
  5
138
330
12C
100
AcDbEntity
  8
AM_6
100
AcDbText
 10
5.0435
 20
-2.124999999999999
 30
0.0
 40
0.5
  1
LFT-SC-014
100
AcDbAttributeDefinition
  3

  2
DESCRIPTION
 70
     8
280
     0
  0
ATTDEF
  5
139
330
12C
100
AcDbEntity
  8
AM_6
100
AcDbText
 10
5.0435
 20
-2.624999999999999
 30
0.0
 40
0.5
  1
0.95
100
AcDbAttributeDefinition
  3

  2
W
 70
     8
280
     0
  0
ATTDEF
  5
13A
330
12C
100
AcDbEntity
  8
AM_6
100
AcDbText
 10
5.0435
 20
-3.124999999999999
 30
0.0
 40
0.5
  1
RE-LUBE
100
AcDbAttributeDefinition
  3

  2
LF
 70
     8
280
     0
  0
ATTDEF
  5
13B
330
12C
100
AcDbEntity
  8
AM_6
100
AcDbText
 10
5.0435
 20
-3.624999999999999
 30
0.0
 40
0.5
  1
1.06
100
AcDbAttributeDefinition
  3

  2
A
 70
     8
280
     0
  0
ATTDEF
  5
13C
330
12C
100
AcDbEntity
  8
AM_6
100
AcDbText
 10
5.0435
 20
-4.124999999999999
 30
0.0
 40
0.5
  1
3.75
100
AcDbAttributeDefinition
  3

  2
B
 70
     8
280
     0
  0
ATTDEF
  5
13D
330
12C
100
AcDbEntity
  8
AM_6
100
AcDbText
 10
5.0435
 20
-4.624999999999999
 30
0.0
 40
0.5
  1
1.24
100
AcDbAttributeDefinition
  3

  2
C
 70
     8
280
     0
  0
ATTDEF
  5
13E
330
12C
100
AcDbEntity
  8
AM_6
100
AcDbText
 10
5.0435
 20
-5.124999999999999
 30
0.0
 40
0.5
  1
3.00
100
AcDbAttributeDefinition
  3

  2
D
 70
     8
280
     0
  0
ATTDEF
  5
13F
330
12C
100
AcDbEntity
  8
AM_6
100
AcDbText
 10
5.0435
 20
-5.624999999999999
 30
0.0
 40
0.5
  1
0.34
100
AcDbAttributeDefinition
  3

  2
G
 70
     8
280
     0
  0
ATTDEF
  5
140
330
12C
100
AcDbEntity
  8
AM_6
100
AcDbText
 10
5.0435
 20
-6.124999999999999
 30
0.0
 40
0.5
  1
0.42
100
AcDbAttributeDefinition
  3

  2
H
 70
     8
280
     0
  0
ATTDEF
  5
141
330
12C
100
AcDbEntity
  8
AM_6
100
AcDbText
 10
5.0435
 20
-6.624999999999999
 30
0.0
 40
0.5
  1
0.37
100
AcDbAttributeDefinition
  3

  2
J
 70
     8
280
     0
  0
ATTDEF
  5
142
330
12C
100
AcDbEntity
  8
AM_6
100
AcDbText
 10
5.0435
 20
-7.124999999999999
 30
0.0
 40
0.5
  1
1.32
100
AcDbAttributeDefinition
  3

  2
L
 70
     8
280
     0
  0
ATTDEF
  5
143
330
12C
100
AcDbEntity
  8
AM_6
100
AcDbText
 10
5.0435
 20
-7.624999999999999
 30
0.0
 40
0.5
  1
2.63
100
AcDbAttributeDefinition
  3

  2
M
 70
     8
280
     0
  0
ATTDEF
  5
144
330
12C
100
AcDbEntity
  8
AM_6
100
AcDbText
 10
5.0435
 20
-8.125
 30
0.0
 40
0.5
  1
1.44
100
AcDbAttributeDefinition
  3

  2
N
 70
     8
280
     0
  0
ATTDEF
  5
145
330
12C
100
AcDbEntity
  8
AM_6
100
AcDbText
 10
5.0435
 20
-8.625
 30
0.0
 40
0.5
  1
1565
100
AcDbAttributeDefinition
  3

  2
CAPS
 70
     8
280
     0
  0
ATTDEF
  5
146
330
12C
100
AcDbEntity
  8
AM_6
100
AcDbText
 10
5.0435
 20
-9.125
 30
0.0
 40
0.5
  1
3146
100
AcDbAttributeDefinition
  3

  2
CAPD
 70
     8
280
     0
  0
ATTDEF
  5
147
330
12C
100
AcDbEntity
  8
AM_6
100
AcDbText
 10
5.0435
 20
-9.625
 30
0.0
 40
0.5
  1
baldor
100
AcDbAttributeDefinition
  3

  2
COMPANY
 70
     8
280
     0
  0
LINE
  5
148
330
12C
100
AcDbEntity
  8
AM_9
100
AcDbLine
 10
-0.522
 20
0.9977739800114491
 30
0.0
 11
-0.105
 21
0.9977739800114491
 31
0.0
  0
LINE
  5
149
330
12C
100
AcDbEntity
  8
AM_9
100
AcDbLine
 10
-0.522
 20
0.3790555464732205
 30
0.0
 11
-0.105
 21
0.3790555464732205
 31
0.0
  0
LINE
  5
14A
330
12C
100
AcDbEntity
  8
AM_9
100
AcDbLine
 10
-0.522
 20
0.3449918778276625
 30
0.0
 11
-0.522
 21
0.9977739800114491
 31
0.0
  0
LINE
  5
14B
330
12C
100
AcDbEntity
  8
AM_9
100
AcDbLine
 10
-0.7859999999999996
 20
0.2305310949733147
 30
0.0
 11
-0.7859999999999996
 21
1.010608891324554
 31
0.0
  0
LINE
  5
14C
330
12C
100
AcDbEntity
  8
AM_9
100
AcDbLine
 10
-0.42
 20
-1.33
 30
0.0
 11
0.0
 21
-1.33
 31
0.0
  0
LINE
  5
14D
330
12C
100
AcDbEntity
  8
AM_9
100
AcDbLine
 10
-0.42
 20
1.33
 30
0.0
 11
0.0
 21
1.33
 31
0.0
  0
LINE
  5
14E
330
12C
100
AcDbEntity
  8
AM_9
100
AcDbLine
 10
-0.42
 20
-1.67
 30
0.0
 11
0.0
 21
-1.67
 31
0.0
  0
LINE
  5
14F
330
12C
100
AcDbEntity
  8
AM_9
100
AcDbLine
 10
-0.42
 20
1.67
 30
0.0
 11
-0.0000000000000001
 21
1.67
 31
0.0
  0
LINE
  5
150
330
12C
100
AcDbEntity
  8
AM_9
100
AcDbLine
 10
-0.87
 20
1.125
 30
0.0
 11
-0.42
 21
1.125
 31
0.0
  0
LINE
  5
151
330
12C
100
AcDbEntity
  8
AM_9
100
AcDbLine
 10
-0.42
 20
1.125
 30
0.0
 11
-0.42
 21
1.197624346194438
 31
0.0
  0
LINE
  5
152
330
12C
100
AcDbEntity
  8
AM_9
100
AcDbLine
 10
-0.42
 20
-1.197624346194438
 30
0.0
 11
-0.42
 21
-1.125
 31
0.0
  0
LINE
  5
153
330
12C
100
AcDbEntity
  8
AM_9
100
AcDbLine
 10
-0.42
 20
-1.125
 30
0.0
 11
-0.87
 21
-1.125
 31
0.0
  0
LINE
  5
154
330
12C
100
AcDbEntity
  8
AM_9
100
AcDbLine
 10
-0.522
 20
-0.9977739800114493
 30
0.0
 11
-0.105
 21
-0.9977739800114493
 31
0.0
  0
LINE
  5
155
330
12C
100
AcDbEntity
  8
AM_9
100
AcDbLine
 10
-0.105
 20
-1.168888888888889
 30
0.0
 11
0.0
 21
-1.168888888888889
 31
0.0
  0
LINE
  5
156
330
12C
100
AcDbEntity
  8
AM_9
100
AcDbLine
 10
0.0
 20
1.168888888888889
 30
0.0
 11
-0.105
 21
1.168888888888889
 31
0.0
  0
LINE
  5
157
330
12C
100
AcDbEntity
  8
AM_9
100
AcDbLine
 10
-0.105
 20
1.080451742384708
 30
0.0
 11
0.0
 21
1.080451742384708
 31
0.0
  0
LINE
  5
158
330
12C
100
AcDbEntity
  8
AM_9
100
AcDbLine
 10
-0.105
 20
-1.080451745543241
 30
0.0
 11
0.0
 21
-1.080451745543241
 31
0.0
  0
LWPOLYLINE
  5
159
330
12C
100
AcDbEntity
  8
AM_9
100
AcDbPolyline
 90
        7
 70
     0
 43
0.0
 10
-0.87
 20
0.9626121648147644
 10
-0.8698681064985528
 20
0.9651390586503519
 10
-0.8676909715278731
 20
0.9731066182365216
 10
-0.8626770966196484
 20
0.9810000648476286
 10
-0.8553535047271477
 20
0.987998262113756
 10
-0.8453436508140592
 20
0.994434885746031
 10
-0.8396243902771503
 20
0.9972114317029974
  0
LINE
  5
15A
330
12C
100
AcDbEntity
  8
AM_9
100
AcDbLine
 10
-0.1049999999999999
 20
1.005921462198971
 30
0.0
 11
-0.7859999999999996
 21
1.005921462198972
 31
0.0
  0
LWPOLYLINE
  5
15B
330
12C
100
AcDbEntity
  8
AM_9
100
AcDbPolyline
 90
        6
 70
     0
 43
0.0
 10
-0.8396243902771503
 20
0.9972114317029974
 10
-0.828469737998156
 20
1.001132715700908
 10
-0.8158007210847354
 20
1.003811016575857
 10
-0.8038308339311563
 20
1.005216874218485
 10
-0.7913601462124888
 20
1.005860029309538
 10
-0.7859999999999996
 20
1.005921462198972
  0
LINE
  5
15C
330
12C
100
AcDbEntity
  8
AM_9
100
AcDbLine
 10
-0.87
 20
0.9972114317029974
 30
0.0
 11
-0.8396243902771503
 21
0.9972114317029974
 31
0.0
  0
LINE
  5
15D
330
12C
100
AcDbEntity
  8
AM_9
100
AcDbLine
 10
-0.5219999999999999
 20
-0.3790555464732201
 30
0.0
 11
-0.1049999999999999
 21
-0.3790555464732201
 31
0.0
  0
LINE
  5
15E
330
12C
100
AcDbEntity
  8
AM_9
100
AcDbLine
 10
-0.522
 20
-0.9977739800114493
 30
0.0
 11
-0.5219999999999999
 21
-0.3449918778276628
 31
0.0
  0
LINE
  5
15F
330
12C
100
AcDbEntity
  8
AM_9
100
AcDbLine
 10
-0.105
 20
0.3449918778276625
 30
0.0
 11
-0.522
 21
0.3449918778276625
 31
0.0
  0
LINE
  5
160
330
12C
100
AcDbEntity
  8
AM_9
100
AcDbLine
 10
-0.522
 20
0.9637103113658911
 30
0.0
 11
-0.105
 21
0.9637103113658911
 31
0.0
  0
LINE
  5
161
330
12C
100
AcDbEntity
  8
AM_9
100
AcDbLine
 10
-0.1049999999999999
 20
-0.3449918778276628
 30
0.0
 11
-0.5219999999999999
 21
-0.3449918778276628
 31
0.0
  0
LINE
  5
162
330
12C
100
AcDbEntity
  8
AM_9
100
AcDbLine
 10
-0.522
 20
-0.9637103113658914
 30
0.0
 11
-0.105
 21
-0.9637103113658916
 31
0.0
  0
LINE
  5
163
330
12C
100
AcDbEntity
  8
AM_9
100
AcDbLine
 10
-0.87
 20
-1.0236
 30
0.0
 11
-0.105
 21
-1.0236
 31
0.0
  0
LINE
  5
164
330
12C
100
AcDbEntity
  8
AM_9
100
AcDbLine
 10
-0.105
 20
1.0236
 30
0.0
 11
-0.87
 21
1.0236
 31
0.0
  0
LINE
  5
165
330
12C
100
AcDbEntity
  8
AM_9
100
AcDbLine
 10
-0.7199999999999998
 20
0.6575000000000002
 30
0.0
 11
-0.7199999999999999
 21
0.5698333333333334
 31
0.0
  0
LINE
  5
166
330
12C
100
AcDbEntity
  8
AM_9
100
AcDbLine
 10
-0.42
 20
0.5698333333333334
 30
0.0
 11
-0.42
 21
0.6575000000000002
 31
0.0
  0
ELLIPSE
  5
167
330
12C
100
AcDbEntity
  8
AM_9
100
AcDbEllipse
 10
-0.5699999999999947
 20
0.5698333333333347
 30
0.0
 11
-0.1499999999999948
 21
1.836970198720966E-17
 31
0.0
210
0.0
220
0.0
230
1.0
 40
0.8660254037844373
 41
0.0
 42
6.283185307179586
  0
ELLIPSE
  5
168
330
12C
100
AcDbEntity
  8
AM_9
100
AcDbEllipse
 10
-0.5699999999999996
 20
0.6575000000000002
 30
0.0
 11
-0.1500000000000001
 21
1.836970198721031E-17
 31
0.0
210
0.0
220
0.0
230
1.0
 40
0.8660254037844384
 41
0.0
 42
6.283185307179586
  0
LINE
  5
16B
330
12C
100
AcDbEntity
  8
AM_7
100
AcDbLine
 10
0.0435
 20
0.0
 30
0.0
 11
-1.293
 21
0.0
 31
0.0
  0
LINE
  5
16C
330
12C
100
AcDbEntity
  8
AM_7
100
AcDbLine
 10
-0.3975
 20
1.5
 30
0.0
 11
-0.8925
 21
1.5
 31
0.0
  0
LINE
  5
16D
330
12C
100
AcDbEntity
  8
AM_7
100
AcDbLine
 10
-0.3975
 20
-1.5
 30
0.0
 11
-0.8925
 21
-1.5
 31
0.0
  0
LINE
  5
16E
330
12C
100
AcDbEntity
  8
AM_4
100
AcDbLine
 10
-0.42
 20
1.197624346194438
 30
0.0
 11
-0.42
 21
1.875000000000001
 31
0.0
  0
LINE
  5
16F
330
12C
100
AcDbEntity
  8
AM_4
100
AcDbLine
 10
0.0
 20
1.875000000000001
 30
0.0
 11
-0.42
 21
1.875000000000001
 31
0.0
  0
LINE
  5
170
330
12C
100
AcDbEntity
  8
AM_4
100
AcDbLine
 10
-0.42
 20
-1.875
 30
0.0
 11
0.0
 21
-1.875
 31
0.0
  0
LINE
  5
171
330
12C
100
AcDbEntity
  8
AM_4
100
AcDbLine
 10
-0.42
 20
-1.875
 30
0.0
 11
-0.42
 21
-1.197624346194438
 31
0.0
  0
LINE
  5
172
330
12C
100
AcDbEntity
  8
AM_4
100
AcDbLine
 10
-0.42
 20
1.550646778955701
 30
0.0
 11
0.0
 21
1.550646778955701
 31
0.0
  0
LINE
  5
173
330
12C
100
AcDbEntity
  8
AM_4
100
AcDbLine
 10
-0.42
 20
-1.550646757127701
 30
0.0
 11
0.0
 21
-1.550646757127701
 31
0.0
  0
LINE
  5
174
330
12C
100
AcDbEntity
  8
AM_4
100
AcDbLine
 10
-0.105
 20
1.074020714145573
 30
0.0
 11
0.0
 21
1.074020714145573
 31
0.0
  0
LINE
  5
175
330
12C
100
AcDbEntity
  8
AM_4
100
AcDbLine
 10
0.0
 20
1.074020714145573
 30
0.0
 11
0.0
 21
1.875000000000001
 31
0.0
  0
LINE
  5
176
330
12C
100
AcDbEntity
  8
AM_4
100
AcDbLine
 10
0.0
 20
-1.875
 30
0.0
 11
0.0
 21
-1.074020714145572
 31
0.0
  0
LINE
  5
177
330
12C
100
AcDbEntity
  8
AM_4
100
AcDbLine
 10
0.0
 20
-1.074020714145572
 30
0.0
 11
-0.105
 21
-1.074020714145572
 31
0.0
  0
LINE
  5
178
330
12C
100
AcDbEntity
  8
AM_4
100
AcDbLine
 10
-0.7859999999999996
 20
1.279533333333333
 30
0.0
 11
-0.42
 21
1.279533333333333
 31
0.0
  0
LINE
  5
179
330
12C
100
AcDbEntity
  8
AM_4
100
AcDbLine
 10
-0.105
 20
1.191141995333496
 30
0.0
 11
0.0
 21
1.191141995333495
 31
0.0
  0
LINE
  5
17A
330
12C
100
AcDbEntity
  8
AM_4
100
AcDbLine
 10
0.0
 20
1.197624346194438
 30
0.0
 11
-0.42
 21
1.197624346194438
 31
0.0
  0
LINE
  5
17B
330
12C
100
AcDbEntity
  8
AM_4
100
AcDbLine
 10
-0.7859999999999996
 20
1.279533333333333
 30
0.0
 11
-0.7859999999999996
 21
1.010608891324554
 31
0.0
  0
LWPOLYLINE
  5
17C
330
12C
100
AcDbEntity
  8
AM_4
100
AcDbPolyline
 90
       12
 70
     0
 43
0.0
 10
-0.7859999999999996
 20
1.279533333333333
 10
-0.7989498051158348
 20
1.278653319380053
 10
-0.8118996102316699
 20
1.275951166785309
 10
-0.8237558885733847
 20
1.271702209105735
 10
-0.8348759775885026
 20
1.265866088425961
 10
-0.844540593043421
 20
1.258892922581474
 10
-0.8528862549414917
 20
1.250808775216006
 10
-0.8597595550993229
 20
1.24176941644928
 10
-0.8648956821305672
 20
1.232186614657905
 10
-0.8684364897990133
 20
1.221570655755257
 10
-0.8699323875541829
 20
1.21101445054644
 10
-0.87
 20
1.208245333333333
  0
LINE
  5
17D
330
12C
100
AcDbEntity
  8
AM_4
100
AcDbLine
 10
-0.1049999999999999
 20
1.010608891324554
 30
0.0
 11
-0.87
 21
1.010608891324554
 31
0.0
  0
LINE
  5
17E
330
12C
100
AcDbEntity
  8
AM_4
100
AcDbLine
 10
-0.87
 20
-1.208245333333333
 30
0.0
 11
-0.87
 21
1.208245333333333
 31
0.0
  0
LINE
  5
17F
330
12C
100
AcDbEntity
  8
AM_4
100
AcDbLine
 10
-0.87
 20
0.9606088913245536
 30
0.0
 11
-0.1049999999999999
 21
0.9606088913245536
 31
0.0
  0
LINE
  5
180
330
12C
100
AcDbEntity
  8
AM_4
100
AcDbLine
 10
-0.105
 20
-1.191141995333496
 30
0.0
 11
-0.105
 21
1.191141995333496
 31
0.0
  0
LINE
  5
181
330
12C
100
AcDbEntity
  8
AM_4
100
AcDbLine
 10
-0.42
 20
-1.279533333333333
 30
0.0
 11
-0.7859999999999996
 21
-1.279533333333333
 31
0.0
  0
LINE
  5
182
330
12C
100
AcDbEntity
  8
AM_4
100
AcDbLine
 10
-0.42
 20
-1.197624346194438
 30
0.0
 11
0.0
 21
-1.197624346194438
 31
0.0
  0
LINE
  5
183
330
12C
100
AcDbEntity
  8
AM_4
100
AcDbLine
 10
0.0
 20
-1.191141995333494
 30
0.0
 11
-0.105
 21
-1.191141995333496
 31
0.0
  0
LWPOLYLINE
  5
184
330
12C
100
AcDbEntity
  8
AM_4
100
AcDbPolyline
 90
       10
 70
     0
 43
0.0
 10
-0.87
 20
-1.208245333333333
 10
-0.8688167101790369
 20
-1.219841205890781
 10
-0.8649304874382021
 20
-1.232106484501675
 10
-0.8593135197953056
 20
-1.242454321772141
 10
-0.8512093355885406
 20
-1.252634524564646
 10
-0.8410719418464684
 20
-1.261639411902774
 10
-0.8284446375388279
 20
-1.269484977990378
 10
-0.8161787061238048
 20
-1.2746271360066
 10
-0.8025220656647487
 20
-1.278095708482306
 10
-0.7859999999999996
 20
-1.279533333333333
  0
LINE
  5
185
330
12C
100
AcDbEntity
  8
AM_4
100
AcDbLine
 10
-0.7859999999999995
 20
0.2305310949733147
 30
0.0
 11
-0.7859999999999996
 21
-1.279533333333333
 31
0.0
  0
LWPOLYLINE
  5
186
330
12C
100
AcDbEntity
  8
AM_4
100
AcDbPolyline
 90
        6
 70
     0
 43
0.0
 10
-0.8396243902771497
 20
0.2177885682970027
 10
-0.8498422780964319
 20
0.2124189311320668
 10
-0.8583323228814234
 20
0.2060724872698773
 10
-0.8644302558943525
 20
0.1993170256403231
 10
-0.8683905211462561
 20
0.1919711685082804
 10
-0.8699999999999999
 20
0.1831893014087693
  0
LINE
  5
187
330
12C
100
AcDbEntity
  8
AM_4
100
AcDbLine
 10
-0.7859999999999995
 20
0.2305310949733147
 30
0.0
 11
-0.1049999999999999
 21
0.230531094973315
 31
0.0
  0
LINE
  5
188
330
12C
100
AcDbEntity
  8
AM_4
100
AcDbLine
 10
-0.8699999999999999
 20
0.3543911086754468
 30
0.0
 11
-0.1049999999999999
 21
0.3543911086754468
 31
0.0
  0
LINE
  5
189
330
12C
100
AcDbEntity
  8
AM_4
100
AcDbLine
 10
-0.8699999999999999
 20
0.2177885682970027
 30
0.0
 11
-0.8396243902771497
 21
0.2177885682970027
 31
0.0
  0
LWPOLYLINE
  5
18A
330
12C
100
AcDbEntity
  8
AM_4
100
AcDbPolyline
 90
        6
 70
     0
 43
0.0
 10
-0.7859999999999995
 20
0.2305310949733147
 10
-0.798893913171839
 20
0.2297451075747511
 10
-0.8117878263436785
 20
0.2274248256260752
 10
-0.8236595400748324
 20
0.224021804622718
 10
-0.8345881631855375
 20
0.2199397003754775
 10
-0.8396243902771497
 20
0.2177885682970027
  0
ENDBLK
  5
12F
330
12C
100
AcDbEntity
  8
0
100
AcDbBlockEnd
  0
ENDSEC
  0
SECTION
  2
ENTITIES
  0
INSERT
  5
6F
330
1F
100
AcDbEntity
  8
0
100
AcDbBlockReference
  2
1_124643_2
 10
0.0
 20
0.0
 30
0.0
  0
POINT
  5
18C
330
1F
100
AcDbEntity
  8
ConnectionPoints
100
AcDbPoint
 10
-0.5699999999999998
 20
0.6674999999999999
 30
1.156143914052226
  0
POINT
  5
18D
330
1F
100
AcDbEntity
  8
ConnectionPoints
100
AcDbPoint
 10
-0.5699999999999998
 20
0.6574999999999999
 30
1.138823405976537
  0
POINT
  5
18E
330
1F
100
AcDbEntity
  8
ConnectionPoints
100
AcDbPoint
 10
-1.24
 20
0.0
 30
0.0000000000000001
  0
ENDSEC
  0
SECTION
  2
OBJECTS
  0
DICTIONARY
  5
C
330
0
100
AcDbDictionary
281
     1
  3
ACAD_DETAILVIEWSTYLE
350
196
  3
ACAD_GROUP
350
D
  3
ACAD_LAYOUT
350
1A
  3
ACAD_MATERIAL
350
43
  3
ACAD_MLEADERSTYLE
350
6B
  3
ACAD_MLINESTYLE
350
17
  3
ACAD_PLOTSETTINGS
350
19
  3
ACAD_PLOTSTYLENAME
350
E
  3
ACAD_SCALELIST
350
47
  3
ACAD_SECTIONVIEWSTYLE
350
197
  3
ACAD_TABLESTYLE
350
69
  3
ACAD_VISUALSTYLE
350
2A
  3
ACDB_RECOMPOSE_DATA
350
193
  3
AcDbVariableDictionary
350
18F
  0
SUN
  5
6D
330
29
100
AcDbSun
 90
        1
290
     0
 63
     7
421
 16777215
 40
1.0
291
     1
 91
  2455826
 92
 54000000
292
     0
 70
     2
 71
   256
280
     1
  0
DICTIONARY
  5
196
102
{ACAD_REACTORS
330
C
102
}
330
C
100
AcDbDictionary
281
     1
  0
DICTIONARY
  5
D
102
{ACAD_REACTORS
330
C
102
}
330
C
100
AcDbDictionary
281
     1
  0
DICTIONARY
  5
1A
102
{ACAD_REACTORS
330
C
102
}
330
C
100
AcDbDictionary
281
     1
  3
Layout1
350
1E
  3
Layout2
350
26
  3
Model
350
22
  0
DICTIONARY
  5
43
102
{ACAD_REACTORS
330
C
102
}
330
C
100
AcDbDictionary
281
     1
  3
ByBlock
350
45
  3
ByLayer
350
44
  3
Global
350
46
  0
DICTIONARY
  5
6B
102
{ACAD_REACTORS
330
C
102
}
330
C
100
AcDbDictionary
281
     1
  3
Standard
350
6C
  0
DICTIONARY
  5
17
102
{ACAD_REACTORS
330
C
102
}
330
C
100
AcDbDictionary
281
     1
  3
Standard
350
18
  0
DICTIONARY
  5
19
102
{ACAD_REACTORS
330
C
102
}
330
C
100
AcDbDictionary
281
     1
  0
ACDBDICTIONARYWDFLT
  5
E
102
{ACAD_REACTORS
330
C
102
}
330
C
100
AcDbDictionary
281
     1
  3
Normal
350
F
100
AcDbDictionaryWithDefault
340
F
  0
DICTIONARY
  5
47
102
{ACAD_REACTORS
330
C
102
}
330
C
100
AcDbDictionary
281
     1
  3
A0
350
48
  3
A1
350
49
  3
A2
350
4A
  3
A3
350
4B
  3
A4
350
4C
  3
A5
350
4D
  3
A6
350
4E
  3
A7
350
4F
  3
A8
350
50
  3
A9
350
51
  3
B0
350
52
  3
B1
350
53
  3
B2
350
54
  3
B3
350
55
  3
B4
350
56
  3
B5
350
57
  3
B6
350
58
  3
B7
350
59
  3
B8
350
5A
  3
B9
350
5B
  3
C0
350
5C
  3
C1
350
5D
  3
C2
350
5E
  3
C3
350
5F
  3
C4
350
60
  3
C5
350
61
  3
C6
350
62
  3
C7
350
63
  3
C8
350
64
  3
C9
350
65
  3
D0
350
66
  3
D1
350
67
  3
D2
350
68
  0
DICTIONARY
  5
197
102
{ACAD_REACTORS
330
C
102
}
330
C
100
AcDbDictionary
281
     1
  0
DICTIONARY
  5
69
102
{ACAD_REACTORS
330
C
102
}
330
C
100
AcDbDictionary
281
     1
  3
Standard
350
6A
  0
DICTIONARY
  5
2A
102
{ACAD_REACTORS
330
C
102
}
330
C
100
AcDbDictionary
281
     1
  3
2dWireframe
350
2F
  3
Basic
350
32
  3
Brighten
350
36
  3
ColorChange
350
3A
  3
Conceptual
350
34
  3
Dim
350
35
  3
EdgeColorOff
350
3D
  3
Facepattern
350
39
  3
Flat
350
2B
  3
FlatWithEdges
350
2C
  3
Gouraud
350
2D
  3
GouraudWithEdges
350
2E
  3
Hidden
350
31
  3
JitterOff
350
3B
  3
Linepattern
350
38
  3
OverhangOff
350
3C
  3
Realistic
350
33
  3
Shaded
350
42
  3
Shaded with edges
350
41
  3
Shades of Gray
350
3E
  3
Sketchy
350
3F
  3
Thicken
350
37
  3
Wireframe
350
30
  3
X-Ray
350
40
  0
XRECORD
  5
193
102
{ACAD_REACTORS
330
C
102
}
330
C
100
AcDbXrecord
280
     1
 90
        1
330
6A
  0
DICTIONARY
  5
18F
102
{ACAD_REACTORS
330
C
102
}
330
C
100
AcDbDictionary
281
     1
  3
CANNOSCALE
350
190
  3
CMLEADERSTYLE
350
195
  3
CTABLESTYLE
350
194
  0
LAYOUT
  5
1E
102
{ACAD_REACTORS
330
1A
102
}
330
1A
100
AcDbPlotSettings
  1

  2
none_device
  4

  6

 40
0.0
 41
0.0
 42
0.0
 43
0.0
 44
0.0
 45
0.0
 46
0.0
 47
0.0
 48
0.0
 49
0.0
140
0.0
141
0.0
142
1.0
143
1.0
 70
   688
 72
     0
 73
     0
 74
     5
  7

 75
    16
 76
     0
 77
     2
 78
   300
147
1.0
148
0.0
149
0.0
100
AcDbLayout
  1
Layout1
 70
     1
 71
     1
 10
0.0
 20
0.0
 11
12.0
 21
9.0
 12
0.0
 22
0.0
 32
0.0
 14
1.000000000000000E+20
 24
1.000000000000000E+20
 34
1.000000000000000E+20
 15
-1.000000000000000E+20
 25
-1.000000000000000E+20
 35
-1.000000000000000E+20
146
0.0
 13
0.0
 23
0.0
 33
0.0
 16
1.0
 26
0.0
 36
0.0
 17
0.0
 27
1.0
 37
0.0
 76
     0
330
1B
  0
LAYOUT
  5
26
102
{ACAD_REACTORS
330
1A
102
}
330
1A
100
AcDbPlotSettings
  1

  2
none_device
  4

  6

 40
0.0
 41
0.0
 42
0.0
 43
0.0
 44
0.0
 45
0.0
 46
0.0
 47
0.0
 48
0.0
 49
0.0
140
0.0
141
0.0
142
1.0
143
1.0
 70
   688
 72
     0
 73
     0
 74
     5
  7

 75
    16
 76
     0
 77
     2
 78
   300
147
1.0
148
0.0
149
0.0
100
AcDbLayout
  1
Layout2
 70
     1
 71
     2
 10
0.0
 20
0.0
 11
0.0
 21
0.0
 12
0.0
 22
0.0
 32
0.0
 14
0.0
 24
0.0
 34
0.0
 15
0.0
 25
0.0
 35
0.0
146
0.0
 13
0.0
 23
0.0
 33
0.0
 16
1.0
 26
0.0
 36
0.0
 17
0.0
 27
1.0
 37
0.0
 76
     0
330
23
  0
LAYOUT
  5
22
102
{ACAD_REACTORS
330
1A
102
}
330
1A
100
AcDbPlotSettings
  1

  2
none_device
  4
Letter_(8.50_x_11.00_Inches)
  6

 40
6.35
 41
6.35
 42
6.35000508
 43
6.35000508
 44
215.9
 45
279.4
 46
0.0
 47
0.0
 48
0.0
 49
0.0
140
0.0
141
0.0
142
1.0
143
1.0
 70
  1712
 72
     0
 73
     0
 74
     0
  7

 75
     0
 76
     0
 77
     2
 78
   300
147
1.0
148
0.0
149
0.0
100
AcDbLayout
  1
Model
 70
     1
 71
     0
 10
0.0
 20
0.0
 11
12.0
 21
9.0
 12
0.0
 22
0.0
 32
0.0
 14
1.000000000000000E+20
 24
1.000000000000000E+20
 34
1.000000000000000E+20
 15
-1.000000000000000E+20
 25
-1.000000000000000E+20
 35
-1.000000000000000E+20
146
0.0
 13
0.0
 23
0.0
 33
0.0
 16
1.0
 26
0.0
 36
0.0
 17
0.0
 27
1.0
 37
0.0
 76
     0
330
1F
331
29
  0
MATERIAL
  5
45
102
{ACAD_REACTORS
330
43
102
}
330
43
100
AcDbMaterial
  1
ByBlock
 72
     1
 94
      127
  0
MATERIAL
  5
44
102
{ACAD_REACTORS
330
43
102
}
330
43
100
AcDbMaterial
  1
ByLayer
 72
     1
 94
      127
  0
MATERIAL
  5
46
102
{ACAD_REACTORS
330
43
102
}
330
43
100
AcDbMaterial
  1
Global
 72
     1
 94
      127
  0
MLEADERSTYLE
  5
6C
102
{ACAD_REACTORS
330
6B
102
}
330
6B
100
AcDbMLeaderStyle
179
     2
170
     2
171
     1
172
     0
 90
        2
 40
0.0
 41
0.0
173
     1
 91
-1056964608
340
14
 92
       -2
290
     1
 42
0.09
291
     1
 43
0.36
  3
Standard
341
0
 44
0.18
300

342
11
174
     1
178
     6
175
     1
176
     0
 93
-1056964608
 45
0.18
292
     0
297
     0
 46
0.18
343
0
 94
-1056964608
 47
1.0
 49
1.0
140
1.0
293
     1
141
0.0
294
     1
177
     0
142
1.0
295
     0
296
     0
143
0.125
271
     0
272
     9
273
     9
298
     0
  0
MLINESTYLE
  5
18
102
{ACAD_REACTORS
330
17
102
}
330
17
100
AcDbMlineStyle
  2
Standard
 70
     0
  3

 62
   256
 51
90.0
 52
90.0
 71
     2
 49
0.5
 62
   256
  6
BYLAYER
 49
-0.5
 62
   256
  6
BYLAYER
  0
ACDBPLACEHOLDER
  5
F
102
{ACAD_REACTORS
330
E
102
}
330
E
  0
SCALE
  5
48
102
{ACAD_REACTORS
330
47
102
}
330
47
100
AcDbScale
 70
     0
300
1:1
140
1.0
141
1.0
290
     1
  0
SCALE
  5
49
102
{ACAD_REACTORS
330
47
102
}
330
47
100
AcDbScale
 70
     0
300
1:2
140
1.0
141
2.0
290
     0
  0
SCALE
  5
4A
102
{ACAD_REACTORS
330
47
102
}
330
47
100
AcDbScale
 70
     0
300
1:4
140
1.0
141
4.0
290
     0
  0
SCALE
  5
4B
102
{ACAD_REACTORS
330
47
102
}
330
47
100
AcDbScale
 70
     0
300
1:5
140
1.0
141
5.0
290
     0
  0
SCALE
  5
4C
102
{ACAD_REACTORS
330
47
102
}
330
47
100
AcDbScale
 70
     0
300
1:8
140
1.0
141
8.0
290
     0
  0
SCALE
  5
4D
102
{ACAD_REACTORS
330
47
102
}
330
47
100
AcDbScale
 70
     0
300
1:10
140
1.0
141
10.0
290
     0
  0
SCALE
  5
4E
102
{ACAD_REACTORS
330
47
102
}
330
47
100
AcDbScale
 70
     0
300
1:16
140
1.0
141
16.0
290
     0
  0
SCALE
  5
4F
102
{ACAD_REACTORS
330
47
102
}
330
47
100
AcDbScale
 70
     0
300
1:20
140
1.0
141
20.0
290
     0
  0
SCALE
  5
50
102
{ACAD_REACTORS
330
47
102
}
330
47
100
AcDbScale
 70
     0
300
1:30
140
1.0
141
30.0
290
     0
  0
SCALE
  5
51
102
{ACAD_REACTORS
330
47
102
}
330
47
100
AcDbScale
 70
     0
300
1:40
140
1.0
141
40.0
290
     0
  0
SCALE
  5
52
102
{ACAD_REACTORS
330
47
102
}
330
47
100
AcDbScale
 70
     0
300
1:50
140
1.0
141
50.0
290
     0
  0
SCALE
  5
53
102
{ACAD_REACTORS
330
47
102
}
330
47
100
AcDbScale
 70
     0
300
1:100
140
1.0
141
100.0
290
     0
  0
SCALE
  5
54
102
{ACAD_REACTORS
330
47
102
}
330
47
100
AcDbScale
 70
     0
300
2:1
140
2.0
141
1.0
290
     0
  0
SCALE
  5
55
102
{ACAD_REACTORS
330
47
102
}
330
47
100
AcDbScale
 70
     0
300
4:1
140
4.0
141
1.0
290
     0
  0
SCALE
  5
56
102
{ACAD_REACTORS
330
47
102
}
330
47
100
AcDbScale
 70
     0
300
8:1
140
8.0
141
1.0
290
     0
  0
SCALE
  5
57
102
{ACAD_REACTORS
330
47
102
}
330
47
100
AcDbScale
 70
     0
300
10:1
140
10.0
141
1.0
290
     0
  0
SCALE
  5
58
102
{ACAD_REACTORS
330
47
102
}
330
47
100
AcDbScale
 70
     0
300
100:1
140
100.0
141
1.0
290
     0
  0
SCALE
  5
59
102
{ACAD_REACTORS
330
47
102
}
330
47
100
AcDbScale
 70
     0
300
1/128" = 1'-0"
140
0.0078125
141
12.0
290
     0
  0
SCALE
  5
5A
102
{ACAD_REACTORS
330
47
102
}
330
47
100
AcDbScale
 70
     0
300
1/64" = 1'-0"
140
0.015625
141
12.0
290
     0
  0
SCALE
  5
5B
102
{ACAD_REACTORS
330
47
102
}
330
47
100
AcDbScale
 70
     0
300
1/32" = 1'-0"
140
0.03125
141
12.0
290
     0
  0
SCALE
  5
5C
102
{ACAD_REACTORS
330
47
102
}
330
47
100
AcDbScale
 70
     0
300
1/16" = 1'-0"
140
0.0625
141
12.0
290
     0
  0
SCALE
  5
5D
102
{ACAD_REACTORS
330
47
102
}
330
47
100
AcDbScale
 70
     0
300
3/32" = 1'-0"
140
0.09375
141
12.0
290
     0
  0
SCALE
  5
5E
102
{ACAD_REACTORS
330
47
102
}
330
47
100
AcDbScale
 70
     0
300
1/8" = 1'-0"
140
0.125
141
12.0
290
     0
  0
SCALE
  5
5F
102
{ACAD_REACTORS
330
47
102
}
330
47
100
AcDbScale
 70
     0
300
3/16" = 1'-0"
140
0.1875
141
12.0
290
     0
  0
SCALE
  5
60
102
{ACAD_REACTORS
330
47
102
}
330
47
100
AcDbScale
 70
     0
300
1/4" = 1'-0"
140
0.25
141
12.0
290
     0
  0
SCALE
  5
61
102
{ACAD_REACTORS
330
47
102
}
330
47
100
AcDbScale
 70
     0
300
3/8" = 1'-0"
140
0.375
141
12.0
290
     0
  0
SCALE
  5
62
102
{ACAD_REACTORS
330
47
102
}
330
47
100
AcDbScale
 70
     0
300
1/2" = 1'-0"
140
0.5
141
12.0
290
     0
  0
SCALE
  5
63
102
{ACAD_REACTORS
330
47
102
}
330
47
100
AcDbScale
 70
     0
300
3/4" = 1'-0"
140
0.75
141
12.0
290
     0
  0
SCALE
  5
64
102
{ACAD_REACTORS
330
47
102
}
330
47
100
AcDbScale
 70
     0
300
1" = 1'-0"
140
1.0
141
12.0
290
     0
  0
SCALE
  5
65
102
{ACAD_REACTORS
330
47
102
}
330
47
100
AcDbScale
 70
     0
300
1-1/2" = 1'-0"
140
1.5
141
12.0
290
     0
  0
SCALE
  5
66
102
{ACAD_REACTORS
330
47
102
}
330
47
100
AcDbScale
 70
     0
300
3" = 1'-0"
140
3.0
141
12.0
290
     0
  0
SCALE
  5
67
102
{ACAD_REACTORS
330
47
102
}
330
47
100
AcDbScale
 70
     0
300
6" = 1'-0"
140
6.0
141
12.0
290
     0
  0
SCALE
  5
68
102
{ACAD_REACTORS
330
47
102
}
330
47
100
AcDbScale
 70
     0
300
1'-0" = 1'-0"
140
12.0
141
12.0
290
     0
  0
TABLESTYLE
  5
6A
102
{ACAD_REACTORS
330
69
102
}
102
{ACAD_XDICTIONARY
360
191
102
}
330
69
100
AcDbTableStyle
  3
Standard
 70
     0
 71
     0
 40
0.06
 41
0.06
280
     0
281
     0
  7
Standard
140
0.18
170
     2
 62
     0
 63
   257
283
     0
 90
        4
 91
        0
  1

274
    -2
284
     1
 64
     0
275
    -2
285
     1
 65
     0
276
    -2
286
     1
 66
     0
277
    -2
287
     1
 67
     0
278
    -2
288
     1
 68
     0
279
    -2
289
     1
 69
     0
  7
Standard
140
0.25
170
     5
 62
     0
 63
   257
283
     0
 90
        4
 91
        0
  1

274
    -2
284
     1
 64
     0
275
    -2
285
     1
 65
     0
276
    -2
286
     1
 66
     0
277
    -2
287
     1
 67
     0
278
    -2
288
     1
 68
     0
279
    -2
289
     1
 69
     0
  7
Standard
140
0.18
170
     5
 62
     0
 63
   257
283
     0
 90
        4
 91
        0
  1

274
    -2
284
     1
 64
     0
275
    -2
285
     1
 65
     0
276
    -2
286
     1
 66
     0
277
    -2
287
     1
 67
     0
278
    -2
288
     1
 68
     0
279
    -2
289
     1
 69
     0
  0
VISUALSTYLE
  5
2F
102
{ACAD_REACTORS
330
2A
102
}
330
2A
100
AcDbVisualStyle
  2
2dWireframe
 70
     4
177
     3
291
     0
 70
    58
 90
        0
176
     1
 90
        2
176
     1
 90
        0
176
     1
 90
        0
176
     1
 40
0.6
176
     1
 40
30.0
176
     1
 62
     7
420
 16777215
176
     1
 90
        1
176
     1
 90
        4
176
     1
 62
     7
176
     1
 62
   257
176
     1
 90
        1
176
     1
 90
        1
176
     1
 40
1.0
176
     1
 90
        0
176
     1
 62
   257
176
     1
 40
1.0
176
     1
 90
        1
176
     1
 90
        6
176
     1
 90
        2
176
     1
 62
     7
176
     1
 90
        5
176
     1
 90
        0
176
     1
 90
        0
176
     1
290
     0
176
     1
 90
        1
176
     1
 40
0.0
176
     1
 90
        0
176
     1
290
     1
176
     1
290
     1
176
     1
290
     0
176
     1
290
     0
176
     1
290
     0
176
     1
290
     0
176
     1
290
     0
176
     1
290
     0
176
     1
290
     0
176
     1
 90
       50
176
     1
 40
0.0
176
     1
 40
1.0
176
     1
 90
        0
176
     1
 62
    18
420
        0
176
     1
 90
       50
176
     1
 90
        3
176
     1
 62
     5
420
      255
176
     1
290
     0
176
     1
 90
       50
176
     1
 90
       50
176
     1
 90
       50
176
     1
290
     0
176
     1
 90
       50
176
     1
 62
   256
176
     0
 40
1.0
176
     0
 90
        2
176
     1
  1
strokes_ogs.tif
176
     1
290
     0
176
     1
 40
1.0
176
     1
 40
1.0
176
     1
  0
VISUALSTYLE
  5
32
102
{ACAD_REACTORS
330
2A
102
}
330
2A
100
AcDbVisualStyle
  2
Basic
 70
     7
177
     3
291
     1
 70
    58
 90
        1
176
     1
 90
        0
176
     1
 90
        1
176
     1
 90
        0
176
     1
 40
0.6
176
     1
 40
30.0
176
     1
 62
     7
420
 16777215
176
     1
 90
        0
176
     1
 90
        4
176
     1
 62
     7
176
     1
 62
   257
176
     1
 90
        1
176
     1
 90
        1
176
     1
 40
1.0
176
     1
 90
        8
176
     1
 62
     7
176
     1
 40
1.0
176
     1
 90
        1
176
     1
 90
        6
176
     1
 90
        2
176
     1
 62
     7
176
     1
 90
        5
176
     1
 90
        0
176
     1
 90
        0
176
     1
290
     0
176
     1
 90
        1
176
     1
 40
0.0
176
     1
 90
        0
176
     1
290
     0
176
     1
290
     1
176
     1
290
     1
176
     1
290
     0
176
     1
290
     0
176
     1
290
     0
176
     1
290
     0
176
     1
290
     0
176
     1
290
     0
176
     1
 90
       50
176
     1
 40
0.0
176
     1
 40
1.0
176
     1
 90
        0
176
     1
 62
    18
420
        0
176
     1
 90
       50
176
     1
 90
        3
176
     1
 62
     5
420
      255
176
     1
290
     0
176
     1
 90
       50
176
     1
 90
       50
176
     1
 90
       50
176
     1
290
     0
176
     1
 90
       50
176
     1
 62
   256
176
     0
 40
1.0
176
     0
 90
        2
176
     1
  1
strokes_ogs.tif
176
     1
290
     0
176
     1
 40
1.0
176
     1
 40
1.0
176
     1
  0
VISUALSTYLE
  5
36
102
{ACAD_REACTORS
330
2A
102
}
330
2A
100
AcDbVisualStyle
  2
Brighten
 70
    12
177
     3
291
     1
 70
    58
 90
        2
176
     1
 90
        2
176
     1
 90
        0
176
     1
 90
        0
176
     1
 40
0.6
176
     1
 40
30.0
176
     1
 62
     7
420
 16777215
176
     1
 90
        1
176
     1
 90
        4
176
     1
 62
     7
176
     1
 62
   257
176
     1
 90
        1
176
     1
 90
        1
176
     1
 40
1.0
176
     1
 90
        8
176
     1
 62
     7
176
     1
 40
1.0
176
     1
 90
        1
176
     1
 90
        6
176
     1
 90
        2
176
     1
 62
     7
176
     1
 90
        5
176
     1
 90
        0
176
     1
 90
        0
176
     1
290
     0
176
     1
 90
        1
176
     1
 40
50.0
176
     1
 90
        0
176
     1
290
     0
176
     1
290
     1
176
     1
290
     1
176
     1
290
     0
176
     1
290
     0
176
     1
290
     0
176
     1
290
     0
176
     1
290
     0
176
     1
290
     0
176
     1
 90
       50
176
     1
 40
0.0
176
     1
 40
1.0
176
     1
 90
        0
176
     1
 62
    18
420
        0
176
     1
 90
       50
176
     1
 90
        3
176
     1
 62
     5
420
      255
176
     1
290
     0
176
     1
 90
       50
176
     1
 90
       50
176
     1
 90
       50
176
     1
290
     0
176
     1
 90
       50
176
     1
 62
   256
176
     0
 40
1.0
176
     0
 90
        2
176
     1
  1
strokes_ogs.tif
176
     1
290
     0
176
     1
 40
1.0
176
     1
 40
1.0
176
     1
  0
VISUALSTYLE
  5
3A
102
{ACAD_REACTORS
330
2A
102
}
330
2A
100
AcDbVisualStyle
  2
ColorChange
 70
    16
177
     3
291
     1
 70
    58
 90
        2
176
     1
 90
        2
176
     1
 90
        3
176
     1
 90
        0
176
     1
 40
0.6
176
     1
 40
30.0
176
     1
 62
     8
420
  8421504
176
     1
 90
        1
176
     1
 90
        4
176
     1
 62
     7
176
     1
 62
   257
176
     1
 90
        1
176
     1
 90
        1
176
     1
 40
1.0
176
     1
 90
        8
176
     1
 62
     8
420
  8421504
176
     1
 40
1.0
176
     1
 90
        1
176
     1
 90
        6
176
     1
 90
        2
176
     1
 62
     7
176
     1
 90
        5
176
     1
 90
        0
176
     1
 90
        0
176
     1
290
     0
176
     1
 90
        1
176
     1
 40
0.0
176
     1
 90
        0
176
     1
290
     0
176
     1
290
     1
176
     1
290
     1
176
     1
290
     0
176
     1
290
     0
176
     1
290
     0
176
     1
290
     0
176
     1
290
     0
176
     1
290
     0
176
     1
 90
       50
176
     1
 40
0.0
176
     1
 40
1.0
176
     1
 90
        0
176
     1
 62
    18
420
        0
176
     1
 90
       50
176
     1
 90
        3
176
     1
 62
     5
420
      255
176
     1
290
     0
176
     1
 90
       50
176
     1
 90
       50
176
     1
 90
       50
176
     1
290
     0
176
     1
 90
       50
176
     1
 62
   256
176
     0
 40
1.0
176
     0
 90
        2
176
     1
  1
strokes_ogs.tif
176
     1
290
     0
176
     1
 40
1.0
176
     1
 40
1.0
176
     1
  0
VISUALSTYLE
  5
34
102
{ACAD_REACTORS
330
2A
102
}
330
2A
100
AcDbVisualStyle
  2
Conceptual
 70
     9
177
     3
291
     0
 70
    58
 90
        3
176
     1
 90
        2
176
     1
 90
        0
176
     1
 90
        0
176
     1
 40
0.6
176
     1
 40
30.0
176
     1
 62
     7
420
 16777215
176
     1
 90
        2
176
     1
 90
        2
176
     1
 62
     7
176
     1
 62
   257
176
     1
 90
        1
176
     1
 90
        1
176
     1
 40
179.0
176
     1
 90
        8
176
     1
 62
     7
176
     1
 40
1.0
176
     1
 90
        1
176
     1
 90
        6
176
     1
 90
        2
176
     1
 62
     7
176
     1
 90
        3
176
     1
 90
        0
176
     1
 90
        0
176
     1
290
     0
176
     1
 90
        1
176
     1
 40
0.0
176
     1
 90
        0
176
     1
290
     0
176
     1
290
     1
176
     1
290
     1
176
     1
290
     0
176
     1
290
     0
176
     1
290
     0
176
     1
290
     0
176
     1
290
     0
176
     1
290
     0
176
     1
 90
       50
176
     1
 40
0.0
176
     1
 40
1.0
176
     1
 90
        0
176
     1
 62
    18
420
        0
176
     1
 90
       50
176
     1
 90
        3
176
     1
 62
     5
420
      255
176
     1
290
     0
176
     1
 90
       50
176
     1
 90
       50
176
     1
 90
       50
176
     1
290
     0
176
     1
 90
       50
176
     1
 62
   256
176
     0
 40
1.0
176
     0
 90
        2
176
     1
  1
strokes_ogs.tif
176
     1
290
     0
176
     1
 40
1.0
176
     1
 40
1.0
176
     1
  0
VISUALSTYLE
  5
35
102
{ACAD_REACTORS
330
2A
102
}
330
2A
100
AcDbVisualStyle
  2
Dim
 70
    11
177
     3
291
     1
 70
    58
 90
        2
176
     1
 90
        2
176
     1
 90
        0
176
     1
 90
        0
176
     1
 40
0.6
176
     1
 40
30.0
176
     1
 62
     7
420
 16777215
176
     1
 90
        1
176
     1
 90
        4
176
     1
 62
     7
176
     1
 62
   257
176
     1
 90
        1
176
     1
 90
        1
176
     1
 40
1.0
176
     1
 90
        8
176
     1
 62
     7
176
     1
 40
1.0
176
     1
 90
        1
176
     1
 90
        6
176
     1
 90
        2
176
     1
 62
     7
176
     1
 90
        5
176
     1
 90
        0
176
     1
 90
        0
176
     1
290
     0
176
     1
 90
        1
176
     1
 40
-50.0
176
     1
 90
        0
176
     1
290
     0
176
     1
290
     1
176
     1
290
     1
176
     1
290
     0
176
     1
290
     0
176
     1
290
     0
176
     1
290
     0
176
     1
290
     0
176
     1
290
     0
176
     1
 90
       50
176
     1
 40
0.0
176
     1
 40
1.0
176
     1
 90
        0
176
     1
 62
    18
420
        0
176
     1
 90
       50
176
     1
 90
        3
176
     1
 62
     5
420
      255
176
     1
290
     0
176
     1
 90
       50
176
     1
 90
       50
176
     1
 90
       50
176
     1
290
     0
176
     1
 90
       50
176
     1
 62
   256
176
     0
 40
1.0
176
     0
 90
        2
176
     1
  1
strokes_ogs.tif
176
     1
290
     0
176
     1
 40
1.0
176
     1
 40
1.0
176
     1
  0
VISUALSTYLE
  5
3D
102
{ACAD_REACTORS
330
2A
102
}
330
2A
100
AcDbVisualStyle
  2
EdgeColorOff
 70
    22
177
     3
291
     1
 70
    58
 90
        2
176
     0
 90
        2
176
     0
 90
        0
176
     0
 90
        0
176
     0
 40
0.6
176
     0
 40
30.0
176
     0
 62
     7
420
 16777215
176
     0
 90
        1
176
     0
 90
        4
176
     0
 62
     7
176
     0
 62
   257
176
     0
 90
        1
176
     0
 90
        1
176
     0
 40
1.0
176
     0
 90
        8
176
     2
 62
     7
176
     0
 40
1.0
176
     0
 90
        1
176
     0
 90
        6
176
     0
 90
        2
176
     0
 62
     7
176
     0
 90
        5
176
     0
 90
        0
176
     0
 90
        0
176
     0
290
     0
176
     0
 90
        1
176
     0
 40
0.0
176
     0
 90
        0
176
     0
290
     0
176
     0
290
     1
176
     0
290
     1
176
     0
290
     0
176
     0
290
     0
176
     0
290
     0
176
     0
290
     0
176
     0
290
     0
176
     0
290
     0
176
     0
 90
       50
176
     0
 40
0.0
176
     0
 40
1.0
176
     0
 90
        0
176
     0
 62
    18
420
        0
176
     0
 90
       50
176
     0
 90
        3
176
     0
 62
     5
420
      255
176
     0
290
     0
176
     0
 90
       50
176
     0
 90
       50
176
     0
 90
       50
176
     0
290
     0
176
     0
 90
       50
176
     0
 62
   256
176
     0
 40
1.0
176
     0
 90
        2
176
     0
  1
strokes_ogs.tif
176
     0
290
     0
176
     0
 40
1.0
176
     0
 40
1.0
176
     0
  0
VISUALSTYLE
  5
39
102
{ACAD_REACTORS
330
2A
102
}
330
2A
100
AcDbVisualStyle
  2
Facepattern
 70
    15
177
     3
291
     1
 70
    58
 90
        2
176
     1
 90
        2
176
     1
 90
        0
176
     1
 90
        0
176
     1
 40
0.6
176
     1
 40
30.0
176
     1
 62
     7
420
 16777215
176
     1
 90
        1
176
     1
 90
        4
176
     1
 62
     7
176
     1
 62
   257
176
     1
 90
        1
176
     1
 90
        1
176
     1
 40
1.0
176
     1
 90
        8
176
     1
 62
     7
176
     1
 40
1.0
176
     1
 90
        1
176
     1
 90
        6
176
     1
 90
        2
176
     1
 62
     7
176
     1
 90
        5
176
     1
 90
        0
176
     1
 90
        0
176
     1
290
     0
176
     1
 90
        1
176
     1
 40
0.0
176
     1
 90
        0
176
     1
290
     0
176
     1
290
     1
176
     1
290
     1
176
     1
290
     0
176
     1
290
     0
176
     1
290
     0
176
     1
290
     0
176
     1
290
     0
176
     1
290
     0
176
     1
 90
       50
176
     1
 40
0.0
176
     1
 40
1.0
176
     1
 90
        0
176
     1
 62
    18
420
        0
176
     1
 90
       50
176
     1
 90
        3
176
     1
 62
     5
420
      255
176
     1
290
     0
176
     1
 90
       50
176
     1
 90
       50
176
     1
 90
       50
176
     1
290
     0
176
     1
 90
       50
176
     1
 62
   256
176
     0
 40
1.0
176
     0
 90
        2
176
     1
  1
strokes_ogs.tif
176
     1
290
     0
176
     1
 40
1.0
176
     1
 40
1.0
176
     1
  0
VISUALSTYLE
  5
2B
102
{ACAD_REACTORS
330
2A
102
}
330
2A
100
AcDbVisualStyle
  2
Flat
 70
     0
177
     3
291
     1
 70
    58
 90
        2
176
     1
 90
        1
176
     1
 90
        1
176
     1
 90
        2
176
     1
 40
0.6
176
     1
 40
30.0
176
     1
 62
     7
420
 16777215
176
     1
 90
        0
176
     1
 90
        0
176
     1
 62
     7
176
     1
 62
   257
176
     1
 90
        1
176
     1
 90
        1
176
     1
 40
1.0
176
     1
 90
        8
176
     1
 62
     7
176
     1
 40
1.0
176
     1
 90
        1
176
     1
 90
        6
176
     1
 90
        2
176
     1
 62
     7
176
     1
 90
        5
176
     1
 90
        0
176
     1
 90
        0
176
     1
290
     0
176
     1
 90
       13
176
     1
 40
0.0
176
     1
 90
        0
176
     1
290
     0
176
     1
290
     1
176
     1
290
     1
176
     1
290
     0
176
     1
290
     0
176
     1
290
     0
176
     1
290
     0
176
     1
290
     0
176
     1
290
     0
176
     1
 90
       50
176
     1
 40
0.0
176
     1
 40
1.0
176
     1
 90
        0
176
     1
 62
    18
420
        0
176
     1
 90
       50
176
     1
 90
        3
176
     1
 62
     5
420
      255
176
     1
290
     0
176
     1
 90
       50
176
     1
 90
       50
176
     1
 90
       50
176
     1
290
     0
176
     1
 90
       50
176
     1
 62
   256
176
     0
 40
1.0
176
     0
 90
        2
176
     1
  1
strokes_ogs.tif
176
     1
290
     0
176
     1
 40
1.0
176
     1
 40
1.0
176
     1
  0
VISUALSTYLE
  5
2C
102
{ACAD_REACTORS
330
2A
102
}
330
2A
100
AcDbVisualStyle
  2
FlatWithEdges
 70
     1
177
     3
291
     1
 70
    58
 90
        2
176
     1
 90
        1
176
     1
 90
        1
176
     1
 90
        2
176
     1
 40
0.6
176
     1
 40
30.0
176
     1
 62
     7
420
 16777215
176
     1
 90
        1
176
     1
 90
        0
176
     1
 62
     7
176
     1
 62
   257
176
     1
 90
        1
176
     1
 90
        1
176
     1
 40
1.0
176
     1
 90
        0
176
     1
 62
   257
176
     1
 40
1.0
176
     1
 90
        1
176
     1
 90
        6
176
     1
 90
        2
176
     1
 62
     7
176
     1
 90
        5
176
     1
 90
        0
176
     1
 90
        0
176
     1
290
     0
176
     1
 90
       13
176
     1
 40
0.0
176
     1
 90
        0
176
     1
290
     0
176
     1
290
     1
176
     1
290
     1
176
     1
290
     0
176
     1
290
     0
176
     1
290
     0
176
     1
290
     0
176
     1
290
     0
176
     1
290
     0
176
     1
 90
       50
176
     1
 40
0.0
176
     1
 40
1.0
176
     1
 90
        0
176
     1
 62
    18
420
        0
176
     1
 90
       50
176
     1
 90
        3
176
     1
 62
     5
420
      255
176
     1
290
     0
176
     1
 90
       50
176
     1
 90
       50
176
     1
 90
       50
176
     1
290
     0
176
     1
 90
       50
176
     1
 62
   256
176
     0
 40
1.0
176
     0
 90
        2
176
     1
  1
strokes_ogs.tif
176
     1
290
     0
176
     1
 40
1.0
176
     1
 40
1.0
176
     1
  0
VISUALSTYLE
  5
2D
102
{ACAD_REACTORS
330
2A
102
}
330
2A
100
AcDbVisualStyle
  2
Gouraud
 70
     2
177
     3
291
     1
 70
    58
 90
        2
176
     1
 90
        2
176
     1
 90
        1
176
     1
 90
        2
176
     1
 40
0.6
176
     1
 40
30.0
176
     1
 62
     7
420
 16777215
176
     1
 90
        0
176
     1
 90
        0
176
     1
 62
     7
176
     1
 62
   257
176
     1
 90
        1
176
     1
 90
        1
176
     1
 40
1.0
176
     1
 90
        0
176
     1
 62
     7
176
     1
 40
1.0
176
     1
 90
        1
176
     1
 90
        6
176
     1
 90
        2
176
     1
 62
     7
176
     1
 90
        5
176
     1
 90
        0
176
     1
 90
        0
176
     1
290
     0
176
     1
 90
       13
176
     1
 40
0.0
176
     1
 90
        0
176
     1
290
     0
176
     1
290
     1
176
     1
290
     1
176
     1
290
     0
176
     1
290
     0
176
     1
290
     0
176
     1
290
     0
176
     1
290
     0
176
     1
290
     0
176
     1
 90
       50
176
     1
 40
0.0
176
     1
 40
1.0
176
     1
 90
        0
176
     1
 62
    18
420
        0
176
     1
 90
       50
176
     1
 90
        3
176
     1
 62
     5
420
      255
176
     1
290
     0
176
     1
 90
       50
176
     1
 90
       50
176
     1
 90
       50
176
     1
290
     0
176
     1
 90
       50
176
     1
 62
   256
176
     0
 40
1.0
176
     0
 90
        2
176
     1
  1
strokes_ogs.tif
176
     1
290
     0
176
     1
 40
1.0
176
     1
 40
1.0
176
     1
  0
VISUALSTYLE
  5
2E
102
{ACAD_REACTORS
330
2A
102
}
330
2A
100
AcDbVisualStyle
  2
GouraudWithEdges
 70
     3
177
     3
291
     1
 70
    58
 90
        2
176
     1
 90
        2
176
     1
 90
        1
176
     1
 90
        2
176
     1
 40
0.6
176
     1
 40
30.0
176
     1
 62
     7
420
 16777215
176
     1
 90
        1
176
     1
 90
        0
176
     1
 62
     7
176
     1
 62
   257
176
     1
 90
        1
176
     1
 90
        1
176
     1
 40
1.0
176
     1
 90
        0
176
     1
 62
   257
176
     1
 40
1.0
176
     1
 90
        1
176
     1
 90
        6
176
     1
 90
        2
176
     1
 62
     7
176
     1
 90
        5
176
     1
 90
        0
176
     1
 90
        0
176
     1
290
     0
176
     1
 90
       13
176
     1
 40
0.0
176
     1
 90
        0
176
     1
290
     0
176
     1
290
     1
176
     1
290
     1
176
     1
290
     0
176
     1
290
     0
176
     1
290
     0
176
     1
290
     0
176
     1
290
     0
176
     1
290
     0
176
     1
 90
       50
176
     1
 40
0.0
176
     1
 40
1.0
176
     1
 90
        0
176
     1
 62
    18
420
        0
176
     1
 90
       50
176
     1
 90
        3
176
     1
 62
     5
420
      255
176
     1
290
     0
176
     1
 90
       50
176
     1
 90
       50
176
     1
 90
       50
176
     1
290
     0
176
     1
 90
       50
176
     1
 62
   256
176
     0
 40
1.0
176
     0
 90
        2
176
     1
  1
strokes_ogs.tif
176
     1
290
     0
176
     1
 40
1.0
176
     1
 40
1.0
176
     1
  0
VISUALSTYLE
  5
31
102
{ACAD_REACTORS
330
2A
102
}
330
2A
100
AcDbVisualStyle
  2
Hidden
 70
     6
177
     3
291
     0
 70
    58
 90
        1
176
     1
 90
        2
176
     1
 90
        2
176
     1
 90
        0
176
     1
 40
0.6
176
     1
 40
30.0
176
     1
 62
     7
420
 16777215
176
     1
 90
        2
176
     1
 90
        2
176
     1
 62
     7
176
     1
 62
   257
176
     1
 90
        2
176
     1
 90
        1
176
     1
 40
40.0
176
     1
 90
        0
176
     1
 62
   257
176
     1
 40
1.0
176
     1
 90
        1
176
     1
 90
        6
176
     1
 90
        2
176
     1
 62
     7
176
     1
 90
        3
176
     1
 90
        0
176
     1
 90
        0
176
     1
290
     0
176
     1
 90
        1
176
     1
 40
0.0
176
     1
 90
        0
176
     1
290
     0
176
     1
290
     1
176
     1
290
     1
176
     1
290
     0
176
     1
290
     0
176
     1
290
     0
176
     1
290
     0
176
     1
290
     0
176
     1
290
     0
176
     1
 90
       50
176
     1
 40
0.0
176
     1
 40
1.0
176
     1
 90
        0
176
     1
 62
    18
420
        0
176
     1
 90
       50
176
     1
 90
        3
176
     1
 62
     5
420
      255
176
     1
290
     0
176
     1
 90
       50
176
     1
 90
       50
176
     1
 90
       50
176
     1
290
     0
176
     1
 90
       50
176
     1
 62
   256
176
     0
 40
1.0
176
     0
 90
        2
176
     1
  1
strokes_ogs.tif
176
     1
290
     0
176
     1
 40
1.0
176
     1
 40
1.0
176
     1
  0
VISUALSTYLE
  5
3B
102
{ACAD_REACTORS
330
2A
102
}
330
2A
100
AcDbVisualStyle
  2
JitterOff
 70
    20
177
     3
291
     1
 70
    58
 90
        2
176
     0
 90
        2
176
     0
 90
        0
176
     0
 90
        0
176
     0
 40
0.6
176
     0
 40
30.0
176
     0
 62
     7
420
 16777215
176
     0
 90
        1
176
     0
 90
        4
176
     0
 62
     7
176
     0
 62
   257
176
     0
 90
        1
176
     0
 90
        1
176
     0
 40
1.0
176
     0
 90
       10
176
     2
 62
     7
176
     0
 40
1.0
176
     0
 90
        1
176
     0
 90
        6
176
     0
 90
        2
176
     0
 62
     7
176
     0
 90
        5
176
     0
 90
        0
176
     0
 90
        0
176
     0
290
     0
176
     0
 90
        1
176
     0
 40
0.0
176
     0
 90
        0
176
     0
290
     0
176
     0
290
     1
176
     0
290
     1
176
     0
290
     0
176
     0
290
     0
176
     0
290
     0
176
     0
290
     0
176
     0
290
     0
176
     0
290
     0
176
     0
 90
       50
176
     0
 40
0.0
176
     0
 40
1.0
176
     0
 90
        0
176
     0
 62
    18
420
        0
176
     0
 90
       50
176
     0
 90
        3
176
     0
 62
     5
420
      255
176
     0
290
     0
176
     0
 90
       50
176
     0
 90
       50
176
     0
 90
       50
176
     0
290
     0
176
     0
 90
       50
176
     0
 62
   256
176
     0
 40
1.0
176
     0
 90
        2
176
     0
  1
strokes_ogs.tif
176
     0
290
     0
176
     0
 40
1.0
176
     0
 40
1.0
176
     0
  0
VISUALSTYLE
  5
38
102
{ACAD_REACTORS
330
2A
102
}
330
2A
100
AcDbVisualStyle
  2
Linepattern
 70
    14
177
     3
291
     1
 70
    58
 90
        2
176
     1
 90
        2
176
     1
 90
        0
176
     1
 90
        0
176
     1
 40
0.6
176
     1
 40
30.0
176
     1
 62
     7
420
 16777215
176
     1
 90
        1
176
     1
 90
        4
176
     1
 62
     7
176
     1
 62
   257
176
     1
 90
        7
176
     1
 90
        7
176
     1
 40
1.0
176
     1
 90
        8
176
     1
 62
     7
176
     1
 40
1.0
176
     1
 90
        1
176
     1
 90
        6
176
     1
 90
        2
176
     1
 62
     7
176
     1
 90
        5
176
     1
 90
        0
176
     1
 90
        0
176
     1
290
     0
176
     1
 90
        1
176
     1
 40
0.0
176
     1
 90
        0
176
     1
290
     0
176
     1
290
     1
176
     1
290
     1
176
     1
290
     0
176
     1
290
     0
176
     1
290
     0
176
     1
290
     0
176
     1
290
     0
176
     1
290
     0
176
     1
 90
       50
176
     1
 40
0.0
176
     1
 40
1.0
176
     1
 90
        0
176
     1
 62
    18
420
        0
176
     1
 90
       50
176
     1
 90
        3
176
     1
 62
     5
420
      255
176
     1
290
     0
176
     1
 90
       50
176
     1
 90
       50
176
     1
 90
       50
176
     1
290
     0
176
     1
 90
       50
176
     1
 62
   256
176
     0
 40
1.0
176
     0
 90
        2
176
     1
  1
strokes_ogs.tif
176
     1
290
     0
176
     1
 40
1.0
176
     1
 40
1.0
176
     1
  0
VISUALSTYLE
  5
3C
102
{ACAD_REACTORS
330
2A
102
}
330
2A
100
AcDbVisualStyle
  2
OverhangOff
 70
    21
177
     3
291
     1
 70
    58
 90
        2
176
     0
 90
        2
176
     0
 90
        0
176
     0
 90
        0
176
     0
 40
0.6
176
     0
 40
30.0
176
     0
 62
     7
420
 16777215
176
     0
 90
        1
176
     0
 90
        4
176
     0
 62
     7
176
     0
 62
   257
176
     0
 90
        1
176
     0
 90
        1
176
     0
 40
1.0
176
     0
 90
        9
176
     2
 62
     7
176
     0
 40
1.0
176
     0
 90
        1
176
     0
 90
        6
176
     0
 90
        2
176
     0
 62
     7
176
     0
 90
        5
176
     0
 90
        0
176
     0
 90
        0
176
     0
290
     0
176
     0
 90
        1
176
     0
 40
0.0
176
     0
 90
        0
176
     0
290
     0
176
     0
290
     1
176
     0
290
     1
176
     0
290
     0
176
     0
290
     0
176
     0
290
     0
176
     0
290
     0
176
     0
290
     0
176
     0
290
     0
176
     0
 90
       50
176
     0
 40
0.0
176
     0
 40
1.0
176
     0
 90
        0
176
     0
 62
    18
420
        0
176
     0
 90
       50
176
     0
 90
        3
176
     0
 62
     5
420
      255
176
     0
290
     0
176
     0
 90
       50
176
     0
 90
       50
176
     0
 90
       50
176
     0
290
     0
176
     0
 90
       50
176
     0
 62
   256
176
     0
 40
1.0
176
     0
 90
        2
176
     0
  1
strokes_ogs.tif
176
     0
290
     0
176
     0
 40
1.0
176
     0
 40
1.0
176
     0
  0
VISUALSTYLE
  5
33
102
{ACAD_REACTORS
330
2A
102
}
330
2A
100
AcDbVisualStyle
  2
Realistic
 70
     8
177
     3
291
     0
 70
    58
 90
        2
176
     1
 90
        3
176
     1
 90
        0
176
     1
 90
        2
176
     1
 40
0.6
176
     1
 40
30.0
176
     1
 62
     7
420
 16777215
176
     1
 90
        0
176
     1
 90
        0
176
     1
 62
     7
176
     1
 62
   257
176
     1
 90
        1
176
     1
 90
        1
176
     1
 40
1.0
176
     1
 90
        8
176
     1
 62
   257
176
     1
 40
1.0
176
     1
 90
        1
176
     1
 90
        6
176
     1
 90
        2
176
     1
 62
     7
176
     1
 90
        3
176
     1
 90
        0
176
     1
 90
        0
176
     1
290
     0
176
     1
 90
       13
176
     1
 40
0.0
176
     1
 90
        0
176
     1
290
     0
176
     1
290
     1
176
     1
290
     1
176
     1
290
     0
176
     1
290
     0
176
     1
290
     0
176
     1
290
     0
176
     1
290
     0
176
     1
290
     0
176
     1
 90
       50
176
     1
 40
0.0
176
     1
 40
1.0
176
     1
 90
        0
176
     1
 62
    18
420
        0
176
     1
 90
       50
176
     1
 90
        3
176
     1
 62
     5
420
      255
176
     1
290
     0
176
     1
 90
       50
176
     1
 90
       50
176
     1
 90
       50
176
     1
290
     0
176
     1
 90
       50
176
     1
 62
   256
176
     0
 40
1.0
176
     0
 90
        2
176
     1
  1
strokes_ogs.tif
176
     1
290
     0
176
     1
 40
1.0
176
     1
 40
1.0
176
     1
  0
VISUALSTYLE
  5
42
102
{ACAD_REACTORS
330
2A
102
}
330
2A
100
AcDbVisualStyle
  2
Shaded
 70
    27
177
     3
291
     0
 70
    58
 90
        2
176
     1
 90
        2
176
     1
 90
        1
176
     1
 90
        2
176
     1
 40
0.6
176
     1
 40
30.0
176
     1
 62
     7
420
 16777215
176
     1
 90
        0
176
     1
 90
        4
176
     1
 62
     7
176
     1
 62
   257
176
     1
 90
        1
176
     1
 90
        1
176
     1
 40
1.0
176
     1
 90
        8
176
     1
 62
   257
176
     1
 40
1.0
176
     1
 90
        1
176
     1
 90
        6
176
     1
 90
        2
176
     1
 62
     8
420
  7895160
176
     1
 90
        3
176
     1
 90
        0
176
     1
 90
        0
176
     1
290
     0
176
     1
 90
        5
176
     1
 40
0.0
176
     1
 90
        0
176
     1
290
     0
176
     1
290
     1
176
     1
290
     1
176
     1
290
     0
176
     1
290
     0
176
     1
290
     0
176
     1
290
     0
176
     1
290
     0
176
     1
290
     0
176
     1
 90
       50
176
     1
 40
0.0
176
     1
 40
1.0
176
     1
 90
        0
176
     1
 62
    18
420
        0
176
     1
 90
       50
176
     1
 90
        3
176
     1
 62
     5
420
      255
176
     1
290
     0
176
     1
 90
       50
176
     1
 90
       50
176
     1
 90
       50
176
     1
290
     0
176
     1
 90
       50
176
     1
 62
   256
176
     0
 40
1.0
176
     0
 90
        2
176
     1
  1
strokes_ogs.tif
176
     1
290
     0
176
     1
 40
1.0
176
     1
 40
1.0
176
     1
  0
VISUALSTYLE
  5
41
102
{ACAD_REACTORS
330
2A
102
}
330
2A
100
AcDbVisualStyle
  2
Shaded with edges
 70
    26
177
     3
291
     0
 70
    58
 90
        2
176
     1
 90
        2
176
     1
 90
        1
176
     1
 90
        2
176
     1
 40
0.6
176
     1
 40
30.0
176
     1
 62
     7
420
 16777215
176
     1
 90
        1
176
     1
 90
       10
176
     1
 62
     7
176
     1
 62
   257
176
     1
 90
        2
176
     1
 90
        1
176
     1
 40
1.0
176
     1
 90
        8
176
     1
 62
   257
176
     1
 40
1.0
176
     1
 90
        1
176
     1
 90
        6
176
     1
 90
        2
176
     1
 62
     7
176
     1
 90
        3
176
     1
 90
        0
176
     1
 90
        0
176
     1
290
     0
176
     1
 90
        5
176
     1
 40
0.0
176
     1
 90
        0
176
     1
290
     0
176
     1
290
     1
176
     1
290
     1
176
     1
290
     0
176
     1
290
     0
176
     1
290
     0
176
     1
290
     0
176
     1
290
     0
176
     1
290
     0
176
     1
 90
       50
176
     1
 40
0.0
176
     1
 40
1.0
176
     1
 90
        0
176
     1
 62
    18
420
        0
176
     1
 90
       50
176
     1
 90
        3
176
     1
 62
     5
420
      255
176
     1
290
     0
176
     1
 90
       50
176
     1
 90
       50
176
     1
 90
       50
176
     1
290
     0
176
     1
 90
       50
176
     1
 62
   256
176
     0
 40
1.0
176
     0
 90
        2
176
     1
  1
strokes_ogs.tif
176
     1
290
     0
176
     1
 40
1.0
176
     1
 40
1.0
176
     1
  0
VISUALSTYLE
  5
3E
102
{ACAD_REACTORS
330
2A
102
}
330
2A
100
AcDbVisualStyle
  2
Shades of Gray
 70
    23
177
     3
291
     0
 70
    58
 90
        2
176
     1
 90
        2
176
     1
 90
        3
176
     1
 90
        0
176
     1
 40
0.6
176
     1
 40
30.0
176
     1
 62
     7
420
 16777215
176
     1
 90
        2
176
     1
 90
        2
176
     1
 62
     7
176
     1
 62
     7
176
     1
 90
        1
176
     1
 90
        1
176
     1
 40
40.0
176
     1
 90
        8
176
     1
 62
     7
176
     1
 40
1.0
176
     1
 90
        1
176
     1
 90
        6
176
     1
 90
        2
176
     1
 62
     7
176
     1
 90
        3
176
     1
 90
        0
176
     1
 90
        0
176
     1
290
     0
176
     1
 90
        1
176
     1
 40
0.0
176
     1
 90
        0
176
     1
290
     0
176
     1
290
     1
176
     1
290
     1
176
     1
290
     0
176
     1
290
     0
176
     1
290
     0
176
     1
290
     0
176
     1
290
     0
176
     1
290
     0
176
     1
 90
       50
176
     1
 40
0.0
176
     1
 40
1.0
176
     1
 90
        0
176
     1
 62
    18
420
        0
176
     1
 90
       50
176
     1
 90
        3
176
     1
 62
     5
420
      255
176
     1
290
     0
176
     1
 90
       50
176
     1
 90
       50
176
     1
 90
       50
176
     1
290
     0
176
     1
 90
       50
176
     1
 62
   256
176
     0
 40
1.0
176
     0
 90
        2
176
     1
  1
strokes_ogs.tif
176
     1
290
     0
176
     1
 40
1.0
176
     1
 40
1.0
176
     1
  0
VISUALSTYLE
  5
3F
102
{ACAD_REACTORS
330
2A
102
}
330
2A
100
AcDbVisualStyle
  2
Sketchy
 70
    24
177
     3
291
     0
 70
    58
 90
        1
176
     1
 90
        2
176
     1
 90
        2
176
     1
 90
        0
176
     1
 40
0.6
176
     1
 40
30.0
176
     1
 62
     7
420
 16777215
176
     1
 90
        2
176
     1
 90
        2
176
     1
 62
     7
176
     1
 62
     7
176
     1
 90
        1
176
     1
 90
        1
176
     1
 40
40.0
176
     1
 90
       11
176
     1
 62
     7
176
     1
 40
1.0
176
     1
 90
        1
176
     1
 90
        6
176
     1
 90
        2
176
     1
 62
     7
176
     1
 90
        6
176
     1
 90
        0
176
     1
 90
        0
176
     1
290
     0
176
     1
 90
        1
176
     1
 40
0.0
176
     1
 90
        0
176
     1
290
     0
176
     1
290
     1
176
     1
290
     1
176
     1
290
     0
176
     1
290
     0
176
     1
290
     0
176
     1
290
     0
176
     1
290
     0
176
     1
290
     0
176
     1
 90
       50
176
     1
 40
0.0
176
     1
 40
1.0
176
     1
 90
        0
176
     1
 62
    18
420
        0
176
     1
 90
       50
176
     1
 90
        3
176
     1
 62
     5
420
      255
176
     1
290
     0
176
     1
 90
       50
176
     1
 90
       50
176
     1
 90
       50
176
     1
290
     0
176
     1
 90
       50
176
     1
 62
   256
176
     0
 40
1.0
176
     0
 90
        2
176
     1
  1
strokes_ogs.tif
176
     1
290
     0
176
     1
 40
1.0
176
     1
 40
1.0
176
     1
  0
VISUALSTYLE
  5
37
102
{ACAD_REACTORS
330
2A
102
}
330
2A
100
AcDbVisualStyle
  2
Thicken
 70
    13
177
     3
291
     1
 70
    58
 90
        2
176
     1
 90
        2
176
     1
 90
        0
176
     1
 90
        0
176
     1
 40
0.6
176
     1
 40
30.0
176
     1
 62
     7
420
 16777215
176
     1
 90
        1
176
     1
 90
        4
176
     1
 62
     7
176
     1
 62
   257
176
     1
 90
        1
176
     1
 90
        1
176
     1
 40
1.0
176
     1
 90
       12
176
     1
 62
     7
176
     1
 40
1.0
176
     1
 90
        1
176
     1
 90
        6
176
     1
 90
        2
176
     1
 62
     7
176
     1
 90
        5
176
     1
 90
        0
176
     1
 90
        0
176
     1
290
     0
176
     1
 90
        1
176
     1
 40
0.0
176
     1
 90
        0
176
     1
290
     0
176
     1
290
     1
176
     1
290
     1
176
     1
290
     0
176
     1
290
     0
176
     1
290
     0
176
     1
290
     0
176
     1
290
     0
176
     1
290
     0
176
     1
 90
       50
176
     1
 40
0.0
176
     1
 40
1.0
176
     1
 90
        0
176
     1
 62
    18
420
        0
176
     1
 90
       50
176
     1
 90
        3
176
     1
 62
     5
420
      255
176
     1
290
     0
176
     1
 90
       50
176
     1
 90
       50
176
     1
 90
       50
176
     1
290
     0
176
     1
 90
       50
176
     1
 62
   256
176
     0
 40
1.0
176
     0
 90
        2
176
     1
  1
strokes_ogs.tif
176
     1
290
     0
176
     1
 40
1.0
176
     1
 40
1.0
176
     1
  0
VISUALSTYLE
  5
30
102
{ACAD_REACTORS
330
2A
102
}
330
2A
100
AcDbVisualStyle
  2
Wireframe
 70
     5
177
     3
291
     0
 70
    58
 90
        0
176
     1
 90
        2
176
     1
 90
        0
176
     1
 90
        0
176
     1
 40
0.6
176
     1
 40
30.0
176
     1
 62
     7
420
 16777215
176
     1
 90
        1
176
     1
 90
        4
176
     1
 62
     7
176
     1
 62
   257
176
     1
 90
        1
176
     1
 90
        1
176
     1
 40
1.0
176
     1
 90
        0
176
     1
 62
   257
176
     1
 40
1.0
176
     1
 90
        1
176
     1
 90
        6
176
     1
 90
        2
176
     1
 62
     7
176
     1
 90
        3
176
     1
 90
        0
176
     1
 90
        0
176
     1
290
     0
176
     1
 90
        1
176
     1
 40
0.0
176
     1
 90
        0
176
     1
290
     0
176
     1
290
     1
176
     1
290
     1
176
     1
290
     0
176
     1
290
     0
176
     1
290
     0
176
     1
290
     0
176
     1
290
     0
176
     1
290
     0
176
     1
 90
       50
176
     1
 40
0.0
176
     1
 40
1.0
176
     1
 90
        0
176
     1
 62
    18
420
        0
176
     1
 90
       50
176
     1
 90
        3
176
     1
 62
     5
420
      255
176
     1
290
     0
176
     1
 90
       50
176
     1
 90
       50
176
     1
 90
       50
176
     1
290
     0
176
     1
 90
       50
176
     1
 62
   256
176
     0
 40
1.0
176
     0
 90
        2
176
     1
  1
strokes_ogs.tif
176
     1
290
     0
176
     1
 40
1.0
176
     1
 40
1.0
176
     1
  0
VISUALSTYLE
  5
40
102
{ACAD_REACTORS
330
2A
102
}
330
2A
100
AcDbVisualStyle
  2
X-Ray
 70
    25
177
     3
291
     0
 70
    58
 90
        2
176
     1
 90
        2
176
     1
 90
        1
176
     1
 90
        1
176
     1
 40
0.5
176
     1
 40
30.0
176
     1
 62
     7
420
 16777215
176
     1
 90
        1
176
     1
 90
        0
176
     1
 62
     7
176
     1
 62
   257
176
     1
 90
        1
176
     1
 90
        1
176
     1
 40
1.0
176
     1
 90
        8
176
     1
 62
     7
176
     1
 40
1.0
176
     1
 90
        1
176
     1
 90
        6
176
     1
 90
        2
176
     1
 62
     7
176
     1
 90
        3
176
     1
 90
        0
176
     1
 90
        0
176
     1
290
     0
176
     1
 90
       13
176
     1
 40
0.0
176
     1
 90
        0
176
     1
290
     0
176
     1
290
     1
176
     1
290
     1
176
     1
290
     0
176
     1
290
     0
176
     1
290
     0
176
     1
290
     0
176
     1
290
     0
176
     1
290
     0
176
     1
 90
       50
176
     1
 40
0.0
176
     1
 40
1.0
176
     1
 90
        0
176
     1
 62
    18
420
        0
176
     1
 90
       50
176
     1
 90
        3
176
     1
 62
     5
420
      255
176
     1
290
     0
176
     1
 90
       50
176
     1
 90
       50
176
     1
 90
       50
176
     1
290
     0
176
     1
 90
       50
176
     1
 62
   256
176
     0
 40
1.0
176
     0
 90
        2
176
     1
  1
strokes_ogs.tif
176
     1
290
     0
176
     1
 40
1.0
176
     1
 40
1.0
176
     1
  0
DICTIONARYVAR
  5
190
102
{ACAD_REACTORS
330
18F
102
}
330
18F
100
DictionaryVariables
280
     0
  1
1:1
  0
DICTIONARYVAR
  5
195
102
{ACAD_REACTORS
330
18F
102
}
330
18F
100
DictionaryVariables
280
     0
  1
Standard
  0
DICTIONARYVAR
  5
194
102
{ACAD_REACTORS
330
18F
102
}
330
18F
100
DictionaryVariables
280
     0
  1
Standard
  0
DICTIONARY
  5
191
330
6A
100
AcDbDictionary
280
     1
281
     1
  3
ACAD_ROUNDTRIP_2008_TABLESTYLE_CELLSTYLEMAP
360
192
  0
CELLSTYLEMAP
  5
192
102
{ACAD_REACTORS
330
191
102
}
330
191
100
AcDbCellStyleMap
 90
        3
300
CELLSTYLE
  1
TABLEFORMAT_BEGIN
 90
        5
170
     1
 91
        0
 92
    32768
 62
   257
 93
        1
300
CONTENTFORMAT
  1
CONTENTFORMAT_BEGIN
 90
        0
 91
        0
 92
        4
 93
        0
300

 40
0.0
140
1.0
 94
        5
 62
     0
340
11
144
0.25
309
CONTENTFORMAT_END
171
     1
301
MARGIN
  1
CELLMARGIN_BEGIN
 40
0.06
 40
0.06
 40
0.06
 40
0.06
 40
0.06
 40
0.06
309
CELLMARGIN_END
 94
        6
 95
        1
302
GRIDFORMAT
  1
GRIDFORMAT_BEGIN
 90
        0
 91
        1
 62
     0
 92
       -2
340
14
 93
        0
 40
0.045
309
GRIDFORMAT_END
 95
        2
302
GRIDFORMAT
  1
GRIDFORMAT_BEGIN
 90
        0
 91
        1
 62
     0
 92
       -2
340
14
 93
        0
 40
0.045
309
GRIDFORMAT_END
 95
        4
302
GRIDFORMAT
  1
GRIDFORMAT_BEGIN
 90
        0
 91
        1
 62
     0
 92
       -2
340
14
 93
        0
 40
0.045
309
GRIDFORMAT_END
 95
        8
302
GRIDFORMAT
  1
GRIDFORMAT_BEGIN
 90
        0
 91
        1
 62
     0
 92
       -2
340
14
 93
        0
 40
0.045
309
GRIDFORMAT_END
 95
       16
302
GRIDFORMAT
  1
GRIDFORMAT_BEGIN
 90
        0
 91
        1
 62
     0
 92
       -2
340
14
 93
        0
 40
0.045
309
GRIDFORMAT_END
 95
       32
302
GRIDFORMAT
  1
GRIDFORMAT_BEGIN
 90
        0
 91
        1
 62
     0
 92
       -2
340
14
 93
        0
 40
0.045
309
GRIDFORMAT_END
309
TABLEFORMAT_END
  1
CELLSTYLE_BEGIN
 90
        1
 91
        1
300
_TITLE
309
CELLSTYLE_END
300
CELLSTYLE
  1
TABLEFORMAT_BEGIN
 90
        5
170
     1
 91
        0
 92
        0
 62
   257
 93
        1
300
CONTENTFORMAT
  1
CONTENTFORMAT_BEGIN
 90
        0
 91
        0
 92
        4
 93
        0
300

 40
0.0
140
1.0
 94
        5
 62
     0
340
11
144
0.18
309
CONTENTFORMAT_END
171
     1
301
MARGIN
  1
CELLMARGIN_BEGIN
 40
0.06
 40
0.06
 40
0.06
 40
0.06
 40
0.06
 40
0.06
309
CELLMARGIN_END
 94
        6
 95
        1
302
GRIDFORMAT
  1
GRIDFORMAT_BEGIN
 90
        0
 91
        1
 62
     0
 92
       -2
340
14
 93
        0
 40
0.045
309
GRIDFORMAT_END
 95
        2
302
GRIDFORMAT
  1
GRIDFORMAT_BEGIN
 90
        0
 91
        1
 62
     0
 92
       -2
340
14
 93
        0
 40
0.045
309
GRIDFORMAT_END
 95
        4
302
GRIDFORMAT
  1
GRIDFORMAT_BEGIN
 90
        0
 91
        1
 62
     0
 92
       -2
340
14
 93
        0
 40
0.045
309
GRIDFORMAT_END
 95
        8
302
GRIDFORMAT
  1
GRIDFORMAT_BEGIN
 90
        0
 91
        1
 62
     0
 92
       -2
340
14
 93
        0
 40
0.045
309
GRIDFORMAT_END
 95
       16
302
GRIDFORMAT
  1
GRIDFORMAT_BEGIN
 90
        0
 91
        1
 62
     0
 92
       -2
340
14
 93
        0
 40
0.045
309
GRIDFORMAT_END
 95
       32
302
GRIDFORMAT
  1
GRIDFORMAT_BEGIN
 90
        0
 91
        1
 62
     0
 92
       -2
340
14
 93
        0
 40
0.045
309
GRIDFORMAT_END
309
TABLEFORMAT_END
  1
CELLSTYLE_BEGIN
 90
        2
 91
        1
300
_HEADER
309
CELLSTYLE_END
300
CELLSTYLE
  1
TABLEFORMAT_BEGIN
 90
        5
170
     1
 91
        0
 92
        0
 62
   257
 93
        1
300
CONTENTFORMAT
  1
CONTENTFORMAT_BEGIN
 90
        0
 91
        0
 92
        4
 93
        0
300

 40
0.0
140
1.0
 94
        2
 62
     0
340
11
144
0.18
309
CONTENTFORMAT_END
171
     1
301
MARGIN
  1
CELLMARGIN_BEGIN
 40
0.06
 40
0.06
 40
0.06
 40
0.06
 40
0.06
 40
0.06
309
CELLMARGIN_END
 94
        6
 95
        1
302
GRIDFORMAT
  1
GRIDFORMAT_BEGIN
 90
        0
 91
        1
 62
     0
 92
       -2
340
14
 93
        0
 40
0.045
309
GRIDFORMAT_END
 95
        2
302
GRIDFORMAT
  1
GRIDFORMAT_BEGIN
 90
        0
 91
        1
 62
     0
 92
       -2
340
14
 93
        0
 40
0.045
309
GRIDFORMAT_END
 95
        4
302
GRIDFORMAT
  1
GRIDFORMAT_BEGIN
 90
        0
 91
        1
 62
     0
 92
       -2
340
14
 93
        0
 40
0.045
309
GRIDFORMAT_END
 95
        8
302
GRIDFORMAT
  1
GRIDFORMAT_BEGIN
 90
        0
 91
        1
 62
     0
 92
       -2
340
14
 93
        0
 40
0.045
309
GRIDFORMAT_END
 95
       16
302
GRIDFORMAT
  1
GRIDFORMAT_BEGIN
 90
        0
 91
        1
 62
     0
 92
       -2
340
14
 93
        0
 40
0.045
309
GRIDFORMAT_END
 95
       32
302
GRIDFORMAT
  1
GRIDFORMAT_BEGIN
 90
        0
 91
        1
 62
     0
 92
       -2
340
14
 93
        0
 40
0.045
309
GRIDFORMAT_END
309
TABLEFORMAT_END
  1
CELLSTYLE_BEGIN
 90
        3
 91
        2
300
_DATA
309
CELLSTYLE_END
  0
ENDSEC
  0
EOF