0
SECTION
  2
HEADER
  9
$ACADVER
  1
AC1027
  9
$ACADMAINTVER
 70
   105
  9
$DWGCODEPAGE
  3
ANSI_1252
  9
$REQUIREDVERSIONS
160
                 0
  9
$COMMENTS
  1
File was created by Cadenas
  9
$CUSTOMPROPERTYTAG
  1
NN
  9
$CUSTOMPROPERTY
  1
Set Screw LF  Normal Duty 3-Bolt Flange Inch Bore
  9
$CUSTOMPROPERTYTAG
  1
NT
  9
$CUSTOMPROPERTY
  1
SC 3 Bolt Flange Bearings -(Normal Duty) -Re-Lube and No-Lube
  9
$CUSTOMPROPERTYTAG
  1
NB
  9
$CUSTOMPROPERTY
  1
124630
  9
$CUSTOMPROPERTYTAG
  1
NBSYN
  9
$CUSTOMPROPERTY
  1
$PN.
  9
$CUSTOMPROPERTYTAG
  1
LINA
  9
$CUSTOMPROPERTY
  1
124630
  9
$CUSTOMPROPERTYTAG
  1
SERIES
  9
$CUSTOMPROPERTY
  1
207
  9
$CUSTOMPROPERTYTAG
  1
SS
  9
$CUSTOMPROPERTY
  1
1-1/4
  9
$CUSTOMPROPERTYTAG
  1
PN
  9
$CUSTOMPROPERTY
  1
124630
  9
$CUSTOMPROPERTYTAG
  1
DESCRIPTION
  9
$CUSTOMPROPERTY
  1
LF-SC-104-NL
  9
$CUSTOMPROPERTYTAG
  1
W
  9
$CUSTOMPROPERTY
  1
2.10
  9
$CUSTOMPROPERTYTAG
  1
LF
  9
$CUSTOMPROPERTY
  1
NO-LUBE
  9
$CUSTOMPROPERTYTAG
  1
A
  9
$CUSTOMPROPERTY
  1
1.40
  9
$CUSTOMPROPERTYTAG
  1
B
  9
$CUSTOMPROPERTY
  1
4.81
  9
$CUSTOMPROPERTYTAG
  1
C
  9
$CUSTOMPROPERTY
  1
1.59
  9
$CUSTOMPROPERTYTAG
  1
D
  9
$CUSTOMPROPERTY
  1
3.94
  9
$CUSTOMPROPERTYTAG
  1
G
  9
$CUSTOMPROPERTY
  1
0.41
  9
$CUSTOMPROPERTYTAG
  1
H
  9
$CUSTOMPROPERTY
  1
0.50
  9
$CUSTOMPROPERTYTAG
  1
J
  9
$CUSTOMPROPERTY
  1
0.52
  9
$CUSTOMPROPERTYTAG
  1
L
  9
$CUSTOMPROPERTY
  1
1.84
  9
$CUSTOMPROPERTYTAG
  1
M
  9
$CUSTOMPROPERTY
  1
2.41
  9
$CUSTOMPROPERTYTAG
  1
N
  9
$CUSTOMPROPERTY
  1
2.14
  9
$CUSTOMPROPERTYTAG
  1
COMPANY
  9
$CUSTOMPROPERTY
  1
baldor
  9
$INSBASE
 10
0.0
 20
0.0
 30
0.0
  9
$EXTMIN
 10
1.000000000000000E+20
 20
1.000000000000000E+20
 30
1.000000000000000E+20
  9
$EXTMAX
 10
-1.000000000000000E+20
 20
-1.000000000000000E+20
 30
-1.000000000000000E+20
  9
$LIMMIN
 10
0.0
 20
0.0
  9
$LIMMAX
 10
12.0
 20
9.0
  9
$ORTHOMODE
 70
     0
  9
$REGENMODE
 70
     1
  9
$FILLMODE
 70
     1
  9
$QTEXTMODE
 70
     0
  9
$MIRRTEXT
 70
     1
  9
$LTSCALE
 40
1.0
  9
$ATTMODE
 70
     1
  9
$TEXTSIZE
 40
0.2
  9
$TRACEWID
 40
0.05
  9
$TEXTSTYLE
  7
Standard
  9
$CLAYER
  8
0
  9
$CELTYPE
  6
ByLayer
  9
$CECOLOR
 62
   256
  9
$CELTSCALE
 40
1.0
  9
$DISPSILH
 70
     0
  9
$DIMSCALE
 40
1.0
  9
$DIMASZ
 40
0.18
  9
$DIMEXO
 40
0.0625
  9
$DIMDLI
 40
0.38
  9
$DIMRND
 40
0.0
  9
$DIMDLE
 40
0.0
  9
$DIMEXE
 40
0.18
  9
$DIMTP
 40
0.0
  9
$DIMTM
 40
0.0
  9
$DIMTXT
 40
0.18
  9
$DIMCEN
 40
0.09
  9
$DIMTSZ
 40
0.0
  9
$DIMTOL
 70
     0
  9
$DIMLIM
 70
     0
  9
$DIMTIH
 70
     1
  9
$DIMTOH
 70
     1
  9
$DIMSE1
 70
     0
  9
$DIMSE2
 70
     0
  9
$DIMTAD
 70
     0
  9
$DIMZIN
 70
     0
  9
$DIMBLK
  1

  9
$DIMASO
 70
     1
  9
$DIMSHO
 70
     1
  9
$DIMPOST
  1

  9
$DIMAPOST
  1

  9
$DIMALT
 70
     0
  9
$DIMALTD
 70
     2
  9
$DIMALTF
 40
25.4
  9
$DIMLFAC
 40
1.0
  9
$DIMTOFL
 70
     0
  9
$DIMTVP
 40
0.0
  9
$DIMTIX
 70
     0
  9
$DIMSOXD
 70
     0
  9
$DIMSAH
 70
     0
  9
$DIMBLK1
  1

  9
$DIMBLK2
  1

  9
$DIMSTYLE
  2
Standard
  9
$DIMCLRD
 70
     0
  9
$DIMCLRE
 70
     0
  9
$DIMCLRT
 70
     0
  9
$DIMTFAC
 40
1.0
  9
$DIMGAP
 40
0.09
  9
$DIMJUST
 70
     0
  9
$DIMSD1
 70
     0
  9
$DIMSD2
 70
     0
  9
$DIMTOLJ
 70
     1
  9
$DIMTZIN
 70
     0
  9
$DIMALTZ
 70
     0
  9
$DIMALTTZ
 70
     0
  9
$DIMUPT
 70
     0
  9
$DIMDEC
 70
     4
  9
$DIMTDEC
 70
     4
  9
$DIMALTU
 70
     2
  9
$DIMALTTD
 70
     2
  9
$DIMTXSTY
  7
Standard
  9
$DIMAUNIT
 70
     0
  9
$DIMADEC
 70
     0
  9
$DIMALTRND
 40
0.0
  9
$DIMAZIN
 70
     0
  9
$DIMDSEP
 70
    46
  9
$DIMATFIT
 70
     3
  9
$DIMFRAC
 70
     0
  9
$DIMLDRBLK
  1

  9
$DIMLUNIT
 70
     2
  9
$DIMLWD
 70
    -2
  9
$DIMLWE
 70
    -2
  9
$DIMTMOVE
 70
     0
  9
$DIMFXL
 40
1.0
  9
$DIMFXLON
 70
     0
  9
$DIMJOGANG
 40
0.7853981633974483
  9
$DIMTFILL
 70
     0
  9
$DIMTFILLCLR
 70
     0
  9
$DIMARCSYM
 70
     0
  9
$DIMLTYPE
  6

  9
$DIMLTEX1
  6

  9
$DIMLTEX2
  6

  9
$DIMTXTDIRECTION
 70
     0
  9
$LUNITS
 70
     2
  9
$LUPREC
 70
     4
  9
$SKETCHINC
 40
0.1
  9
$FILLETRAD
 40
0.5
  9
$AUNITS
 70
     0
  9
$AUPREC
 70
     0
  9
$MENU
  1
.
  9
$ELEVATION
 40
0.0
  9
$PELEVATION
 40
0.0
  9
$THICKNESS
 40
0.0
  9
$LIMCHECK
 70
     0
  9
$CHAMFERA
 40
0.0
  9
$CHAMFERB
 40
0.0
  9
$CHAMFERC
 40
0.0
  9
$CHAMFERD
 40
0.0
  9
$SKPOLY
 70
     0
  9
$TDCREATE
 40
2458168.978176053
  9
$TDUCREATE
 40
2458168.936509387
  9
$TDUPDATE
 40
2458168.978176238
  9
$TDUUPDATE
 40
2458168.936509572
  9
$TDINDWG
 40
0.0000000116
  9
$TDUSRTIMER
 40
0.0000000116
  9
$USRTIMER
 70
     1
  9
$ANGBASE
 50
0.0
  9
$ANGDIR
 70
     0
  9
$PDMODE
 70
     0
  9
$PDSIZE
 40
0.0
  9
$PLINEWID
 40
0.0
  9
$SPLFRAME
 70
     0
  9
$SPLINETYPE
 70
     6
  9
$SPLINESEGS
 70
     8
  9
$HANDSEED
  5
179
  9
$SURFTAB1
 70
     6
  9
$SURFTAB2
 70
     6
  9
$SURFTYPE
 70
     6
  9
$SURFU
 70
     6
  9
$SURFV
 70
     6
  9
$UCSBASE
  2

  9
$UCSNAME
  2

  9
$UCSORG
 10
0.0
 20
0.0
 30
0.0
  9
$UCSXDIR
 10
1.0
 20
0.0
 30
0.0
  9
$UCSYDIR
 10
0.0
 20
1.0
 30
0.0
  9
$UCSORTHOREF
  2

  9
$UCSORTHOVIEW
 70
     0
  9
$UCSORGTOP
 10
0.0
 20
0.0
 30
0.0
  9
$UCSORGBOTTOM
 10
0.0
 20
0.0
 30
0.0
  9
$UCSORGLEFT
 10
0.0
 20
0.0
 30
0.0
  9
$UCSORGRIGHT
 10
0.0
 20
0.0
 30
0.0
  9
$UCSORGFRONT
 10
0.0
 20
0.0
 30
0.0
  9
$UCSORGBACK
 10
0.0
 20
0.0
 30
0.0
  9
$PUCSBASE
  2

  9
$PUCSNAME
  2

  9
$PUCSORG
 10
0.0
 20
0.0
 30
0.0
  9
$PUCSXDIR
 10
1.0
 20
0.0
 30
0.0
  9
$PUCSYDIR
 10
0.0
 20
1.0
 30
0.0
  9
$PUCSORTHOREF
  2

  9
$PUCSORTHOVIEW
 70
     0
  9
$PUCSORGTOP
 10
0.0
 20
0.0
 30
0.0
  9
$PUCSORGBOTTOM
 10
0.0
 20
0.0
 30
0.0
  9
$PUCSORGLEFT
 10
0.0
 20
0.0
 30
0.0
  9
$PUCSORGRIGHT
 10
0.0
 20
0.0
 30
0.0
  9
$PUCSORGFRONT
 10
0.0
 20
0.0
 30
0.0
  9
$PUCSORGBACK
 10
0.0
 20
0.0
 30
0.0
  9
$USERI1
 70
     0
  9
$USERI2
 70
     0
  9
$USERI3
 70
     0
  9
$USERI4
 70
     0
  9
$USERI5
 70
     0
  9
$USERR1
 40
0.0
  9
$USERR2
 40
0.0
  9
$USERR3
 40
0.0
  9
$USERR4
 40
0.0
  9
$USERR5
 40
0.0
  9
$WORLDVIEW
 70
     1
  9
$SHADEDGE
 70
     3
  9
$SHADEDIF
 70
    70
  9
$TILEMODE
 70
     1
  9
$MAXACTVP
 70
    64
  9
$PINSBASE
 10
0.0
 20
0.0
 30
0.0
  9
$PLIMCHECK
 70
     0
  9
$PEXTMIN
 10
1.000000000000000E+20
 20
1.000000000000000E+20
 30
1.000000000000000E+20
  9
$PEXTMAX
 10
-1.000000000000000E+20
 20
-1.000000000000000E+20
 30
-1.000000000000000E+20
  9
$PLIMMIN
 10
0.0
 20
0.0
  9
$PLIMMAX
 10
12.0
 20
9.0
  9
$UNITMODE
 70
     0
  9
$VISRETAIN
 70
     1
  9
$PLINEGEN
 70
     0
  9
$PSLTSCALE
 70
     1
  9
$TREEDEPTH
 70
  3020
  9
$CMLSTYLE
  2
Standard
  9
$CMLJUST
 70
     0
  9
$CMLSCALE
 40
1.0
  9
$PROXYGRAPHICS
 70
     1
  9
$MEASUREMENT
 70
     0
  9
$CELWEIGHT
370
    -1
  9
$ENDCAPS
280
     0
  9
$JOINSTYLE
280
     0
  9
$LWDISPLAY
290
     0
  9
$INSUNITS
 70
     1
  9
$HYPERLINKBASE
  1

  9
$STYLESHEET
  1

  9
$XEDIT
290
     1
  9
$CEPSNTYPE
380
     0
  9
$PSTYLEMODE
290
     1
  9
$FINGERPRINTGUID
  2
{2F276F2B-E390-4162-A6CA-65F67B1A7E62}
  9
$VERSIONGUID
  2
{FAEB1C32-E019-11D5-929B-00C0DF256EC4}
  9
$EXTNAMES
290
     1
  9
$PSVPSCALE
 40
0.0
  9
$OLESTARTUP
290
     0
  9
$SORTENTS
280
   127
  9
$INDEXCTL
280
     0
  9
$HIDETEXT
280
     1
  9
$XCLIPFRAME
280
     2
  9
$HALOGAP
280
     0
  9
$OBSCOLOR
 70
   257
  9
$OBSLTYPE
280
     0
  9
$INTERSECTIONDISPLAY
280
     0
  9
$INTERSECTIONCOLOR
 70
   257
  9
$DIMASSOC
280
     2
  9
$PROJECTNAME
  1

  9
$CAMERADISPLAY
290
     0
  9
$LENSLENGTH
 40
50.0
  9
$CAMERAHEIGHT
 40
0.0
  9
$STEPSPERSEC
 40
2.0
  9
$STEPSIZE
 40
6.0
  9
$3DDWFPREC
 40
2.0
  9
$PSOLWIDTH
 40
0.25
  9
$PSOLHEIGHT
 40
4.0
  9
$LOFTANG1
 40
1.570796326794897
  9
$LOFTANG2
 40
1.570796326794897
  9
$LOFTMAG1
 40
0.0
  9
$LOFTMAG2
 40
0.0
  9
$LOFTPARAM
 70
     7
  9
$LOFTNORMALS
280
     1
  9
$LATITUDE
 40
37.795
  9
$LONGITUDE
 40
-122.394
  9
$NORTHDIRECTION
 40
0.0
  9
$TIMEZONE
 70
 -8000
  9
$LIGHTGLYPHDISPLAY
280
     1
  9
$TILEMODELIGHTSYNCH
280
     1
  9
$CMATERIAL
347
44
  9
$SOLIDHIST
280
     0
  9
$SHOWHIST
280
     1
  9
$DWFFRAME
280
     2
  9
$DGNFRAME
280
     2
  9
$REALWORLDSCALE
290
     1
  9
$INTERFERECOLOR
 62
   256
  9
$CSHADOW
280
     0
  9
$SHADOWPLANELOCATION
 40
0.0
  0
ENDSEC
  0
SECTION
  2
CLASSES
  0
CLASS
  1
ACDBDICTIONARYWDFLT
  2
AcDbDictionaryWithDefault
  3
ObjectDBX Classes
 90
        0
 91
        4
280
     0
281
     0
  0
CLASS
  1
VISUALSTYLE
  2
AcDbVisualStyle
  3
ObjectDBX Classes
 90
     4095
 91
        4
280
     0
281
     0
  0
CLASS
  1
MATERIAL
  2
AcDbMaterial
  3
ObjectDBX Classes
 90
     1153
 91
        4
280
     0
281
     0
  0
CLASS
  1
SCALE
  2
AcDbScale
  3
ObjectDBX Classes
 90
     1153
 91
        4
280
     0
281
     0
  0
CLASS
  1
TABLESTYLE
  2
AcDbTableStyle
  3
ObjectDBX Classes
 90
     4095
 91
        4
280
     0
281
     0
  0
CLASS
  1
MLEADERSTYLE
  2
AcDbMLeaderStyle
  3
ACDB_MLEADERSTYLE_CLASS
 90
     4095
 91
        4
280
     0
281
     0
  0
CLASS
  1
SUN
  2
AcDbSun
  3
SCENEOE
 90
     1153
 91
        4
280
     0
281
     0
  0
CLASS
  1
DICTIONARYVAR
  2
AcDbDictionaryVar
  3
ObjectDBX Classes
 90
        0
 91
        4
280
     0
281
     0
  0
CLASS
  1
CELLSTYLEMAP
  2
AcDbCellStyleMap
  3
ObjectDBX Classes
 90
     1152
 91
        4
280
     0
281
     0
  0
ENDSEC
  0
SECTION
  2
TABLES
  0
TABLE
  2
VPORT
  5
8
330
0
100
AcDbSymbolTable
 70
     1
  0
VPORT
  5
29
330
8
100
AcDbSymbolTableRecord
100
AcDbViewportTableRecord
  2
*Active
 70
     0
 10
0.0
 20
0.0
 11
1.0
 21
1.0
 12
4.003803571428572
 22
-2.594999999999999
 13
0.0
 23
0.0
 14
0.5
 24
0.5
 15
0.5
 25
0.5
 16
0.0
 26
0.0
 36
1.0
 17
0.0
 27
0.0
 37
0.0
 40
11.22
 41
1.029827922077922
 42
50.0
 43
0.0
 44
0.0
 50
0.0
 51
0.0
 71
     0
 72
   100
 73
     1
 74
     3
 75
     0
 76
     0
 77
     0
 78
     0
281
     0
 65
     1
110
0.0
120
0.0
130
0.0
111
1.0
121
0.0
131
0.0
112
0.0
122
1.0
132
0.0
 79
     0
146
0.0
348
2F
 60
     3
 61
     5
292
     1
282
     1
141
0.0
142
0.0
 63
   250
361
6D
  0
ENDTAB
  0
TABLE
  2
LTYPE
  5
5
330
0
100
AcDbSymbolTable
 70
     3
  0
LTYPE
  5
14
330
5
100
AcDbSymbolTableRecord
100
AcDbLinetypeTableRecord
  2
ByBlock
 70
     0
  3

 72
    65
 73
     0
 40
0.0
  0
LTYPE
  5
15
330
5
100
AcDbSymbolTableRecord
100
AcDbLinetypeTableRecord
  2
ByLayer
 70
     0
  3

 72
    65
 73
     0
 40
0.0
  0
LTYPE
  5
16
330
5
100
AcDbSymbolTableRecord
100
AcDbLinetypeTableRecord
  2
Continuous
 70
     0
  3
Solid line
 72
    65
 73
     0
 40
0.0
  0
LTYPE
  5
9B
330
5
100
AcDbSymbolTableRecord
100
AcDbLinetypeTableRecord
  2
Dashed
 70
     0
  3

 72
    65
 73
     2
 40
2.0
 49
1.0
 74
     0
 49
-1.0
 74
     0
  0
LTYPE
  5
D4
330
5
100
AcDbSymbolTableRecord
100
AcDbLinetypeTableRecord
  2
Center
 70
     0
  3

 72
    65
 73
     4
 40
1.5
 49
0.45
 74
     0
 49
-0.5
 74
     0
 49
0.05
 74
     0
 49
-0.5
 74
     0
  0
ENDTAB
  0
TABLE
  2
LAYER
  5
2
330
0
100
AcDbSymbolTable
 70
     8
  0
LAYER
  5
10
330
2
100
AcDbSymbolTableRecord
100
AcDbLayerTableRecord
  2
0
 70
     0
 62
     7
  6
Continuous
370
    -3
390
F
347
46
348
0
  0
LAYER
  5
6E
330
2
100
AcDbSymbolTableRecord
100
AcDbLayerTableRecord
  2
AM_6
 70
     0
 62
    -2
  6
Continuous
370
    35
390
F
347
46
348
0
  0
LAYER
  5
9C
330
2
100
AcDbSymbolTableRecord
100
AcDbLayerTableRecord
  2
AM_9
 70
     0
 62
     6
  6
Dashed
370
    25
390
F
347
46
348
0
  0
LAYER
  5
D1
330
2
100
AcDbSymbolTableRecord
100
AcDbLayerTableRecord
  2
AM_5
 70
     0
 62
     3
  6
Continuous
370
    25
390
F
347
46
348
0
  0
LAYER
  5
D5
330
2
100
AcDbSymbolTableRecord
100
AcDbLayerTableRecord
  2
AM_7
 70
     0
 62
     7
  6
Center
370
    25
390
F
347
46
348
0
  0
LAYER
  5
D8
330
2
100
AcDbSymbolTableRecord
100
AcDbLayerTableRecord
  2
AM_0
 70
     0
 62
     7
  6
Continuous
370
    50
390
F
347
46
348
0
  0
LAYER
  5
149
330
2
100
AcDbSymbolTableRecord
100
AcDbLayerTableRecord
  2
AM_4
 70
     0
 62
     3
  6
Continuous
370
    25
390
F
347
46
348
0
  0
LAYER
  5
16C
330
2
100
AcDbSymbolTableRecord
100
AcDbLayerTableRecord
  2
ConnectionPoints
 70
     0
 62
     7
  6
Continuous
370
    50
390
F
347
46
348
0
  0
ENDTAB
  0
TABLE
  2
STYLE
  5
3
330
0
100
AcDbSymbolTable
 70
     1
  0
STYLE
  5
11
330
3
100
AcDbSymbolTableRecord
100
AcDbTextStyleTableRecord
  2
Standard
 70
     0
 40
0.0
 41
1.0
 50
0.0
 71
     0
 42
0.2
  3
txt
  4

  0
ENDTAB
  0
TABLE
  2
VIEW
  5
6
330
0
100
AcDbSymbolTable
 70
     0
  0
ENDTAB
  0
TABLE
  2
UCS
  5
7
330
0
100
AcDbSymbolTable
 70
     0
  0
ENDTAB
  0
TABLE
  2
APPID
  5
9
330
0
100
AcDbSymbolTable
 70
     1
  0
APPID
  5
12
330
9
100
AcDbSymbolTableRecord
100
AcDbRegAppTableRecord
  2
ACAD
 70
     0
  0
ENDTAB
  0
TABLE
  2
DIMSTYLE
  5
A
330
0
100
AcDbSymbolTable
 70
     1
100
AcDbDimStyleTable
  0
DIMSTYLE
105
27
330
A
100
AcDbSymbolTableRecord
100
AcDbDimStyleTableRecord
  2
Standard
 70
     0
178
     0
340
11
  0
ENDTAB
  0
TABLE
  2
BLOCK_RECORD
  5
1
330
0
100
AcDbSymbolTable
 70
     4
  0
BLOCK_RECORD
  5
1F
330
1
100
AcDbSymbolTableRecord
100
AcDbBlockTableRecord
  2
*Model_Space
340
22
 70
     0
280
     1
281
     0
  0
BLOCK_RECORD
  5
1B
330
1
100
AcDbSymbolTableRecord
100
AcDbBlockTableRecord
  2
*Paper_Space
340
1E
 70
     0
280
     1
281
     0
  0
BLOCK_RECORD
  5
23
330
1
100
AcDbSymbolTableRecord
100
AcDbBlockTableRecord
  2
*Paper_Space0
340
26
 70
     0
280
     1
281
     0
  0
BLOCK_RECORD
  5
85
330
1
100
AcDbSymbolTableRecord
100
AcDbBlockTableRecord
  2
1_077984_0_in_124630_2
340
0
102
{BLKREFS
331
86
102
}
 70
     0
280
     1
281
     0
  0
BLOCK_RECORD
  5
E7
330
1
100
AcDbSymbolTableRecord
100
AcDbBlockTableRecord
  2
2_430026_0_in_124630_2
340
0
102
{BLKREFS
331
E8
102
}
 70
     0
280
     1
281
     0
  0
BLOCK_RECORD
  5
109
330
1
100
AcDbSymbolTableRecord
100
AcDbBlockTableRecord
  2
3_124630H_0_in_124630_2
340
0
102
{BLKREFS
331
10A
102
}
 70
     0
280
     1
281
     0
  0
ENDTAB
  0
ENDSEC
  0
SECTION
  2
BLOCKS
  0
BLOCK
  5
20
330
1F
100
AcDbEntity
  8
0
100
AcDbBlockBegin
  2
*Model_Space
 70
     0
 10
0.0
 20
0.0
 30
0.0
  3
*Model_Space
  1

  0
ENDBLK
  5
21
330
1F
100
AcDbEntity
  8
0
100
AcDbBlockEnd
  0
BLOCK
  5
1C
330
1B
100
AcDbEntity
 67
     1
  8
0
100
AcDbBlockBegin
  2
*Paper_Space
 70
     0
 10
0.0
 20
0.0
 30
0.0
  3
*Paper_Space
  1

  0
ENDBLK
  5
1D
330
1B
100
AcDbEntity
 67
     1
  8
0
100
AcDbBlockEnd
  0
BLOCK
  5
24
330
23
100
AcDbEntity
  8
0
100
AcDbBlockBegin
  2
*Paper_Space0
 70
     0
 10
0.0
 20
0.0
 30
0.0
  3
*Paper_Space0
  1

  0
ENDBLK
  5
25
330
23
100
AcDbEntity
  8
0
100
AcDbBlockEnd
  0
BLOCK
  5
87
330
85
100
AcDbEntity
  8
0
100
AcDbBlockBegin
  2
1_077984_0_in_124630_2
 70
     2
 10
0.0
 20
0.0
 30
0.0
  3
1_077984_0_in_124630_2
  1

  0
ATTDEF
  5
89
330
85
100
AcDbEntity
  8
AM_6
100
AcDbText
 10
4.815
 20
1.416645210866031
 30
0.0
 40
0.5
  1
Set Screw Light Duty Insert with Pin Inch Bore
100
AcDbAttributeDefinition
  3

  2
NN
 70
     8
280
     0
  0
ATTDEF
  5
8A
330
85
100
AcDbEntity
  8
AM_6
100
AcDbText
 10
4.815
 20
0.916645210866031
 30
0.0
 40
0.5
  1
SCP Bearing Inserts
100
AcDbAttributeDefinition
  3

  2
NT
 70
     8
280
     0
  0
ATTDEF
  5
8B
330
85
100
AcDbEntity
  8
AM_6
100
AcDbText
 10
4.815
 20
0.416645210866031
 30
0.0
 40
0.5
  1
077984
100
AcDbAttributeDefinition
  3

  2
NB
 70
     8
280
     0
  0
ATTDEF
  5
8C
330
85
100
AcDbEntity
  8
AM_6
100
AcDbText
 10
4.815
 20
-0.083354789133969
 30
0.0
 40
0.5
  1
$PN.
100
AcDbAttributeDefinition
  3

  2
NBSYN
 70
     8
280
     0
  0
ATTDEF
  5
8D
330
85
100
AcDbEntity
  8
AM_6
100
AcDbText
 10
4.815
 20
-0.583354789133969
 30
0.0
 40
0.5
  1
077984
100
AcDbAttributeDefinition
  3

  2
LINA
 70
     8
280
     0
  0
ATTDEF
  5
8E
330
85
100
AcDbEntity
  8
AM_6
100
AcDbText
 10
4.815
 20
-1.083354789133969
 30
0.0
 40
0.5
  1
207
100
AcDbAttributeDefinition
  3

  2
SERIES
 70
     8
280
     0
  0
ATTDEF
  5
8F
330
85
100
AcDbEntity
  8
AM_6
100
AcDbText
 10
4.815
 20
-1.583354789133969
 30
0.0
 40
0.5
  1
1-1/4
100
AcDbAttributeDefinition
  3

  2
SS
 70
     8
280
     0
  0
ATTDEF
  5
90
330
85
100
AcDbEntity
  8
AM_6
100
AcDbText
 10
4.815
 20
-2.083354789133969
 30
0.0
 40
0.5
  1
077984
100
AcDbAttributeDefinition
  3

  2
PN
 70
     8
280
     0
  0
ATTDEF
  5
91
330
85
100
AcDbEntity
  8
AM_6
100
AcDbText
 10
4.815
 20
-2.583354789133969
 30
0.0
 40
0.5
  1
INS-SCP-104
100
AcDbAttributeDefinition
  3

  2
DESCRIPTION
 70
     8
280
     0
  0
ATTDEF
  5
92
330
85
100
AcDbEntity
  8
AM_6
100
AcDbText
 10
4.815
 20
-3.083354789133969
 30
0.0
 40
0.5
  1
1.40
100
AcDbAttributeDefinition
  3

  2
A
 70
     8
280
     0
  0
ATTDEF
  5
93
330
85
100
AcDbEntity
  8
AM_6
100
AcDbText
 10
4.815
 20
-3.583354789133969
 30
0.0
 40
0.5
  1
0.75
100
AcDbAttributeDefinition
  3

  2
C
 70
     8
280
     0
  0
ATTDEF
  5
94
330
85
100
AcDbEntity
  8
AM_6
100
AcDbText
 10
4.815
 20
-4.083354789133969
 30
0.0
 40
0.5
  1
2.8346
100
AcDbAttributeDefinition
  3

  2
D
 70
     8
280
     0
  0
ATTDEF
  5
95
330
85
100
AcDbEntity
  8
AM_6
100
AcDbText
 10
4.815
 20
-4.583354789133969
 30
0.0
 40
0.5
  1
0.20
100
AcDbAttributeDefinition
  3

  2
J
 70
     8
280
     0
  0
ATTDEF
  5
96
330
85
100
AcDbEntity
  8
AM_6
100
AcDbText
 10
4.815
 20
-5.083354789133969
 30
0.0
 40
0.5
  1
1.84
100
AcDbAttributeDefinition
  3

  2
L
 70
     8
280
     0
  0
ATTDEF
  5
97
330
85
100
AcDbEntity
  8
AM_6
100
AcDbText
 10
4.815
 20
-5.583354789133969
 30
0.0
 40
0.5
  1
5/16 - 24
100
AcDbAttributeDefinition
  3

  2
N
 70
     8
280
     0
  0
ATTDEF
  5
98
330
85
100
AcDbEntity
  8
AM_6
100
AcDbText
 10
4.815
 20
-6.083354789133969
 30
0.0
 40
0.5
  1
0.37
100
AcDbAttributeDefinition
  3

  2
W
 70
     8
280
     0
  0
ATTDEF
  5
99
330
85
100
AcDbEntity
  8
AM_6
100
AcDbText
 10
4.815
 20
-6.583354789133969
 30
0.0
 40
0.5
  1
1.03
100
AcDbAttributeDefinition
  3

  2
Y
 70
     8
280
     0
  0
ATTDEF
  5
9A
330
85
100
AcDbEntity
  8
AM_6
100
AcDbText
 10
4.815
 20
-7.083354789133969
 30
0.0
 40
0.5
  1
baldor
100
AcDbAttributeDefinition
  3

  2
COMPANY
 70
     8
280
     0
  0
CIRCLE
  5
9D
330
85
100
AcDbEntity
  8
AM_9
 48
0.0071251732634314
100
AcDbCircle
 10
-0.3600000000000001
 20
-0.0000000000000001
 30
0.0
 40
0.0359848484848541
  0
LINE
  5
9E
330
85
100
AcDbEntity
  8
AM_9
 48
0.0071251732634314
100
AcDbLine
 10
-0.4492308573958882
 20
0.0537437254133058
 30
0.0
 11
-0.4469432392102833
 21
0.057372184898842
 31
0.0
  0
LINE
  5
9F
330
85
100
AcDbEntity
  8
AM_9
 48
0.0071251732634314
100
AcDbLine
 10
-1.287915196589309
 20
0.6126536478449086
 30
0.0
 11
-1.237084803410691
 21
0.6126536478449086
 31
0.0
  0
LINE
  5
A0
330
85
100
AcDbEntity
  8
AM_9
 48
0.0071251732634314
100
AcDbLine
 10
-1.1363
 20
0.625
 30
0.0
 11
-1.1363
 21
0.8991344012334843
 31
0.0
  0
LINE
  5
A1
330
85
100
AcDbEntity
  8
AM_9
 48
0.0071251732634314
100
AcDbLine
 10
-1.3887
 20
0.8991344012334843
 30
0.0
 11
-1.3887
 21
0.625
 31
0.0
  0
LINE
  5
A2
330
85
100
AcDbEntity
  8
AM_9
 48
0.0071251732634314
100
AcDbLine
 10
-1.1363
 20
0.8991344012334843
 30
0.0
 11
-1.115434401233481
 21
0.9200000000000033
 31
0.0
  0
LINE
  5
A3
330
85
100
AcDbEntity
  8
AM_9
 48
0.0071251732634314
100
AcDbLine
 10
-1.409565598766519
 20
0.9200000000000033
 30
0.0
 11
-1.3887
 21
0.8991344012334843
 31
0.0
  0
LINE
  5
A4
330
85
100
AcDbEntity
  8
AM_9
 48
0.0071251732634314
100
AcDbLine
 10
-1.3887
 20
0.8991344012334843
 30
0.0
 11
-1.1363
 21
0.8991344012334843
 31
0.0
  0
LWPOLYLINE
  5
A5
330
85
100
AcDbEntity
  8
AM_9
 48
0.0071251732634314
100
AcDbPolyline
 90
        4
 70
     0
 43
0.0
 10
-1.287915196589309
 20
0.6126536478449086
 10
-1.271037987533183
 20
0.6120639405846138
 10
-1.253368153505211
 20
0.6120747521575212
 10
-1.237084803410691
 20
0.6126536478449086
  0
LWPOLYLINE
  5
A6
330
85
100
AcDbEntity
  8
AM_9
 48
0.0071251732634314
100
AcDbPolyline
 90
       10
 70
     0
 43
0.0
 10
-1.237084803410691
 20
0.6126536478449086
 10
-1.217030747505717
 20
0.6138126855339411
 10
-1.197725330044758
 20
0.6155439203402228
 10
-1.18078906082209
 20
0.6175558578633483
 10
-1.16570452419877
 20
0.6197321390210342
 10
-1.153591530090475
 20
0.6217391855255981
 10
-1.144279124700161
 20
0.6234378360002384
 10
-1.138596231434494
 20
0.6245403941017222
 10
-1.136323731635992
 20
0.6249952085402465
 10
-1.136300000000793
 20
0.6249999999998398
  0
LWPOLYLINE
  5
A7
330
85
100
AcDbEntity
  8
AM_9
 48
0.0071251732634314
100
AcDbPolyline
 90
        5
 70
     0
 43
0.0
 10
-1.287915196589309
 20
0.1468859707668957
 10
-1.279284978834105
 20
0.1450578494666401
 10
-1.261878965044173
 20
0.1436609753757866
 10
-1.24392258290199
 20
0.1453743779094747
 10
-1.237084803410691
 20
0.1468859707668957
  0
LWPOLYLINE
  5
A8
330
85
100
AcDbEntity
  8
AM_9
 48
0.0071251732634314
100
AcDbPolyline
 90
        4
 70
     0
 43
0.0
 10
-1.237084803410692
 20
0.3709512686357322
 10
-1.258837750294389
 20
0.3735616244833173
 10
-1.273335710527354
 20
0.3731371533645921
 10
-1.287915196589308
 20
0.3709512686357322
  0
LINE
  5
A9
330
85
100
AcDbEntity
  8
AM_9
 48
0.0071251732634314
100
AcDbLine
 10
-0.6954999999999997
 20
0.625
 30
0.0
 11
-1.1363
 21
0.625
 31
0.0
  0
LINE
  5
AA
330
85
100
AcDbEntity
  8
AM_9
 48
0.0071251732634314
100
AcDbLine
 10
-1.3887
 20
0.625
 30
0.0
 11
-1.5532
 21
0.625
 31
0.0
  0
LINE
  5
AB
330
85
100
AcDbEntity
  8
AM_9
 48
0.0071251732634314
100
AcDbLine
 10
-1.5532
 20
-0.625
 30
0.0
 11
-0.6955000000000002
 21
-0.625
 31
0.0
  0
LWPOLYLINE
  5
AC
330
85
100
AcDbEntity
  8
AM_9
 48
0.0071251732634314
100
AcDbPolyline
 90
       10
 70
     0
 43
0.0
 10
-1.388699999999206
 20
0.6249999999998398
 10
-1.387387074062193
 20
0.624736217349223
 10
-1.38257735613593
 20
0.623792538795227
 10
-1.374679353243734
 20
0.6223204699302303
 10
-1.363477643554194
 20
0.6203991009807782
 10
-1.349639688110243
 20
0.6182975701423632
 10
-1.332930131590426
 20
0.6161647210250232
 10
-1.31451724867916
 20
0.6143324459607759
 10
-1.294009693777457
 20
0.6129367184318044
 10
-1.287915196589309
 20
0.6126536478449084
  0
LINE
  5
AD
330
85
100
AcDbEntity
  8
AM_9
 48
0.0071251732634314
100
AcDbLine
 10
-1.5532
 20
0.6249999999999999
 30
0.0
 11
-1.59
 21
0.6617999999999988
 31
0.0
  0
LINE
  5
AE
330
85
100
AcDbEntity
  8
AM_9
 48
0.0071251732634314
100
AcDbLine
 10
-1.59
 20
-0.6617999999999988
 30
0.0
 11
-1.5532
 21
-0.6249999999999999
 31
0.0
  0
LINE
  5
AF
330
85
100
AcDbEntity
  8
AM_9
 48
0.0071251732634314
100
AcDbLine
 10
-0.2268
 20
-0.625
 30
0.0
 11
-0.2268
 21
0.625
 31
0.0
  0
LINE
  5
B0
330
85
100
AcDbEntity
  8
AM_9
 48
0.0071251732634314
100
AcDbLine
 10
-0.2268
 20
-0.625
 30
0.0
 11
-0.19
 21
-0.6617999999999991
 31
0.0
  0
LINE
  5
B1
330
85
100
AcDbEntity
  8
AM_9
 48
0.0071251732634314
100
AcDbLine
 10
-0.19
 20
0.6617999999999991
 30
0.0
 11
-0.2268
 21
0.625
 31
0.0
  0
ELLIPSE
  5
B2
330
85
100
AcDbEntity
  8
AM_9
 48
0.0071251732634314
100
AcDbEllipse
 10
-1.2625
 20
0.2589186197013144
 30
0.0
 11
0.1262000000000003
 21
-3.091008521047927E-17
 31
0.0
210
0.0
220
0.0
230
1.0
 40
0.9063077870366527
 41
4.509613981979754
 42
4.915163978789624
  0
LWPOLYLINE
  5
B3
330
85
100
AcDbEntity
  8
AM_9
 48
0.0071251732634314
100
AcDbPolyline
 90
        6
 70
     0
 43
0.0
 10
-1.370508920277373
 20
0.3218490791819801
 10
-1.371408469909525
 20
0.3205448565170436
 10
-1.380720875299839
 20
0.3035003984411027
 10
-1.386403768565506
 20
0.2856613674317907
 10
-1.388676268364008
 20
0.2663524002028703
 10
-1.388699999517179
 20
0.2641464184595732
  0
LWPOLYLINE
  5
B4
330
85
100
AcDbEntity
  8
AM_9
 48
0.0071251732634314
100
AcDbPolyline
 90
       10
 70
     0
 43
0.0
 10
-1.23708480341069
 20
0.1468859707668957
 10
-1.217030747505717
 20
0.1527140917358613
 10
-1.197725330044757
 20
0.1619794698667934
 10
-1.180789060822089
 20
0.173825610781329
 10
-1.16570452419877
 20
0.1885211454186911
 10
-1.153591530090474
 20
0.2049718111687703
 10
-1.14427912470016
 20
0.2234520306665065
 10
-1.138596231434494
 20
0.2422229840524529
 10
-1.136323731635991
 20
0.2619163770562208
 10
-1.136300000482821
 20
0.2641264086338981
  0
LINE
  5
B5
330
85
100
AcDbEntity
  8
AM_9
 48
0.0071251732634314
100
AcDbLine
 10
-1.1363
 20
0.2641214462775162
 30
0.0
 11
-1.1363
 21
0.3799906177205598
 31
0.0
  0
LINE
  5
B6
330
85
100
AcDbEntity
  8
AM_9
 48
0.0071251732634314
100
AcDbLine
 10
-1.3887
 20
0.3799906177205598
 30
0.0
 11
-1.3887
 21
0.2641214462775161
 31
0.0
  0
LWPOLYLINE
  5
B7
330
85
100
AcDbEntity
  8
AM_9
 48
0.0071251732634314
100
AcDbPolyline
 90
       10
 70
     0
 43
0.0
 10
-1.388699999517179
 20
0.2641464184595732
 10
-1.387387074062193
 20
0.2475695508989224
 10
-1.38257735613593
 20
0.228433024222498
 10
-1.374679353243734
 20
0.2106084874353245
 10
-1.363477643554194
 20
0.1935876898381916
 10
-1.349639688110244
 20
0.17857072620113
 10
-1.332930131590426
 20
0.1654949583868579
 10
-1.314517248679161
 20
0.1554198737776087
 10
-1.294009693777457
 20
0.148284697792826
 10
-1.287915196589309
 20
0.1468859707668949
  0
LWPOLYLINE
  5
B8
330
85
100
AcDbEntity
  8
AM_9
 48
0.0071251732634314
100
AcDbPolyline
 90
        5
 70
     0
 43
0.0
 10
-1.136300000482821
 20
0.2641264086338981
 10
-1.137612925937807
 20
0.2804803175462555
 10
-1.142422643864071
 20
0.2988192126424165
 10
-1.150320646756266
 20
0.3153995030598148
 10
-1.154305200396496
 20
0.321583076671655
  0
LINE
  5
B9
330
85
100
AcDbEntity
  8
AM_9
 48
0.0071251732634314
100
AcDbLine
 10
-0.9350000000000002
 20
0.9200000000000033
 30
0.0
 11
-1.07
 21
0.9200000000000033
 31
0.0
  0
LINE
  5
BA
330
85
100
AcDbEntity
  8
AM_9
 48
0.0071251732634314
100
AcDbLine
 10
-1.07
 20
-0.9200000000000033
 30
0.0
 11
-0.9350000000000002
 21
-0.9200000000000033
 31
0.0
  0
LINE
  5
BB
330
85
100
AcDbEntity
  8
AM_9
 48
0.0071251732634314
100
AcDbLine
 10
-1.169788577699067
 20
0.9138577643927666
 30
0.0
 11
-1.155954270308016
 21
0.9151628589167367
 31
0.0
  0
LINE
  5
BC
330
85
100
AcDbEntity
  8
AM_9
 48
0.0071251732634314
100
AcDbLine
 10
-0.19
 20
-0.9200000000000035
 30
0.0
 11
-0.19
 21
0.9200000000000035
 31
0.0
  0
LINE
  5
BD
330
85
100
AcDbEntity
  8
AM_9
 48
0.0071251732634314
100
AcDbLine
 10
-0.1849999999999999
 20
0.9200000000000035
 30
0.0
 11
-0.19
 21
0.9200000000000035
 31
0.0
  0
LINE
  5
BE
330
85
100
AcDbEntity
  8
AM_9
 48
0.0071251732634314
100
AcDbLine
 10
-0.19
 20
-0.9200000000000035
 30
0.0
 11
-0.1849999999999999
 21
-0.9200000000000035
 31
0.0
  0
LINE
  5
BF
330
85
100
AcDbEntity
  8
AM_9
 48
0.0071251732634314
100
AcDbLine
 10
-0.7200000000000001
 20
1.350633333333336
 30
0.0
 11
-0.8
 21
1.350633333333336
 31
0.0
  0
LINE
  5
C0
330
85
100
AcDbEntity
  8
AM_9
 48
0.0071251732634314
100
AcDbLine
 10
-0.8
 20
-1.350633333333336
 30
0.0
 11
-0.7200000000000001
 21
-1.350633333333336
 31
0.0
  0
LINE
  5
C1
330
85
100
AcDbEntity
  8
AM_9
 48
0.0071251732634314
100
AcDbLine
 10
-0.1849999999999999
 20
-1.335937981344939
 30
0.0
 11
-0.1849999999999999
 21
1.335937981344939
 31
0.0
  0
ARC
  5
C2
330
85
100
AcDbEntity
  8
AM_9
 48
0.0071251732634314
100
AcDbCircle
 10
-0.2249999999999996
 20
1.335937981344943
 30
0.0
 40
0.0399999999999995
100
AcDbArc
 50
359.999999999994
 51
75.92277279328532
  0
ARC
  5
C3
330
85
100
AcDbEntity
  8
AM_9
 48
0.0071251732634314
100
AcDbCircle
 10
-0.2249999999999996
 20
-1.335937981344943
 30
0.0
 40
0.0399999999999995
100
AcDbArc
 50
284.0772272067147
 51
0.0000000000060431
  0
LINE
  5
C4
330
85
100
AcDbEntity
  8
AM_9
 48
0.0071251732634314
100
AcDbLine
 10
-0.935
 20
-1.335937981344939
 30
0.0
 11
-0.935
 21
1.335937981344939
 31
0.0
  0
ARC
  5
C5
330
85
100
AcDbEntity
  8
AM_9
 48
0.0071251732634314
100
AcDbCircle
 10
-0.8950000000000001
 20
1.335937981344943
 30
0.0
 40
0.0399999999999999
100
AcDbArc
 50
104.0772272067143
 51
180.0000000000051
  0
ARC
  5
C6
330
85
100
AcDbEntity
  8
AM_9
 48
0.0071251732634314
100
AcDbCircle
 10
-0.8950000000000001
 20
-1.335937981344943
 30
0.0
 40
0.0399999999999999
100
AcDbArc
 50
179.9999999999949
 51
255.9227727932857
  0
LINE
  5
C7
330
85
100
AcDbEntity
  8
AM_9
 48
0.0071251732634314
100
AcDbLine
 10
-0.8
 20
-1.396831876068249
 30
0.0
 11
-0.8
 21
1.396831876068125
 31
0.0
  0
LINE
  5
C8
330
85
100
AcDbEntity
  8
AM_9
 48
0.0071251732634314
100
AcDbLine
 10
-0.9047291802802593
 20
-1.374736731983124
 30
0.0
 11
-0.9047291802802593
 21
1.374736731983
 31
0.0
  0
ARC
  5
C9
330
85
100
AcDbEntity
  8
AM_9
 48
0.0071251732634314
100
AcDbCircle
 10
-0.5599999999998946
 20
-0.0000000000005165
 30
0.0
 40
1.417300000000526
100
AcDbArc
 50
99.74921852491468
 51
104.0772272067123
  0
ARC
  5
CA
330
85
100
AcDbEntity
  8
AM_9
 48
0.0071251732634314
100
AcDbCircle
 10
-0.560000000034885
 20
-0.0000000001654448
 30
0.0
 40
1.417299999831158
100
AcDbArc
 50
255.9227727930291
 51
260.2507814753441
  0
LINE
  5
CB
330
85
100
AcDbEntity
  8
AM_9
 48
0.0071251732634314
100
AcDbLine
 10
-0.2152708197197403
 20
-1.374736731983004
 30
0.0
 11
-0.2152708197197403
 21
1.374736731983001
 31
0.0
  0
LWPOLYLINE
  5
CC
330
85
100
AcDbEntity
  8
AM_9
 48
0.0071251732634314
100
AcDbPolyline
 90
        8
 70
     0
 43
0.0
 10
-0.4469432392102596
 20
-0.0573721848988784
 10
-0.4552055678140429
 20
-0.0422186377741042
 10
-0.4608680515588602
 20
-0.0258916831504379
 10
-0.4637483545515143
 20
-0.0087284250329763
 10
-0.4637625800098866
 20
0.0086796943424372
 10
-0.4608593977915255
 20
0.0258840688380463
 10
-0.4551548169703844
 20
0.0423578369960444
 10
-0.4492308573958882
 20
0.0537437254133058
  0
LWPOLYLINE
  5
CD
330
85
100
AcDbEntity
  8
AM_9
 48
0.0071251732634314
100
AcDbPolyline
 90
       32
 70
     0
 43
0.0
 10
-0.4469432392102596
 20
-0.0573721848988781
 10
-0.4360712653317447
 20
-0.0711454425388415
 10
-0.4230782415148334
 20
-0.0828965010832172
 10
-0.408275722504516
 20
-0.0922931504464286
 10
-0.392137224824659
 20
-0.0990852825853204
 10
-0.3749819679695797
 20
-0.1030732898714239
 10
-0.3574100090045944
 20
-0.1041344630325964
 10
-0.3398061041150457
 20
-0.102179814945141
 10
-0.3227722449945905
 20
-0.0972871456139025
 10
-0.3068069769524094
 20
-0.0895486095155586
 10
-0.2923546129076136
 20
-0.079213610254581
 10
-0.2799367345453013
 20
-0.0666205077869096
 10
-0.269795903476051
 20
-0.0520952532841672
 10
-0.2623341719683626
 20
-0.0361913484338706
 10
-0.2576268161898366
 20
-0.0192464459320142
 10
-0.2558612393164638
 20
-0.0018955394467414
 10
-0.2569943707165923
 20
0.0155091837429507
 10
-0.2610116558076943
 20
0.032401289137212
 10
-0.2677521779988972
 20
0.0483842307006765
 10
-0.2770827261278712
 20
0.0630341909258241
 10
-0.2886828111813613
 20
0.0759246535945345
 10
-0.3023668723941673
 20
0.0867584053968072
 10
-0.3176342320053964
 20
0.0951621571144268
 10
-0.3342433336258227
 20
0.1009215982604864
 10
-0.3515678824907749
 20
0.1038248228447997
 10
-0.369259773796891
 20
0.1037438154083721
 10
-0.3866918950120084
 20
0.1006888136046471
 10
-0.403388766263079
 20
0.0946883226980022
 10
-0.4188540957487774
 20
0.0859470177378901
 10
-0.4325544506050727
 20
0.0747280119463007
 10
-0.4441900500721003
 20
0.061341094816613
 10
-0.4469432392102833
 20
0.057372184898842
  0
LINE
  5
CE
330
85
100
AcDbEntity
  8
AM_9
 48
0.0071251732634314
100
AcDbLine
 10
-0.7200000000000001
 20
-1.408239784269713
 30
0.0
 11
-0.7200000000000001
 21
1.40823978426971
 31
0.0
  0
ARC
  5
CF
330
85
100
AcDbEntity
  8
AM_9
 48
0.0071251732634314
100
AcDbCircle
 10
-0.5599999999999975
 20
0.0000000000000078
 30
0.0
 40
1.417299999999992
100
AcDbArc
 50
75.92277279328674
 51
96.48197920051814
  0
ARC
  5
D0
330
85
100
AcDbEntity
  8
AM_9
 48
0.0071251732634314
100
AcDbCircle
 10
-0.5600000000000954
 20
0.0000000000014515
 30
0.0
 40
1.417300000001435
100
AcDbArc
 50
263.5180207994924
 51
284.0772272067027
  0
LINE
  5
D2
330
85
100
AcDbEntity
  8
AM_5
 48
0.0071251732634314
100
AcDbLine
 10
-1.10625
 20
0.625
 30
0.0
 11
-1.10625
 21
0.9200000000000033
 31
0.0
  0
LINE
  5
D3
330
85
100
AcDbEntity
  8
AM_5
 48
0.0071251732634314
100
AcDbLine
 10
-1.41875
 20
0.625
 30
0.0
 11
-1.41875
 21
0.9200000000000033
 31
0.0
  0
LINE
  5
D6
330
85
100
AcDbEntity
  8
AM_7
 48
0.0071251732634314
100
AcDbLine
 10
-0.3600000000000001
 20
-0.0377840909090969
 30
0.0
 11
-0.3600000000000001
 21
0.0377840909090967
 31
0.0
  0
LINE
  5
D7
330
85
100
AcDbEntity
  8
AM_7
 48
0.0071251732634314
100
AcDbLine
 10
-1.2625
 20
0.9465134389029138
 30
0.0
 11
-1.2625
 21
0.5652746101754798
 31
0.0
  0
LWPOLYLINE
  5
D9
330
85
100
AcDbEntity
  8
AM_0
 48
0.0071251732634314
100
AcDbPolyline
 90
        6
 70
     0
 43
0.0
 10
-1.287915196589308
 20
0.3709512686357322
 10
-1.307969252494282
 20
0.3661028086536285
 10
-1.327274669955242
 20
0.3583007334116883
 10
-1.34421093917791
 20
0.3481551555746614
 10
-1.359295475801229
 20
0.3352990932571397
 10
-1.370508920277373
 20
0.3218490791819801
  0
ELLIPSE
  5
DA
330
85
100
AcDbEntity
  8
AM_0
 48
0.0071251732634314
100
AcDbEllipse
 10
-1.2625
 20
0.2589186197013151
 30
0.0
 11
0.1262000000000012
 21
-3.091008521047949E-17
 31
0.0
210
0.0
220
0.0
230
1.0
 40
0.9063077870366308
 41
1.368021328389972
 42
1.773571325199821
  0
LWPOLYLINE
  5
DB
330
85
100
AcDbEntity
  8
AM_0
 48
0.0071251732634314
100
AcDbPolyline
 90
        7
 70
     0
 43
0.0
 10
-1.154305200396496
 20
0.321583076671655
 10
-1.161522356445807
 20
0.3307962894457876
 10
-1.175360311889757
 20
0.3440369624629984
 10
-1.192069868409575
 20
0.3553099683042193
 10
-1.210482751320841
 20
0.3638363471081024
 10
-1.230990306222544
 20
0.3697918032085697
 10
-1.237084803410692
 20
0.3709512686357329
  0
LINE
  5
DC
330
85
100
AcDbEntity
  8
AM_0
 48
0.0071251732634314
100
AcDbLine
 10
-1.59
 20
-0.8832000000000186
 30
0.0
 11
-1.59
 21
0.8832000000000186
 31
0.0
  0
LINE
  5
DD
330
85
100
AcDbEntity
  8
AM_0
 48
0.0071251732634314
100
AcDbLine
 10
-1.59
 20
-0.8832000000000186
 30
0.0
 11
-1.5532
 21
-0.9200000000000033
 31
0.0
  0
LINE
  5
DE
330
85
100
AcDbEntity
  8
AM_0
 48
0.0071251732634314
100
AcDbLine
 10
-1.5532
 20
0.9200000000000033
 30
0.0
 11
-1.59
 21
0.8832000000000186
 31
0.0
  0
LWPOLYLINE
  5
DF
330
85
100
AcDbEntity
  8
AM_0
 48
0.0071251732634314
100
AcDbPolyline
 90
       15
 70
     0
 43
0.0
 10
-1.161181436945873
 20
0.9146488251145454
 10
-1.177665520411491
 20
0.9131944045002973
 10
-1.196148849922973
 20
0.9118664206444597
 10
-1.219161533917058
 20
0.91066393293074
 10
-1.243934510606998
 20
0.9099320433193467
 10
-1.269472836219388
 20
0.9097906312692718
 10
-1.295533746749209
 20
0.9102884650377346
 10
-1.320212878870608
 20
0.9113562279751243
 10
-1.343921619890414
 20
0.9129250269810686
 10
-1.364171519129669
 20
0.9146827359321371
 10
-1.381958485962769
 20
0.9165410330040054
 10
-1.394840127737692
 20
0.9180686091478671
 10
-1.404160962320536
 20
0.9192683051297227
 10
-1.408670857433108
 20
0.9198770455097914
 10
-1.409565598766269
 20
0.9199999999999687
  0
LINE
  5
E0
330
85
100
AcDbEntity
  8
AM_0
 48
0.0071251732634314
100
AcDbLine
 10
-1.5532
 20
-0.9200000000000033
 30
0.0
 11
-1.5532
 21
0.9200000000000033
 31
0.0
  0
LWPOLYLINE
  5
E1
330
85
100
AcDbEntity
  8
AM_0
 48
0.0071251732634314
100
AcDbPolyline
 90
       39
 70
     0
 43
0.0
 10
-1.148181045506501
 20
0.3091885037541539
 10
-1.1632430278298
 20
0.2950510486911139
 10
-1.180321311136059
 20
0.2830645507915479
 10
-1.201893936589426
 20
0.2722834068569497
 10
-1.224990016206058
 20
0.2648730527552926
 10
-1.250271436111227
 20
0.2609462250451966
 10
-1.275883513758397
 20
0.2610243602428606
 10
-1.301682551788673
 20
0.265296248308088
 10
-1.326363488785777
 20
0.2736399016458386
 10
-1.349029612987298
 20
0.2858052004659363
 10
-1.369126402177821
 20
0.3014495149645889
 10
-1.385288382379949
 20
0.3193815819164507
 10
-1.397772507269628
 20
0.3395741914747157
 10
-1.405509271021249
 20
0.3597751441048882
 10
-1.409251428214753
 20
0.3807051674267996
 10
-1.408915272804937
 20
0.4002563442136361
 10
-1.404962702658041
 20
0.4192695073061615
 10
-1.397653817021674
 20
0.4369242676729601
 10
-1.387272845786924
 20
0.4531529019011836
 10
-1.373515392485013
 20
0.4681877960755442
 10
-1.357229582829812
 20
0.4810673349725821
 10
-1.337457133478138
 20
0.4922448427626715
 10
-1.315860593716519
 20
0.5005888649357709
 10
-1.291518136157758
 20
0.5062097848663824
 10
-1.266409107381795
 20
0.5084562217858019
 10
-1.240379765203141
 20
0.5071687717835871
 10
-1.214971790725203
 20
0.5022727760826745
 10
-1.190858343108491
 20
0.4937546615554508
 10
-1.168847016853461
 20
0.4817850178289659
 10
-1.150195986554995
 20
0.4669664099943619
 10
-1.134921853000828
 20
0.4493423204667695
 10
-1.124312161668641
 20
0.4306161545622689
 10
-1.117691392977301
 20
0.4102787858297282
 10
-1.115466099925212
 20
0.3905559799310272
 10
-1.117025016981391
 20
0.3705627994067989
 10
-1.122098738103953
 20
0.3516251298922318
 10
-1.13042433990247
 20
0.333521603645628
 10
-1.138558780618553
 20
0.3209113014001787
 10
-1.148181044566818
 20
0.3091885024179671
  0
LINE
  5
E2
330
85
100
AcDbEntity
  8
AM_0
 48
0.0071251732634314
100
AcDbLine
 10
-1.07
 20
0.9200000000000033
 30
0.0
 11
-1.115434401233481
 21
0.9200000000000033
 31
0.0
  0
LINE
  5
E3
330
85
100
AcDbEntity
  8
AM_0
 48
0.0071251732634314
100
AcDbLine
 10
-1.409565598766519
 20
0.9200000000000033
 30
0.0
 11
-1.5532
 21
0.9200000000000033
 31
0.0
  0
LINE
  5
E4
330
85
100
AcDbEntity
  8
AM_0
 48
0.0071251732634314
100
AcDbLine
 10
-1.5532
 20
-0.9200000000000033
 30
0.0
 11
-1.07
 21
-0.9200000000000033
 31
0.0
  0
LWPOLYLINE
  5
E5
330
85
100
AcDbEntity
  8
AM_0
 48
0.0071251732634314
100
AcDbPolyline
 90
        7
 70
     0
 43
0.0
 10
-1.115434401233663
 20
0.9199999999999782
 10
-1.116252102019539
 20
0.9198876039379064
 10
-1.120579453697294
 20
0.919302844674918
 10
-1.128066968576812
 20
0.918331114429548
 10
-1.138862165043329
 20
0.9170199877773115
 10
-1.149186170604419
 20
0.9158660245799308
 10
-1.161181436945873
 20
0.9146488251145454
  0
ELLIPSE
  5
E6
330
85
100
AcDbEntity
  8
AM_0
 48
0.0071251732634314
100
AcDbEllipse
 10
-1.2625
 20
0.3799906177205603
 30
0.0
 11
0.1261999999999994
 21
-3.091008521047906E-17
 31
0.0
210
0.0
220
0.0
230
1.0
 40
0.9063077870366498
 41
0.0
 42
6.283185307179586
  0
ENDBLK
  5
88
330
85
100
AcDbEntity
  8
0
100
AcDbBlockEnd
  0
BLOCK
  5
E9
330
E7
100
AcDbEntity
  8
0
100
AcDbBlockBegin
  2
2_430026_0_in_124630_2
 70
     2
 10
0.0
 20
0.0
 30
0.0
  3
2_430026_0_in_124630_2
  1

  0
ATTDEF
  5
EB
330
E7
100
AcDbEntity
  8
AM_6
100
AcDbText
 10
4.509381471828122
 20
-1.5045
 30
0.0
 40
0.5
  1
430026 Plug
100
AcDbAttributeDefinition
  3

  2
NN
 70
     8
280
     0
  0
ATTDEF
  5
EC
330
E7
100
AcDbEntity
  8
AM_6
100
AcDbText
 10
4.509381471828122
 20
-2.0045
 30
0.0
 40
0.5
  1
Plug
100
AcDbAttributeDefinition
  3

  2
NT
 70
     8
280
     0
  0
ATTDEF
  5
ED
330
E7
100
AcDbEntity
  8
AM_6
100
AcDbText
 10
4.509381471828122
 20
-2.5045
 30
0.0
 40
0.5
  1
430026
100
AcDbAttributeDefinition
  3

  2
NB
 70
     8
280
     0
  0
ATTDEF
  5
EE
330
E7
100
AcDbEntity
  8
AM_6
100
AcDbText
 10
4.509381471828122
 20
-3.0045
 30
0.0
 40
0.5
  1
$PN.
100
AcDbAttributeDefinition
  3

  2
NBSYN
 70
     8
280
     0
  0
ATTDEF
  5
EF
330
E7
100
AcDbEntity
  8
AM_6
100
AcDbText
 10
4.509381471828122
 20
-3.5045
 30
0.0
 40
0.5
  1
430026
100
AcDbAttributeDefinition
  3

  2
LINA
 70
     8
280
     0
  0
ATTDEF
  5
F0
330
E7
100
AcDbEntity
  8
AM_6
100
AcDbText
 10
4.509381471828122
 20
-4.0045
 30
0.0
 40
0.5
  1
430026
100
AcDbAttributeDefinition
  3

  2
PN
 70
     8
280
     0
  0
ATTDEF
  5
F1
330
E7
100
AcDbEntity
  8
AM_6
100
AcDbText
 10
4.509381471828122
 20
-4.5045
 30
0.0
 40
0.5
  1
baldor
100
AcDbAttributeDefinition
  3

  2
COMPANY
 70
     8
280
     0
  0
LINE
  5
F2
330
E7
100
AcDbEntity
  8
AM_9
 48
0.0010337819597905
100
AcDbLine
 10
-0.7982531754730547
 20
-1.692
 30
0.0
 11
-0.7982531754730547
 21
-1.816253175473055
 31
0.0
  0
LINE
  5
F3
330
E7
100
AcDbEntity
  8
AM_9
 48
0.0010337819597905
100
AcDbLine
 10
-0.5817468245269451
 20
-1.692
 30
0.0
 11
-0.5817468245269451
 21
-1.816253175473055
 31
0.0
  0
LINE
  5
F4
330
E7
100
AcDbEntity
  8
AM_9
 48
0.0010337819597905
100
AcDbLine
 10
-0.5817468245269451
 20
-1.692
 30
0.0
 11
-0.7982531754730547
 21
-1.692
 31
0.0
  0
LINE
  5
F5
330
E7
100
AcDbEntity
  8
AM_9
 48
0.0010337819597905
100
AcDbLine
 10
-0.7441265877365274
 20
-1.692
 30
0.0
 11
-0.7441265877365274
 21
-1.816253175473055
 31
0.0
  0
LINE
  5
F6
330
E7
100
AcDbEntity
  8
AM_9
 48
0.0010337819597905
100
AcDbLine
 10
-0.7610018603583624
 20
-1.6295
 30
0.0
 11
-0.6189981396416376
 21
-1.6295
 31
0.0
  0
LINE
  5
F7
330
E7
100
AcDbEntity
  8
AM_9
 48
0.0010337819597905
100
AcDbLine
 10
-0.7610018603583624
 20
-1.6295
 30
0.0
 11
-0.7837500000000001
 21
-1.692
 31
0.0
  0
LINE
  5
F8
330
E7
100
AcDbEntity
  8
AM_9
 48
0.0010337819597905
100
AcDbLine
 10
-0.5962500000000001
 20
-1.692
 30
0.0
 11
-0.6189981396416376
 21
-1.6295
 31
0.0
  0
LINE
  5
F9
330
E7
100
AcDbEntity
  8
AM_9
 48
0.0010337819597905
100
AcDbLine
 10
-0.6358734122634726
 20
-1.692
 30
0.0
 11
-0.6358734122634726
 21
-1.816253175473055
 31
0.0
  0
LWPOLYLINE
  5
FA
330
E7
100
AcDbEntity
  8
AM_9
 48
0.0010337819597905
100
AcDbPolyline
 90
        8
 70
     0
 43
0.0
 10
-0.7982531754730547
 20
-1.816253175473055
 10
-0.78697202778302
 20
-1.806921014208125
 10
-0.7808954308564071
 20
-1.803738462725815
 10
-0.7745890509173603
 20
-1.801996169645694
 10
-0.765913728238116
 20
-1.802342003780897
 10
-0.7571229527251081
 20
-1.805880419147163
 10
-0.7505357311416957
 20
-1.810447246060629
 10
-0.7441265877365274
 20
-1.816253175473055
  0
LWPOLYLINE
  5
FB
330
E7
100
AcDbEntity
  8
AM_9
 48
0.0010337819597905
100
AcDbPolyline
 90
        7
 70
     0
 43
0.0
 10
-0.7441265877365274
 20
-1.816253175473055
 10
-0.7303248640674097
 20
-1.810054677315912
 10
-0.7117872012091697
 20
-1.804248348747025
 10
-0.6919345702169717
 20
-1.801769958205837
 10
-0.6734848124351939
 20
-1.803193560287977
 10
-0.6549635500057943
 20
-1.80808304216098
 10
-0.6358734122634726
 20
-1.816253175473055
  0
LWPOLYLINE
  5
FC
330
E7
100
AcDbEntity
  8
AM_9
 48
0.0010337819597905
100
AcDbPolyline
 90
        8
 70
     0
 43
0.0
 10
-0.6358734122634726
 20
-1.816253175473055
 10
-0.6245922645734377
 20
-1.806921014208125
 10
-0.6185156676468249
 20
-1.803738462725815
 10
-0.612209287707778
 20
-1.801996169645694
 10
-0.6035339650285337
 20
-1.802342003780897
 10
-0.594743189515526
 20
-1.805880419147163
 10
-0.5881559679321134
 20
-1.810447246060629
 10
-0.5817468245269451
 20
-1.816253175473055
  0
LINE
  5
FD
330
E7
100
AcDbEntity
  8
AM_9
 48
0.0010337819597905
100
AcDbLine
 10
-0.8602494517657396
 20
-1.5045
 30
0.0
 11
-0.5197505482342604
 21
-1.5045
 31
0.0
  0
LINE
  5
FE
330
E7
100
AcDbEntity
  8
AM_9
 48
0.0010337819597905
100
AcDbLine
 10
-0.8602494517657396
 20
-1.5045
 30
0.0
 11
-0.8808735385412944
 21
-1.524490260520979
 31
0.0
  0
LINE
  5
FF
330
E7
100
AcDbEntity
  8
AM_9
 48
0.0010337819597905
100
AcDbLine
 10
-0.4999999999999997
 20
-1.52364356785499
 30
0.0
 11
-0.5197505482342604
 21
-1.5045
 31
0.0
  0
LINE
  5
100
330
E7
100
AcDbEntity
  8
AM_9
 48
0.0010337819597905
100
AcDbLine
 10
-0.8808735385412944
 20
-1.524490260520979
 30
0.0
 11
-0.4999999999999996
 21
-1.524490260520979
 31
0.0
  0
LINE
  5
101
330
E7
100
AcDbEntity
  8
AM_9
 48
0.0010337819597905
100
AcDbLine
 10
-0.8808735385412944
 20
-1.524490260520979
 30
0.0
 11
-0.8883821424258437
 21
-1.765
 31
0.0
  0
LINE
  5
102
330
E7
100
AcDbEntity
  8
AM_9
 48
0.0010337819597905
100
AcDbLine
 10
-0.4916178575741563
 20
-1.765
 30
0.0
 11
-0.4991264614587056
 21
-1.524490260520979
 31
0.0
  0
LINE
  5
103
330
E7
100
AcDbEntity
  8
AM_0
 48
0.0010337819597905
100
AcDbLine
 10
-0.8700055586036763
 20
-1.817
 30
0.0
 11
-0.5099944413963237
 21
-1.817
 31
0.0
  0
LINE
  5
104
330
E7
100
AcDbEntity
  8
AM_0
 48
0.0010337819597905
100
AcDbLine
 10
-0.5099944413963237
 20
-1.817
 30
0.0
 11
-0.4906185281718784
 21
-1.797009739479022
 31
0.0
  0
LINE
  5
105
330
E7
100
AcDbEntity
  8
AM_0
 48
0.0010337819597905
100
AcDbLine
 10
-0.8893814718281217
 20
-1.797009739479022
 30
0.0
 11
-0.8700055586036763
 21
-1.817
 31
0.0
  0
LINE
  5
106
330
E7
100
AcDbEntity
  8
AM_0
 48
0.0010337819597905
100
AcDbLine
 10
-0.8893814718281217
 20
-1.797009739479022
 30
0.0
 11
-0.4906185281718784
 21
-1.797009739479022
 31
0.0
  0
LINE
  5
107
330
E7
100
AcDbEntity
  8
AM_0
 48
0.0010337819597905
100
AcDbLine
 10
-0.8883821424258437
 20
-1.765
 30
0.0
 11
-0.8893814718281217
 21
-1.797009739479022
 31
0.0
  0
LINE
  5
108
330
E7
100
AcDbEntity
  8
AM_0
 48
0.0010337819597905
100
AcDbLine
 10
-0.4906185281718784
 20
-1.797009739479022
 30
0.0
 11
-0.4916178575741563
 21
-1.765
 31
0.0
  0
ENDBLK
  5
EA
330
E7
100
AcDbEntity
  8
0
100
AcDbBlockEnd
  0
BLOCK
  5
10B
330
109
100
AcDbEntity
  8
0
100
AcDbBlockBegin
  2
3_124630H_0_in_124630_2
 70
     2
 10
0.0
 20
0.0
 30
0.0
  3
3_124630H_0_in_124630_2
  1

  0
ATTDEF
  5
10D
330
109
100
AcDbEntity
  8
AM_6
100
AcDbText
 10
5.025
 20
2.405
 30
0.0
 40
0.5
  1
LF-SC & LF-SC-NL - housing -Inch
100
AcDbAttributeDefinition
  3

  2
NN
 70
     8
280
     0
  0
ATTDEF
  5
10E
330
109
100
AcDbEntity
  8
AM_6
100
AcDbText
 10
5.025
 20
1.905
 30
0.0
 40
0.5
  1
SC 3 Bolt Flange Bearings -(Normal Duty) -Re-Lube and No-Lube
100
AcDbAttributeDefinition
  3

  2
NT
 70
     8
280
     0
  0
ATTDEF
  5
10F
330
109
100
AcDbEntity
  8
AM_6
100
AcDbText
 10
5.025
 20
1.405
 30
0.0
 40
0.5
  1
124630H
100
AcDbAttributeDefinition
  3

  2
NB
 70
     8
280
     0
  0
ATTDEF
  5
110
330
109
100
AcDbEntity
  8
AM_6
100
AcDbText
 10
5.025
 20
0.9050000000000002
 30
0.0
 40
0.5
  1
$PN.H
100
AcDbAttributeDefinition
  3

  2
NBSYN
 70
     8
280
     0
  0
ATTDEF
  5
111
330
109
100
AcDbEntity
  8
AM_6
100
AcDbText
 10
5.025
 20
0.4050000000000002
 30
0.0
 40
0.5
  1
124630
100
AcDbAttributeDefinition
  3

  2
LINA
 70
     8
280
     0
  0
ATTDEF
  5
112
330
109
100
AcDbEntity
  8
AM_6
100
AcDbText
 10
5.025
 20
-0.0949999999999998
 30
0.0
 40
0.5
  1
207
100
AcDbAttributeDefinition
  3

  2
SERIES
 70
     8
280
     0
  0
ATTDEF
  5
113
330
109
100
AcDbEntity
  8
AM_6
100
AcDbText
 10
5.025
 20
-0.5949999999999998
 30
0.0
 40
0.5
  1
1-1/4
100
AcDbAttributeDefinition
  3

  2
SS
 70
     8
280
     0
  0
ATTDEF
  5
114
330
109
100
AcDbEntity
  8
AM_6
100
AcDbText
 10
5.025
 20
-1.095
 30
0.0
 40
0.5
  1
124630
100
AcDbAttributeDefinition
  3

  2
PN
 70
     8
280
     0
  0
ATTDEF
  5
115
330
109
100
AcDbEntity
  8
AM_6
100
AcDbText
 10
5.025
 20
-1.595
 30
0.0
 40
0.5
  1
LF-SC-104-NL
100
AcDbAttributeDefinition
  3

  2
DESCRIPTION
 70
     8
280
     0
  0
ATTDEF
  5
116
330
109
100
AcDbEntity
  8
AM_6
100
AcDbText
 10
5.025
 20
-2.095
 30
0.0
 40
0.5
  1
2.10
100
AcDbAttributeDefinition
  3

  2
W
 70
     8
280
     0
  0
ATTDEF
  5
117
330
109
100
AcDbEntity
  8
AM_6
100
AcDbText
 10
5.025
 20
-2.595
 30
0.0
 40
0.5
  1
NO-LUBE
100
AcDbAttributeDefinition
  3

  2
LF
 70
     8
280
     0
  0
ATTDEF
  5
118
330
109
100
AcDbEntity
  8
AM_6
100
AcDbText
 10
5.025
 20
-3.095
 30
0.0
 40
0.5
  1
1.40
100
AcDbAttributeDefinition
  3

  2
A
 70
     8
280
     0
  0
ATTDEF
  5
119
330
109
100
AcDbEntity
  8
AM_6
100
AcDbText
 10
5.025
 20
-3.595
 30
0.0
 40
0.5
  1
4.81
100
AcDbAttributeDefinition
  3

  2
B
 70
     8
280
     0
  0
ATTDEF
  5
11A
330
109
100
AcDbEntity
  8
AM_6
100
AcDbText
 10
5.025
 20
-4.095
 30
0.0
 40
0.5
  1
1.59
100
AcDbAttributeDefinition
  3

  2
C
 70
     8
280
     0
  0
ATTDEF
  5
11B
330
109
100
AcDbEntity
  8
AM_6
100
AcDbText
 10
5.025
 20
-4.595
 30
0.0
 40
0.5
  1
3.94
100
AcDbAttributeDefinition
  3

  2
D
 70
     8
280
     0
  0
ATTDEF
  5
11C
330
109
100
AcDbEntity
  8
AM_6
100
AcDbText
 10
5.025
 20
-5.095
 30
0.0
 40
0.5
  1
0.41
100
AcDbAttributeDefinition
  3

  2
G
 70
     8
280
     0
  0
ATTDEF
  5
11D
330
109
100
AcDbEntity
  8
AM_6
100
AcDbText
 10
5.025
 20
-5.595
 30
0.0
 40
0.5
  1
0.50
100
AcDbAttributeDefinition
  3

  2
H
 70
     8
280
     0
  0
ATTDEF
  5
11E
330
109
100
AcDbEntity
  8
AM_6
100
AcDbText
 10
5.025
 20
-6.095
 30
0.0
 40
0.5
  1
0.52
100
AcDbAttributeDefinition
  3

  2
J
 70
     8
280
     0
  0
ATTDEF
  5
11F
330
109
100
AcDbEntity
  8
AM_6
100
AcDbText
 10
5.025
 20
-6.595
 30
0.0
 40
0.5
  1
1.84
100
AcDbAttributeDefinition
  3

  2
L
 70
     8
280
     0
  0
ATTDEF
  5
120
330
109
100
AcDbEntity
  8
AM_6
100
AcDbText
 10
5.025
 20
-7.095
 30
0.0
 40
0.5
  1
2.41
100
AcDbAttributeDefinition
  3

  2
M
 70
     8
280
     0
  0
ATTDEF
  5
121
330
109
100
AcDbEntity
  8
AM_6
100
AcDbText
 10
5.025
 20
-7.595
 30
0.0
 40
0.5
  1
2.14
100
AcDbAttributeDefinition
  3

  2
N
 70
     8
280
     0
  0
ATTDEF
  5
122
330
109
100
AcDbEntity
  8
AM_6
100
AcDbText
 10
5.025
 20
-8.094999999999999
 30
0.0
 40
0.5
  1
3065
100
AcDbAttributeDefinition
  3

  2
CAPS
 70
     8
280
     0
  0
ATTDEF
  5
123
330
109
100
AcDbEntity
  8
AM_6
100
AcDbText
 10
5.025
 20
-8.594999999999999
 30
0.0
 40
0.5
  1
5759
100
AcDbAttributeDefinition
  3

  2
CAPD
 70
     8
280
     0
  0
ATTDEF
  5
124
330
109
100
AcDbEntity
  8
AM_6
100
AcDbText
 10
5.025
 20
-9.094999999999999
 30
0.0
 40
0.5
  1
baldor
100
AcDbAttributeDefinition
  3

  2
COMPANY
 70
     8
280
     0
  0
LINE
  5
125
330
109
100
AcDbEntity
  8
AM_9
 48
0.0108478273321859
100
AcDbLine
 10
-0.1250000000000001
 20
-0.2197564518061016
 30
0.0
 11
-0.0000000000000001
 21
-0.2197564518061004
 31
0.0
  0
LINE
  5
126
330
109
100
AcDbEntity
  8
AM_9
 48
0.0108478273321859
100
AcDbLine
 10
-0.54
 20
-1.49
 30
0.0
 11
-0.8400000000000001
 21
-1.49
 31
0.0
  0
LINE
  5
127
330
109
100
AcDbEntity
  8
AM_9
 48
0.0108478273321859
100
AcDbLine
 10
-0.8400000000000001
 20
-1.49
 30
0.0
 11
-0.8400000000000001
 21
-1.765
 31
0.0
  0
LINE
  5
128
330
109
100
AcDbEntity
  8
AM_9
 48
0.0108478273321859
100
AcDbLine
 10
-0.54
 20
-1.765
 30
0.0
 11
-0.54
 21
-1.49
 31
0.0
  0
LINE
  5
129
330
109
100
AcDbEntity
  8
AM_9
 48
0.0108478273321859
100
AcDbLine
 10
-0.5
 20
1.765
 30
0.0
 11
0.0
 21
1.765
 31
0.0
  0
LINE
  5
12A
330
109
100
AcDbEntity
  8
AM_9
 48
0.0108478273321859
100
AcDbLine
 10
0.0
 20
2.175
 30
0.0
 11
-0.5
 21
2.175
 31
0.0
  0
LINE
  5
12B
330
109
100
AcDbEntity
  8
AM_9
 48
0.0108478273321859
100
AcDbLine
 10
-0.25
 20
1.765
 30
0.0
 11
-0.25
 21
2.175
 31
0.0
  0
LINE
  5
12C
330
109
100
AcDbEntity
  8
AM_9
 48
0.0108478273321859
100
AcDbLine
 10
-1.07
 20
1.585512820512821
 30
0.0
 11
-0.5
 21
1.585512820512821
 31
0.0
  0
LINE
  5
12D
330
109
100
AcDbEntity
  8
AM_9
 48
0.0108478273321859
100
AcDbLine
 10
0.0
 20
1.4798
 30
0.0
 11
-0.125
 21
1.4798
 31
0.0
  0
LINE
  5
12E
330
109
100
AcDbEntity
  8
AM_9
 48
0.0108478273321859
100
AcDbLine
 10
-0.125
 20
1.377212576584509
 30
0.0
 11
0.0
 21
1.377212576584509
 31
0.0
  0
LINE
  5
12F
330
109
100
AcDbEntity
  8
AM_9
 48
0.0108478273321859
100
AcDbLine
 10
-0.125
 20
-1.157456124778408
 30
0.0
 11
0.0000000000000001
 21
-1.157456124778408
 31
0.0
  0
LINE
  5
130
330
109
100
AcDbEntity
  8
AM_9
 48
0.0108478273321859
100
AcDbLine
 10
-0.1249999999999999
 20
-0.625
 30
0.0
 11
-0.1249999999999999
 21
-1.419999999999998
 31
0.0
  0
LINE
  5
131
330
109
100
AcDbEntity
  8
AM_9
 48
0.0108478273321859
100
AcDbLine
 10
-0.6955
 20
-0.625
 30
0.0
 11
-0.1249999999999999
 21
-0.625
 31
0.0
  0
LINE
  5
132
330
109
100
AcDbEntity
  8
AM_9
 48
0.0108478273321859
100
AcDbLine
 10
-0.6955
 20
0.6250000000000009
 30
0.0
 11
-0.1249999999999999
 21
0.6250000000000009
 31
0.0
  0
LINE
  5
133
330
109
100
AcDbEntity
  8
AM_9
 48
0.0108478273321859
100
AcDbLine
 10
-1.07
 20
-1.4173
 30
0.0
 11
-0.125
 21
-1.4173
 31
0.0
  0
LINE
  5
134
330
109
100
AcDbEntity
  8
AM_9
 48
0.0108478273321859
100
AcDbLine
 10
-0.125
 20
1.4173
 30
0.0
 11
-1.07
 21
1.4173
 31
0.0
  0
LINE
  5
135
330
109
100
AcDbEntity
  8
AM_9
 48
0.0108478273321859
100
AcDbLine
 10
-0.6955
 20
-0.625
 30
0.0
 11
-0.6955
 21
0.6250000000000009
 31
0.0
  0
LINE
  5
136
330
109
100
AcDbEntity
  8
AM_9
 48
0.0108478273321859
100
AcDbLine
 10
-0.4999999999999999
 20
-1.34223100012668
 30
0.0
 11
-0.1249999999999999
 21
-1.342231000126679
 31
0.0
  0
LINE
  5
137
330
109
100
AcDbEntity
  8
AM_9
 48
0.0108478273321859
100
AcDbLine
 10
-0.125
 20
-1.340109246110142
 30
0.0
 11
0.0000000000000001
 21
-1.340109246110142
 31
0.0
  0
LINE
  5
138
330
109
100
AcDbEntity
  8
AM_9
 48
0.0108478273321859
100
AcDbLine
 10
0.0000000000000001
 20
-1.339653819306423
 30
0.0
 11
-0.125
 21
-1.339653819306423
 31
0.0
  0
LINE
  5
139
330
109
100
AcDbEntity
  8
AM_9
 48
0.0108478273321859
100
AcDbLine
 10
-0.2499999999999999
 20
-0.7049647922241896
 30
0.0
 11
-0.4999999999999999
 21
-0.7049647922241896
 31
0.0
  0
LINE
  5
13A
330
109
100
AcDbEntity
  8
AM_9
 48
0.0108478273321859
100
AcDbLine
 10
-0.2499999999999999
 20
-1.265035207775809
 30
0.0
 11
-0.4999999999999998
 21
-1.265035207775809
 31
0.0
  0
LINE
  5
13B
330
109
100
AcDbEntity
  8
AM_9
 48
0.0108478273321859
100
AcDbLine
 10
-0.2499999999999999
 20
-1.06003520777581
 30
0.0
 11
-0.4999999999999999
 21
-1.06003520777581
 31
0.0
  0
LINE
  5
13C
330
109
100
AcDbEntity
  8
AM_9
 48
0.0108478273321859
100
AcDbLine
 10
-0.2499999999999999
 20
-1.265035207775809
 30
0.0
 11
-0.2499999999999999
 21
-0.7049647922241896
 31
0.0
  0
LINE
  5
13D
330
109
100
AcDbEntity
  8
AM_9
 48
0.0108478273321859
100
AcDbLine
 10
-0.2499999999999999
 20
-1.19
 30
0.0
 11
0.0000000000000001
 21
-1.19
 31
0.0
  0
LINE
  5
13E
330
109
100
AcDbEntity
  8
AM_9
 48
0.0108478273321859
100
AcDbLine
 10
0.0000000000000001
 20
-0.7799999999999995
 30
0.0
 11
-0.2499999999999999
 21
-0.7799999999999995
 31
0.0
  0
LINE
  5
13F
330
109
100
AcDbEntity
  8
AM_9
 48
0.0108478273321859
100
AcDbLine
 10
-0.2499999999999999
 20
-0.9099647922241896
 30
0.0
 11
-0.4999999999999998
 21
-0.9099647922241896
 31
0.0
  0
LINE
  5
140
330
109
100
AcDbEntity
  8
AM_9
 48
0.0108478273321859
100
AcDbLine
 10
-0.4999999999999999
 20
-1.407715083092545
 30
0.0
 11
0.0000000000000001
 21
-1.407715083092545
 31
0.0
  0
LINE
  5
141
330
109
100
AcDbEntity
  8
AM_7
 48
0.0108478273321859
100
AcDbLine
 10
0.025
 20
1.97
 30
0.0
 11
-1.6235
 21
1.97
 31
0.0
  0
LINE
  5
142
330
109
100
AcDbEntity
  8
AM_7
 48
0.0108478273321859
100
AcDbLine
 10
-1.66025
 20
0.0
 30
0.0
 11
-0.07775
 21
0.0
 31
0.0
  0
LINE
  5
143
330
109
100
AcDbEntity
  8
AM_7
 48
0.0108478273321859
100
AcDbLine
 10
0.0249999999999999
 20
-0.9849999999999994
 30
0.0
 11
-1.6235
 21
-0.9850000000000005
 31
0.0
  0
LINE
  5
144
330
109
100
AcDbEntity
  8
AM_7
 48
0.0108478273321859
100
AcDbLine
 10
-0.6900000000000001
 20
-1.4725
 30
0.0
 11
-0.6900000000000001
 21
-1.8575
 31
0.0
  0
LINE
  5
145
330
109
100
AcDbEntity
  8
AM_0
 48
0.0108478273321859
100
AcDbLine
 10
0.0
 20
2.405
 30
0.0
 11
-0.5
 21
2.405
 31
0.0
  0
LINE
  5
146
330
109
100
AcDbEntity
  8
AM_0
 48
0.0108478273321859
100
AcDbLine
 10
-1.069
 20
-1.765
 30
0.0
 11
-1.069
 21
-1.549756238691118
 31
0.0
  0
LINE
  5
147
330
109
100
AcDbEntity
  8
AM_0
 48
0.0108478273321859
100
AcDbLine
 10
-1.069
 20
-1.765
 30
0.0
 11
-0.126
 21
-1.765
 31
0.0
  0
LINE
  5
148
330
109
100
AcDbEntity
  8
AM_0
 48
0.0108478273321859
100
AcDbLine
 10
-0.126
 20
-1.765
 30
0.0
 11
-0.126
 21
-1.707667724489648
 31
0.0
  0
LINE
  5
14A
330
109
100
AcDbEntity
  8
AM_4
 48
0.0108478273321859
100
AcDbLine
 10
-1.069
 20
-1.683
 30
0.0
 11
-0.5
 21
-1.683
 31
0.0
  0
LINE
  5
14B
330
109
100
AcDbEntity
  8
AM_4
 48
0.0108478273321859
100
AcDbLine
 10
-0.5
 20
2.092460303712098
 30
0.0
 11
0.0
 21
2.092460303712098
 31
0.0
  0
LINE
  5
14C
330
109
100
AcDbEntity
  8
AM_4
 48
0.0108478273321859
100
AcDbLine
 10
-0.125
 20
1.525572697890693
 30
0.0
 11
0.0
 21
1.525572697890693
 31
0.0
  0
LINE
  5
14D
330
109
100
AcDbEntity
  8
AM_0
 48
0.0108478273321859
100
AcDbLine
 10
-0.125
 20
1.370106744107088
 30
0.0
 11
0.0
 21
1.370106744107088
 31
0.0
  0
LINE
  5
14E
330
109
100
AcDbEntity
  8
AM_0
 48
0.0108478273321859
100
AcDbLine
 10
0.0
 20
1.370106744107088
 30
0.0
 11
0.0
 21
2.405
 31
0.0
  0
LINE
  5
14F
330
109
100
AcDbEntity
  8
AM_0
 48
0.0108478273321859
100
AcDbLine
 10
-0.5
 20
2.405
 30
0.0
 11
-0.5
 21
-1.707667724489648
 31
0.0
  0
LINE
  5
150
330
109
100
AcDbEntity
  8
AM_0
 48
0.0108478273321859
100
AcDbLine
 10
-0.1249999999999999
 20
-1.419999999999998
 30
0.0
 11
-0.125
 21
-1.765
 31
0.0
  0
LINE
  5
151
330
109
100
AcDbEntity
  8
AM_0
 48
0.0108478273321859
100
AcDbLine
 10
-0.5
 20
-1.707667724489648
 30
0.0
 11
-0.126
 21
-1.707667724489648
 31
0.0
  0
LINE
  5
152
330
109
100
AcDbEntity
  8
AM_0
 48
0.0108478273321859
100
AcDbLine
 10
-0.9880000000000001
 20
-1.621724082573851
 30
0.0
 11
-0.5499999999999997
 21
-1.621724082573851
 31
0.0
  0
LINE
  5
153
330
109
100
AcDbEntity
  8
AM_4
 48
0.0108478273321859
100
AcDbLine
 10
-0.5499999999999997
 20
-1.037487699034365
 30
0.0
 11
-0.5499999999999997
 21
-1.621724082573851
 31
0.0
  0
LWPOLYLINE
  5
154
330
109
100
AcDbEntity
  8
AM_0
 48
0.0108478273321859
100
AcDbPolyline
 90
       10
 70
     0
 43
0.0
 10
-0.4999999999999996
 20
-1.673555795305314
 10
-0.5000343252360492
 20
-1.671637535687625
 10
-0.5017134054208773
 20
-1.660114098985309
 10
-0.5045777953933229
 20
-1.651903543837117
 10
-0.5088892167131711
 20
-1.644068335110265
 10
-0.5143104249884262
 20
-1.637266981145399
 10
-0.5210206006906596
 20
-1.631326254625082
 10
-0.5282475927020863
 20
-1.626891289075945
 10
-0.5363816483667757
 20
-1.62368575125522
 10
-0.5499999999999997
 20
-1.621724082573851
  0
LWPOLYLINE
  5
155
330
109
100
AcDbEntity
  8
AM_0
 48
0.0108478273321859
100
AcDbPolyline
 90
       10
 70
     0
 43
0.0
 10
-1.069
 20
-1.549756238691118
 10
-1.066302020792316
 20
-1.561811132632371
 10
-1.060914457565953
 20
-1.575511365664254
 10
-1.053014038769036
 20
-1.588460791174751
 10
-1.043527987716681
 20
-1.599232027697607
 10
-1.031956067088726
 20
-1.608460706824781
 10
-1.015795189268266
 20
-1.61668559206164
 10
-1.003125344828891
 20
-1.620263823233176
 10
-0.9896568966871464
 20
-1.621706708620018
 10
-0.9880000000000001
 20
-1.621724082573851
  0
LINE
  5
156
330
109
100
AcDbEntity
  8
AM_4
 48
0.0108478273321859
100
AcDbLine
 10
-0.988
 20
-1.037487699034363
 30
0.0
 11
-0.9880000000000001
 21
-1.621724082573851
 31
0.0
  0
ARC
  5
157
330
109
100
AcDbEntity
  8
AM_0
 48
0.0108478273321859
100
AcDbCircle
 10
-0.987999999999962
 20
-1.600999999999996
 30
0.0
 40
0.082000000000038
100
AcDbArc
 50
180.0000000000028
 51
188.9572160647207
  0
LWPOLYLINE
  5
158
330
109
100
AcDbEntity
  8
AM_0
 48
0.0108478273321859
100
AcDbPolyline
 90
       13
 70
     0
 43
0.0
 10
-0.988
 20
-1.037487699034363
 10
-0.9986869314882912
 20
-1.036511491558298
 10
-1.009035473864943
 20
-1.033678589589454
 10
-1.018700833795446
 20
-1.029138190048285
 10
-1.027533459010242
 20
-1.023132955687581
 10
-1.037559427393369
 20
-1.013529945102541
 10
-1.045915480373267
 20
-1.002408643335217
 10
-1.055056178773993
 20
-0.984863265604508
 10
-1.061464143974863
 20
-0.9661067178763724
 10
-1.066125615922089
 20
-0.9441584261416025
 10
-1.068698526338198
 20
-0.9219181009386415
 10
-1.06979956932368
 20
-0.8998022195602652
 10
-1.07
 20
-0.8833169311146183
  0
LINE
  5
159
330
109
100
AcDbEntity
  8
AM_0
 48
0.0108478273321859
100
AcDbLine
 10
-0.5499999999999997
 20
-1.037487699034365
 30
0.0
 11
-0.988
 21
-1.037487699034363
 31
0.0
  0
LWPOLYLINE
  5
15A
330
109
100
AcDbEntity
  8
AM_0
 48
0.0108478273321859
100
AcDbPolyline
 90
        9
 70
     0
 43
0.0
 10
-0.5499999999999997
 20
-1.037487699034365
 10
-0.5431805962435063
 20
-1.038139569558482
 10
-0.5365888899976882
 20
-1.040004464448178
 10
-0.5248275346016876
 20
-1.046724652612161
 10
-0.5177564464411346
 20
-1.053330861641943
 10
-0.5118525078367777
 20
-1.060959138902188
 10
-0.5061270585878898
 20
-1.071465090460537
 10
-0.502235559240247
 20
-1.082675675107566
 10
-0.4999999999999999
 20
-1.099958967888266
  0
LINE
  5
15B
330
109
100
AcDbEntity
  8
AM_0
 48
0.0108478273321859
100
AcDbLine
 10
0.0000000000000001
 20
-0.1324781279178221
 30
0.0
 11
-0.1249999999999999
 21
-0.1324781279178221
 31
0.0
  0
LINE
  5
15C
330
109
100
AcDbEntity
  8
AM_0
 48
0.0108478273321859
100
AcDbLine
 10
-1.07
 20
1.598038225586293
 30
0.0
 11
-1.07
 21
-1.601
 31
0.0
  0
LWPOLYLINE
  5
15D
330
109
100
AcDbEntity
  8
AM_0
 48
0.0108478273321859
100
AcDbPolyline
 90
       14
 70
     0
 43
0.0
 10
-1.07
 20
-0.7147212944716755
 10
-1.069727600725649
 20
-0.7011481381468514
 10
-1.068705893737004
 20
-0.6882788907786889
 10
-1.066544114926285
 20
-0.6760474972444295
 10
-1.062779562273044
 20
-0.6646796095648534
 10
-1.056951005638626
 20
-0.6544955419257777
 10
-1.048246757517831
 20
-0.6454343352425589
 10
-1.040687886254619
 20
-0.6403286546512732
 10
-1.031327177366502
 20
-0.6359504602506633
 10
-1.022371629651029
 20
-0.6330634188210058
 10
-1.012109907801764
 20
-0.630846311387999
 10
-1.002601969716945
 20
-0.6295917685560654
 10
-0.9924025628997477
 20
-0.6289598840682956
 10
-0.988
 20
-0.628897734673758
  0
LWPOLYLINE
  5
15E
330
109
100
AcDbEntity
  8
AM_0
 48
0.0108478273321859
100
AcDbPolyline
 90
       13
 70
     0
 43
0.0
 10
-0.9880000000000001
 20
1.66638543370812
 10
-0.9985177369324716
 20
1.66580690006707
 10
-1.009035473864943
 20
1.664043079891814
 10
-1.018585806274986
 20
1.661338699296832
 10
-1.027533459010242
 20
1.657732504849166
 10
-1.037440275362693
 20
1.652289908397323
 10
-1.045915480373267
 20
1.646070141605749
 10
-1.054961943654523
 20
1.637071148509017
 10
-1.061464143974863
 20
1.627979944019837
 10
-1.065138998503862
 20
1.620842712219073
 10
-1.067570404648002
 20
1.614239604286802
 10
-1.06979956932368
 20
1.602703100780059
 10
-1.07
 20
1.598038225586293
  0
LINE
  5
15F
330
109
100
AcDbEntity
  8
AM_4
 48
0.0108478273321859
100
AcDbLine
 10
-0.9880000000000001
 20
1.66638543370812
 30
0.0
 11
-0.988
 21
-0.628897734673758
 31
0.0
  0
LINE
  5
160
330
109
100
AcDbEntity
  8
AM_0
 48
0.0108478273321859
100
AcDbLine
 10
-0.988
 20
-0.628897734673758
 30
0.0
 11
-0.5499999999999997
 21
-0.6288977346737575
 31
0.0
  0
LINE
  5
161
330
109
100
AcDbEntity
  8
AM_0
 48
0.0108478273321859
100
AcDbLine
 10
-0.5499999999999997
 20
1.66638543370812
 30
0.0
 11
-0.9880000000000001
 21
1.66638543370812
 31
0.0
  0
LWPOLYLINE
  5
162
330
109
100
AcDbEntity
  8
AM_0
 48
0.0108478273321859
100
AcDbPolyline
 90
       10
 70
     0
 43
0.0
 10
-0.4999999999999999
 20
-0.6097767196269629
 10
-0.500807505287366
 20
-0.6122832934993641
 10
-0.5032414014685253
 20
-0.6150867898157436
 10
-0.507695677652944
 20
-0.6183331000072326
 10
-0.5141896357287115
 20
-0.6216971204713465
 10
-0.5199864874430771
 20
-0.6239689822622106
 10
-0.5269425149123249
 20
-0.6260450238236903
 10
-0.5328841620574093
 20
-0.6273422572668677
 10
-0.5394957719853938
 20
-0.6283160497679574
 10
-0.5499999999999997
 20
-0.6288977346737575
  0
LWPOLYLINE
  5
163
330
109
100
AcDbEntity
  8
AM_0
 48
0.0108478273321859
100
AcDbPolyline
 90
        9
 70
     0
 43
0.0
 10
-0.5499999999999997
 20
1.66638543370812
 10
-0.5432944449988439
 20
1.66677136652408
 10
-0.5365888899976883
 20
1.667951515246289
 10
-0.5248275346016875
 20
1.67220544772686
 10
-0.5178428999166287
 20
1.676426544721382
 10
-0.5118525078367778
 20
1.681566563727618
 10
-0.5061939472688217
 20
1.688678486937027
 10
-0.5022355592402471
 20
1.696785993494917
 10
-0.5
 20
1.709735687515227
  0
LINE
  5
164
330
109
100
AcDbEntity
  8
AM_4
 48
0.0108478273321859
100
AcDbLine
 10
-0.5499999999999997
 20
1.66638543370812
 30
0.0
 11
-0.5499999999999997
 21
-0.6288977346737575
 31
0.0
  0
LINE
  5
165
330
109
100
AcDbEntity
  8
AM_0
 48
0.0108478273321859
100
AcDbLine
 10
-0.125
 20
1.663703383690879
 30
0.0
 11
-0.1249999999999999
 21
-0.3214723835641986
 31
0.0
  0
LINE
  5
166
330
109
100
AcDbEntity
  8
AM_0
 48
0.0108478273321859
100
AcDbLine
 10
-0.125
 20
1.663703383690879
 30
0.0
 11
-0.4999999999999995
 21
1.66370338369088
 31
0.0
  0
LINE
  5
167
330
109
100
AcDbEntity
  8
AM_4
 48
0.0108478273321859
100
AcDbLine
 10
-0.1249999999999999
 20
-0.1854634515245077
 30
0.0
 11
0.0000000000000001
 21
-0.1854634515245076
 31
0.0
  0
LINE
  5
168
330
109
100
AcDbEntity
  8
AM_0
 48
0.0108478273321859
100
AcDbLine
 10
-0.1249999999999999
 20
-0.3214723835641986
 30
0.0
 11
-0.4999999999999996
 21
-0.3214723835641985
 31
0.0
  0
LINE
  5
169
330
109
100
AcDbEntity
  8
AM_4
 48
0.0108478273321859
100
AcDbLine
 10
-0.4999999999999998
 20
-0.6847452152284612
 30
0.0
 11
0.0000000000000001
 21
-0.6847452152284612
 31
0.0
  0
LINE
  5
16A
330
109
100
AcDbEntity
  8
AM_0
 48
0.0108478273321859
100
AcDbLine
 10
-0.4999999999999998
 20
-1.419999999999998
 30
0.0
 11
0.0000000000000001
 21
-1.419999999999998
 31
0.0
  0
LINE
  5
16B
330
109
100
AcDbEntity
  8
AM_0
 48
0.0108478273321859
100
AcDbLine
 10
0.0000000000000001
 20
-1.419999999999998
 30
0.0
 11
0.0000000000000001
 21
-0.1324781279178221
 31
0.0
  0
ENDBLK
  5
10C
330
109
100
AcDbEntity
  8
0
100
AcDbBlockEnd
  0
ENDSEC
  0
SECTION
  2
ENTITIES
  0
ATTDEF
  5
6F
330
1F
100
AcDbEntity
  8
AM_6
100
AcDbText
 10
5.025
 20
2.405
 30
0.0
 40
0.5
  1
Set Screw LF  Normal Duty 3-Bolt Flange Inch Bore
100
AcDbAttributeDefinition
  3

  2
NN
 70
     8
280
     0
  0
ATTDEF
  5
70
330
1F
100
AcDbEntity
  8
AM_6
100
AcDbText
 10
5.025
 20
1.905
 30
0.0
 40
0.5
  1
SC 3 Bolt Flange Bearings -(Normal Duty) -Re-Lube and No-Lube
100
AcDbAttributeDefinition
  3

  2
NT
 70
     8
280
     0
  0
ATTDEF
  5
71
330
1F
100
AcDbEntity
  8
AM_6
100
AcDbText
 10
5.025
 20
1.405
 30
0.0
 40
0.5
  1
124630
100
AcDbAttributeDefinition
  3

  2
NB
 70
     8
280
     0
  0
ATTDEF
  5
72
330
1F
100
AcDbEntity
  8
AM_6
100
AcDbText
 10
5.025
 20
0.9050000000000002
 30
0.0
 40
0.5
  1
$PN.
100
AcDbAttributeDefinition
  3

  2
NBSYN
 70
     8
280
     0
  0
ATTDEF
  5
73
330
1F
100
AcDbEntity
  8
AM_6
100
AcDbText
 10
5.025
 20
0.4050000000000002
 30
0.0
 40
0.5
  1
124630
100
AcDbAttributeDefinition
  3

  2
LINA
 70
     8
280
     0
  0
ATTDEF
  5
74
330
1F
100
AcDbEntity
  8
AM_6
100
AcDbText
 10
5.025
 20
-0.0949999999999998
 30
0.0
 40
0.5
  1
207
100
AcDbAttributeDefinition
  3

  2
SERIES
 70
     8
280
     0
  0
ATTDEF
  5
75
330
1F
100
AcDbEntity
  8
AM_6
100
AcDbText
 10
5.025
 20
-0.5949999999999998
 30
0.0
 40
0.5
  1
1-1/4
100
AcDbAttributeDefinition
  3

  2
SS
 70
     8
280
     0
  0
ATTDEF
  5
76
330
1F
100
AcDbEntity
  8
AM_6
100
AcDbText
 10
5.025
 20
-1.095
 30
0.0
 40
0.5
  1
124630
100
AcDbAttributeDefinition
  3

  2
PN
 70
     8
280
     0
  0
ATTDEF
  5
77
330
1F
100
AcDbEntity
  8
AM_6
100
AcDbText
 10
5.025
 20
-1.595
 30
0.0
 40
0.5
  1
LF-SC-104-NL
100
AcDbAttributeDefinition
  3

  2
DESCRIPTION
 70
     8
280
     0
  0
ATTDEF
  5
78
330
1F
100
AcDbEntity
  8
AM_6
100
AcDbText
 10
5.025
 20
-2.095
 30
0.0
 40
0.5
  1
2.10
100
AcDbAttributeDefinition
  3

  2
W
 70
     8
280
     0
  0
ATTDEF
  5
79
330
1F
100
AcDbEntity
  8
AM_6
100
AcDbText
 10
5.025
 20
-2.595
 30
0.0
 40
0.5
  1
NO-LUBE
100
AcDbAttributeDefinition
  3

  2
LF
 70
     8
280
     0
  0
ATTDEF
  5
7A
330
1F
100
AcDbEntity
  8
AM_6
100
AcDbText
 10
5.025
 20
-3.095
 30
0.0
 40
0.5
  1
1.40
100
AcDbAttributeDefinition
  3

  2
A
 70
     8
280
     0
  0
ATTDEF
  5
7B
330
1F
100
AcDbEntity
  8
AM_6
100
AcDbText
 10
5.025
 20
-3.595
 30
0.0
 40
0.5
  1
4.81
100
AcDbAttributeDefinition
  3

  2
B
 70
     8
280
     0
  0
ATTDEF
  5
7C
330
1F
100
AcDbEntity
  8
AM_6
100
AcDbText
 10
5.025
 20
-4.095
 30
0.0
 40
0.5
  1
1.59
100
AcDbAttributeDefinition
  3

  2
C
 70
     8
280
     0
  0
ATTDEF
  5
7D
330
1F
100
AcDbEntity
  8
AM_6
100
AcDbText
 10
5.025
 20
-4.595
 30
0.0
 40
0.5
  1
3.94
100
AcDbAttributeDefinition
  3

  2
D
 70
     8
280
     0
  0
ATTDEF
  5
7E
330
1F
100
AcDbEntity
  8
AM_6
100
AcDbText
 10
5.025
 20
-5.095
 30
0.0
 40
0.5
  1
0.41
100
AcDbAttributeDefinition
  3

  2
G
 70
     8
280
     0
  0
ATTDEF
  5
7F
330
1F
100
AcDbEntity
  8
AM_6
100
AcDbText
 10
5.025
 20
-5.595
 30
0.0
 40
0.5
  1
0.50
100
AcDbAttributeDefinition
  3

  2
H
 70
     8
280
     0
  0
ATTDEF
  5
80
330
1F
100
AcDbEntity
  8
AM_6
100
AcDbText
 10
5.025
 20
-6.095
 30
0.0
 40
0.5
  1
0.52
100
AcDbAttributeDefinition
  3

  2
J
 70
     8
280
     0
  0
ATTDEF
  5
81
330
1F
100
AcDbEntity
  8
AM_6
100
AcDbText
 10
5.025
 20
-6.595
 30
0.0
 40
0.5
  1
1.84
100
AcDbAttributeDefinition
  3

  2
L
 70
     8
280
     0
  0
ATTDEF
  5
82
330
1F
100
AcDbEntity
  8
AM_6
100
AcDbText
 10
5.025
 20
-7.095
 30
0.0
 40
0.5
  1
2.41
100
AcDbAttributeDefinition
  3

  2
M
 70
     8
280
     0
  0
ATTDEF
  5
83
330
1F
100
AcDbEntity
  8
AM_6
100
AcDbText
 10
5.025
 20
-7.595
 30
0.0
 40
0.5
  1
2.14
100
AcDbAttributeDefinition
  3

  2
N
 70
     8
280
     0
  0
ATTDEF
  5
84
330
1F
100
AcDbEntity
  8
AM_6
100
AcDbText
 10
5.025
 20
-8.094999999999999
 30
0.0
 40
0.5
  1
baldor
100
AcDbAttributeDefinition
  3

  2
COMPANY
 70
     8
280
     0
  0
INSERT
  5
86
330
1F
100
AcDbEntity
  8
0
100
AcDbBlockReference
  2
1_077984_0_in_124630_2
 10
0.0
 20
0.0
 30
0.0
  0
INSERT
  5
E8
330
1F
100
AcDbEntity
  8
0
100
AcDbBlockReference
  2
2_430026_0_in_124630_2
 10
0.0
 20
0.0
 30
0.0
  0
INSERT
  5
10A
330
1F
100
AcDbEntity
  8
0
100
AcDbBlockReference
  2
3_124630H_0_in_124630_2
 10
0.0
 20
0.0
 30
0.0
  0
POINT
  5
16D
330
1F
100
AcDbEntity
  8
ConnectionPoints
100
AcDbPoint
 10
-0.6900000000000001
 20
-1.765
 30
0.0
  0
POINT
  5
16E
330
1F
100
AcDbEntity
  8
ConnectionPoints
100
AcDbPoint
 10
-0.6900000000000001
 20
-1.765
 30
0.0
  0
POINT
  5
16F
330
1F
100
AcDbEntity
  8
ConnectionPoints
100
AcDbPoint
 10
-1.59
 20
0.0
 30
0.0000000000000001
  0
ENDSEC
  0
SECTION
  2
OBJECTS
  0
DICTIONARY
  5
C
330
0
100
AcDbDictionary
281
     1
  3
ACAD_DETAILVIEWSTYLE
350
177
  3
ACAD_GROUP
350
D
  3
ACAD_LAYOUT
350
1A
  3
ACAD_MATERIAL
350
43
  3
ACAD_MLEADERSTYLE
350
6B
  3
ACAD_MLINESTYLE
350
17
  3
ACAD_PLOTSETTINGS
350
19
  3
ACAD_PLOTSTYLENAME
350
E
  3
ACAD_SCALELIST
350
47
  3
ACAD_SECTIONVIEWSTYLE
350
178
  3
ACAD_TABLESTYLE
350
69
  3
ACAD_VISUALSTYLE
350
2A
  3
ACDB_RECOMPOSE_DATA
350
174
  3
AcDbVariableDictionary
350
170
  0
SUN
  5
6D
330
29
100
AcDbSun
 90
        1
290
     0
 63
     7
421
 16777215
 40
1.0
291
     1
 91
  2455826
 92
 54000000
292
     0
 70
     2
 71
   256
280
     1
  0
DICTIONARY
  5
177
102
{ACAD_REACTORS
330
C
102
}
330
C
100
AcDbDictionary
281
     1
  0
DICTIONARY
  5
D
102
{ACAD_REACTORS
330
C
102
}
330
C
100
AcDbDictionary
281
     1
  0
DICTIONARY
  5
1A
102
{ACAD_REACTORS
330
C
102
}
330
C
100
AcDbDictionary
281
     1
  3
Layout1
350
1E
  3
Layout2
350
26
  3
Model
350
22
  0
DICTIONARY
  5
43
102
{ACAD_REACTORS
330
C
102
}
330
C
100
AcDbDictionary
281
     1
  3
ByBlock
350
45
  3
ByLayer
350
44
  3
Global
350
46
  0
DICTIONARY
  5
6B
102
{ACAD_REACTORS
330
C
102
}
330
C
100
AcDbDictionary
281
     1
  3
Standard
350
6C
  0
DICTIONARY
  5
17
102
{ACAD_REACTORS
330
C
102
}
330
C
100
AcDbDictionary
281
     1
  3
Standard
350
18
  0
DICTIONARY
  5
19
102
{ACAD_REACTORS
330
C
102
}
330
C
100
AcDbDictionary
281
     1
  0
ACDBDICTIONARYWDFLT
  5
E
102
{ACAD_REACTORS
330
C
102
}
330
C
100
AcDbDictionary
281
     1
  3
Normal
350
F
100
AcDbDictionaryWithDefault
340
F
  0
DICTIONARY
  5
47
102
{ACAD_REACTORS
330
C
102
}
330
C
100
AcDbDictionary
281
     1
  3
A0
350
48
  3
A1
350
49
  3
A2
350
4A
  3
A3
350
4B
  3
A4
350
4C
  3
A5
350
4D
  3
A6
350
4E
  3
A7
350
4F
  3
A8
350
50
  3
A9
350
51
  3
B0
350
52
  3
B1
350
53
  3
B2
350
54
  3
B3
350
55
  3
B4
350
56
  3
B5
350
57
  3
B6
350
58
  3
B7
350
59
  3
B8
350
5A
  3
B9
350
5B
  3
C0
350
5C
  3
C1
350
5D
  3
C2
350
5E
  3
C3
350
5F
  3
C4
350
60
  3
C5
350
61
  3
C6
350
62
  3
C7
350
63
  3
C8
350
64
  3
C9
350
65
  3
D0
350
66
  3
D1
350
67
  3
D2
350
68
  0
DICTIONARY
  5
178
102
{ACAD_REACTORS
330
C
102
}
330
C
100
AcDbDictionary
281
     1
  0
DICTIONARY
  5
69
102
{ACAD_REACTORS
330
C
102
}
330
C
100
AcDbDictionary
281
     1
  3
Standard
350
6A
  0
DICTIONARY
  5
2A
102
{ACAD_REACTORS
330
C
102
}
330
C
100
AcDbDictionary
281
     1
  3
2dWireframe
350
2F
  3
Basic
350
32
  3
Brighten
350
36
  3
ColorChange
350
3A
  3
Conceptual
350
34
  3
Dim
350
35
  3
EdgeColorOff
350
3D
  3
Facepattern
350
39
  3
Flat
350
2B
  3
FlatWithEdges
350
2C
  3
Gouraud
350
2D
  3
GouraudWithEdges
350
2E
  3
Hidden
350
31
  3
JitterOff
350
3B
  3
Linepattern
350
38
  3
OverhangOff
350
3C
  3
Realistic
350
33
  3
Shaded
350
42
  3
Shaded with edges
350
41
  3
Shades of Gray
350
3E
  3
Sketchy
350
3F
  3
Thicken
350
37
  3
Wireframe
350
30
  3
X-Ray
350
40
  0
XRECORD
  5
174
102
{ACAD_REACTORS
330
C
102
}
330
C
100
AcDbXrecord
280
     1
 90
        1
330
6A
  0
DICTIONARY
  5
170
102
{ACAD_REACTORS
330
C
102
}
330
C
100
AcDbDictionary
281
     1
  3
CANNOSCALE
350
171
  3
CMLEADERSTYLE
350
176
  3
CTABLESTYLE
350
175
  0
LAYOUT
  5
1E
102
{ACAD_REACTORS
330
1A
102
}
330
1A
100
AcDbPlotSettings
  1

  2
none_device
  4

  6

 40
0.0
 41
0.0
 42
0.0
 43
0.0
 44
0.0
 45
0.0
 46
0.0
 47
0.0
 48
0.0
 49
0.0
140
0.0
141
0.0
142
1.0
143
1.0
 70
   688
 72
     0
 73
     0
 74
     5
  7

 75
    16
 76
     0
 77
     2
 78
   300
147
1.0
148
0.0
149
0.0
100
AcDbLayout
  1
Layout1
 70
     1
 71
     1
 10
0.0
 20
0.0
 11
12.0
 21
9.0
 12
0.0
 22
0.0
 32
0.0
 14
1.000000000000000E+20
 24
1.000000000000000E+20
 34
1.000000000000000E+20
 15
-1.000000000000000E+20
 25
-1.000000000000000E+20
 35
-1.000000000000000E+20
146
0.0
 13
0.0
 23
0.0
 33
0.0
 16
1.0
 26
0.0
 36
0.0
 17
0.0
 27
1.0
 37
0.0
 76
     0
330
1B
  0
LAYOUT
  5
26
102
{ACAD_REACTORS
330
1A
102
}
330
1A
100
AcDbPlotSettings
  1

  2
none_device
  4

  6

 40
0.0
 41
0.0
 42
0.0
 43
0.0
 44
0.0
 45
0.0
 46
0.0
 47
0.0
 48
0.0
 49
0.0
140
0.0
141
0.0
142
1.0
143
1.0
 70
   688
 72
     0
 73
     0
 74
     5
  7

 75
    16
 76
     0
 77
     2
 78
   300
147
1.0
148
0.0
149
0.0
100
AcDbLayout
  1
Layout2
 70
     1
 71
     2
 10
0.0
 20
0.0
 11
0.0
 21
0.0
 12
0.0
 22
0.0
 32
0.0
 14
0.0
 24
0.0
 34
0.0
 15
0.0
 25
0.0
 35
0.0
146
0.0
 13
0.0
 23
0.0
 33
0.0
 16
1.0
 26
0.0
 36
0.0
 17
0.0
 27
1.0
 37
0.0
 76
     0
330
23
  0
LAYOUT
  5
22
102
{ACAD_REACTORS
330
1A
102
}
330
1A
100
AcDbPlotSettings
  1

  2
none_device
  4
Letter_(8.50_x_11.00_Inches)
  6

 40
6.35
 41
6.35
 42
6.35000508
 43
6.35000508
 44
215.9
 45
279.4
 46
0.0
 47
0.0
 48
0.0
 49
0.0
140
0.0
141
0.0
142
1.0
143
1.0
 70
  1712
 72
     0
 73
     0
 74
     0
  7

 75
     0
 76
     0
 77
     2
 78
   300
147
1.0
148
0.0
149
0.0
100
AcDbLayout
  1
Model
 70
     1
 71
     0
 10
0.0
 20
0.0
 11
12.0
 21
9.0
 12
0.0
 22
0.0
 32
0.0
 14
1.000000000000000E+20
 24
1.000000000000000E+20
 34
1.000000000000000E+20
 15
-1.000000000000000E+20
 25
-1.000000000000000E+20
 35
-1.000000000000000E+20
146
0.0
 13
0.0
 23
0.0
 33
0.0
 16
1.0
 26
0.0
 36
0.0
 17
0.0
 27
1.0
 37
0.0
 76
     0
330
1F
331
29
  0
MATERIAL
  5
45
102
{ACAD_REACTORS
330
43
102
}
330
43
100
AcDbMaterial
  1
ByBlock
 72
     1
 94
      127
  0
MATERIAL
  5
44
102
{ACAD_REACTORS
330
43
102
}
330
43
100
AcDbMaterial
  1
ByLayer
 72
     1
 94
      127
  0
MATERIAL
  5
46
102
{ACAD_REACTORS
330
43
102
}
330
43
100
AcDbMaterial
  1
Global
 72
     1
 94
      127
  0
MLEADERSTYLE
  5
6C
102
{ACAD_REACTORS
330
6B
102
}
330
6B
100
AcDbMLeaderStyle
179
     2
170
     2
171
     1
172
     0
 90
        2
 40
0.0
 41
0.0
173
     1
 91
-1056964608
340
14
 92
       -2
290
     1
 42
0.09
291
     1
 43
0.36
  3
Standard
341
0
 44
0.18
300

342
11
174
     1
178
     6
175
     1
176
     0
 93
-1056964608
 45
0.18
292
     0
297
     0
 46
0.18
343
0
 94
-1056964608
 47
1.0
 49
1.0
140
1.0
293
     1
141
0.0
294
     1
177
     0
142
1.0
295
     0
296
     0
143
0.125
271
     0
272
     9
273
     9
298
     0
  0
MLINESTYLE
  5
18
102
{ACAD_REACTORS
330
17
102
}
330
17
100
AcDbMlineStyle
  2
Standard
 70
     0
  3

 62
   256
 51
90.0
 52
90.0
 71
     2
 49
0.5
 62
   256
  6
BYLAYER
 49
-0.5
 62
   256
  6
BYLAYER
  0
ACDBPLACEHOLDER
  5
F
102
{ACAD_REACTORS
330
E
102
}
330
E
  0
SCALE
  5
48
102
{ACAD_REACTORS
330
47
102
}
330
47
100
AcDbScale
 70
     0
300
1:1
140
1.0
141
1.0
290
     1
  0
SCALE
  5
49
102
{ACAD_REACTORS
330
47
102
}
330
47
100
AcDbScale
 70
     0
300
1:2
140
1.0
141
2.0
290
     0
  0
SCALE
  5
4A
102
{ACAD_REACTORS
330
47
102
}
330
47
100
AcDbScale
 70
     0
300
1:4
140
1.0
141
4.0
290
     0
  0
SCALE
  5
4B
102
{ACAD_REACTORS
330
47
102
}
330
47
100
AcDbScale
 70
     0
300
1:5
140
1.0
141
5.0
290
     0
  0
SCALE
  5
4C
102
{ACAD_REACTORS
330
47
102
}
330
47
100
AcDbScale
 70
     0
300
1:8
140
1.0
141
8.0
290
     0
  0
SCALE
  5
4D
102
{ACAD_REACTORS
330
47
102
}
330
47
100
AcDbScale
 70
     0
300
1:10
140
1.0
141
10.0
290
     0
  0
SCALE
  5
4E
102
{ACAD_REACTORS
330
47
102
}
330
47
100
AcDbScale
 70
     0
300
1:16
140
1.0
141
16.0
290
     0
  0
SCALE
  5
4F
102
{ACAD_REACTORS
330
47
102
}
330
47
100
AcDbScale
 70
     0
300
1:20
140
1.0
141
20.0
290
     0
  0
SCALE
  5
50
102
{ACAD_REACTORS
330
47
102
}
330
47
100
AcDbScale
 70
     0
300
1:30
140
1.0
141
30.0
290
     0
  0
SCALE
  5
51
102
{ACAD_REACTORS
330
47
102
}
330
47
100
AcDbScale
 70
     0
300
1:40
140
1.0
141
40.0
290
     0
  0
SCALE
  5
52
102
{ACAD_REACTORS
330
47
102
}
330
47
100
AcDbScale
 70
     0
300
1:50
140
1.0
141
50.0
290
     0
  0
SCALE
  5
53
102
{ACAD_REACTORS
330
47
102
}
330
47
100
AcDbScale
 70
     0
300
1:100
140
1.0
141
100.0
290
     0
  0
SCALE
  5
54
102
{ACAD_REACTORS
330
47
102
}
330
47
100
AcDbScale
 70
     0
300
2:1
140
2.0
141
1.0
290
     0
  0
SCALE
  5
55
102
{ACAD_REACTORS
330
47
102
}
330
47
100
AcDbScale
 70
     0
300
4:1
140
4.0
141
1.0
290
     0
  0
SCALE
  5
56
102
{ACAD_REACTORS
330
47
102
}
330
47
100
AcDbScale
 70
     0
300
8:1
140
8.0
141
1.0
290
     0
  0
SCALE
  5
57
102
{ACAD_REACTORS
330
47
102
}
330
47
100
AcDbScale
 70
     0
300
10:1
140
10.0
141
1.0
290
     0
  0
SCALE
  5
58
102
{ACAD_REACTORS
330
47
102
}
330
47
100
AcDbScale
 70
     0
300
100:1
140
100.0
141
1.0
290
     0
  0
SCALE
  5
59
102
{ACAD_REACTORS
330
47
102
}
330
47
100
AcDbScale
 70
     0
300
1/128" = 1'-0"
140
0.0078125
141
12.0
290
     0
  0
SCALE
  5
5A
102
{ACAD_REACTORS
330
47
102
}
330
47
100
AcDbScale
 70
     0
300
1/64" = 1'-0"
140
0.015625
141
12.0
290
     0
  0
SCALE
  5
5B
102
{ACAD_REACTORS
330
47
102
}
330
47
100
AcDbScale
 70
     0
300
1/32" = 1'-0"
140
0.03125
141
12.0
290
     0
  0
SCALE
  5
5C
102
{ACAD_REACTORS
330
47
102
}
330
47
100
AcDbScale
 70
     0
300
1/16" = 1'-0"
140
0.0625
141
12.0
290
     0
  0
SCALE
  5
5D
102
{ACAD_REACTORS
330
47
102
}
330
47
100
AcDbScale
 70
     0
300
3/32" = 1'-0"
140
0.09375
141
12.0
290
     0
  0
SCALE
  5
5E
102
{ACAD_REACTORS
330
47
102
}
330
47
100
AcDbScale
 70
     0
300
1/8" = 1'-0"
140
0.125
141
12.0
290
     0
  0
SCALE
  5
5F
102
{ACAD_REACTORS
330
47
102
}
330
47
100
AcDbScale
 70
     0
300
3/16" = 1'-0"
140
0.1875
141
12.0
290
     0
  0
SCALE
  5
60
102
{ACAD_REACTORS
330
47
102
}
330
47
100
AcDbScale
 70
     0
300
1/4" = 1'-0"
140
0.25
141
12.0
290
     0
  0
SCALE
  5
61
102
{ACAD_REACTORS
330
47
102
}
330
47
100
AcDbScale
 70
     0
300
3/8" = 1'-0"
140
0.375
141
12.0
290
     0
  0
SCALE
  5
62
102
{ACAD_REACTORS
330
47
102
}
330
47
100
AcDbScale
 70
     0
300
1/2" = 1'-0"
140
0.5
141
12.0
290
     0
  0
SCALE
  5
63
102
{ACAD_REACTORS
330
47
102
}
330
47
100
AcDbScale
 70
     0
300
3/4" = 1'-0"
140
0.75
141
12.0
290
     0
  0
SCALE
  5
64
102
{ACAD_REACTORS
330
47
102
}
330
47
100
AcDbScale
 70
     0
300
1" = 1'-0"
140
1.0
141
12.0
290
     0
  0
SCALE
  5
65
102
{ACAD_REACTORS
330
47
102
}
330
47
100
AcDbScale
 70
     0
300
1-1/2" = 1'-0"
140
1.5
141
12.0
290
     0
  0
SCALE
  5
66
102
{ACAD_REACTORS
330
47
102
}
330
47
100
AcDbScale
 70
     0
300
3" = 1'-0"
140
3.0
141
12.0
290
     0
  0
SCALE
  5
67
102
{ACAD_REACTORS
330
47
102
}
330
47
100
AcDbScale
 70
     0
300
6" = 1'-0"
140
6.0
141
12.0
290
     0
  0
SCALE
  5
68
102
{ACAD_REACTORS
330
47
102
}
330
47
100
AcDbScale
 70
     0
300
1'-0" = 1'-0"
140
12.0
141
12.0
290
     0
  0
TABLESTYLE
  5
6A
102
{ACAD_REACTORS
330
69
102
}
102
{ACAD_XDICTIONARY
360
172
102
}
330
69
100
AcDbTableStyle
  3
Standard
 70
     0
 71
     0
 40
0.06
 41
0.06
280
     0
281
     0
  7
Standard
140
0.18
170
     2
 62
     0
 63
   257
283
     0
 90
        4
 91
        0
  1

274
    -2
284
     1
 64
     0
275
    -2
285
     1
 65
     0
276
    -2
286
     1
 66
     0
277
    -2
287
     1
 67
     0
278
    -2
288
     1
 68
     0
279
    -2
289
     1
 69
     0
  7
Standard
140
0.25
170
     5
 62
     0
 63
   257
283
     0
 90
        4
 91
        0
  1

274
    -2
284
     1
 64
     0
275
    -2
285
     1
 65
     0
276
    -2
286
     1
 66
     0
277
    -2
287
     1
 67
     0
278
    -2
288
     1
 68
     0
279
    -2
289
     1
 69
     0
  7
Standard
140
0.18
170
     5
 62
     0
 63
   257
283
     0
 90
        4
 91
        0
  1

274
    -2
284
     1
 64
     0
275
    -2
285
     1
 65
     0
276
    -2
286
     1
 66
     0
277
    -2
287
     1
 67
     0
278
    -2
288
     1
 68
     0
279
    -2
289
     1
 69
     0
  0
VISUALSTYLE
  5
2F
102
{ACAD_REACTORS
330
2A
102
}
330
2A
100
AcDbVisualStyle
  2
2dWireframe
 70
     4
177
     3
291
     0
 70
    58
 90
        0
176
     1
 90
        2
176
     1
 90
        0
176
     1
 90
        0
176
     1
 40
0.6
176
     1
 40
30.0
176
     1
 62
     7
420
 16777215
176
     1
 90
        1
176
     1
 90
        4
176
     1
 62
     7
176
     1
 62
   257
176
     1
 90
        1
176
     1
 90
        1
176
     1
 40
1.0
176
     1
 90
        0
176
     1
 62
   257
176
     1
 40
1.0
176
     1
 90
        1
176
     1
 90
        6
176
     1
 90
        2
176
     1
 62
     7
176
     1
 90
        5
176
     1
 90
        0
176
     1
 90
        0
176
     1
290
     0
176
     1
 90
        1
176
     1
 40
0.0
176
     1
 90
        0
176
     1
290
     1
176
     1
290
     1
176
     1
290
     0
176
     1
290
     0
176
     1
290
     0
176
     1
290
     0
176
     1
290
     0
176
     1
290
     0
176
     1
290
     0
176
     1
 90
       50
176
     1
 40
0.0
176
     1
 40
1.0
176
     1
 90
        0
176
     1
 62
    18
420
        0
176
     1
 90
       50
176
     1
 90
        3
176
     1
 62
     5
420
      255
176
     1
290
     0
176
     1
 90
       50
176
     1
 90
       50
176
     1
 90
       50
176
     1
290
     0
176
     1
 90
       50
176
     1
 62
   256
176
     0
 40
1.0
176
     0
 90
        2
176
     1
  1
strokes_ogs.tif
176
     1
290
     0
176
     1
 40
1.0
176
     1
 40
1.0
176
     1
  0
VISUALSTYLE
  5
32
102
{ACAD_REACTORS
330
2A
102
}
330
2A
100
AcDbVisualStyle
  2
Basic
 70
     7
177
     3
291
     1
 70
    58
 90
        1
176
     1
 90
        0
176
     1
 90
        1
176
     1
 90
        0
176
     1
 40
0.6
176
     1
 40
30.0
176
     1
 62
     7
420
 16777215
176
     1
 90
        0
176
     1
 90
        4
176
     1
 62
     7
176
     1
 62
   257
176
     1
 90
        1
176
     1
 90
        1
176
     1
 40
1.0
176
     1
 90
        8
176
     1
 62
     7
176
     1
 40
1.0
176
     1
 90
        1
176
     1
 90
        6
176
     1
 90
        2
176
     1
 62
     7
176
     1
 90
        5
176
     1
 90
        0
176
     1
 90
        0
176
     1
290
     0
176
     1
 90
        1
176
     1
 40
0.0
176
     1
 90
        0
176
     1
290
     0
176
     1
290
     1
176
     1
290
     1
176
     1
290
     0
176
     1
290
     0
176
     1
290
     0
176
     1
290
     0
176
     1
290
     0
176
     1
290
     0
176
     1
 90
       50
176
     1
 40
0.0
176
     1
 40
1.0
176
     1
 90
        0
176
     1
 62
    18
420
        0
176
     1
 90
       50
176
     1
 90
        3
176
     1
 62
     5
420
      255
176
     1
290
     0
176
     1
 90
       50
176
     1
 90
       50
176
     1
 90
       50
176
     1
290
     0
176
     1
 90
       50
176
     1
 62
   256
176
     0
 40
1.0
176
     0
 90
        2
176
     1
  1
strokes_ogs.tif
176
     1
290
     0
176
     1
 40
1.0
176
     1
 40
1.0
176
     1
  0
VISUALSTYLE
  5
36
102
{ACAD_REACTORS
330
2A
102
}
330
2A
100
AcDbVisualStyle
  2
Brighten
 70
    12
177
     3
291
     1
 70
    58
 90
        2
176
     1
 90
        2
176
     1
 90
        0
176
     1
 90
        0
176
     1
 40
0.6
176
     1
 40
30.0
176
     1
 62
     7
420
 16777215
176
     1
 90
        1
176
     1
 90
        4
176
     1
 62
     7
176
     1
 62
   257
176
     1
 90
        1
176
     1
 90
        1
176
     1
 40
1.0
176
     1
 90
        8
176
     1
 62
     7
176
     1
 40
1.0
176
     1
 90
        1
176
     1
 90
        6
176
     1
 90
        2
176
     1
 62
     7
176
     1
 90
        5
176
     1
 90
        0
176
     1
 90
        0
176
     1
290
     0
176
     1
 90
        1
176
     1
 40
50.0
176
     1
 90
        0
176
     1
290
     0
176
     1
290
     1
176
     1
290
     1
176
     1
290
     0
176
     1
290
     0
176
     1
290
     0
176
     1
290
     0
176
     1
290
     0
176
     1
290
     0
176
     1
 90
       50
176
     1
 40
0.0
176
     1
 40
1.0
176
     1
 90
        0
176
     1
 62
    18
420
        0
176
     1
 90
       50
176
     1
 90
        3
176
     1
 62
     5
420
      255
176
     1
290
     0
176
     1
 90
       50
176
     1
 90
       50
176
     1
 90
       50
176
     1
290
     0
176
     1
 90
       50
176
     1
 62
   256
176
     0
 40
1.0
176
     0
 90
        2
176
     1
  1
strokes_ogs.tif
176
     1
290
     0
176
     1
 40
1.0
176
     1
 40
1.0
176
     1
  0
VISUALSTYLE
  5
3A
102
{ACAD_REACTORS
330
2A
102
}
330
2A
100
AcDbVisualStyle
  2
ColorChange
 70
    16
177
     3
291
     1
 70
    58
 90
        2
176
     1
 90
        2
176
     1
 90
        3
176
     1
 90
        0
176
     1
 40
0.6
176
     1
 40
30.0
176
     1
 62
     8
420
  8421504
176
     1
 90
        1
176
     1
 90
        4
176
     1
 62
     7
176
     1
 62
   257
176
     1
 90
        1
176
     1
 90
        1
176
     1
 40
1.0
176
     1
 90
        8
176
     1
 62
     8
420
  8421504
176
     1
 40
1.0
176
     1
 90
        1
176
     1
 90
        6
176
     1
 90
        2
176
     1
 62
     7
176
     1
 90
        5
176
     1
 90
        0
176
     1
 90
        0
176
     1
290
     0
176
     1
 90
        1
176
     1
 40
0.0
176
     1
 90
        0
176
     1
290
     0
176
     1
290
     1
176
     1
290
     1
176
     1
290
     0
176
     1
290
     0
176
     1
290
     0
176
     1
290
     0
176
     1
290
     0
176
     1
290
     0
176
     1
 90
       50
176
     1
 40
0.0
176
     1
 40
1.0
176
     1
 90
        0
176
     1
 62
    18
420
        0
176
     1
 90
       50
176
     1
 90
        3
176
     1
 62
     5
420
      255
176
     1
290
     0
176
     1
 90
       50
176
     1
 90
       50
176
     1
 90
       50
176
     1
290
     0
176
     1
 90
       50
176
     1
 62
   256
176
     0
 40
1.0
176
     0
 90
        2
176
     1
  1
strokes_ogs.tif
176
     1
290
     0
176
     1
 40
1.0
176
     1
 40
1.0
176
     1
  0
VISUALSTYLE
  5
34
102
{ACAD_REACTORS
330
2A
102
}
330
2A
100
AcDbVisualStyle
  2
Conceptual
 70
     9
177
     3
291
     0
 70
    58
 90
        3
176
     1
 90
        2
176
     1
 90
        0
176
     1
 90
        0
176
     1
 40
0.6
176
     1
 40
30.0
176
     1
 62
     7
420
 16777215
176
     1
 90
        2
176
     1
 90
        2
176
     1
 62
     7
176
     1
 62
   257
176
     1
 90
        1
176
     1
 90
        1
176
     1
 40
179.0
176
     1
 90
        8
176
     1
 62
     7
176
     1
 40
1.0
176
     1
 90
        1
176
     1
 90
        6
176
     1
 90
        2
176
     1
 62
     7
176
     1
 90
        3
176
     1
 90
        0
176
     1
 90
        0
176
     1
290
     0
176
     1
 90
        1
176
     1
 40
0.0
176
     1
 90
        0
176
     1
290
     0
176
     1
290
     1
176
     1
290
     1
176
     1
290
     0
176
     1
290
     0
176
     1
290
     0
176
     1
290
     0
176
     1
290
     0
176
     1
290
     0
176
     1
 90
       50
176
     1
 40
0.0
176
     1
 40
1.0
176
     1
 90
        0
176
     1
 62
    18
420
        0
176
     1
 90
       50
176
     1
 90
        3
176
     1
 62
     5
420
      255
176
     1
290
     0
176
     1
 90
       50
176
     1
 90
       50
176
     1
 90
       50
176
     1
290
     0
176
     1
 90
       50
176
     1
 62
   256
176
     0
 40
1.0
176
     0
 90
        2
176
     1
  1
strokes_ogs.tif
176
     1
290
     0
176
     1
 40
1.0
176
     1
 40
1.0
176
     1
  0
VISUALSTYLE
  5
35
102
{ACAD_REACTORS
330
2A
102
}
330
2A
100
AcDbVisualStyle
  2
Dim
 70
    11
177
     3
291
     1
 70
    58
 90
        2
176
     1
 90
        2
176
     1
 90
        0
176
     1
 90
        0
176
     1
 40
0.6
176
     1
 40
30.0
176
     1
 62
     7
420
 16777215
176
     1
 90
        1
176
     1
 90
        4
176
     1
 62
     7
176
     1
 62
   257
176
     1
 90
        1
176
     1
 90
        1
176
     1
 40
1.0
176
     1
 90
        8
176
     1
 62
     7
176
     1
 40
1.0
176
     1
 90
        1
176
     1
 90
        6
176
     1
 90
        2
176
     1
 62
     7
176
     1
 90
        5
176
     1
 90
        0
176
     1
 90
        0
176
     1
290
     0
176
     1
 90
        1
176
     1
 40
-50.0
176
     1
 90
        0
176
     1
290
     0
176
     1
290
     1
176
     1
290
     1
176
     1
290
     0
176
     1
290
     0
176
     1
290
     0
176
     1
290
     0
176
     1
290
     0
176
     1
290
     0
176
     1
 90
       50
176
     1
 40
0.0
176
     1
 40
1.0
176
     1
 90
        0
176
     1
 62
    18
420
        0
176
     1
 90
       50
176
     1
 90
        3
176
     1
 62
     5
420
      255
176
     1
290
     0
176
     1
 90
       50
176
     1
 90
       50
176
     1
 90
       50
176
     1
290
     0
176
     1
 90
       50
176
     1
 62
   256
176
     0
 40
1.0
176
     0
 90
        2
176
     1
  1
strokes_ogs.tif
176
     1
290
     0
176
     1
 40
1.0
176
     1
 40
1.0
176
     1
  0
VISUALSTYLE
  5
3D
102
{ACAD_REACTORS
330
2A
102
}
330
2A
100
AcDbVisualStyle
  2
EdgeColorOff
 70
    22
177
     3
291
     1
 70
    58
 90
        2
176
     0
 90
        2
176
     0
 90
        0
176
     0
 90
        0
176
     0
 40
0.6
176
     0
 40
30.0
176
     0
 62
     7
420
 16777215
176
     0
 90
        1
176
     0
 90
        4
176
     0
 62
     7
176
     0
 62
   257
176
     0
 90
        1
176
     0
 90
        1
176
     0
 40
1.0
176
     0
 90
        8
176
     2
 62
     7
176
     0
 40
1.0
176
     0
 90
        1
176
     0
 90
        6
176
     0
 90
        2
176
     0
 62
     7
176
     0
 90
        5
176
     0
 90
        0
176
     0
 90
        0
176
     0
290
     0
176
     0
 90
        1
176
     0
 40
0.0
176
     0
 90
        0
176
     0
290
     0
176
     0
290
     1
176
     0
290
     1
176
     0
290
     0
176
     0
290
     0
176
     0
290
     0
176
     0
290
     0
176
     0
290
     0
176
     0
290
     0
176
     0
 90
       50
176
     0
 40
0.0
176
     0
 40
1.0
176
     0
 90
        0
176
     0
 62
    18
420
        0
176
     0
 90
       50
176
     0
 90
        3
176
     0
 62
     5
420
      255
176
     0
290
     0
176
     0
 90
       50
176
     0
 90
       50
176
     0
 90
       50
176
     0
290
     0
176
     0
 90
       50
176
     0
 62
   256
176
     0
 40
1.0
176
     0
 90
        2
176
     0
  1
strokes_ogs.tif
176
     0
290
     0
176
     0
 40
1.0
176
     0
 40
1.0
176
     0
  0
VISUALSTYLE
  5
39
102
{ACAD_REACTORS
330
2A
102
}
330
2A
100
AcDbVisualStyle
  2
Facepattern
 70
    15
177
     3
291
     1
 70
    58
 90
        2
176
     1
 90
        2
176
     1
 90
        0
176
     1
 90
        0
176
     1
 40
0.6
176
     1
 40
30.0
176
     1
 62
     7
420
 16777215
176
     1
 90
        1
176
     1
 90
        4
176
     1
 62
     7
176
     1
 62
   257
176
     1
 90
        1
176
     1
 90
        1
176
     1
 40
1.0
176
     1
 90
        8
176
     1
 62
     7
176
     1
 40
1.0
176
     1
 90
        1
176
     1
 90
        6
176
     1
 90
        2
176
     1
 62
     7
176
     1
 90
        5
176
     1
 90
        0
176
     1
 90
        0
176
     1
290
     0
176
     1
 90
        1
176
     1
 40
0.0
176
     1
 90
        0
176
     1
290
     0
176
     1
290
     1
176
     1
290
     1
176
     1
290
     0
176
     1
290
     0
176
     1
290
     0
176
     1
290
     0
176
     1
290
     0
176
     1
290
     0
176
     1
 90
       50
176
     1
 40
0.0
176
     1
 40
1.0
176
     1
 90
        0
176
     1
 62
    18
420
        0
176
     1
 90
       50
176
     1
 90
        3
176
     1
 62
     5
420
      255
176
     1
290
     0
176
     1
 90
       50
176
     1
 90
       50
176
     1
 90
       50
176
     1
290
     0
176
     1
 90
       50
176
     1
 62
   256
176
     0
 40
1.0
176
     0
 90
        2
176
     1
  1
strokes_ogs.tif
176
     1
290
     0
176
     1
 40
1.0
176
     1
 40
1.0
176
     1
  0
VISUALSTYLE
  5
2B
102
{ACAD_REACTORS
330
2A
102
}
330
2A
100
AcDbVisualStyle
  2
Flat
 70
     0
177
     3
291
     1
 70
    58
 90
        2
176
     1
 90
        1
176
     1
 90
        1
176
     1
 90
        2
176
     1
 40
0.6
176
     1
 40
30.0
176
     1
 62
     7
420
 16777215
176
     1
 90
        0
176
     1
 90
        0
176
     1
 62
     7
176
     1
 62
   257
176
     1
 90
        1
176
     1
 90
        1
176
     1
 40
1.0
176
     1
 90
        8
176
     1
 62
     7
176
     1
 40
1.0
176
     1
 90
        1
176
     1
 90
        6
176
     1
 90
        2
176
     1
 62
     7
176
     1
 90
        5
176
     1
 90
        0
176
     1
 90
        0
176
     1
290
     0
176
     1
 90
       13
176
     1
 40
0.0
176
     1
 90
        0
176
     1
290
     0
176
     1
290
     1
176
     1
290
     1
176
     1
290
     0
176
     1
290
     0
176
     1
290
     0
176
     1
290
     0
176
     1
290
     0
176
     1
290
     0
176
     1
 90
       50
176
     1
 40
0.0
176
     1
 40
1.0
176
     1
 90
        0
176
     1
 62
    18
420
        0
176
     1
 90
       50
176
     1
 90
        3
176
     1
 62
     5
420
      255
176
     1
290
     0
176
     1
 90
       50
176
     1
 90
       50
176
     1
 90
       50
176
     1
290
     0
176
     1
 90
       50
176
     1
 62
   256
176
     0
 40
1.0
176
     0
 90
        2
176
     1
  1
strokes_ogs.tif
176
     1
290
     0
176
     1
 40
1.0
176
     1
 40
1.0
176
     1
  0
VISUALSTYLE
  5
2C
102
{ACAD_REACTORS
330
2A
102
}
330
2A
100
AcDbVisualStyle
  2
FlatWithEdges
 70
     1
177
     3
291
     1
 70
    58
 90
        2
176
     1
 90
        1
176
     1
 90
        1
176
     1
 90
        2
176
     1
 40
0.6
176
     1
 40
30.0
176
     1
 62
     7
420
 16777215
176
     1
 90
        1
176
     1
 90
        0
176
     1
 62
     7
176
     1
 62
   257
176
     1
 90
        1
176
     1
 90
        1
176
     1
 40
1.0
176
     1
 90
        0
176
     1
 62
   257
176
     1
 40
1.0
176
     1
 90
        1
176
     1
 90
        6
176
     1
 90
        2
176
     1
 62
     7
176
     1
 90
        5
176
     1
 90
        0
176
     1
 90
        0
176
     1
290
     0
176
     1
 90
       13
176
     1
 40
0.0
176
     1
 90
        0
176
     1
290
     0
176
     1
290
     1
176
     1
290
     1
176
     1
290
     0
176
     1
290
     0
176
     1
290
     0
176
     1
290
     0
176
     1
290
     0
176
     1
290
     0
176
     1
 90
       50
176
     1
 40
0.0
176
     1
 40
1.0
176
     1
 90
        0
176
     1
 62
    18
420
        0
176
     1
 90
       50
176
     1
 90
        3
176
     1
 62
     5
420
      255
176
     1
290
     0
176
     1
 90
       50
176
     1
 90
       50
176
     1
 90
       50
176
     1
290
     0
176
     1
 90
       50
176
     1
 62
   256
176
     0
 40
1.0
176
     0
 90
        2
176
     1
  1
strokes_ogs.tif
176
     1
290
     0
176
     1
 40
1.0
176
     1
 40
1.0
176
     1
  0
VISUALSTYLE
  5
2D
102
{ACAD_REACTORS
330
2A
102
}
330
2A
100
AcDbVisualStyle
  2
Gouraud
 70
     2
177
     3
291
     1
 70
    58
 90
        2
176
     1
 90
        2
176
     1
 90
        1
176
     1
 90
        2
176
     1
 40
0.6
176
     1
 40
30.0
176
     1
 62
     7
420
 16777215
176
     1
 90
        0
176
     1
 90
        0
176
     1
 62
     7
176
     1
 62
   257
176
     1
 90
        1
176
     1
 90
        1
176
     1
 40
1.0
176
     1
 90
        0
176
     1
 62
     7
176
     1
 40
1.0
176
     1
 90
        1
176
     1
 90
        6
176
     1
 90
        2
176
     1
 62
     7
176
     1
 90
        5
176
     1
 90
        0
176
     1
 90
        0
176
     1
290
     0
176
     1
 90
       13
176
     1
 40
0.0
176
     1
 90
        0
176
     1
290
     0
176
     1
290
     1
176
     1
290
     1
176
     1
290
     0
176
     1
290
     0
176
     1
290
     0
176
     1
290
     0
176
     1
290
     0
176
     1
290
     0
176
     1
 90
       50
176
     1
 40
0.0
176
     1
 40
1.0
176
     1
 90
        0
176
     1
 62
    18
420
        0
176
     1
 90
       50
176
     1
 90
        3
176
     1
 62
     5
420
      255
176
     1
290
     0
176
     1
 90
       50
176
     1
 90
       50
176
     1
 90
       50
176
     1
290
     0
176
     1
 90
       50
176
     1
 62
   256
176
     0
 40
1.0
176
     0
 90
        2
176
     1
  1
strokes_ogs.tif
176
     1
290
     0
176
     1
 40
1.0
176
     1
 40
1.0
176
     1
  0
VISUALSTYLE
  5
2E
102
{ACAD_REACTORS
330
2A
102
}
330
2A
100
AcDbVisualStyle
  2
GouraudWithEdges
 70
     3
177
     3
291
     1
 70
    58
 90
        2
176
     1
 90
        2
176
     1
 90
        1
176
     1
 90
        2
176
     1
 40
0.6
176
     1
 40
30.0
176
     1
 62
     7
420
 16777215
176
     1
 90
        1
176
     1
 90
        0
176
     1
 62
     7
176
     1
 62
   257
176
     1
 90
        1
176
     1
 90
        1
176
     1
 40
1.0
176
     1
 90
        0
176
     1
 62
   257
176
     1
 40
1.0
176
     1
 90
        1
176
     1
 90
        6
176
     1
 90
        2
176
     1
 62
     7
176
     1
 90
        5
176
     1
 90
        0
176
     1
 90
        0
176
     1
290
     0
176
     1
 90
       13
176
     1
 40
0.0
176
     1
 90
        0
176
     1
290
     0
176
     1
290
     1
176
     1
290
     1
176
     1
290
     0
176
     1
290
     0
176
     1
290
     0
176
     1
290
     0
176
     1
290
     0
176
     1
290
     0
176
     1
 90
       50
176
     1
 40
0.0
176
     1
 40
1.0
176
     1
 90
        0
176
     1
 62
    18
420
        0
176
     1
 90
       50
176
     1
 90
        3
176
     1
 62
     5
420
      255
176
     1
290
     0
176
     1
 90
       50
176
     1
 90
       50
176
     1
 90
       50
176
     1
290
     0
176
     1
 90
       50
176
     1
 62
   256
176
     0
 40
1.0
176
     0
 90
        2
176
     1
  1
strokes_ogs.tif
176
     1
290
     0
176
     1
 40
1.0
176
     1
 40
1.0
176
     1
  0
VISUALSTYLE
  5
31
102
{ACAD_REACTORS
330
2A
102
}
330
2A
100
AcDbVisualStyle
  2
Hidden
 70
     6
177
     3
291
     0
 70
    58
 90
        1
176
     1
 90
        2
176
     1
 90
        2
176
     1
 90
        0
176
     1
 40
0.6
176
     1
 40
30.0
176
     1
 62
     7
420
 16777215
176
     1
 90
        2
176
     1
 90
        2
176
     1
 62
     7
176
     1
 62
   257
176
     1
 90
        2
176
     1
 90
        1
176
     1
 40
40.0
176
     1
 90
        0
176
     1
 62
   257
176
     1
 40
1.0
176
     1
 90
        1
176
     1
 90
        6
176
     1
 90
        2
176
     1
 62
     7
176
     1
 90
        3
176
     1
 90
        0
176
     1
 90
        0
176
     1
290
     0
176
     1
 90
        1
176
     1
 40
0.0
176
     1
 90
        0
176
     1
290
     0
176
     1
290
     1
176
     1
290
     1
176
     1
290
     0
176
     1
290
     0
176
     1
290
     0
176
     1
290
     0
176
     1
290
     0
176
     1
290
     0
176
     1
 90
       50
176
     1
 40
0.0
176
     1
 40
1.0
176
     1
 90
        0
176
     1
 62
    18
420
        0
176
     1
 90
       50
176
     1
 90
        3
176
     1
 62
     5
420
      255
176
     1
290
     0
176
     1
 90
       50
176
     1
 90
       50
176
     1
 90
       50
176
     1
290
     0
176
     1
 90
       50
176
     1
 62
   256
176
     0
 40
1.0
176
     0
 90
        2
176
     1
  1
strokes_ogs.tif
176
     1
290
     0
176
     1
 40
1.0
176
     1
 40
1.0
176
     1
  0
VISUALSTYLE
  5
3B
102
{ACAD_REACTORS
330
2A
102
}
330
2A
100
AcDbVisualStyle
  2
JitterOff
 70
    20
177
     3
291
     1
 70
    58
 90
        2
176
     0
 90
        2
176
     0
 90
        0
176
     0
 90
        0
176
     0
 40
0.6
176
     0
 40
30.0
176
     0
 62
     7
420
 16777215
176
     0
 90
        1
176
     0
 90
        4
176
     0
 62
     7
176
     0
 62
   257
176
     0
 90
        1
176
     0
 90
        1
176
     0
 40
1.0
176
     0
 90
       10
176
     2
 62
     7
176
     0
 40
1.0
176
     0
 90
        1
176
     0
 90
        6
176
     0
 90
        2
176
     0
 62
     7
176
     0
 90
        5
176
     0
 90
        0
176
     0
 90
        0
176
     0
290
     0
176
     0
 90
        1
176
     0
 40
0.0
176
     0
 90
        0
176
     0
290
     0
176
     0
290
     1
176
     0
290
     1
176
     0
290
     0
176
     0
290
     0
176
     0
290
     0
176
     0
290
     0
176
     0
290
     0
176
     0
290
     0
176
     0
 90
       50
176
     0
 40
0.0
176
     0
 40
1.0
176
     0
 90
        0
176
     0
 62
    18
420
        0
176
     0
 90
       50
176
     0
 90
        3
176
     0
 62
     5
420
      255
176
     0
290
     0
176
     0
 90
       50
176
     0
 90
       50
176
     0
 90
       50
176
     0
290
     0
176
     0
 90
       50
176
     0
 62
   256
176
     0
 40
1.0
176
     0
 90
        2
176
     0
  1
strokes_ogs.tif
176
     0
290
     0
176
     0
 40
1.0
176
     0
 40
1.0
176
     0
  0
VISUALSTYLE
  5
38
102
{ACAD_REACTORS
330
2A
102
}
330
2A
100
AcDbVisualStyle
  2
Linepattern
 70
    14
177
     3
291
     1
 70
    58
 90
        2
176
     1
 90
        2
176
     1
 90
        0
176
     1
 90
        0
176
     1
 40
0.6
176
     1
 40
30.0
176
     1
 62
     7
420
 16777215
176
     1
 90
        1
176
     1
 90
        4
176
     1
 62
     7
176
     1
 62
   257
176
     1
 90
        7
176
     1
 90
        7
176
     1
 40
1.0
176
     1
 90
        8
176
     1
 62
     7
176
     1
 40
1.0
176
     1
 90
        1
176
     1
 90
        6
176
     1
 90
        2
176
     1
 62
     7
176
     1
 90
        5
176
     1
 90
        0
176
     1
 90
        0
176
     1
290
     0
176
     1
 90
        1
176
     1
 40
0.0
176
     1
 90
        0
176
     1
290
     0
176
     1
290
     1
176
     1
290
     1
176
     1
290
     0
176
     1
290
     0
176
     1
290
     0
176
     1
290
     0
176
     1
290
     0
176
     1
290
     0
176
     1
 90
       50
176
     1
 40
0.0
176
     1
 40
1.0
176
     1
 90
        0
176
     1
 62
    18
420
        0
176
     1
 90
       50
176
     1
 90
        3
176
     1
 62
     5
420
      255
176
     1
290
     0
176
     1
 90
       50
176
     1
 90
       50
176
     1
 90
       50
176
     1
290
     0
176
     1
 90
       50
176
     1
 62
   256
176
     0
 40
1.0
176
     0
 90
        2
176
     1
  1
strokes_ogs.tif
176
     1
290
     0
176
     1
 40
1.0
176
     1
 40
1.0
176
     1
  0
VISUALSTYLE
  5
3C
102
{ACAD_REACTORS
330
2A
102
}
330
2A
100
AcDbVisualStyle
  2
OverhangOff
 70
    21
177
     3
291
     1
 70
    58
 90
        2
176
     0
 90
        2
176
     0
 90
        0
176
     0
 90
        0
176
     0
 40
0.6
176
     0
 40
30.0
176
     0
 62
     7
420
 16777215
176
     0
 90
        1
176
     0
 90
        4
176
     0
 62
     7
176
     0
 62
   257
176
     0
 90
        1
176
     0
 90
        1
176
     0
 40
1.0
176
     0
 90
        9
176
     2
 62
     7
176
     0
 40
1.0
176
     0
 90
        1
176
     0
 90
        6
176
     0
 90
        2
176
     0
 62
     7
176
     0
 90
        5
176
     0
 90
        0
176
     0
 90
        0
176
     0
290
     0
176
     0
 90
        1
176
     0
 40
0.0
176
     0
 90
        0
176
     0
290
     0
176
     0
290
     1
176
     0
290
     1
176
     0
290
     0
176
     0
290
     0
176
     0
290
     0
176
     0
290
     0
176
     0
290
     0
176
     0
290
     0
176
     0
 90
       50
176
     0
 40
0.0
176
     0
 40
1.0
176
     0
 90
        0
176
     0
 62
    18
420
        0
176
     0
 90
       50
176
     0
 90
        3
176
     0
 62
     5
420
      255
176
     0
290
     0
176
     0
 90
       50
176
     0
 90
       50
176
     0
 90
       50
176
     0
290
     0
176
     0
 90
       50
176
     0
 62
   256
176
     0
 40
1.0
176
     0
 90
        2
176
     0
  1
strokes_ogs.tif
176
     0
290
     0
176
     0
 40
1.0
176
     0
 40
1.0
176
     0
  0
VISUALSTYLE
  5
33
102
{ACAD_REACTORS
330
2A
102
}
330
2A
100
AcDbVisualStyle
  2
Realistic
 70
     8
177
     3
291
     0
 70
    58
 90
        2
176
     1
 90
        3
176
     1
 90
        0
176
     1
 90
        2
176
     1
 40
0.6
176
     1
 40
30.0
176
     1
 62
     7
420
 16777215
176
     1
 90
        0
176
     1
 90
        0
176
     1
 62
     7
176
     1
 62
   257
176
     1
 90
        1
176
     1
 90
        1
176
     1
 40
1.0
176
     1
 90
        8
176
     1
 62
   257
176
     1
 40
1.0
176
     1
 90
        1
176
     1
 90
        6
176
     1
 90
        2
176
     1
 62
     7
176
     1
 90
        3
176
     1
 90
        0
176
     1
 90
        0
176
     1
290
     0
176
     1
 90
       13
176
     1
 40
0.0
176
     1
 90
        0
176
     1
290
     0
176
     1
290
     1
176
     1
290
     1
176
     1
290
     0
176
     1
290
     0
176
     1
290
     0
176
     1
290
     0
176
     1
290
     0
176
     1
290
     0
176
     1
 90
       50
176
     1
 40
0.0
176
     1
 40
1.0
176
     1
 90
        0
176
     1
 62
    18
420
        0
176
     1
 90
       50
176
     1
 90
        3
176
     1
 62
     5
420
      255
176
     1
290
     0
176
     1
 90
       50
176
     1
 90
       50
176
     1
 90
       50
176
     1
290
     0
176
     1
 90
       50
176
     1
 62
   256
176
     0
 40
1.0
176
     0
 90
        2
176
     1
  1
strokes_ogs.tif
176
     1
290
     0
176
     1
 40
1.0
176
     1
 40
1.0
176
     1
  0
VISUALSTYLE
  5
42
102
{ACAD_REACTORS
330
2A
102
}
330
2A
100
AcDbVisualStyle
  2
Shaded
 70
    27
177
     3
291
     0
 70
    58
 90
        2
176
     1
 90
        2
176
     1
 90
        1
176
     1
 90
        2
176
     1
 40
0.6
176
     1
 40
30.0
176
     1
 62
     7
420
 16777215
176
     1
 90
        0
176
     1
 90
        4
176
     1
 62
     7
176
     1
 62
   257
176
     1
 90
        1
176
     1
 90
        1
176
     1
 40
1.0
176
     1
 90
        8
176
     1
 62
   257
176
     1
 40
1.0
176
     1
 90
        1
176
     1
 90
        6
176
     1
 90
        2
176
     1
 62
     8
420
  7895160
176
     1
 90
        3
176
     1
 90
        0
176
     1
 90
        0
176
     1
290
     0
176
     1
 90
        5
176
     1
 40
0.0
176
     1
 90
        0
176
     1
290
     0
176
     1
290
     1
176
     1
290
     1
176
     1
290
     0
176
     1
290
     0
176
     1
290
     0
176
     1
290
     0
176
     1
290
     0
176
     1
290
     0
176
     1
 90
       50
176
     1
 40
0.0
176
     1
 40
1.0
176
     1
 90
        0
176
     1
 62
    18
420
        0
176
     1
 90
       50
176
     1
 90
        3
176
     1
 62
     5
420
      255
176
     1
290
     0
176
     1
 90
       50
176
     1
 90
       50
176
     1
 90
       50
176
     1
290
     0
176
     1
 90
       50
176
     1
 62
   256
176
     0
 40
1.0
176
     0
 90
        2
176
     1
  1
strokes_ogs.tif
176
     1
290
     0
176
     1
 40
1.0
176
     1
 40
1.0
176
     1
  0
VISUALSTYLE
  5
41
102
{ACAD_REACTORS
330
2A
102
}
330
2A
100
AcDbVisualStyle
  2
Shaded with edges
 70
    26
177
     3
291
     0
 70
    58
 90
        2
176
     1
 90
        2
176
     1
 90
        1
176
     1
 90
        2
176
     1
 40
0.6
176
     1
 40
30.0
176
     1
 62
     7
420
 16777215
176
     1
 90
        1
176
     1
 90
       10
176
     1
 62
     7
176
     1
 62
   257
176
     1
 90
        2
176
     1
 90
        1
176
     1
 40
1.0
176
     1
 90
        8
176
     1
 62
   257
176
     1
 40
1.0
176
     1
 90
        1
176
     1
 90
        6
176
     1
 90
        2
176
     1
 62
     7
176
     1
 90
        3
176
     1
 90
        0
176
     1
 90
        0
176
     1
290
     0
176
     1
 90
        5
176
     1
 40
0.0
176
     1
 90
        0
176
     1
290
     0
176
     1
290
     1
176
     1
290
     1
176
     1
290
     0
176
     1
290
     0
176
     1
290
     0
176
     1
290
     0
176
     1
290
     0
176
     1
290
     0
176
     1
 90
       50
176
     1
 40
0.0
176
     1
 40
1.0
176
     1
 90
        0
176
     1
 62
    18
420
        0
176
     1
 90
       50
176
     1
 90
        3
176
     1
 62
     5
420
      255
176
     1
290
     0
176
     1
 90
       50
176
     1
 90
       50
176
     1
 90
       50
176
     1
290
     0
176
     1
 90
       50
176
     1
 62
   256
176
     0
 40
1.0
176
     0
 90
        2
176
     1
  1
strokes_ogs.tif
176
     1
290
     0
176
     1
 40
1.0
176
     1
 40
1.0
176
     1
  0
VISUALSTYLE
  5
3E
102
{ACAD_REACTORS
330
2A
102
}
330
2A
100
AcDbVisualStyle
  2
Shades of Gray
 70
    23
177
     3
291
     0
 70
    58
 90
        2
176
     1
 90
        2
176
     1
 90
        3
176
     1
 90
        0
176
     1
 40
0.6
176
     1
 40
30.0
176
     1
 62
     7
420
 16777215
176
     1
 90
        2
176
     1
 90
        2
176
     1
 62
     7
176
     1
 62
     7
176
     1
 90
        1
176
     1
 90
        1
176
     1
 40
40.0
176
     1
 90
        8
176
     1
 62
     7
176
     1
 40
1.0
176
     1
 90
        1
176
     1
 90
        6
176
     1
 90
        2
176
     1
 62
     7
176
     1
 90
        3
176
     1
 90
        0
176
     1
 90
        0
176
     1
290
     0
176
     1
 90
        1
176
     1
 40
0.0
176
     1
 90
        0
176
     1
290
     0
176
     1
290
     1
176
     1
290
     1
176
     1
290
     0
176
     1
290
     0
176
     1
290
     0
176
     1
290
     0
176
     1
290
     0
176
     1
290
     0
176
     1
 90
       50
176
     1
 40
0.0
176
     1
 40
1.0
176
     1
 90
        0
176
     1
 62
    18
420
        0
176
     1
 90
       50
176
     1
 90
        3
176
     1
 62
     5
420
      255
176
     1
290
     0
176
     1
 90
       50
176
     1
 90
       50
176
     1
 90
       50
176
     1
290
     0
176
     1
 90
       50
176
     1
 62
   256
176
     0
 40
1.0
176
     0
 90
        2
176
     1
  1
strokes_ogs.tif
176
     1
290
     0
176
     1
 40
1.0
176
     1
 40
1.0
176
     1
  0
VISUALSTYLE
  5
3F
102
{ACAD_REACTORS
330
2A
102
}
330
2A
100
AcDbVisualStyle
  2
Sketchy
 70
    24
177
     3
291
     0
 70
    58
 90
        1
176
     1
 90
        2
176
     1
 90
        2
176
     1
 90
        0
176
     1
 40
0.6
176
     1
 40
30.0
176
     1
 62
     7
420
 16777215
176
     1
 90
        2
176
     1
 90
        2
176
     1
 62
     7
176
     1
 62
     7
176
     1
 90
        1
176
     1
 90
        1
176
     1
 40
40.0
176
     1
 90
       11
176
     1
 62
     7
176
     1
 40
1.0
176
     1
 90
        1
176
     1
 90
        6
176
     1
 90
        2
176
     1
 62
     7
176
     1
 90
        6
176
     1
 90
        0
176
     1
 90
        0
176
     1
290
     0
176
     1
 90
        1
176
     1
 40
0.0
176
     1
 90
        0
176
     1
290
     0
176
     1
290
     1
176
     1
290
     1
176
     1
290
     0
176
     1
290
     0
176
     1
290
     0
176
     1
290
     0
176
     1
290
     0
176
     1
290
     0
176
     1
 90
       50
176
     1
 40
0.0
176
     1
 40
1.0
176
     1
 90
        0
176
     1
 62
    18
420
        0
176
     1
 90
       50
176
     1
 90
        3
176
     1
 62
     5
420
      255
176
     1
290
     0
176
     1
 90
       50
176
     1
 90
       50
176
     1
 90
       50
176
     1
290
     0
176
     1
 90
       50
176
     1
 62
   256
176
     0
 40
1.0
176
     0
 90
        2
176
     1
  1
strokes_ogs.tif
176
     1
290
     0
176
     1
 40
1.0
176
     1
 40
1.0
176
     1
  0
VISUALSTYLE
  5
37
102
{ACAD_REACTORS
330
2A
102
}
330
2A
100
AcDbVisualStyle
  2
Thicken
 70
    13
177
     3
291
     1
 70
    58
 90
        2
176
     1
 90
        2
176
     1
 90
        0
176
     1
 90
        0
176
     1
 40
0.6
176
     1
 40
30.0
176
     1
 62
     7
420
 16777215
176
     1
 90
        1
176
     1
 90
        4
176
     1
 62
     7
176
     1
 62
   257
176
     1
 90
        1
176
     1
 90
        1
176
     1
 40
1.0
176
     1
 90
       12
176
     1
 62
     7
176
     1
 40
1.0
176
     1
 90
        1
176
     1
 90
        6
176
     1
 90
        2
176
     1
 62
     7
176
     1
 90
        5
176
     1
 90
        0
176
     1
 90
        0
176
     1
290
     0
176
     1
 90
        1
176
     1
 40
0.0
176
     1
 90
        0
176
     1
290
     0
176
     1
290
     1
176
     1
290
     1
176
     1
290
     0
176
     1
290
     0
176
     1
290
     0
176
     1
290
     0
176
     1
290
     0
176
     1
290
     0
176
     1
 90
       50
176
     1
 40
0.0
176
     1
 40
1.0
176
     1
 90
        0
176
     1
 62
    18
420
        0
176
     1
 90
       50
176
     1
 90
        3
176
     1
 62
     5
420
      255
176
     1
290
     0
176
     1
 90
       50
176
     1
 90
       50
176
     1
 90
       50
176
     1
290
     0
176
     1
 90
       50
176
     1
 62
   256
176
     0
 40
1.0
176
     0
 90
        2
176
     1
  1
strokes_ogs.tif
176
     1
290
     0
176
     1
 40
1.0
176
     1
 40
1.0
176
     1
  0
VISUALSTYLE
  5
30
102
{ACAD_REACTORS
330
2A
102
}
330
2A
100
AcDbVisualStyle
  2
Wireframe
 70
     5
177
     3
291
     0
 70
    58
 90
        0
176
     1
 90
        2
176
     1
 90
        0
176
     1
 90
        0
176
     1
 40
0.6
176
     1
 40
30.0
176
     1
 62
     7
420
 16777215
176
     1
 90
        1
176
     1
 90
        4
176
     1
 62
     7
176
     1
 62
   257
176
     1
 90
        1
176
     1
 90
        1
176
     1
 40
1.0
176
     1
 90
        0
176
     1
 62
   257
176
     1
 40
1.0
176
     1
 90
        1
176
     1
 90
        6
176
     1
 90
        2
176
     1
 62
     7
176
     1
 90
        3
176
     1
 90
        0
176
     1
 90
        0
176
     1
290
     0
176
     1
 90
        1
176
     1
 40
0.0
176
     1
 90
        0
176
     1
290
     0
176
     1
290
     1
176
     1
290
     1
176
     1
290
     0
176
     1
290
     0
176
     1
290
     0
176
     1
290
     0
176
     1
290
     0
176
     1
290
     0
176
     1
 90
       50
176
     1
 40
0.0
176
     1
 40
1.0
176
     1
 90
        0
176
     1
 62
    18
420
        0
176
     1
 90
       50
176
     1
 90
        3
176
     1
 62
     5
420
      255
176
     1
290
     0
176
     1
 90
       50
176
     1
 90
       50
176
     1
 90
       50
176
     1
290
     0
176
     1
 90
       50
176
     1
 62
   256
176
     0
 40
1.0
176
     0
 90
        2
176
     1
  1
strokes_ogs.tif
176
     1
290
     0
176
     1
 40
1.0
176
     1
 40
1.0
176
     1
  0
VISUALSTYLE
  5
40
102
{ACAD_REACTORS
330
2A
102
}
330
2A
100
AcDbVisualStyle
  2
X-Ray
 70
    25
177
     3
291
     0
 70
    58
 90
        2
176
     1
 90
        2
176
     1
 90
        1
176
     1
 90
        1
176
     1
 40
0.5
176
     1
 40
30.0
176
     1
 62
     7
420
 16777215
176
     1
 90
        1
176
     1
 90
        0
176
     1
 62
     7
176
     1
 62
   257
176
     1
 90
        1
176
     1
 90
        1
176
     1
 40
1.0
176
     1
 90
        8
176
     1
 62
     7
176
     1
 40
1.0
176
     1
 90
        1
176
     1
 90
        6
176
     1
 90
        2
176
     1
 62
     7
176
     1
 90
        3
176
     1
 90
        0
176
     1
 90
        0
176
     1
290
     0
176
     1
 90
       13
176
     1
 40
0.0
176
     1
 90
        0
176
     1
290
     0
176
     1
290
     1
176
     1
290
     1
176
     1
290
     0
176
     1
290
     0
176
     1
290
     0
176
     1
290
     0
176
     1
290
     0
176
     1
290
     0
176
     1
 90
       50
176
     1
 40
0.0
176
     1
 40
1.0
176
     1
 90
        0
176
     1
 62
    18
420
        0
176
     1
 90
       50
176
     1
 90
        3
176
     1
 62
     5
420
      255
176
     1
290
     0
176
     1
 90
       50
176
     1
 90
       50
176
     1
 90
       50
176
     1
290
     0
176
     1
 90
       50
176
     1
 62
   256
176
     0
 40
1.0
176
     0
 90
        2
176
     1
  1
strokes_ogs.tif
176
     1
290
     0
176
     1
 40
1.0
176
     1
 40
1.0
176
     1
  0
DICTIONARYVAR
  5
171
102
{ACAD_REACTORS
330
170
102
}
330
170
100
DictionaryVariables
280
     0
  1
1:1
  0
DICTIONARYVAR
  5
176
102
{ACAD_REACTORS
330
170
102
}
330
170
100
DictionaryVariables
280
     0
  1
Standard
  0
DICTIONARYVAR
  5
175
102
{ACAD_REACTORS
330
170
102
}
330
170
100
DictionaryVariables
280
     0
  1
Standard
  0
DICTIONARY
  5
172
330
6A
100
AcDbDictionary
280
     1
281
     1
  3
ACAD_ROUNDTRIP_2008_TABLESTYLE_CELLSTYLEMAP
360
173
  0
CELLSTYLEMAP
  5
173
102
{ACAD_REACTORS
330
172
102
}
330
172
100
AcDbCellStyleMap
 90
        3
300
CELLSTYLE
  1
TABLEFORMAT_BEGIN
 90
        5
170
     1
 91
        0
 92
    32768
 62
   257
 93
        1
300
CONTENTFORMAT
  1
CONTENTFORMAT_BEGIN
 90
        0
 91
        0
 92
        4
 93
        0
300

 40
0.0
140
1.0
 94
        5
 62
     0
340
11
144
0.25
309
CONTENTFORMAT_END
171
     1
301
MARGIN
  1
CELLMARGIN_BEGIN
 40
0.06
 40
0.06
 40
0.06
 40
0.06
 40
0.06
 40
0.06
309
CELLMARGIN_END
 94
        6
 95
        1
302
GRIDFORMAT
  1
GRIDFORMAT_BEGIN
 90
        0
 91
        1
 62
     0
 92
       -2
340
14
 93
        0
 40
0.045
309
GRIDFORMAT_END
 95
        2
302
GRIDFORMAT
  1
GRIDFORMAT_BEGIN
 90
        0
 91
        1
 62
     0
 92
       -2
340
14
 93
        0
 40
0.045
309
GRIDFORMAT_END
 95
        4
302
GRIDFORMAT
  1
GRIDFORMAT_BEGIN
 90
        0
 91
        1
 62
     0
 92
       -2
340
14
 93
        0
 40
0.045
309
GRIDFORMAT_END
 95
        8
302
GRIDFORMAT
  1
GRIDFORMAT_BEGIN
 90
        0
 91
        1
 62
     0
 92
       -2
340
14
 93
        0
 40
0.045
309
GRIDFORMAT_END
 95
       16
302
GRIDFORMAT
  1
GRIDFORMAT_BEGIN
 90
        0
 91
        1
 62
     0
 92
       -2
340
14
 93
        0
 40
0.045
309
GRIDFORMAT_END
 95
       32
302
GRIDFORMAT
  1
GRIDFORMAT_BEGIN
 90
        0
 91
        1
 62
     0
 92
       -2
340
14
 93
        0
 40
0.045
309
GRIDFORMAT_END
309
TABLEFORMAT_END
  1
CELLSTYLE_BEGIN
 90
        1
 91
        1
300
_TITLE
309
CELLSTYLE_END
300
CELLSTYLE
  1
TABLEFORMAT_BEGIN
 90
        5
170
     1
 91
        0
 92
        0
 62
   257
 93
        1
300
CONTENTFORMAT
  1
CONTENTFORMAT_BEGIN
 90
        0
 91
        0
 92
        4
 93
        0
300

 40
0.0
140
1.0
 94
        5
 62
     0
340
11
144
0.18
309
CONTENTFORMAT_END
171
     1
301
MARGIN
  1
CELLMARGIN_BEGIN
 40
0.06
 40
0.06
 40
0.06
 40
0.06
 40
0.06
 40
0.06
309
CELLMARGIN_END
 94
        6
 95
        1
302
GRIDFORMAT
  1
GRIDFORMAT_BEGIN
 90
        0
 91
        1
 62
     0
 92
       -2
340
14
 93
        0
 40
0.045
309
GRIDFORMAT_END
 95
        2
302
GRIDFORMAT
  1
GRIDFORMAT_BEGIN
 90
        0
 91
        1
 62
     0
 92
       -2
340
14
 93
        0
 40
0.045
309
GRIDFORMAT_END
 95
        4
302
GRIDFORMAT
  1
GRIDFORMAT_BEGIN
 90
        0
 91
        1
 62
     0
 92
       -2
340
14
 93
        0
 40
0.045
309
GRIDFORMAT_END
 95
        8
302
GRIDFORMAT
  1
GRIDFORMAT_BEGIN
 90
        0
 91
        1
 62
     0
 92
       -2
340
14
 93
        0
 40
0.045
309
GRIDFORMAT_END
 95
       16
302
GRIDFORMAT
  1
GRIDFORMAT_BEGIN
 90
        0
 91
        1
 62
     0
 92
       -2
340
14
 93
        0
 40
0.045
309
GRIDFORMAT_END
 95
       32
302
GRIDFORMAT
  1
GRIDFORMAT_BEGIN
 90
        0
 91
        1
 62
     0
 92
       -2
340
14
 93
        0
 40
0.045
309
GRIDFORMAT_END
309
TABLEFORMAT_END
  1
CELLSTYLE_BEGIN
 90
        2
 91
        1
300
_HEADER
309
CELLSTYLE_END
300
CELLSTYLE
  1
TABLEFORMAT_BEGIN
 90
        5
170
     1
 91
        0
 92
        0
 62
   257
 93
        1
300
CONTENTFORMAT
  1
CONTENTFORMAT_BEGIN
 90
        0
 91
        0
 92
        4
 93
        0
300

 40
0.0
140
1.0
 94
        2
 62
     0
340
11
144
0.18
309
CONTENTFORMAT_END
171
     1
301
MARGIN
  1
CELLMARGIN_BEGIN
 40
0.06
 40
0.06
 40
0.06
 40
0.06
 40
0.06
 40
0.06
309
CELLMARGIN_END
 94
        6
 95
        1
302
GRIDFORMAT
  1
GRIDFORMAT_BEGIN
 90
        0
 91
        1
 62
     0
 92
       -2
340
14
 93
        0
 40
0.045
309
GRIDFORMAT_END
 95
        2
302
GRIDFORMAT
  1
GRIDFORMAT_BEGIN
 90
        0
 91
        1
 62
     0
 92
       -2
340
14
 93
        0
 40
0.045
309
GRIDFORMAT_END
 95
        4
302
GRIDFORMAT
  1
GRIDFORMAT_BEGIN
 90
        0
 91
        1
 62
     0
 92
       -2
340
14
 93
        0
 40
0.045
309
GRIDFORMAT_END
 95
        8
302
GRIDFORMAT
  1
GRIDFORMAT_BEGIN
 90
        0
 91
        1
 62
     0
 92
       -2
340
14
 93
        0
 40
0.045
309
GRIDFORMAT_END
 95
       16
302
GRIDFORMAT
  1
GRIDFORMAT_BEGIN
 90
        0
 91
        1
 62
     0
 92
       -2
340
14
 93
        0
 40
0.045
309
GRIDFORMAT_END
 95
       32
302
GRIDFORMAT
  1
GRIDFORMAT_BEGIN
 90
        0
 91
        1
 62
     0
 92
       -2
340
14
 93
        0
 40
0.045
309
GRIDFORMAT_END
309
TABLEFORMAT_END
  1
CELLSTYLE_BEGIN
 90
        3
 91
        2
300
_DATA
309
CELLSTYLE_END
  0
ENDSEC
  0
EOF