0
SECTION
  2
HEADER
  9
$ACADVER
  1
AC1027
  9
$ACADMAINTVER
 70
   105
  9
$DWGCODEPAGE
  3
ANSI_1252
  9
$REQUIREDVERSIONS
160
                 0
  9
$COMMENTS
  1
File was created by Cadenas
  9
$CUSTOMPROPERTYTAG
  1
NN
  9
$CUSTOMPROPERTY
  1
Set Screw LF  Normal Duty 3-Bolt Flange Inch Bore
  9
$CUSTOMPROPERTYTAG
  1
NT
  9
$CUSTOMPROPERTY
  1
SC 3 Bolt Flange Bearings -(Normal Duty) -Re-Lube and No-Lube
  9
$CUSTOMPROPERTYTAG
  1
NB
  9
$CUSTOMPROPERTY
  1
124630
  9
$CUSTOMPROPERTYTAG
  1
NBSYN
  9
$CUSTOMPROPERTY
  1
$PN.
  9
$CUSTOMPROPERTYTAG
  1
LINA
  9
$CUSTOMPROPERTY
  1
124630
  9
$CUSTOMPROPERTYTAG
  1
SERIES
  9
$CUSTOMPROPERTY
  1
207
  9
$CUSTOMPROPERTYTAG
  1
SS
  9
$CUSTOMPROPERTY
  1
1-1/4
  9
$CUSTOMPROPERTYTAG
  1
PN
  9
$CUSTOMPROPERTY
  1
124630
  9
$CUSTOMPROPERTYTAG
  1
DESCRIPTION
  9
$CUSTOMPROPERTY
  1
LF-SC-104-NL
  9
$CUSTOMPROPERTYTAG
  1
W
  9
$CUSTOMPROPERTY
  1
2.10
  9
$CUSTOMPROPERTYTAG
  1
LF
  9
$CUSTOMPROPERTY
  1
NO-LUBE
  9
$CUSTOMPROPERTYTAG
  1
A
  9
$CUSTOMPROPERTY
  1
1.40
  9
$CUSTOMPROPERTYTAG
  1
B
  9
$CUSTOMPROPERTY
  1
4.81
  9
$CUSTOMPROPERTYTAG
  1
C
  9
$CUSTOMPROPERTY
  1
1.59
  9
$CUSTOMPROPERTYTAG
  1
D
  9
$CUSTOMPROPERTY
  1
3.94
  9
$CUSTOMPROPERTYTAG
  1
G
  9
$CUSTOMPROPERTY
  1
0.41
  9
$CUSTOMPROPERTYTAG
  1
H
  9
$CUSTOMPROPERTY
  1
0.50
  9
$CUSTOMPROPERTYTAG
  1
J
  9
$CUSTOMPROPERTY
  1
0.52
  9
$CUSTOMPROPERTYTAG
  1
L
  9
$CUSTOMPROPERTY
  1
1.84
  9
$CUSTOMPROPERTYTAG
  1
M
  9
$CUSTOMPROPERTY
  1
2.41
  9
$CUSTOMPROPERTYTAG
  1
N
  9
$CUSTOMPROPERTY
  1
2.14
  9
$CUSTOMPROPERTYTAG
  1
COMPANY
  9
$CUSTOMPROPERTY
  1
baldor
  9
$INSBASE
 10
0.0
 20
0.0
 30
0.0
  9
$EXTMIN
 10
1.000000000000000E+20
 20
1.000000000000000E+20
 30
1.000000000000000E+20
  9
$EXTMAX
 10
-1.000000000000000E+20
 20
-1.000000000000000E+20
 30
-1.000000000000000E+20
  9
$LIMMIN
 10
0.0
 20
0.0
  9
$LIMMAX
 10
12.0
 20
9.0
  9
$ORTHOMODE
 70
     0
  9
$REGENMODE
 70
     1
  9
$FILLMODE
 70
     1
  9
$QTEXTMODE
 70
     0
  9
$MIRRTEXT
 70
     1
  9
$LTSCALE
 40
1.0
  9
$ATTMODE
 70
     1
  9
$TEXTSIZE
 40
0.2
  9
$TRACEWID
 40
0.05
  9
$TEXTSTYLE
  7
Standard
  9
$CLAYER
  8
0
  9
$CELTYPE
  6
ByLayer
  9
$CECOLOR
 62
   256
  9
$CELTSCALE
 40
1.0
  9
$DISPSILH
 70
     0
  9
$DIMSCALE
 40
1.0
  9
$DIMASZ
 40
0.18
  9
$DIMEXO
 40
0.0625
  9
$DIMDLI
 40
0.38
  9
$DIMRND
 40
0.0
  9
$DIMDLE
 40
0.0
  9
$DIMEXE
 40
0.18
  9
$DIMTP
 40
0.0
  9
$DIMTM
 40
0.0
  9
$DIMTXT
 40
0.18
  9
$DIMCEN
 40
0.09
  9
$DIMTSZ
 40
0.0
  9
$DIMTOL
 70
     0
  9
$DIMLIM
 70
     0
  9
$DIMTIH
 70
     1
  9
$DIMTOH
 70
     1
  9
$DIMSE1
 70
     0
  9
$DIMSE2
 70
     0
  9
$DIMTAD
 70
     0
  9
$DIMZIN
 70
     0
  9
$DIMBLK
  1

  9
$DIMASO
 70
     1
  9
$DIMSHO
 70
     1
  9
$DIMPOST
  1

  9
$DIMAPOST
  1

  9
$DIMALT
 70
     0
  9
$DIMALTD
 70
     2
  9
$DIMALTF
 40
25.4
  9
$DIMLFAC
 40
1.0
  9
$DIMTOFL
 70
     0
  9
$DIMTVP
 40
0.0
  9
$DIMTIX
 70
     0
  9
$DIMSOXD
 70
     0
  9
$DIMSAH
 70
     0
  9
$DIMBLK1
  1

  9
$DIMBLK2
  1

  9
$DIMSTYLE
  2
Standard
  9
$DIMCLRD
 70
     0
  9
$DIMCLRE
 70
     0
  9
$DIMCLRT
 70
     0
  9
$DIMTFAC
 40
1.0
  9
$DIMGAP
 40
0.09
  9
$DIMJUST
 70
     0
  9
$DIMSD1
 70
     0
  9
$DIMSD2
 70
     0
  9
$DIMTOLJ
 70
     1
  9
$DIMTZIN
 70
     0
  9
$DIMALTZ
 70
     0
  9
$DIMALTTZ
 70
     0
  9
$DIMUPT
 70
     0
  9
$DIMDEC
 70
     4
  9
$DIMTDEC
 70
     4
  9
$DIMALTU
 70
     2
  9
$DIMALTTD
 70
     2
  9
$DIMTXSTY
  7
Standard
  9
$DIMAUNIT
 70
     0
  9
$DIMADEC
 70
     0
  9
$DIMALTRND
 40
0.0
  9
$DIMAZIN
 70
     0
  9
$DIMDSEP
 70
    46
  9
$DIMATFIT
 70
     3
  9
$DIMFRAC
 70
     0
  9
$DIMLDRBLK
  1

  9
$DIMLUNIT
 70
     2
  9
$DIMLWD
 70
    -2
  9
$DIMLWE
 70
    -2
  9
$DIMTMOVE
 70
     0
  9
$DIMFXL
 40
1.0
  9
$DIMFXLON
 70
     0
  9
$DIMJOGANG
 40
0.7853981633974483
  9
$DIMTFILL
 70
     0
  9
$DIMTFILLCLR
 70
     0
  9
$DIMARCSYM
 70
     0
  9
$DIMLTYPE
  6

  9
$DIMLTEX1
  6

  9
$DIMLTEX2
  6

  9
$DIMTXTDIRECTION
 70
     0
  9
$LUNITS
 70
     2
  9
$LUPREC
 70
     4
  9
$SKETCHINC
 40
0.1
  9
$FILLETRAD
 40
0.5
  9
$AUNITS
 70
     0
  9
$AUPREC
 70
     0
  9
$MENU
  1
.
  9
$ELEVATION
 40
0.0
  9
$PELEVATION
 40
0.0
  9
$THICKNESS
 40
0.0
  9
$LIMCHECK
 70
     0
  9
$CHAMFERA
 40
0.0
  9
$CHAMFERB
 40
0.0
  9
$CHAMFERC
 40
0.0
  9
$CHAMFERD
 40
0.0
  9
$SKPOLY
 70
     0
  9
$TDCREATE
 40
2458168.978167072
  9
$TDUCREATE
 40
2458168.936500405
  9
$TDUPDATE
 40
2458168.978171169
  9
$TDUUPDATE
 40
2458168.936504502
  9
$TDINDWG
 40
0.0000000116
  9
$TDUSRTIMER
 40
0.0000000116
  9
$USRTIMER
 70
     1
  9
$ANGBASE
 50
0.0
  9
$ANGDIR
 70
     0
  9
$PDMODE
 70
     0
  9
$PDSIZE
 40
0.0
  9
$PLINEWID
 40
0.0
  9
$SPLFRAME
 70
     0
  9
$SPLINETYPE
 70
     6
  9
$SPLINESEGS
 70
     8
  9
$HANDSEED
  5
170
  9
$SURFTAB1
 70
     6
  9
$SURFTAB2
 70
     6
  9
$SURFTYPE
 70
     6
  9
$SURFU
 70
     6
  9
$SURFV
 70
     6
  9
$UCSBASE
  2

  9
$UCSNAME
  2

  9
$UCSORG
 10
0.0
 20
0.0
 30
0.0
  9
$UCSXDIR
 10
1.0
 20
0.0
 30
0.0
  9
$UCSYDIR
 10
0.0
 20
1.0
 30
0.0
  9
$UCSORTHOREF
  2

  9
$UCSORTHOVIEW
 70
     0
  9
$UCSORGTOP
 10
0.0
 20
0.0
 30
0.0
  9
$UCSORGBOTTOM
 10
0.0
 20
0.0
 30
0.0
  9
$UCSORGLEFT
 10
0.0
 20
0.0
 30
0.0
  9
$UCSORGRIGHT
 10
0.0
 20
0.0
 30
0.0
  9
$UCSORGFRONT
 10
0.0
 20
0.0
 30
0.0
  9
$UCSORGBACK
 10
0.0
 20
0.0
 30
0.0
  9
$PUCSBASE
  2

  9
$PUCSNAME
  2

  9
$PUCSORG
 10
0.0
 20
0.0
 30
0.0
  9
$PUCSXDIR
 10
1.0
 20
0.0
 30
0.0
  9
$PUCSYDIR
 10
0.0
 20
1.0
 30
0.0
  9
$PUCSORTHOREF
  2

  9
$PUCSORTHOVIEW
 70
     0
  9
$PUCSORGTOP
 10
0.0
 20
0.0
 30
0.0
  9
$PUCSORGBOTTOM
 10
0.0
 20
0.0
 30
0.0
  9
$PUCSORGLEFT
 10
0.0
 20
0.0
 30
0.0
  9
$PUCSORGRIGHT
 10
0.0
 20
0.0
 30
0.0
  9
$PUCSORGFRONT
 10
0.0
 20
0.0
 30
0.0
  9
$PUCSORGBACK
 10
0.0
 20
0.0
 30
0.0
  9
$USERI1
 70
     0
  9
$USERI2
 70
     0
  9
$USERI3
 70
     0
  9
$USERI4
 70
     0
  9
$USERI5
 70
     0
  9
$USERR1
 40
0.0
  9
$USERR2
 40
0.0
  9
$USERR3
 40
0.0
  9
$USERR4
 40
0.0
  9
$USERR5
 40
0.0
  9
$WORLDVIEW
 70
     1
  9
$SHADEDGE
 70
     3
  9
$SHADEDIF
 70
    70
  9
$TILEMODE
 70
     1
  9
$MAXACTVP
 70
    64
  9
$PINSBASE
 10
0.0
 20
0.0
 30
0.0
  9
$PLIMCHECK
 70
     0
  9
$PEXTMIN
 10
1.000000000000000E+20
 20
1.000000000000000E+20
 30
1.000000000000000E+20
  9
$PEXTMAX
 10
-1.000000000000000E+20
 20
-1.000000000000000E+20
 30
-1.000000000000000E+20
  9
$PLIMMIN
 10
0.0
 20
0.0
  9
$PLIMMAX
 10
12.0
 20
9.0
  9
$UNITMODE
 70
     0
  9
$VISRETAIN
 70
     1
  9
$PLINEGEN
 70
     0
  9
$PSLTSCALE
 70
     1
  9
$TREEDEPTH
 70
  3020
  9
$CMLSTYLE
  2
Standard
  9
$CMLJUST
 70
     0
  9
$CMLSCALE
 40
1.0
  9
$PROXYGRAPHICS
 70
     1
  9
$MEASUREMENT
 70
     0
  9
$CELWEIGHT
370
    -1
  9
$ENDCAPS
280
     0
  9
$JOINSTYLE
280
     0
  9
$LWDISPLAY
290
     0
  9
$INSUNITS
 70
     1
  9
$HYPERLINKBASE
  1

  9
$STYLESHEET
  1

  9
$XEDIT
290
     1
  9
$CEPSNTYPE
380
     0
  9
$PSTYLEMODE
290
     1
  9
$FINGERPRINTGUID
  2
{1420B987-8D08-41C7-9354-69CD66EC5947}
  9
$VERSIONGUID
  2
{FAEB1C32-E019-11D5-929B-00C0DF256EC4}
  9
$EXTNAMES
290
     1
  9
$PSVPSCALE
 40
0.0
  9
$OLESTARTUP
290
     0
  9
$SORTENTS
280
   127
  9
$INDEXCTL
280
     0
  9
$HIDETEXT
280
     1
  9
$XCLIPFRAME
280
     2
  9
$HALOGAP
280
     0
  9
$OBSCOLOR
 70
   257
  9
$OBSLTYPE
280
     0
  9
$INTERSECTIONDISPLAY
280
     0
  9
$INTERSECTIONCOLOR
 70
   257
  9
$DIMASSOC
280
     2
  9
$PROJECTNAME
  1

  9
$CAMERADISPLAY
290
     0
  9
$LENSLENGTH
 40
50.0
  9
$CAMERAHEIGHT
 40
0.0
  9
$STEPSPERSEC
 40
2.0
  9
$STEPSIZE
 40
6.0
  9
$3DDWFPREC
 40
2.0
  9
$PSOLWIDTH
 40
0.25
  9
$PSOLHEIGHT
 40
4.0
  9
$LOFTANG1
 40
1.570796326794897
  9
$LOFTANG2
 40
1.570796326794897
  9
$LOFTMAG1
 40
0.0
  9
$LOFTMAG2
 40
0.0
  9
$LOFTPARAM
 70
     7
  9
$LOFTNORMALS
280
     1
  9
$LATITUDE
 40
37.795
  9
$LONGITUDE
 40
-122.394
  9
$NORTHDIRECTION
 40
0.0
  9
$TIMEZONE
 70
 -8000
  9
$LIGHTGLYPHDISPLAY
280
     1
  9
$TILEMODELIGHTSYNCH
280
     1
  9
$CMATERIAL
347
44
  9
$SOLIDHIST
280
     0
  9
$SHOWHIST
280
     1
  9
$DWFFRAME
280
     2
  9
$DGNFRAME
280
     2
  9
$REALWORLDSCALE
290
     1
  9
$INTERFERECOLOR
 62
   256
  9
$CSHADOW
280
     0
  9
$SHADOWPLANELOCATION
 40
0.0
  0
ENDSEC
  0
SECTION
  2
CLASSES
  0
CLASS
  1
ACDBDICTIONARYWDFLT
  2
AcDbDictionaryWithDefault
  3
ObjectDBX Classes
 90
        0
 91
        4
280
     0
281
     0
  0
CLASS
  1
VISUALSTYLE
  2
AcDbVisualStyle
  3
ObjectDBX Classes
 90
     4095
 91
        4
280
     0
281
     0
  0
CLASS
  1
MATERIAL
  2
AcDbMaterial
  3
ObjectDBX Classes
 90
     1153
 91
        4
280
     0
281
     0
  0
CLASS
  1
SCALE
  2
AcDbScale
  3
ObjectDBX Classes
 90
     1153
 91
        4
280
     0
281
     0
  0
CLASS
  1
TABLESTYLE
  2
AcDbTableStyle
  3
ObjectDBX Classes
 90
     4095
 91
        4
280
     0
281
     0
  0
CLASS
  1
MLEADERSTYLE
  2
AcDbMLeaderStyle
  3
ACDB_MLEADERSTYLE_CLASS
 90
     4095
 91
        4
280
     0
281
     0
  0
CLASS
  1
SUN
  2
AcDbSun
  3
SCENEOE
 90
     1153
 91
        4
280
     0
281
     0
  0
CLASS
  1
DICTIONARYVAR
  2
AcDbDictionaryVar
  3
ObjectDBX Classes
 90
        0
 91
        4
280
     0
281
     0
  0
CLASS
  1
CELLSTYLEMAP
  2
AcDbCellStyleMap
  3
ObjectDBX Classes
 90
     1152
 91
        4
280
     0
281
     0
  0
ENDSEC
  0
SECTION
  2
TABLES
  0
TABLE
  2
VPORT
  5
8
330
0
100
AcDbSymbolTable
 70
     1
  0
VPORT
  5
29
330
8
100
AcDbSymbolTableRecord
100
AcDbViewportTableRecord
  2
*Active
 70
     0
 10
0.0
 20
0.0
 11
1.0
 21
1.0
 12
4.821418899896821
 22
-2.594999999999999
 13
0.0
 23
0.0
 14
0.5
 24
0.5
 15
0.5
 25
0.5
 16
0.0
 26
0.0
 36
1.0
 17
0.0
 27
0.0
 37
0.0
 40
11.22
 41
1.265907080973121
 42
50.0
 43
0.0
 44
0.0
 50
0.0
 51
0.0
 71
     0
 72
   100
 73
     1
 74
     3
 75
     0
 76
     0
 77
     0
 78
     0
281
     0
 65
     1
110
0.0
120
0.0
130
0.0
111
1.0
121
0.0
131
0.0
112
0.0
122
1.0
132
0.0
 79
     0
146
0.0
348
2F
 60
     3
 61
     5
292
     1
282
     1
141
0.0
142
0.0
 63
   250
361
6D
  0
ENDTAB
  0
TABLE
  2
LTYPE
  5
5
330
0
100
AcDbSymbolTable
 70
     3
  0
LTYPE
  5
14
330
5
100
AcDbSymbolTableRecord
100
AcDbLinetypeTableRecord
  2
ByBlock
 70
     0
  3

 72
    65
 73
     0
 40
0.0
  0
LTYPE
  5
15
330
5
100
AcDbSymbolTableRecord
100
AcDbLinetypeTableRecord
  2
ByLayer
 70
     0
  3

 72
    65
 73
     0
 40
0.0
  0
LTYPE
  5
16
330
5
100
AcDbSymbolTableRecord
100
AcDbLinetypeTableRecord
  2
Continuous
 70
     0
  3
Solid line
 72
    65
 73
     0
 40
0.0
  0
LTYPE
  5
9B
330
5
100
AcDbSymbolTableRecord
100
AcDbLinetypeTableRecord
  2
Dashed
 70
     0
  3

 72
    65
 73
     2
 40
2.0
 49
1.0
 74
     0
 49
-1.0
 74
     0
  0
LTYPE
  5
BC
330
5
100
AcDbSymbolTableRecord
100
AcDbLinetypeTableRecord
  2
Center
 70
     0
  3

 72
    65
 73
     4
 40
1.5
 49
0.45
 74
     0
 49
-0.5
 74
     0
 49
0.05
 74
     0
 49
-0.5
 74
     0
  0
ENDTAB
  0
TABLE
  2
LAYER
  5
2
330
0
100
AcDbSymbolTable
 70
     8
  0
LAYER
  5
10
330
2
100
AcDbSymbolTableRecord
100
AcDbLayerTableRecord
  2
0
 70
     0
 62
     7
  6
Continuous
370
    -3
390
F
347
46
348
0
  0
LAYER
  5
6E
330
2
100
AcDbSymbolTableRecord
100
AcDbLayerTableRecord
  2
AM_6
 70
     0
 62
    -2
  6
Continuous
370
    35
390
F
347
46
348
0
  0
LAYER
  5
9C
330
2
100
AcDbSymbolTableRecord
100
AcDbLayerTableRecord
  2
AM_9
 70
     0
 62
     6
  6
Dashed
370
    25
390
F
347
46
348
0
  0
LAYER
  5
B7
330
2
100
AcDbSymbolTableRecord
100
AcDbLayerTableRecord
  2
AM_5
 70
     0
 62
     3
  6
Continuous
370
    25
390
F
347
46
348
0
  0
LAYER
  5
BD
330
2
100
AcDbSymbolTableRecord
100
AcDbLayerTableRecord
  2
AM_7
 70
     0
 62
     7
  6
Center
370
    25
390
F
347
46
348
0
  0
LAYER
  5
BF
330
2
100
AcDbSymbolTableRecord
100
AcDbLayerTableRecord
  2
AM_0
 70
     0
 62
     7
  6
Continuous
370
    50
390
F
347
46
348
0
  0
LAYER
  5
C2
330
2
100
AcDbSymbolTableRecord
100
AcDbLayerTableRecord
  2
AM_4
 70
     0
 62
     3
  6
Continuous
370
    25
390
F
347
46
348
0
  0
LAYER
  5
163
330
2
100
AcDbSymbolTableRecord
100
AcDbLayerTableRecord
  2
ConnectionPoints
 70
     0
 62
     7
  6
Continuous
370
    50
390
F
347
46
348
0
  0
ENDTAB
  0
TABLE
  2
STYLE
  5
3
330
0
100
AcDbSymbolTable
 70
     1
  0
STYLE
  5
11
330
3
100
AcDbSymbolTableRecord
100
AcDbTextStyleTableRecord
  2
Standard
 70
     0
 40
0.0
 41
1.0
 50
0.0
 71
     0
 42
0.2
  3
txt
  4

  0
ENDTAB
  0
TABLE
  2
VIEW
  5
6
330
0
100
AcDbSymbolTable
 70
     0
  0
ENDTAB
  0
TABLE
  2
UCS
  5
7
330
0
100
AcDbSymbolTable
 70
     0
  0
ENDTAB
  0
TABLE
  2
APPID
  5
9
330
0
100
AcDbSymbolTable
 70
     1
  0
APPID
  5
12
330
9
100
AcDbSymbolTableRecord
100
AcDbRegAppTableRecord
  2
ACAD
 70
     0
  0
ENDTAB
  0
TABLE
  2
DIMSTYLE
  5
A
330
0
100
AcDbSymbolTable
 70
     1
100
AcDbDimStyleTable
  0
DIMSTYLE
105
27
330
A
100
AcDbSymbolTableRecord
100
AcDbDimStyleTableRecord
  2
Standard
 70
     0
178
     0
340
11
  0
ENDTAB
  0
TABLE
  2
BLOCK_RECORD
  5
1
330
0
100
AcDbSymbolTable
 70
     4
  0
BLOCK_RECORD
  5
1F
330
1
100
AcDbSymbolTableRecord
100
AcDbBlockTableRecord
  2
*Model_Space
340
22
 70
     0
280
     1
281
     0
  0
BLOCK_RECORD
  5
1B
330
1
100
AcDbSymbolTableRecord
100
AcDbBlockTableRecord
  2
*Paper_Space
340
1E
 70
     0
280
     1
281
     0
  0
BLOCK_RECORD
  5
23
330
1
100
AcDbSymbolTableRecord
100
AcDbBlockTableRecord
  2
*Paper_Space0
340
26
 70
     0
280
     1
281
     0
  0
BLOCK_RECORD
  5
85
330
1
100
AcDbSymbolTableRecord
100
AcDbBlockTableRecord
  2
1_077984_0_in_124630_0
340
0
102
{BLKREFS
331
86
102
}
 70
     0
280
     1
281
     0
  0
BLOCK_RECORD
  5
C9
330
1
100
AcDbSymbolTableRecord
100
AcDbBlockTableRecord
  2
2_430026_0_in_124630_0
340
0
102
{BLKREFS
331
CA
102
}
 70
     0
280
     1
281
     0
  0
BLOCK_RECORD
  5
EB
330
1
100
AcDbSymbolTableRecord
100
AcDbBlockTableRecord
  2
3_124630H_0_in_124630_0
340
0
102
{BLKREFS
331
EC
102
}
 70
     0
280
     1
281
     0
  0
ENDTAB
  0
ENDSEC
  0
SECTION
  2
BLOCKS
  0
BLOCK
  5
20
330
1F
100
AcDbEntity
  8
0
100
AcDbBlockBegin
  2
*Model_Space
 70
     0
 10
0.0
 20
0.0
 30
0.0
  3
*Model_Space
  1

  0
ENDBLK
  5
21
330
1F
100
AcDbEntity
  8
0
100
AcDbBlockEnd
  0
BLOCK
  5
1C
330
1B
100
AcDbEntity
 67
     1
  8
0
100
AcDbBlockBegin
  2
*Paper_Space
 70
     0
 10
0.0
 20
0.0
 30
0.0
  3
*Paper_Space
  1

  0
ENDBLK
  5
1D
330
1B
100
AcDbEntity
 67
     1
  8
0
100
AcDbBlockEnd
  0
BLOCK
  5
24
330
23
100
AcDbEntity
  8
0
100
AcDbBlockBegin
  2
*Paper_Space0
 70
     0
 10
0.0
 20
0.0
 30
0.0
  3
*Paper_Space0
  1

  0
ENDBLK
  5
25
330
23
100
AcDbEntity
  8
0
100
AcDbBlockEnd
  0
BLOCK
  5
87
330
85
100
AcDbEntity
  8
0
100
AcDbBlockBegin
  2
1_077984_0_in_124630_0
 70
     2
 10
0.0
 20
0.0
 30
0.0
  3
1_077984_0_in_124630_0
  1

  0
ATTDEF
  5
89
330
85
100
AcDbEntity
  8
AM_6
100
AcDbText
 10
6.40823978426971
 20
1.40823978426971
 30
0.0
 40
0.5
  1
Set Screw Light Duty Insert with Pin Inch Bore
100
AcDbAttributeDefinition
  3

  2
NN
 70
     8
280
     0
  0
ATTDEF
  5
8A
330
85
100
AcDbEntity
  8
AM_6
100
AcDbText
 10
6.40823978426971
 20
0.9082397842697099
 30
0.0
 40
0.5
  1
SCP Bearing Inserts
100
AcDbAttributeDefinition
  3

  2
NT
 70
     8
280
     0
  0
ATTDEF
  5
8B
330
85
100
AcDbEntity
  8
AM_6
100
AcDbText
 10
6.40823978426971
 20
0.4082397842697099
 30
0.0
 40
0.5
  1
077984
100
AcDbAttributeDefinition
  3

  2
NB
 70
     8
280
     0
  0
ATTDEF
  5
8C
330
85
100
AcDbEntity
  8
AM_6
100
AcDbText
 10
6.40823978426971
 20
-0.0917602157302901
 30
0.0
 40
0.5
  1
$PN.
100
AcDbAttributeDefinition
  3

  2
NBSYN
 70
     8
280
     0
  0
ATTDEF
  5
8D
330
85
100
AcDbEntity
  8
AM_6
100
AcDbText
 10
6.40823978426971
 20
-0.5917602157302901
 30
0.0
 40
0.5
  1
077984
100
AcDbAttributeDefinition
  3

  2
LINA
 70
     8
280
     0
  0
ATTDEF
  5
8E
330
85
100
AcDbEntity
  8
AM_6
100
AcDbText
 10
6.40823978426971
 20
-1.09176021573029
 30
0.0
 40
0.5
  1
207
100
AcDbAttributeDefinition
  3

  2
SERIES
 70
     8
280
     0
  0
ATTDEF
  5
8F
330
85
100
AcDbEntity
  8
AM_6
100
AcDbText
 10
6.40823978426971
 20
-1.59176021573029
 30
0.0
 40
0.5
  1
1-1/4
100
AcDbAttributeDefinition
  3

  2
SS
 70
     8
280
     0
  0
ATTDEF
  5
90
330
85
100
AcDbEntity
  8
AM_6
100
AcDbText
 10
6.40823978426971
 20
-2.09176021573029
 30
0.0
 40
0.5
  1
077984
100
AcDbAttributeDefinition
  3

  2
PN
 70
     8
280
     0
  0
ATTDEF
  5
91
330
85
100
AcDbEntity
  8
AM_6
100
AcDbText
 10
6.40823978426971
 20
-2.59176021573029
 30
0.0
 40
0.5
  1
INS-SCP-104
100
AcDbAttributeDefinition
  3

  2
DESCRIPTION
 70
     8
280
     0
  0
ATTDEF
  5
92
330
85
100
AcDbEntity
  8
AM_6
100
AcDbText
 10
6.40823978426971
 20
-3.09176021573029
 30
0.0
 40
0.5
  1
1.40
100
AcDbAttributeDefinition
  3

  2
A
 70
     8
280
     0
  0
ATTDEF
  5
93
330
85
100
AcDbEntity
  8
AM_6
100
AcDbText
 10
6.40823978426971
 20
-3.59176021573029
 30
0.0
 40
0.5
  1
0.75
100
AcDbAttributeDefinition
  3

  2
C
 70
     8
280
     0
  0
ATTDEF
  5
94
330
85
100
AcDbEntity
  8
AM_6
100
AcDbText
 10
6.40823978426971
 20
-4.09176021573029
 30
0.0
 40
0.5
  1
2.8346
100
AcDbAttributeDefinition
  3

  2
D
 70
     8
280
     0
  0
ATTDEF
  5
95
330
85
100
AcDbEntity
  8
AM_6
100
AcDbText
 10
6.40823978426971
 20
-4.59176021573029
 30
0.0
 40
0.5
  1
0.20
100
AcDbAttributeDefinition
  3

  2
J
 70
     8
280
     0
  0
ATTDEF
  5
96
330
85
100
AcDbEntity
  8
AM_6
100
AcDbText
 10
6.40823978426971
 20
-5.09176021573029
 30
0.0
 40
0.5
  1
1.84
100
AcDbAttributeDefinition
  3

  2
L
 70
     8
280
     0
  0
ATTDEF
  5
97
330
85
100
AcDbEntity
  8
AM_6
100
AcDbText
 10
6.40823978426971
 20
-5.59176021573029
 30
0.0
 40
0.5
  1
5/16 - 24
100
AcDbAttributeDefinition
  3

  2
N
 70
     8
280
     0
  0
ATTDEF
  5
98
330
85
100
AcDbEntity
  8
AM_6
100
AcDbText
 10
6.40823978426971
 20
-6.09176021573029
 30
0.0
 40
0.5
  1
0.37
100
AcDbAttributeDefinition
  3

  2
W
 70
     8
280
     0
  0
ATTDEF
  5
99
330
85
100
AcDbEntity
  8
AM_6
100
AcDbText
 10
6.40823978426971
 20
-6.59176021573029
 30
0.0
 40
0.5
  1
1.03
100
AcDbAttributeDefinition
  3

  2
Y
 70
     8
280
     0
  0
ATTDEF
  5
9A
330
85
100
AcDbEntity
  8
AM_6
100
AcDbText
 10
6.40823978426971
 20
-7.09176021573029
 30
0.0
 40
0.5
  1
baldor
100
AcDbAttributeDefinition
  3

  2
COMPANY
 70
     8
280
     0
  0
LINE
  5
9D
330
85
100
AcDbEntity
  8
AM_9
 48
0.0093699098465596
100
AcDbLine
 10
-1.411618181818182
 20
-0.104166666666662
 30
0.0
 11
-1.399236811163546
 21
-0.104166666666662
 31
0.0
  0
LINE
  5
9E
330
85
100
AcDbEntity
  8
AM_9
 48
0.0093699098465596
100
AcDbLine
 10
-1.39923023690919
 20
0.1041666666666618
 30
0.0
 11
-1.411618181818182
 21
0.1041666666666618
 31
0.0
  0
LWPOLYLINE
  5
9F
330
85
100
AcDbEntity
  8
AM_9
 48
0.0093699098465596
100
AcDbPolyline
 90
       12
 70
     0
 43
0.0
 10
-1.399237361078441
 20
-0.1041666502357643
 10
-1.39887547664451
 20
-0.1041344630325964
 10
-1.393914449868931
 20
-0.0972871456139025
 10
-1.38954324895579
 20
-0.079213610254581
 10
-1.386292522141697
 20
-0.0520952532841672
 10
-1.38453577853066
 20
-0.0192464459320142
 10
-1.384444417028796
 20
0.0155091837429507
 10
-1.38599764312755
 20
0.0483842307006765
 10
-1.389014657960135
 20
0.0759246535945345
 10
-1.39317704846072
 20
0.0951621571144268
 10
-1.398039966721937
 20
0.1038248228447997
 10
-1.399231688024127
 20
0.1041666203819637
  0
LWPOLYLINE
  5
A0
330
85
100
AcDbEntity
  8
AM_9
 48
0.0093699098465596
100
AcDbPolyline
 90
        5
 70
     0
 43
0.0
 10
-1.399231688024127
 20
0.1041666203819637
 10
-1.403055720048341
 20
0.1006888136046471
 10
-1.407632847675514
 20
0.0859470177378901
 10
-1.411228052295023
 20
0.061341094816613
 10
-1.411618181818185
 20
0.0573721848988421
  0
LINE
  5
A1
330
85
100
AcDbEntity
  8
AM_9
 48
0.0093699098465596
100
AcDbLine
 10
-1.4798
 20
0.035984848484854
 30
0.0
 11
-1.4798
 21
-0.0359848441503582
 31
0.0
  0
LINE
  5
A2
330
85
100
AcDbEntity
  8
AM_9
 48
0.0093699098465596
100
AcDbLine
 10
-1.411618181818182
 20
-0.0573721848988781
 30
0.0
 11
-1.411618181818182
 21
-0.104166666666662
 31
0.0
  0
ARC
  5
A3
330
85
100
AcDbEntity
  8
AM_9
 48
0.0093699098465596
100
AcDbCircle
 10
-1.411618181818306
 20
-0.035984848484968
 30
0.0
 40
0.068181818181694
100
AcDbArc
 50
179.9999999999043
 51
270.0000000001041
  0
ARC
  5
A4
330
85
100
AcDbEntity
  8
AM_9
 48
0.0093699098465596
100
AcDbCircle
 10
-1.411618181818181
 20
0.0359848484848436
 30
0.0
 40
0.0681818181818182
100
AcDbArc
 50
90.00000000000038
 51
179.9999999999912
  0
LINE
  5
A5
330
85
100
AcDbEntity
  8
AM_9
 48
0.0093699098465596
100
AcDbLine
 10
-1.411618181818182
 20
0.1041666666666618
 30
0.0
 11
-1.411618181818185
 21
0.057372184898842
 31
0.0
  0
LWPOLYLINE
  5
A6
330
85
100
AcDbEntity
  8
AM_9
 48
0.0093699098465596
100
AcDbPolyline
 90
        5
 70
     0
 43
0.0
 10
-1.411618181818182
 20
-0.0573721848988781
 10
-1.413591796644954
 20
-0.0258916831504379
 10
-1.414002231928853
 20
0.0086796943424372
 10
-1.412781862581946
 20
0.0423578369960444
 10
-1.411618181818185
 20
0.057372184898842
  0
LWPOLYLINE
  5
A7
330
85
100
AcDbEntity
  8
AM_9
 48
0.0093699098465596
100
AcDbPolyline
 90
        4
 70
     0
 43
0.0
 10
-1.411618181818183
 20
-0.0573721848988781
 10
-1.408232896988811
 20
-0.0828965010832172
 10
-1.403831715514873
 20
-0.0990852825853204
 10
-1.399237361078441
 20
-0.1041666502357643
  0
CIRCLE
  5
A8
330
85
100
AcDbEntity
  8
AM_9
 48
0.0093699098465596
100
AcDbCircle
 10
0.0
 20
0.0
 30
0.0
 40
1.350633333333336
  0
LINE
  5
A9
330
85
100
AcDbEntity
  8
AM_9
 48
0.0093699098465596
100
AcDbLine
 10
0.1262
 20
0.6126536478449086
 30
0.0
 11
0.1262
 21
0.8991344012334843
 31
0.0
  0
LINE
  5
AA
330
85
100
AcDbEntity
  8
AM_9
 48
0.0093699098465596
100
AcDbLine
 10
-0.1262
 20
0.8991344012334843
 30
0.0
 11
-0.1262
 21
0.6126536478449086
 31
0.0
  0
LINE
  5
AB
330
85
100
AcDbEntity
  8
AM_9
 48
0.0093699098465596
100
AcDbLine
 10
-0.1262
 20
0.6126536478449086
 30
0.0
 11
-0.1236143510371138
 21
0.6126536478449086
 31
0.0
  0
LINE
  5
AC
330
85
100
AcDbEntity
  8
AM_9
 48
0.0093699098465596
100
AcDbLine
 10
0.1262
 20
0.6126536478449086
 30
0.0
 11
0.1236143510371138
 21
0.6126536478449086
 31
0.0
  0
LINE
  5
AD
330
85
100
AcDbEntity
  8
AM_9
 48
0.0093699098465596
100
AcDbLine
 10
0.6085871964299264
 20
0.1445425769772886
 30
0.0
 11
0.8682269340621189
 21
0.2656145749965346
 31
0.0
  0
LINE
  5
AE
330
85
100
AcDbEntity
  8
AM_9
 48
0.0093699098465596
100
AcDbLine
 10
0.7615580847987663
 20
0.494366660444585
 30
0.0
 11
0.5019183471665738
 21
0.3732946624253392
 31
0.0
  0
LINE
  5
AF
330
85
100
AcDbEntity
  8
AM_9
 48
0.0093699098465596
100
AcDbLine
 10
0.6085871964299264
 20
0.1445425769772886
 30
0.0
 11
0.6074944539597598
 21
0.1468859707668957
 31
0.0
  0
LINE
  5
B0
330
85
100
AcDbEntity
  8
AM_9
 48
0.0093699098465596
100
AcDbLine
 10
0.5019183471665738
 20
0.3732946624253392
 30
0.0
 11
0.5030110896367405
 21
0.3709512686357322
 31
0.0
  0
LINE
  5
B1
330
85
100
AcDbEntity
  8
AM_9
 48
0.0093699098465596
100
AcDbLine
 10
0.7615580847987663
 20
0.494366660444585
 30
0.0
 11
0.8682269340621189
 21
0.2656145749965345
 31
0.0
  0
LINE
  5
B2
330
85
100
AcDbEntity
  8
AM_9
 48
0.0093699098465596
100
AcDbLine
 10
0.8682269340621189
 20
0.2656145749965345
 30
0.0
 11
0.8820603657850042
 21
0.2605796176116504
 31
0.0
  0
LINE
  5
B3
330
85
100
AcDbEntity
  8
AM_9
 48
0.0093699098465596
100
AcDbLine
 10
0.7666441929934812
 20
0.5083406278624676
 30
0.0
 11
0.7615580847987663
 21
0.494366660444585
 31
0.0
  0
LINE
  5
B4
330
85
100
AcDbEntity
  8
AM_9
 48
0.0093699098465596
100
AcDbLine
 10
-0.1262
 20
0.8991344012334843
 30
0.0
 11
0.1262
 21
0.8991344012334843
 31
0.0
  0
LINE
  5
B5
330
85
100
AcDbEntity
  8
AM_9
 48
0.0093699098465596
100
AcDbLine
 10
0.1262
 20
0.8991344012334843
 30
0.0
 11
0.1366456004577624
 21
0.9095800016912468
 31
0.0
  0
LINE
  5
B6
330
85
100
AcDbEntity
  8
AM_9
 48
0.0093699098465596
100
AcDbLine
 10
-0.1366199610754922
 20
0.9095543623089766
 30
0.0
 11
-0.1262
 21
0.8991344012334843
 31
0.0
  0
LINE
  5
B8
330
85
100
AcDbEntity
  8
AM_5
 48
0.0093699098465596
100
AcDbLine
 10
-0.15625
 20
0.6051536478449089
 30
0.0
 11
-0.15625
 21
0.9066344012334885
 31
0.0
  0
LINE
  5
B9
330
85
100
AcDbEntity
  8
AM_5
 48
0.0093699098465596
100
AcDbLine
 10
0.15625
 20
0.6051536478449089
 30
0.0
 11
0.15625
 21
0.9066344012334885
 31
0.0
  0
LINE
  5
BA
330
85
100
AcDbEntity
  8
AM_5
 48
0.0093699098465596
100
AcDbLine
 10
0.4824213599984913
 20
0.3973595744627352
 30
0.0
 11
0.7556557144362368
 21
0.5247708464080932
 31
0.0
  0
LINE
  5
BB
330
85
100
AcDbEntity
  8
AM_5
 48
0.0093699098465596
100
AcDbLine
 10
0.6144895667924598
 20
0.1141383910137822
 30
0.0
 11
0.8877239212302055
 21
0.2415496629591401
 31
0.0
  0
LINE
  5
BE
330
85
100
AcDbEntity
  8
AM_7
 48
0.0093699098465596
100
AcDbLine
 10
0.4526487772336151
 20
0.2110735912785306
 30
0.0
 11
0.9174965039950781
 21
0.4278356461433432
 31
0.0
  0
CIRCLE
  5
C0
330
85
100
AcDbEntity
  8
AM_0
 48
0.0093699098465596
100
AcDbCircle
 10
0.0
 20
0.0
 30
0.0
 40
1.40823978426971
  0
CIRCLE
  5
C1
330
85
100
AcDbEntity
  8
AM_0
 48
0.0093699098465596
100
AcDbCircle
 10
0.0
 20
0.0
 30
0.0
 40
1.396831876068125
  0
CIRCLE
  5
C3
330
85
100
AcDbEntity
  8
AM_4
 48
0.0093699098465596
100
AcDbCircle
 10
0.0
 20
0.0
 30
0.0
 40
1.374736731983001
  0
CIRCLE
  5
C4
330
85
100
AcDbEntity
  8
AM_4
 48
0.0093699098465596
100
AcDbCircle
 10
0.0
 20
0.0
 30
0.0
 40
1.335937981344939
  0
CIRCLE
  5
C5
330
85
100
AcDbEntity
  8
AM_0
 48
0.0093699098465596
100
AcDbCircle
 10
0.0
 20
0.0
 30
0.0
 40
0.9200000000000033
  0
CIRCLE
  5
C6
330
85
100
AcDbEntity
  8
AM_0
 48
0.0093699098465596
100
AcDbCircle
 10
0.0
 20
0.0
 30
0.0
 40
0.6249999999999999
  0
CIRCLE
  5
C7
330
85
100
AcDbEntity
  8
AM_0
 48
0.0093699098465596
100
AcDbCircle
 10
0.0
 20
0.0
 30
0.0
 40
0.8832000000000186
  0
CIRCLE
  5
C8
330
85
100
AcDbEntity
  8
AM_0
 48
0.0093699098465596
100
AcDbCircle
 10
0.0
 20
0.0
 30
0.0
 40
0.6617999999999988
  0
ENDBLK
  5
88
330
85
100
AcDbEntity
  8
0
100
AcDbBlockEnd
  0
BLOCK
  5
CB
330
C9
100
AcDbEntity
  8
0
100
AcDbBlockBegin
  2
2_430026_0_in_124630_0
 70
     2
 10
0.0
 20
0.0
 30
0.0
  3
2_430026_0_in_124630_0
  1

  0
ATTDEF
  5
CD
330
C9
100
AcDbEntity
  8
AM_6
100
AcDbText
 10
5.199381471828121
 20
-1.5045
 30
0.0
 40
0.5
  1
430026 Plug
100
AcDbAttributeDefinition
  3

  2
NN
 70
     8
280
     0
  0
ATTDEF
  5
CE
330
C9
100
AcDbEntity
  8
AM_6
100
AcDbText
 10
5.199381471828121
 20
-2.0045
 30
0.0
 40
0.5
  1
Plug
100
AcDbAttributeDefinition
  3

  2
NT
 70
     8
280
     0
  0
ATTDEF
  5
CF
330
C9
100
AcDbEntity
  8
AM_6
100
AcDbText
 10
5.199381471828121
 20
-2.5045
 30
0.0
 40
0.5
  1
430026
100
AcDbAttributeDefinition
  3

  2
NB
 70
     8
280
     0
  0
ATTDEF
  5
D0
330
C9
100
AcDbEntity
  8
AM_6
100
AcDbText
 10
5.199381471828121
 20
-3.0045
 30
0.0
 40
0.5
  1
$PN.
100
AcDbAttributeDefinition
  3

  2
NBSYN
 70
     8
280
     0
  0
ATTDEF
  5
D1
330
C9
100
AcDbEntity
  8
AM_6
100
AcDbText
 10
5.199381471828121
 20
-3.5045
 30
0.0
 40
0.5
  1
430026
100
AcDbAttributeDefinition
  3

  2
LINA
 70
     8
280
     0
  0
ATTDEF
  5
D2
330
C9
100
AcDbEntity
  8
AM_6
100
AcDbText
 10
5.199381471828121
 20
-4.0045
 30
0.0
 40
0.5
  1
430026
100
AcDbAttributeDefinition
  3

  2
PN
 70
     8
280
     0
  0
ATTDEF
  5
D3
330
C9
100
AcDbEntity
  8
AM_6
100
AcDbText
 10
5.199381471828121
 20
-4.5045
 30
0.0
 40
0.5
  1
baldor
100
AcDbAttributeDefinition
  3

  2
COMPANY
 70
     8
280
     0
  0
LINE
  5
D4
330
C9
100
AcDbEntity
  8
AM_9
 48
0.0010337819597905
100
AcDbLine
 10
0.09375
 20
-1.692
 30
0.0
 11
0.09375
 21
-1.816253175473055
 31
0.0
  0
LINE
  5
D5
330
C9
100
AcDbEntity
  8
AM_9
 48
0.0010337819597905
100
AcDbLine
 10
-0.09375
 20
-1.692
 30
0.0
 11
-0.09375
 21
-1.816253175473055
 31
0.0
  0
LINE
  5
D6
330
C9
100
AcDbEntity
  8
AM_9
 48
0.0010337819597905
100
AcDbLine
 10
0.09375
 20
-1.692
 30
0.0
 11
-0.09375
 21
-1.692
 31
0.0
  0
LINE
  5
D7
330
C9
100
AcDbEntity
  8
AM_9
 48
0.0010337819597905
100
AcDbLine
 10
-0.0710018603583624
 20
-1.6295
 30
0.0
 11
0.0710018603583624
 21
-1.6295
 31
0.0
  0
LINE
  5
D8
330
C9
100
AcDbEntity
  8
AM_9
 48
0.0010337819597905
100
AcDbLine
 10
-0.0710018603583624
 20
-1.6295
 30
0.0
 11
-0.09375
 21
-1.692
 31
0.0
  0
LINE
  5
D9
330
C9
100
AcDbEntity
  8
AM_9
 48
0.0010337819597905
100
AcDbLine
 10
0.09375
 20
-1.692
 30
0.0
 11
0.0710018603583624
 21
-1.6295
 31
0.0
  0
LINE
  5
DA
330
C9
100
AcDbEntity
  8
AM_9
 48
0.0010337819597905
100
AcDbLine
 10
0.0
 20
-1.692
 30
0.0
 11
0.0
 21
-1.816253175473055
 31
0.0
  0
LWPOLYLINE
  5
DB
330
C9
100
AcDbEntity
  8
AM_9
 48
0.0010337819597905
100
AcDbPolyline
 90
        6
 70
     0
 43
0.0
 10
-0.09375
 20
-1.816253175473055
 10
-0.0742104790331715
 20
-1.806921014208125
 10
-0.0527625339528988
 20
-1.801996169645694
 10
-0.0377364343003931
 20
-1.802342003780897
 10
-0.0225103644739311
 20
-1.805880419147163
 10
0.0
 20
-1.816253175473055
  0
LWPOLYLINE
  5
DC
330
C9
100
AcDbEntity
  8
AM_9
 48
0.0010337819597905
100
AcDbPolyline
 90
        6
 70
     0
 43
0.0
 10
0.0
 20
-1.816253175473055
 10
0.0195395209668286
 20
-1.806921014208125
 10
0.0409874660471013
 20
-1.801996169645694
 10
0.056013565699607
 20
-1.802342003780897
 10
0.0712396355260689
 20
-1.805880419147163
 10
0.09375
 20
-1.816253175473055
  0
LINE
  5
DD
330
C9
100
AcDbEntity
  8
AM_9
 48
0.0010337819597905
100
AcDbLine
 10
-0.09375
 20
-1.80175
 30
0.0
 11
-0.109
 21
-1.817
 31
0.0
  0
LINE
  5
DE
330
C9
100
AcDbEntity
  8
AM_9
 48
0.0010337819597905
100
AcDbLine
 10
0.109
 20
-1.817
 30
0.0
 11
0.09375
 21
-1.80175
 31
0.0
  0
LINE
  5
DF
330
C9
100
AcDbEntity
  8
AM_9
 48
0.0010337819597905
100
AcDbLine
 10
-0.1702494517657397
 20
-1.5045
 30
0.0
 11
0.1702494517657397
 21
-1.5045
 31
0.0
  0
LINE
  5
E0
330
C9
100
AcDbEntity
  8
AM_9
 48
0.0010337819597905
100
AcDbLine
 10
-0.1702494517657397
 20
-1.5045
 30
0.0
 11
-0.1908735385412944
 21
-1.524490260520979
 31
0.0
  0
LINE
  5
E1
330
C9
100
AcDbEntity
  8
AM_9
 48
0.0010337819597905
100
AcDbLine
 10
0.1908735385412944
 20
-1.524490260520979
 30
0.0
 11
0.1702494517657397
 21
-1.5045
 31
0.0
  0
LINE
  5
E2
330
C9
100
AcDbEntity
  8
AM_9
 48
0.0010337819597905
100
AcDbLine
 10
-0.1908735385412944
 20
-1.524490260520979
 30
0.0
 11
0.1908735385412944
 21
-1.524490260520979
 31
0.0
  0
LINE
  5
E3
330
C9
100
AcDbEntity
  8
AM_9
 48
0.0010337819597905
100
AcDbLine
 10
-0.1908735385412944
 20
-1.524490260520979
 30
0.0
 11
-0.1983821424258437
 21
-1.765
 31
0.0
  0
LINE
  5
E4
330
C9
100
AcDbEntity
  8
AM_9
 48
0.0010337819597905
100
AcDbLine
 10
0.1983821424258437
 20
-1.765
 30
0.0
 11
0.1908735385412944
 21
-1.524490260520979
 31
0.0
  0
LINE
  5
E5
330
C9
100
AcDbEntity
  8
AM_0
 48
0.0010337819597905
100
AcDbLine
 10
-0.1983821424258437
 20
-1.765
 30
0.0
 11
-0.1993814718281216
 21
-1.797009739479022
 31
0.0
  0
LINE
  5
E6
330
C9
100
AcDbEntity
  8
AM_0
 48
0.0010337819597905
100
AcDbLine
 10
0.1993814718281216
 20
-1.797009739479022
 30
0.0
 11
0.1983821424258437
 21
-1.765
 31
0.0
  0
LINE
  5
E7
330
C9
100
AcDbEntity
  8
AM_0
 48
0.0010337819597905
100
AcDbLine
 10
-0.1993814718281216
 20
-1.797009739479022
 30
0.0
 11
0.1993814718281216
 21
-1.797009739479022
 31
0.0
  0
LINE
  5
E8
330
C9
100
AcDbEntity
  8
AM_0
 48
0.0010337819597905
100
AcDbLine
 10
-0.1800055586036764
 20
-1.817
 30
0.0
 11
0.1800055586036764
 21
-1.817
 31
0.0
  0
LINE
  5
E9
330
C9
100
AcDbEntity
  8
AM_0
 48
0.0010337819597905
100
AcDbLine
 10
0.1800055586036764
 20
-1.817
 30
0.0
 11
0.1993814718281216
 21
-1.797009739479022
 31
0.0
  0
LINE
  5
EA
330
C9
100
AcDbEntity
  8
AM_0
 48
0.0010337819597905
100
AcDbLine
 10
-0.1993814718281216
 20
-1.797009739479022
 30
0.0
 11
-0.1800055586036764
 21
-1.817
 31
0.0
  0
ENDBLK
  5
CC
330
C9
100
AcDbEntity
  8
0
100
AcDbBlockEnd
  0
BLOCK
  5
ED
330
EB
100
AcDbEntity
  8
0
100
AcDbBlockBegin
  2
3_124630H_0_in_124630_0
 70
     2
 10
0.0
 20
0.0
 30
0.0
  3
3_124630H_0_in_124630_0
  1

  0
ATTDEF
  5
EF
330
EB
100
AcDbEntity
  8
AM_6
100
AcDbText
 10
7.141050702391847
 20
2.405
 30
0.0
 40
0.5
  1
LF-SC & LF-SC-NL - housing -Inch
100
AcDbAttributeDefinition
  3

  2
NN
 70
     8
280
     0
  0
ATTDEF
  5
F0
330
EB
100
AcDbEntity
  8
AM_6
100
AcDbText
 10
7.141050702391847
 20
1.905
 30
0.0
 40
0.5
  1
SC 3 Bolt Flange Bearings -(Normal Duty) -Re-Lube and No-Lube
100
AcDbAttributeDefinition
  3

  2
NT
 70
     8
280
     0
  0
ATTDEF
  5
F1
330
EB
100
AcDbEntity
  8
AM_6
100
AcDbText
 10
7.141050702391847
 20
1.405
 30
0.0
 40
0.5
  1
124630H
100
AcDbAttributeDefinition
  3

  2
NB
 70
     8
280
     0
  0
ATTDEF
  5
F2
330
EB
100
AcDbEntity
  8
AM_6
100
AcDbText
 10
7.141050702391847
 20
0.9050000000000002
 30
0.0
 40
0.5
  1
$PN.H
100
AcDbAttributeDefinition
  3

  2
NBSYN
 70
     8
280
     0
  0
ATTDEF
  5
F3
330
EB
100
AcDbEntity
  8
AM_6
100
AcDbText
 10
7.141050702391847
 20
0.4050000000000002
 30
0.0
 40
0.5
  1
124630
100
AcDbAttributeDefinition
  3

  2
LINA
 70
     8
280
     0
  0
ATTDEF
  5
F4
330
EB
100
AcDbEntity
  8
AM_6
100
AcDbText
 10
7.141050702391847
 20
-0.0949999999999998
 30
0.0
 40
0.5
  1
207
100
AcDbAttributeDefinition
  3

  2
SERIES
 70
     8
280
     0
  0
ATTDEF
  5
F5
330
EB
100
AcDbEntity
  8
AM_6
100
AcDbText
 10
7.141050702391847
 20
-0.5949999999999998
 30
0.0
 40
0.5
  1
1-1/4
100
AcDbAttributeDefinition
  3

  2
SS
 70
     8
280
     0
  0
ATTDEF
  5
F6
330
EB
100
AcDbEntity
  8
AM_6
100
AcDbText
 10
7.141050702391847
 20
-1.095
 30
0.0
 40
0.5
  1
124630
100
AcDbAttributeDefinition
  3

  2
PN
 70
     8
280
     0
  0
ATTDEF
  5
F7
330
EB
100
AcDbEntity
  8
AM_6
100
AcDbText
 10
7.141050702391847
 20
-1.595
 30
0.0
 40
0.5
  1
LF-SC-104-NL
100
AcDbAttributeDefinition
  3

  2
DESCRIPTION
 70
     8
280
     0
  0
ATTDEF
  5
F8
330
EB
100
AcDbEntity
  8
AM_6
100
AcDbText
 10
7.141050702391847
 20
-2.095
 30
0.0
 40
0.5
  1
2.10
100
AcDbAttributeDefinition
  3

  2
W
 70
     8
280
     0
  0
ATTDEF
  5
F9
330
EB
100
AcDbEntity
  8
AM_6
100
AcDbText
 10
7.141050702391847
 20
-2.595
 30
0.0
 40
0.5
  1
NO-LUBE
100
AcDbAttributeDefinition
  3

  2
LF
 70
     8
280
     0
  0
ATTDEF
  5
FA
330
EB
100
AcDbEntity
  8
AM_6
100
AcDbText
 10
7.141050702391847
 20
-3.095
 30
0.0
 40
0.5
  1
1.40
100
AcDbAttributeDefinition
  3

  2
A
 70
     8
280
     0
  0
ATTDEF
  5
FB
330
EB
100
AcDbEntity
  8
AM_6
100
AcDbText
 10
7.141050702391847
 20
-3.595
 30
0.0
 40
0.5
  1
4.81
100
AcDbAttributeDefinition
  3

  2
B
 70
     8
280
     0
  0
ATTDEF
  5
FC
330
EB
100
AcDbEntity
  8
AM_6
100
AcDbText
 10
7.141050702391847
 20
-4.095
 30
0.0
 40
0.5
  1
1.59
100
AcDbAttributeDefinition
  3

  2
C
 70
     8
280
     0
  0
ATTDEF
  5
FD
330
EB
100
AcDbEntity
  8
AM_6
100
AcDbText
 10
7.141050702391847
 20
-4.595
 30
0.0
 40
0.5
  1
3.94
100
AcDbAttributeDefinition
  3

  2
D
 70
     8
280
     0
  0
ATTDEF
  5
FE
330
EB
100
AcDbEntity
  8
AM_6
100
AcDbText
 10
7.141050702391847
 20
-5.095
 30
0.0
 40
0.5
  1
0.41
100
AcDbAttributeDefinition
  3

  2
G
 70
     8
280
     0
  0
ATTDEF
  5
FF
330
EB
100
AcDbEntity
  8
AM_6
100
AcDbText
 10
7.141050702391847
 20
-5.595
 30
0.0
 40
0.5
  1
0.50
100
AcDbAttributeDefinition
  3

  2
H
 70
     8
280
     0
  0
ATTDEF
  5
100
330
EB
100
AcDbEntity
  8
AM_6
100
AcDbText
 10
7.141050702391847
 20
-6.095
 30
0.0
 40
0.5
  1
0.52
100
AcDbAttributeDefinition
  3

  2
J
 70
     8
280
     0
  0
ATTDEF
  5
101
330
EB
100
AcDbEntity
  8
AM_6
100
AcDbText
 10
7.141050702391847
 20
-6.595
 30
0.0
 40
0.5
  1
1.84
100
AcDbAttributeDefinition
  3

  2
L
 70
     8
280
     0
  0
ATTDEF
  5
102
330
EB
100
AcDbEntity
  8
AM_6
100
AcDbText
 10
7.141050702391847
 20
-7.095
 30
0.0
 40
0.5
  1
2.41
100
AcDbAttributeDefinition
  3

  2
M
 70
     8
280
     0
  0
ATTDEF
  5
103
330
EB
100
AcDbEntity
  8
AM_6
100
AcDbText
 10
7.141050702391847
 20
-7.595
 30
0.0
 40
0.5
  1
2.14
100
AcDbAttributeDefinition
  3

  2
N
 70
     8
280
     0
  0
ATTDEF
  5
104
330
EB
100
AcDbEntity
  8
AM_6
100
AcDbText
 10
7.141050702391847
 20
-8.094999999999999
 30
0.0
 40
0.5
  1
3065
100
AcDbAttributeDefinition
  3

  2
CAPS
 70
     8
280
     0
  0
ATTDEF
  5
105
330
EB
100
AcDbEntity
  8
AM_6
100
AcDbText
 10
7.141050702391847
 20
-8.594999999999999
 30
0.0
 40
0.5
  1
5759
100
AcDbAttributeDefinition
  3

  2
CAPD
 70
     8
280
     0
  0
ATTDEF
  5
106
330
EB
100
AcDbEntity
  8
AM_6
100
AcDbText
 10
7.141050702391847
 20
-9.094999999999999
 30
0.0
 40
0.5
  1
baldor
100
AcDbAttributeDefinition
  3

  2
COMPANY
 70
     8
280
     0
  0
ARC
  5
107
330
EB
100
AcDbEntity
  8
AM_9
 48
0.0150043468829624
100
AcDbCircle
 10
0.5788805293066275
 20
1.472606744107088
 30
0.0
 40
0.1025000000000002
100
AcDbArc
 50
248.5402502238954
 51
31.11389784560995
  0
ARC
  5
108
330
EB
100
AcDbEntity
  8
AM_9
 48
0.0150043468829624
100
AcDbCircle
 10
-0.5788805293066277
 20
1.472606744107087
 30
0.0
 40
0.1024999999999998
100
AcDbArc
 50
148.8861021543896
 51
291.4597514223667
  0
ARC
  5
109
330
EB
100
AcDbEntity
  8
AM_9
 48
0.0150043468829624
100
AcDbCircle
 10
-0.9858745855277039
 20
-1.237628616189274
 30
0.0
 40
0.1025000000000001
100
AcDbArc
 50
268.8860785950033
 51
51.45975142237422
  0
ARC
  5
10A
330
EB
100
AcDbEntity
  8
AM_9
 48
0.0150043468829624
100
AcDbCircle
 10
1.564755114834342
 20
-0.2349781279178221
 30
0.0
 40
0.1024999999999999
100
AcDbArc
 50
28.88610215439042
 51
171.4597497761048
  0
ARC
  5
10B
330
EB
100
AcDbEntity
  8
AM_9
 48
0.0150043468829624
100
AcDbCircle
 10
0.0000000000000004
 20
-0.0000000000000004
 30
0.0
 40
1.4798
100
AcDbArc
 50
68.54025022389524
 51
111.4597496620746
  0
ARC
  5
10C
330
EB
100
AcDbEntity
  8
AM_9
 48
0.0150043468829624
100
AcDbCircle
 10
-1.564755114834342
 20
-0.2349781279178229
 30
0.0
 40
0.1024999999999999
100
AcDbArc
 50
8.540250223895185
 51
151.1138931314329
  0
ARC
  5
10D
330
EB
100
AcDbEntity
  8
AM_9
 48
0.0150043468829624
100
AcDbCircle
 10
0.0000000000000011
 20
0.0000000000000006
 30
0.0
 40
1.479800000000001
100
AcDbArc
 50
155.0166816729972
 51
231.4597496620746
  0
ARC
  5
10E
330
EB
100
AcDbEntity
  8
AM_9
 48
0.0150043468829624
100
AcDbCircle
 10
-0.0000000000000051
 20
0.0000000000000013
 30
0.0
 40
1.479800000000004
100
AcDbArc
 50
308.5402502238953
 51
24.98331832700271
  0
ARC
  5
10F
330
EB
100
AcDbEntity
  8
AM_9
 48
0.0150043468829624
100
AcDbCircle
 10
1.034717485771231
 20
-3.749653819307342
 30
0.0
 40
2.410000000000919
100
AcDbArc
 50
87.35003423307043
 51
91.11389753248223
  0
ARC
  5
110
330
EB
100
AcDbEntity
  8
AM_9
 48
0.0150043468829624
100
AcDbCircle
 10
-1.034717485771245
 20
-3.749653819305654
 30
0.0
 40
2.409999999999231
100
AcDbArc
 50
88.88610315639635
 51
92.64996576693107
  0
ARC
  5
111
330
EB
100
AcDbEntity
  8
AM_9
 48
0.0150043468829624
100
AcDbCircle
 10
0.9858745855277151
 20
-1.237628616189265
 30
0.0
 40
0.1025
100
AcDbArc
 50
128.5402502238954
 51
271.1139052079162
  0
ARC
  5
112
330
EB
100
AcDbEntity
  8
AM_9
 48
0.0150043468829624
100
AcDbCircle
 10
2.729936720031331
 20
2.77091853807121
 30
0.0
 40
2.41000000000028
100
AcDbArc
 50
207.35003423307
 51
211.1138978456099
  0
ARC
  5
113
330
EB
100
AcDbEntity
  8
AM_9
 48
0.0150043468829624
100
AcDbCircle
 10
3.764654205802113
 20
0.978735281235237
 30
0.0
 40
2.409999999999755
100
AcDbArc
 50
208.88610215439
 51
212.6499657669307
  0
ARC
  5
114
330
EB
100
AcDbEntity
  8
AM_9
 48
0.0150043468829624
100
AcDbCircle
 10
-3.76465420580136
 20
0.9787352812347907
 30
0.0
 40
2.40999999999888
100
AcDbArc
 50
327.3500342330685
 51
331.1138980461099
  0
ARC
  5
115
330
EB
100
AcDbEntity
  8
AM_9
 48
0.0150043468829624
100
AcDbCircle
 10
-2.729936720029738
 20
2.770918538070316
 30
0.0
 40
2.409999999998454
100
AcDbArc
 50
328.8861021543887
 51
332.6499657669315
  0
ARC
  5
116
330
EB
100
AcDbEntity
  8
AM_9
 48
0.0150043468829624
100
AcDbCircle
 10
0.0000000000000006
 20
-0.000000000000006
 30
0.0
 40
1.764999999999994
100
AcDbArc
 50
255.356411249131
 51
284.6435887508689
  0
LINE
  5
117
330
EB
100
AcDbEntity
  8
AM_9
 48
0.0150043468829624
100
AcDbLine
 10
-1.341336288929812
 20
-0.6249999999999998
 30
0.0
 11
-1.272051213591654
 21
-0.6249999999999998
 31
0.0
  0
LINE
  5
118
330
EB
100
AcDbEntity
  8
AM_9
 48
0.0150043468829624
100
AcDbLine
 10
-1.272051213591654
 20
0.6249999999999998
 30
0.0
 11
-1.341336288929812
 21
0.625
 31
0.0
  0
LINE
  5
119
330
EB
100
AcDbEntity
  8
AM_9
 48
0.0150043468829624
100
AcDbLine
 10
1.341336288929812
 20
0.6250000000000009
 30
0.0
 11
1.272051213591654
 21
0.6249999999999998
 31
0.0
  0
LINE
  5
11A
330
EB
100
AcDbEntity
  8
AM_9
 48
0.0150043468829624
100
AcDbLine
 10
1.272051213591654
 20
-0.6249999999999998
 30
0.0
 11
1.341336288929811
 21
-0.625
 31
0.0
  0
LINE
  5
11B
330
EB
100
AcDbEntity
  8
AM_9
 48
0.0150043468829624
100
AcDbLine
 10
-0.15
 20
-1.49
 30
0.0
 11
-0.15
 21
-1.765
 31
0.0
  0
LINE
  5
11C
330
EB
100
AcDbEntity
  8
AM_9
 48
0.0150043468829624
100
AcDbLine
 10
0.15
 20
-1.765
 30
0.0
 11
0.15
 21
-1.49
 31
0.0
  0
LINE
  5
11D
330
EB
100
AcDbEntity
  8
AM_9
 48
0.0150043468829624
100
AcDbLine
 10
0.15
 20
-1.49
 30
0.0
 11
-0.15
 21
-1.49
 31
0.0
  0
LINE
  5
11E
330
EB
100
AcDbEntity
  8
AM_7
 48
0.0150043468829624
100
AcDbLine
 10
-1.50779
 20
-0.0000000000000001
 30
0.0
 11
1.488165
 21
0.0
 31
0.0
  0
LINE
  5
11F
330
EB
100
AcDbEntity
  8
AM_7
 48
0.0150043468829624
100
AcDbLine
 10
0.0
 20
-1.8575
 30
0.0
 11
0.0
 21
1.488165
 31
0.0
  0
LINE
  5
120
330
EB
100
AcDbEntity
  8
AM_7
 48
0.0150043468829624
100
AcDbLine
 10
-1.921320045455345
 20
-0.9849999999999995
 30
0.0
 11
-1.490820045455344
 21
-0.9849999999999995
 31
0.0
  0
LINE
  5
121
330
EB
100
AcDbEntity
  8
AM_7
 48
0.0150043468829624
100
AcDbLine
 10
-1.706070045455345
 20
-1.20025
 30
0.0
 11
-1.706070045455345
 21
-0.7697499999999992
 31
0.0
  0
LINE
  5
122
330
EB
100
AcDbEntity
  8
AM_7
 48
0.0150043468829624
100
AcDbLine
 10
1.490820045455345
 20
-0.9849999999999993
 30
0.0
 11
1.921320045455344
 21
-0.9849999999999993
 31
0.0
  0
LINE
  5
123
330
EB
100
AcDbEntity
  8
AM_7
 48
0.0150043468829624
100
AcDbLine
 10
1.706070045455345
 20
-1.200249999999999
 30
0.0
 11
1.706070045455345
 21
-0.7697499999999998
 31
0.0
  0
LINE
  5
124
330
EB
100
AcDbEntity
  8
AM_7
 48
0.0150043468829624
100
AcDbLine
 10
-0.21525
 20
1.97
 30
0.0
 11
0.2152500000000001
 21
1.97
 31
0.0
  0
LINE
  5
125
330
EB
100
AcDbEntity
  8
AM_7
 48
0.0150043468829624
100
AcDbLine
 10
0.0
 20
1.75475
 30
0.0
 11
0.0
 21
2.18525
 31
0.0
  0
LINE
  5
126
330
EB
100
AcDbEntity
  8
AM_0
 48
0.0150043468829624
100
AcDbLine
 10
0.205
 20
2.175
 30
0.0
 11
-0.205
 21
2.175
 31
0.0
  0
LINE
  5
127
330
EB
100
AcDbEntity
  8
AM_0
 48
0.0150043468829624
100
AcDbLine
 10
-1.781105253231154
 20
-1.265035207775809
 30
0.0
 11
-1.426034837679534
 21
-1.06003520777581
 31
0.0
  0
LINE
  5
128
330
EB
100
AcDbEntity
  8
AM_0
 48
0.0150043468829624
100
AcDbLine
 10
1.781105253231154
 20
-1.265035207775809
 30
0.0
 11
1.986105253231154
 21
-0.9099647922241896
 31
0.0
  0
LINE
  5
129
330
EB
100
AcDbEntity
  8
AM_0
 48
0.0150043468829624
100
AcDbLine
 10
-0.205
 20
2.175
 30
0.0
 11
-0.205
 21
1.765
 31
0.0
  0
LINE
  5
12A
330
EB
100
AcDbEntity
  8
AM_0
 48
0.0150043468829624
100
AcDbLine
 10
1.986105253231154
 20
-0.9099647922241896
 30
0.0
 11
1.631034837679534
 21
-0.7049647922241896
 31
0.0
  0
LINE
  5
12B
330
EB
100
AcDbEntity
  8
AM_0
 48
0.0150043468829624
100
AcDbLine
 10
0.205
 20
1.765
 30
0.0
 11
0.205
 21
2.175
 31
0.0
  0
ARC
  5
12C
330
EB
100
AcDbEntity
  8
AM_0
 48
0.0150043468829624
100
AcDbCircle
 10
1.034717485771244
 20
-3.749653819306383
 30
0.0
 40
2.40999999999996
100
AcDbArc
 50
76.35082099068964
 51
87.35003423306966
  0
LINE
  5
12D
330
EB
100
AcDbEntity
  8
AM_0
 48
0.0150043468829624
100
AcDbLine
 10
-1.631034837679534
 20
-0.7049647922241896
 30
0.0
 11
-1.986105253231154
 21
-0.9099647922241896
 31
0.0
  0
LINE
  5
12E
330
EB
100
AcDbEntity
  8
AM_0
 48
0.0150043468829624
100
AcDbLine
 10
-0.205
 20
1.765
 30
0.0
 11
0.205
 21
1.765
 31
0.0
  0
LINE
  5
12F
330
EB
100
AcDbEntity
  8
AM_0
 48
0.0150043468829624
100
AcDbLine
 10
1.426034837679534
 20
-1.06003520777581
 30
0.0
 11
1.781105253231154
 21
-1.265035207775809
 31
0.0
  0
ARC
  5
130
330
EB
100
AcDbEntity
  8
AM_0
 48
0.0150043468829624
100
AcDbCircle
 10
1.706070045455342
 20
-0.9849999999999983
 30
0.0
 40
0.4349999999999998
100
AcDbArc
 50
256.35082099069
 51
43.64917999065902
  0
ARC
  5
131
330
EB
100
AcDbEntity
  8
AM_0
 48
0.0150043468829624
100
AcDbCircle
 10
-0.0000000000000013
 20
0.0000000000000024
 30
0.0
 40
1.765000000000003
100
AcDbArc
 50
284.6435887508688
 51
310.4942779219256
  0
ARC
  5
132
330
EB
100
AcDbEntity
  8
AM_0
 48
0.0150043468829624
100
AcDbCircle
 10
3.764654205802394
 20
0.9787352812354058
 30
0.0
 40
2.410000000000082
100
AcDbArc
 50
212.6499657669305
 51
223.6491788321785
  0
ARC
  5
133
330
EB
100
AcDbEntity
  8
AM_0
 48
0.0150043468829624
100
AcDbCircle
 10
0.0000000000000016
 20
0.0000000000000007
 30
0.0
 40
1.764999999999998
100
AcDbArc
 50
349.5057220780744
 51
70.49427792192556
  0
ARC
  5
134
330
EB
100
AcDbEntity
  8
AM_0
 48
0.0150043468829624
100
AcDbCircle
 10
2.729936720031109
 20
2.770918538071073
 30
0.0
 40
2.41000000000002
100
AcDbArc
 50
196.3508209906897
 51
207.3500342330696
  0
ARC
  5
135
330
EB
100
AcDbEntity
  8
AM_0
 48
0.0150043468829624
100
AcDbCircle
 10
0.0000000000000002
 20
1.97
 30
0.0
 40
0.4349999999999999
100
AcDbArc
 50
16.35082099068989
 51
163.6491790093103
  0
ARC
  5
136
330
EB
100
AcDbEntity
  8
AM_0
 48
0.0150043468829624
100
AcDbCircle
 10
-2.729936720031142
 20
2.770918538071085
 30
0.0
 40
2.410000000000055
100
AcDbArc
 50
332.6499657669306
 51
343.6491790093102
  0
ARC
  5
137
330
EB
100
AcDbEntity
  8
AM_0
 48
0.0150043468829624
100
AcDbCircle
 10
-0.0000000000000016
 20
0.0000000000000009
 30
0.0
 40
1.764999999999998
100
AcDbArc
 50
109.5057220780744
 51
190.4942779219255
  0
ARC
  5
138
330
EB
100
AcDbEntity
  8
AM_0
 48
0.0150043468829624
100
AcDbCircle
 10
-3.764654205802307
 20
0.97873528123534
 30
0.0
 40
2.409999999999974
100
AcDbArc
 50
316.3508219926966
 51
327.3500342330697
  0
ARC
  5
139
330
EB
100
AcDbEntity
  8
AM_0
 48
0.0150043468829624
100
AcDbCircle
 10
-1.706070045455348
 20
-0.9850000000000002
 30
0.0
 40
0.4349999999999996
100
AcDbArc
 50
136.350815439341
 51
283.6491813107781
  0
ARC
  5
13A
330
EB
100
AcDbEntity
  8
AM_0
 48
0.0150043468829624
100
AcDbCircle
 10
-1.034717485771236
 20
-3.749653819306446
 30
0.0
 40
2.410000000000023
100
AcDbArc
 50
92.64996576693042
 51
103.6491785939001
  0
ARC
  5
13B
330
EB
100
AcDbEntity
  8
AM_0
 48
0.0150043468829624
100
AcDbCircle
 10
-0.0000000000000061
 20
-0.0000000000000082
 30
0.0
 40
1.76499999999999
100
AcDbArc
 50
229.5057220780744
 51
255.3564112491313
  0
LINE
  5
13C
330
EB
100
AcDbEntity
  8
AM_0
 48
0.0150043468829624
100
AcDbLine
 10
1.631034837679534
 20
-0.7049647922241896
 30
0.0
 11
1.426034837679534
 21
-1.06003520777581
 31
0.0
  0
LINE
  5
13D
330
EB
100
AcDbEntity
  8
AM_0
 48
0.0150043468829624
100
AcDbLine
 10
-1.426034837679534
 20
-1.06003520777581
 30
0.0
 11
-1.631034837679534
 21
-0.7049647922241896
 31
0.0
  0
LINE
  5
13E
330
EB
100
AcDbEntity
  8
AM_0
 48
0.0150043468829624
100
AcDbLine
 10
-1.986105253231154
 20
-0.9099647922241896
 30
0.0
 11
-1.781105253231154
 21
-1.265035207775809
 31
0.0
  0
LWPOLYLINE
  5
13F
330
EB
100
AcDbEntity
  8
AM_0
 48
0.0150043468829624
100
AcDbPolyline
 90
        6
 70
     0
 43
0.0
 10
1.325182355131694
 20
-1.037487699034365
 10
1.32553765513781
 20
-1.040004464448178
 10
1.326569770817874
 20
-1.046724652612161
 10
1.329160772012457
 20
-1.060959138902188
 10
1.334196607734541
 20
-1.082675675107566
 10
1.339171112652219
 20
-1.099958967888266
  0
ARC
  5
140
330
EB
100
AcDbEntity
  8
AM_4
 48
0.0150043468829624
100
AcDbCircle
 10
0.0000000000000008
 20
-0.0000000000000009
 30
0.0
 40
1.732999999999999
100
AcDbArc
 50
285.0502043657745
 51
320.6012412534743
  0
LWPOLYLINE
  5
141
330
EB
100
AcDbEntity
  8
AM_0
 48
0.0150043468829624
100
AcDbPolyline
 90
        6
 70
     0
 43
0.0
 10
-1.33917111265222
 20
-1.099958967888264
 10
-1.333288219794011
 20
-1.079149358184802
 10
-1.328509193044006
 20
-1.057651179731857
 10
-1.326318842525772
 20
-1.045161574643202
 10
-1.325397076787488
 20
-1.039022977663283
 10
-1.325182355131694
 20
-1.037487699034364
  0
ARC
  5
142
330
EB
100
AcDbEntity
  8
AM_4
 48
0.0150043468829624
100
AcDbCircle
 10
0.0000000000000115
 20
0.0000000000000124
 30
0.0
 40
1.733000000000017
100
AcDbArc
 50
219.3987587465258
 51
254.9497956342252
  0
LWPOLYLINE
  5
143
330
EB
100
AcDbEntity
  8
AM_0
 48
0.0150043468829624
100
AcDbPolyline
 90
        6
 70
     0
 43
0.0
 10
-1.56108188104347
 20
-0.6288977346737564
 10
-1.563439113830257
 20
-0.6279470507981111
 10
-1.569775025338509
 20
-0.6254807951146998
 10
-1.583397952672786
 20
-0.6206074248254304
 10
-1.60472294256989
 20
-0.6141103183873512
 10
-1.622177965637859
 20
-0.6097767196269619
  0
LWPOLYLINE
  5
144
330
EB
100
AcDbEntity
  8
AM_0
 48
0.0150043468829624
100
AcDbPolyline
 90
        7
 70
     0
 43
0.0
 10
-0.2830068529856388
 20
1.709735687515227
 10
-0.2763058006370507
 20
1.702632283690935
 10
-0.260268754094361
 20
1.686997231758812
 10
-0.2450299824860895
 20
1.673705047506926
 10
-0.2385624039268393
 20
1.668473267150897
 10
-0.2360089339487412
 20
1.666470472134283
 10
-0.2358995259117749
 20
1.66638543370812
  0
ARC
  5
145
330
EB
100
AcDbEntity
  8
AM_4
 48
0.0150043468829624
100
AcDbCircle
 10
0.0000000000000008
 20
-0.0000000000000004
 30
0.0
 40
1.733000000000001
100
AcDbArc
 50
99.39875874652577
 51
200.6012412534742
  0
LWPOLYLINE
  5
146
330
EB
100
AcDbEntity
  8
AM_0
 48
0.0150043468829624
100
AcDbPolyline
 90
        6
 70
     0
 43
0.0
 10
1.622177965637859
 20
-0.6097767196269629
 10
1.601214868562716
 20
-0.6150867898157436
 10
1.580207386512372
 20
-0.6216971204713465
 10
1.568295895963245
 20
-0.6260450238236903
 10
1.562518832165898
 20
-0.6283160497679574
 10
1.56108188104347
 20
-0.6288977346737575
  0
LWPOLYLINE
  5
147
330
EB
100
AcDbEntity
  8
AM_0
 48
0.0150043468829624
100
AcDbPolyline
 90
        6
 70
     0
 43
0.0
 10
0.2358995259117747
 20
1.66638543370812
 10
0.2379014586924464
 20
1.667951515246289
 10
0.2432052545206342
 20
1.67220544772686
 10
0.2542371806603278
 20
1.681566563727618
 10
0.2705263348353478
 20
1.696785993494917
 10
0.2830068529856388
 20
1.709735687515227
  0
ARC
  5
148
330
EB
100
AcDbEntity
  8
AM_4
 48
0.0150043468829624
100
AcDbCircle
 10
-0.0000000000000007
 20
-0.0000000000000004
 30
0.0
 40
1.733000000000001
100
AcDbArc
 50
339.3987587465257
 51
80.60124125347426
  0
ARC
  5
149
330
EB
100
AcDbEntity
  8
AM_0
 48
0.0150043468829624
100
AcDbCircle
 10
0.3679999999999999
 20
-1.683
 30
0.0
 40
0.0819999999999999
100
AcDbArc
 50
270.0000000000001
 51
0.0000000000001551
  0
ARC
  5
14A
330
EB
100
AcDbEntity
  8
AM_0
 48
0.0150043468829624
100
AcDbCircle
 10
-0.3680000000000001
 20
-1.683
 30
0.0
 40
0.0819999999999999
100
AcDbArc
 50
179.9999999999998
 51
270.0
  0
LINE
  5
14B
330
EB
100
AcDbEntity
  8
AM_0
 48
0.0150043468829624
100
AcDbLine
 10
0.4499999999999999
 20
-1.683
 30
0.0
 11
0.45
 21
-1.549756238691118
 31
0.0
  0
LINE
  5
14C
330
EB
100
AcDbEntity
  8
AM_0
 48
0.0150043468829624
100
AcDbLine
 10
-0.45
 20
-1.549756238691118
 30
0.0
 11
-0.45
 21
-1.683
 31
0.0
  0
LINE
  5
14D
330
EB
100
AcDbEntity
  8
AM_0
 48
0.0150043468829624
100
AcDbLine
 10
-0.368
 20
-1.765
 30
0.0
 11
0.368
 21
-1.765
 31
0.0
  0
ARC
  5
14E
330
EB
100
AcDbEntity
  8
AM_0
 48
0.0150043468829624
100
AcDbCircle
 10
-1.706070045455346
 20
-0.9849999999999999
 30
0.0
 40
0.384487179487181
100
AcDbArc
 50
15.3351139813322
 51
44.66488601866767
  0
ARC
  5
14F
330
EB
100
AcDbEntity
  8
AM_0
 48
0.0150043468829624
100
AcDbCircle
 10
1.706070045455347
 20
-0.9850000000000028
 30
0.0
 40
0.384487179487184
100
AcDbArc
 50
135.3351139813324
 51
164.6648860186676
  0
ARC
  5
150
330
EB
100
AcDbEntity
  8
AM_0
 48
0.0150043468829624
100
AcDbCircle
 10
0.0
 20
1.969999999999974
 30
0.0
 40
0.3844871794871527
100
AcDbArc
 50
255.3351139813319
 51
284.6648860186681
  0
CIRCLE
  5
151
330
EB
100
AcDbEntity
  8
AM_0
 48
0.0150043468829624
100
AcDbCircle
 10
0.0
 20
0.0
 30
0.0
 40
1.4173
  0
LWPOLYLINE
  5
152
330
EB
100
AcDbEntity
  8
AM_0
 48
0.0150043468829624
100
AcDbPolyline
 90
        9
 70
     0
 43
0.0
 10
-1.561081881043469
 20
-0.6288977346737569
 10
-1.557530332073697
 20
-0.63036449030236
 10
-1.547798395302061
 20
-0.6345995491615865
 10
-1.529099939428679
 20
-0.6436614982705322
 10
-1.513711640530402
 20
-0.6520989381980768
 10
-1.497696632546994
 20
-0.6618732261434638
 10
-1.470607130086557
 20
-0.6810687914972747
 10
-1.444822120346957
 20
-0.702900881219793
 10
-1.432611067676337
 20
-0.7147212944716743
  0
LWPOLYLINE
  5
153
330
EB
100
AcDbEntity
  8
AM_0
 48
0.0150043468829624
100
AcDbPolyline
 90
        9
 70
     0
 43
0.0
 10
-0.0973387361999943
 20
1.598038225586293
 10
-0.1347111428180179
 20
1.609884325263853
 10
-0.1710744633119567
 20
1.625668881463594
 10
-0.1881815415601232
 20
1.63472007113626
 10
-0.2038982848281966
 20
1.644030859383705
 10
-0.2216712382885095
 20
1.655846767793732
 10
-0.23186366332095
 20
1.663292268076927
 10
-0.2357694278584827
 20
1.666284396058928
 10
-0.2358995259117749
 20
1.66638543370812
  0
ARC
  5
154
330
EB
100
AcDbEntity
  8
AM_0
 48
0.0150043468829624
100
AcDbCircle
 10
-0.0000000000000001
 20
0.0000000000000002
 30
0.0
 40
1.683
100
AcDbArc
 50
98.0574571480117
 51
201.9425428519883
  0
ARC
  5
155
330
EB
100
AcDbEntity
  8
AM_4
 48
0.0150043468829624
100
AcDbCircle
 10
-0.0000000000000008
 20
0.0000000000000002
 30
0.0
 40
1.601
100
AcDbArc
 50
93.48565923637756
 51
206.5143407636222
  0
LWPOLYLINE
  5
156
330
EB
100
AcDbEntity
  8
AM_0
 48
0.0150043468829624
100
AcDbPolyline
 90
        9
 70
     0
 43
0.0
 10
1.432611067676336
 20
-0.7147212944716755
 10
1.461556294241877
 20
-0.6882788907786889
 10
1.493407781145285
 20
-0.6646796095648534
 10
1.509799880460369
 20
-0.6543900400537465
 10
1.525721631245949
 20
-0.6454343352425589
 10
1.544840984827979
 20
-0.6359504602506633
 10
1.556385189733331
 20
-0.630846311387999
 10
1.560929330845884
 20
-0.6289598840682956
 10
1.561081881043469
 20
-0.628897734673758
  0
LWPOLYLINE
  5
157
330
EB
100
AcDbEntity
  8
AM_0
 48
0.0150043468829624
100
AcDbPolyline
 90
        9
 70
     0
 43
0.0
 10
0.235899525911775
 20
1.66638543370812
 10
0.2328535037913741
 20
1.664043079891814
 10
0.224319866846944
 20
1.657732504849166
 10
0.2071227607741049
 20
1.646070141605749
 10
0.1921215740048072
 20
1.636962203802585
 10
0.1756492883484941
 20
1.627979944019837
 10
0.145480689881871
 20
1.614117529390123
 10
0.1136810406946691
 20
1.602703100780059
 10
0.0973387361999943
 20
1.598038225586293
  0
ARC
  5
158
330
EB
100
AcDbEntity
  8
AM_4
 48
0.0150043468829624
100
AcDbCircle
 10
0.0000000000000004
 20
0.0000000000000001
 30
0.0
 40
1.601
100
AcDbArc
 50
333.4856592363777
 51
86.51434076362243
  0
ARC
  5
159
330
EB
100
AcDbEntity
  8
AM_0
 48
0.0150043468829624
100
AcDbCircle
 10
-0.0000000000000004
 20
0.0
 30
0.0
 40
1.683
100
AcDbArc
 50
338.0574571480117
 51
81.94254285198829
  0
LWPOLYLINE
  5
15A
330
EB
100
AcDbEntity
  8
AM_0
 48
0.0150043468829624
100
AcDbPolyline
 90
        9
 70
     0
 43
0.0
 10
-1.335272331476338
 20
-0.8833169311146175
 10
-1.326845151423858
 20
-0.9216054344851637
 10
-1.322333317833327
 20
-0.9609892718987402
 10
-1.321618338900245
 20
-0.9803300310825139
 10
-1.321823346417752
 20
-0.9985965241411455
 10
-1.32316974653947
 20
-1.019896307543068
 10
-1.324521526412381
 20
-1.032445956688928
 10
-1.325159902987401
 20
-1.037324511990632
 10
-1.325182355131694
 20
-1.037487699034362
  0
LWPOLYLINE
  5
15B
330
EB
100
AcDbEntity
  8
AM_0
 48
0.0150043468829624
100
AcDbPolyline
 90
        9
 70
     0
 43
0.0
 10
1.325182355131694
 20
-1.037487699034363
 10
1.324676828282321
 20
-1.033678589589454
 10
1.323478528455116
 20
-1.023132955687581
 10
1.321977178654574
 20
-1.002408643335217
 10
1.321590066525594
 20
-0.984863265604508
 10
1.322047344198499
 20
-0.9661067178763724
 10
1.325126440204686
 20
-0.9330487378928474
 10
1.331141079652288
 20
-0.8998022195602652
 10
1.335272331476337
 20
-0.8833169311146183
  0
ARC
  5
15C
330
EB
100
AcDbEntity
  8
AM_4
 48
0.0150043468829624
100
AcDbCircle
 10
0.0
 20
0.0
 30
0.0
 40
1.601
100
AcDbArc
 50
213.4856592363778
 51
326.5143407636223
  0
ARC
  5
15D
330
EB
100
AcDbEntity
  8
AM_0
 48
0.0150043468829624
100
AcDbCircle
 10
0.0000000000000018
 20
0.000000000000002
 30
0.0
 40
1.683000000000002
100
AcDbArc
 50
218.0574571480117
 51
254.4915981962309
  0
ARC
  5
15E
330
EB
100
AcDbEntity
  8
AM_0
 48
0.0150043468829624
100
AcDbCircle
 10
0.0
 20
-0.000000000000002
 30
0.0
 40
1.613767145334801
100
AcDbArc
 50
253.808380754839
 51
286.191619245161
  0
ARC
  5
15F
330
EB
100
AcDbEntity
  8
AM_0
 48
0.0150043468829624
100
AcDbCircle
 10
0.0000000000000006
 20
-0.0000000000000007
 30
0.0
 40
1.682999999999999
100
AcDbArc
 50
285.508401803769
 51
321.9425428519883
  0
CIRCLE
  5
160
330
EB
100
AcDbEntity
  8
AM_0
 48
0.0150043468829624
100
AcDbCircle
 10
-1.706070045455345
 20
-0.9849999999999994
 30
0.0
 40
0.2049999999999991
  0
CIRCLE
  5
161
330
EB
100
AcDbEntity
  8
AM_0
 48
0.0150043468829624
100
AcDbCircle
 10
1.706070045455345
 20
-0.9849999999999995
 30
0.0
 40
0.2050000000000004
  0
CIRCLE
  5
162
330
EB
100
AcDbEntity
  8
AM_0
 48
0.0150043468829624
100
AcDbCircle
 10
-0.0000000000000004
 20
1.97
 30
0.0
 40
0.2050000000000005
  0
ENDBLK
  5
EE
330
EB
100
AcDbEntity
  8
0
100
AcDbBlockEnd
  0
ENDSEC
  0
SECTION
  2
ENTITIES
  0
ATTDEF
  5
6F
330
1F
100
AcDbEntity
  8
AM_6
100
AcDbText
 10
7.141050702391847
 20
2.405
 30
0.0
 40
0.5
  1
Set Screw LF  Normal Duty 3-Bolt Flange Inch Bore
100
AcDbAttributeDefinition
  3

  2
NN
 70
     8
280
     0
  0
ATTDEF
  5
70
330
1F
100
AcDbEntity
  8
AM_6
100
AcDbText
 10
7.141050702391847
 20
1.905
 30
0.0
 40
0.5
  1
SC 3 Bolt Flange Bearings -(Normal Duty) -Re-Lube and No-Lube
100
AcDbAttributeDefinition
  3

  2
NT
 70
     8
280
     0
  0
ATTDEF
  5
71
330
1F
100
AcDbEntity
  8
AM_6
100
AcDbText
 10
7.141050702391847
 20
1.405
 30
0.0
 40
0.5
  1
124630
100
AcDbAttributeDefinition
  3

  2
NB
 70
     8
280
     0
  0
ATTDEF
  5
72
330
1F
100
AcDbEntity
  8
AM_6
100
AcDbText
 10
7.141050702391847
 20
0.9050000000000002
 30
0.0
 40
0.5
  1
$PN.
100
AcDbAttributeDefinition
  3

  2
NBSYN
 70
     8
280
     0
  0
ATTDEF
  5
73
330
1F
100
AcDbEntity
  8
AM_6
100
AcDbText
 10
7.141050702391847
 20
0.4050000000000002
 30
0.0
 40
0.5
  1
124630
100
AcDbAttributeDefinition
  3

  2
LINA
 70
     8
280
     0
  0
ATTDEF
  5
74
330
1F
100
AcDbEntity
  8
AM_6
100
AcDbText
 10
7.141050702391847
 20
-0.0949999999999998
 30
0.0
 40
0.5
  1
207
100
AcDbAttributeDefinition
  3

  2
SERIES
 70
     8
280
     0
  0
ATTDEF
  5
75
330
1F
100
AcDbEntity
  8
AM_6
100
AcDbText
 10
7.141050702391847
 20
-0.5949999999999998
 30
0.0
 40
0.5
  1
1-1/4
100
AcDbAttributeDefinition
  3

  2
SS
 70
     8
280
     0
  0
ATTDEF
  5
76
330
1F
100
AcDbEntity
  8
AM_6
100
AcDbText
 10
7.141050702391847
 20
-1.095
 30
0.0
 40
0.5
  1
124630
100
AcDbAttributeDefinition
  3

  2
PN
 70
     8
280
     0
  0
ATTDEF
  5
77
330
1F
100
AcDbEntity
  8
AM_6
100
AcDbText
 10
7.141050702391847
 20
-1.595
 30
0.0
 40
0.5
  1
LF-SC-104-NL
100
AcDbAttributeDefinition
  3

  2
DESCRIPTION
 70
     8
280
     0
  0
ATTDEF
  5
78
330
1F
100
AcDbEntity
  8
AM_6
100
AcDbText
 10
7.141050702391847
 20
-2.095
 30
0.0
 40
0.5
  1
2.10
100
AcDbAttributeDefinition
  3

  2
W
 70
     8
280
     0
  0
ATTDEF
  5
79
330
1F
100
AcDbEntity
  8
AM_6
100
AcDbText
 10
7.141050702391847
 20
-2.595
 30
0.0
 40
0.5
  1
NO-LUBE
100
AcDbAttributeDefinition
  3

  2
LF
 70
     8
280
     0
  0
ATTDEF
  5
7A
330
1F
100
AcDbEntity
  8
AM_6
100
AcDbText
 10
7.141050702391847
 20
-3.095
 30
0.0
 40
0.5
  1
1.40
100
AcDbAttributeDefinition
  3

  2
A
 70
     8
280
     0
  0
ATTDEF
  5
7B
330
1F
100
AcDbEntity
  8
AM_6
100
AcDbText
 10
7.141050702391847
 20
-3.595
 30
0.0
 40
0.5
  1
4.81
100
AcDbAttributeDefinition
  3

  2
B
 70
     8
280
     0
  0
ATTDEF
  5
7C
330
1F
100
AcDbEntity
  8
AM_6
100
AcDbText
 10
7.141050702391847
 20
-4.095
 30
0.0
 40
0.5
  1
1.59
100
AcDbAttributeDefinition
  3

  2
C
 70
     8
280
     0
  0
ATTDEF
  5
7D
330
1F
100
AcDbEntity
  8
AM_6
100
AcDbText
 10
7.141050702391847
 20
-4.595
 30
0.0
 40
0.5
  1
3.94
100
AcDbAttributeDefinition
  3

  2
D
 70
     8
280
     0
  0
ATTDEF
  5
7E
330
1F
100
AcDbEntity
  8
AM_6
100
AcDbText
 10
7.141050702391847
 20
-5.095
 30
0.0
 40
0.5
  1
0.41
100
AcDbAttributeDefinition
  3

  2
G
 70
     8
280
     0
  0
ATTDEF
  5
7F
330
1F
100
AcDbEntity
  8
AM_6
100
AcDbText
 10
7.141050702391847
 20
-5.595
 30
0.0
 40
0.5
  1
0.50
100
AcDbAttributeDefinition
  3

  2
H
 70
     8
280
     0
  0
ATTDEF
  5
80
330
1F
100
AcDbEntity
  8
AM_6
100
AcDbText
 10
7.141050702391847
 20
-6.095
 30
0.0
 40
0.5
  1
0.52
100
AcDbAttributeDefinition
  3

  2
J
 70
     8
280
     0
  0
ATTDEF
  5
81
330
1F
100
AcDbEntity
  8
AM_6
100
AcDbText
 10
7.141050702391847
 20
-6.595
 30
0.0
 40
0.5
  1
1.84
100
AcDbAttributeDefinition
  3

  2
L
 70
     8
280
     0
  0
ATTDEF
  5
82
330
1F
100
AcDbEntity
  8
AM_6
100
AcDbText
 10
7.141050702391847
 20
-7.095
 30
0.0
 40
0.5
  1
2.41
100
AcDbAttributeDefinition
  3

  2
M
 70
     8
280
     0
  0
ATTDEF
  5
83
330
1F
100
AcDbEntity
  8
AM_6
100
AcDbText
 10
7.141050702391847
 20
-7.595
 30
0.0
 40
0.5
  1
2.14
100
AcDbAttributeDefinition
  3

  2
N
 70
     8
280
     0
  0
ATTDEF
  5
84
330
1F
100
AcDbEntity
  8
AM_6
100
AcDbText
 10
7.141050702391847
 20
-8.094999999999999
 30
0.0
 40
0.5
  1
baldor
100
AcDbAttributeDefinition
  3

  2
COMPANY
 70
     8
280
     0
  0
INSERT
  5
86
330
1F
100
AcDbEntity
  8
0
100
AcDbBlockReference
  2
1_077984_0_in_124630_0
 10
0.0
 20
0.0
 30
0.0
  0
INSERT
  5
CA
330
1F
100
AcDbEntity
  8
0
100
AcDbBlockReference
  2
2_430026_0_in_124630_0
 10
0.0
 20
0.0
 30
0.0
  0
INSERT
  5
EC
330
1F
100
AcDbEntity
  8
0
100
AcDbBlockReference
  2
3_124630H_0_in_124630_0
 10
0.0
 20
0.0
 30
0.0
  0
POINT
  5
164
330
1F
100
AcDbEntity
  8
ConnectionPoints
100
AcDbPoint
 10
0.0
 20
-1.765
 30
0.6900000000000001
  0
POINT
  5
165
330
1F
100
AcDbEntity
  8
ConnectionPoints
100
AcDbPoint
 10
0.0
 20
-1.765
 30
0.6900000000000001
  0
POINT
  5
166
330
1F
100
AcDbEntity
  8
ConnectionPoints
100
AcDbPoint
 10
0.0
 20
0.0
 30
1.59
  0
ENDSEC
  0
SECTION
  2
OBJECTS
  0
DICTIONARY
  5
C
330
0
100
AcDbDictionary
281
     1
  3
ACAD_DETAILVIEWSTYLE
350
16E
  3
ACAD_GROUP
350
D
  3
ACAD_LAYOUT
350
1A
  3
ACAD_MATERIAL
350
43
  3
ACAD_MLEADERSTYLE
350
6B
  3
ACAD_MLINESTYLE
350
17
  3
ACAD_PLOTSETTINGS
350
19
  3
ACAD_PLOTSTYLENAME
350
E
  3
ACAD_SCALELIST
350
47
  3
ACAD_SECTIONVIEWSTYLE
350
16F
  3
ACAD_TABLESTYLE
350
69
  3
ACAD_VISUALSTYLE
350
2A
  3
ACDB_RECOMPOSE_DATA
350
16B
  3
AcDbVariableDictionary
350
167
  0
SUN
  5
6D
330
29
100
AcDbSun
 90
        1
290
     0
 63
     7
421
 16777215
 40
1.0
291
     1
 91
  2455826
 92
 54000000
292
     0
 70
     2
 71
   256
280
     1
  0
DICTIONARY
  5
16E
102
{ACAD_REACTORS
330
C
102
}
330
C
100
AcDbDictionary
281
     1
  0
DICTIONARY
  5
D
102
{ACAD_REACTORS
330
C
102
}
330
C
100
AcDbDictionary
281
     1
  0
DICTIONARY
  5
1A
102
{ACAD_REACTORS
330
C
102
}
330
C
100
AcDbDictionary
281
     1
  3
Layout1
350
1E
  3
Layout2
350
26
  3
Model
350
22
  0
DICTIONARY
  5
43
102
{ACAD_REACTORS
330
C
102
}
330
C
100
AcDbDictionary
281
     1
  3
ByBlock
350
45
  3
ByLayer
350
44
  3
Global
350
46
  0
DICTIONARY
  5
6B
102
{ACAD_REACTORS
330
C
102
}
330
C
100
AcDbDictionary
281
     1
  3
Standard
350
6C
  0
DICTIONARY
  5
17
102
{ACAD_REACTORS
330
C
102
}
330
C
100
AcDbDictionary
281
     1
  3
Standard
350
18
  0
DICTIONARY
  5
19
102
{ACAD_REACTORS
330
C
102
}
330
C
100
AcDbDictionary
281
     1
  0
ACDBDICTIONARYWDFLT
  5
E
102
{ACAD_REACTORS
330
C
102
}
330
C
100
AcDbDictionary
281
     1
  3
Normal
350
F
100
AcDbDictionaryWithDefault
340
F
  0
DICTIONARY
  5
47
102
{ACAD_REACTORS
330
C
102
}
330
C
100
AcDbDictionary
281
     1
  3
A0
350
48
  3
A1
350
49
  3
A2
350
4A
  3
A3
350
4B
  3
A4
350
4C
  3
A5
350
4D
  3
A6
350
4E
  3
A7
350
4F
  3
A8
350
50
  3
A9
350
51
  3
B0
350
52
  3
B1
350
53
  3
B2
350
54
  3
B3
350
55
  3
B4
350
56
  3
B5
350
57
  3
B6
350
58
  3
B7
350
59
  3
B8
350
5A
  3
B9
350
5B
  3
C0
350
5C
  3
C1
350
5D
  3
C2
350
5E
  3
C3
350
5F
  3
C4
350
60
  3
C5
350
61
  3
C6
350
62
  3
C7
350
63
  3
C8
350
64
  3
C9
350
65
  3
D0
350
66
  3
D1
350
67
  3
D2
350
68
  0
DICTIONARY
  5
16F
102
{ACAD_REACTORS
330
C
102
}
330
C
100
AcDbDictionary
281
     1
  0
DICTIONARY
  5
69
102
{ACAD_REACTORS
330
C
102
}
330
C
100
AcDbDictionary
281
     1
  3
Standard
350
6A
  0
DICTIONARY
  5
2A
102
{ACAD_REACTORS
330
C
102
}
330
C
100
AcDbDictionary
281
     1
  3
2dWireframe
350
2F
  3
Basic
350
32
  3
Brighten
350
36
  3
ColorChange
350
3A
  3
Conceptual
350
34
  3
Dim
350
35
  3
EdgeColorOff
350
3D
  3
Facepattern
350
39
  3
Flat
350
2B
  3
FlatWithEdges
350
2C
  3
Gouraud
350
2D
  3
GouraudWithEdges
350
2E
  3
Hidden
350
31
  3
JitterOff
350
3B
  3
Linepattern
350
38
  3
OverhangOff
350
3C
  3
Realistic
350
33
  3
Shaded
350
42
  3
Shaded with edges
350
41
  3
Shades of Gray
350
3E
  3
Sketchy
350
3F
  3
Thicken
350
37
  3
Wireframe
350
30
  3
X-Ray
350
40
  0
XRECORD
  5
16B
102
{ACAD_REACTORS
330
C
102
}
330
C
100
AcDbXrecord
280
     1
 90
        1
330
6A
  0
DICTIONARY
  5
167
102
{ACAD_REACTORS
330
C
102
}
330
C
100
AcDbDictionary
281
     1
  3
CANNOSCALE
350
168
  3
CMLEADERSTYLE
350
16D
  3
CTABLESTYLE
350
16C
  0
LAYOUT
  5
1E
102
{ACAD_REACTORS
330
1A
102
}
330
1A
100
AcDbPlotSettings
  1

  2
none_device
  4

  6

 40
0.0
 41
0.0
 42
0.0
 43
0.0
 44
0.0
 45
0.0
 46
0.0
 47
0.0
 48
0.0
 49
0.0
140
0.0
141
0.0
142
1.0
143
1.0
 70
   688
 72
     0
 73
     0
 74
     5
  7

 75
    16
 76
     0
 77
     2
 78
   300
147
1.0
148
0.0
149
0.0
100
AcDbLayout
  1
Layout1
 70
     1
 71
     1
 10
0.0
 20
0.0
 11
12.0
 21
9.0
 12
0.0
 22
0.0
 32
0.0
 14
1.000000000000000E+20
 24
1.000000000000000E+20
 34
1.000000000000000E+20
 15
-1.000000000000000E+20
 25
-1.000000000000000E+20
 35
-1.000000000000000E+20
146
0.0
 13
0.0
 23
0.0
 33
0.0
 16
1.0
 26
0.0
 36
0.0
 17
0.0
 27
1.0
 37
0.0
 76
     0
330
1B
  0
LAYOUT
  5
26
102
{ACAD_REACTORS
330
1A
102
}
330
1A
100
AcDbPlotSettings
  1

  2
none_device
  4

  6

 40
0.0
 41
0.0
 42
0.0
 43
0.0
 44
0.0
 45
0.0
 46
0.0
 47
0.0
 48
0.0
 49
0.0
140
0.0
141
0.0
142
1.0
143
1.0
 70
   688
 72
     0
 73
     0
 74
     5
  7

 75
    16
 76
     0
 77
     2
 78
   300
147
1.0
148
0.0
149
0.0
100
AcDbLayout
  1
Layout2
 70
     1
 71
     2
 10
0.0
 20
0.0
 11
0.0
 21
0.0
 12
0.0
 22
0.0
 32
0.0
 14
0.0
 24
0.0
 34
0.0
 15
0.0
 25
0.0
 35
0.0
146
0.0
 13
0.0
 23
0.0
 33
0.0
 16
1.0
 26
0.0
 36
0.0
 17
0.0
 27
1.0
 37
0.0
 76
     0
330
23
  0
LAYOUT
  5
22
102
{ACAD_REACTORS
330
1A
102
}
330
1A
100
AcDbPlotSettings
  1

  2
none_device
  4
Letter_(8.50_x_11.00_Inches)
  6

 40
6.35
 41
6.35
 42
6.35000508
 43
6.35000508
 44
215.9
 45
279.4
 46
0.0
 47
0.0
 48
0.0
 49
0.0
140
0.0
141
0.0
142
1.0
143
1.0
 70
  1712
 72
     0
 73
     0
 74
     0
  7

 75
     0
 76
     0
 77
     2
 78
   300
147
1.0
148
0.0
149
0.0
100
AcDbLayout
  1
Model
 70
     1
 71
     0
 10
0.0
 20
0.0
 11
12.0
 21
9.0
 12
0.0
 22
0.0
 32
0.0
 14
1.000000000000000E+20
 24
1.000000000000000E+20
 34
1.000000000000000E+20
 15
-1.000000000000000E+20
 25
-1.000000000000000E+20
 35
-1.000000000000000E+20
146
0.0
 13
0.0
 23
0.0
 33
0.0
 16
1.0
 26
0.0
 36
0.0
 17
0.0
 27
1.0
 37
0.0
 76
     0
330
1F
331
29
  0
MATERIAL
  5
45
102
{ACAD_REACTORS
330
43
102
}
330
43
100
AcDbMaterial
  1
ByBlock
 72
     1
 94
      127
  0
MATERIAL
  5
44
102
{ACAD_REACTORS
330
43
102
}
330
43
100
AcDbMaterial
  1
ByLayer
 72
     1
 94
      127
  0
MATERIAL
  5
46
102
{ACAD_REACTORS
330
43
102
}
330
43
100
AcDbMaterial
  1
Global
 72
     1
 94
      127
  0
MLEADERSTYLE
  5
6C
102
{ACAD_REACTORS
330
6B
102
}
330
6B
100
AcDbMLeaderStyle
179
     2
170
     2
171
     1
172
     0
 90
        2
 40
0.0
 41
0.0
173
     1
 91
-1056964608
340
14
 92
       -2
290
     1
 42
0.09
291
     1
 43
0.36
  3
Standard
341
0
 44
0.18
300

342
11
174
     1
178
     6
175
     1
176
     0
 93
-1056964608
 45
0.18
292
     0
297
     0
 46
0.18
343
0
 94
-1056964608
 47
1.0
 49
1.0
140
1.0
293
     1
141
0.0
294
     1
177
     0
142
1.0
295
     0
296
     0
143
0.125
271
     0
272
     9
273
     9
298
     0
  0
MLINESTYLE
  5
18
102
{ACAD_REACTORS
330
17
102
}
330
17
100
AcDbMlineStyle
  2
Standard
 70
     0
  3

 62
   256
 51
90.0
 52
90.0
 71
     2
 49
0.5
 62
   256
  6
BYLAYER
 49
-0.5
 62
   256
  6
BYLAYER
  0
ACDBPLACEHOLDER
  5
F
102
{ACAD_REACTORS
330
E
102
}
330
E
  0
SCALE
  5
48
102
{ACAD_REACTORS
330
47
102
}
330
47
100
AcDbScale
 70
     0
300
1:1
140
1.0
141
1.0
290
     1
  0
SCALE
  5
49
102
{ACAD_REACTORS
330
47
102
}
330
47
100
AcDbScale
 70
     0
300
1:2
140
1.0
141
2.0
290
     0
  0
SCALE
  5
4A
102
{ACAD_REACTORS
330
47
102
}
330
47
100
AcDbScale
 70
     0
300
1:4
140
1.0
141
4.0
290
     0
  0
SCALE
  5
4B
102
{ACAD_REACTORS
330
47
102
}
330
47
100
AcDbScale
 70
     0
300
1:5
140
1.0
141
5.0
290
     0
  0
SCALE
  5
4C
102
{ACAD_REACTORS
330
47
102
}
330
47
100
AcDbScale
 70
     0
300
1:8
140
1.0
141
8.0
290
     0
  0
SCALE
  5
4D
102
{ACAD_REACTORS
330
47
102
}
330
47
100
AcDbScale
 70
     0
300
1:10
140
1.0
141
10.0
290
     0
  0
SCALE
  5
4E
102
{ACAD_REACTORS
330
47
102
}
330
47
100
AcDbScale
 70
     0
300
1:16
140
1.0
141
16.0
290
     0
  0
SCALE
  5
4F
102
{ACAD_REACTORS
330
47
102
}
330
47
100
AcDbScale
 70
     0
300
1:20
140
1.0
141
20.0
290
     0
  0
SCALE
  5
50
102
{ACAD_REACTORS
330
47
102
}
330
47
100
AcDbScale
 70
     0
300
1:30
140
1.0
141
30.0
290
     0
  0
SCALE
  5
51
102
{ACAD_REACTORS
330
47
102
}
330
47
100
AcDbScale
 70
     0
300
1:40
140
1.0
141
40.0
290
     0
  0
SCALE
  5
52
102
{ACAD_REACTORS
330
47
102
}
330
47
100
AcDbScale
 70
     0
300
1:50
140
1.0
141
50.0
290
     0
  0
SCALE
  5
53
102
{ACAD_REACTORS
330
47
102
}
330
47
100
AcDbScale
 70
     0
300
1:100
140
1.0
141
100.0
290
     0
  0
SCALE
  5
54
102
{ACAD_REACTORS
330
47
102
}
330
47
100
AcDbScale
 70
     0
300
2:1
140
2.0
141
1.0
290
     0
  0
SCALE
  5
55
102
{ACAD_REACTORS
330
47
102
}
330
47
100
AcDbScale
 70
     0
300
4:1
140
4.0
141
1.0
290
     0
  0
SCALE
  5
56
102
{ACAD_REACTORS
330
47
102
}
330
47
100
AcDbScale
 70
     0
300
8:1
140
8.0
141
1.0
290
     0
  0
SCALE
  5
57
102
{ACAD_REACTORS
330
47
102
}
330
47
100
AcDbScale
 70
     0
300
10:1
140
10.0
141
1.0
290
     0
  0
SCALE
  5
58
102
{ACAD_REACTORS
330
47
102
}
330
47
100
AcDbScale
 70
     0
300
100:1
140
100.0
141
1.0
290
     0
  0
SCALE
  5
59
102
{ACAD_REACTORS
330
47
102
}
330
47
100
AcDbScale
 70
     0
300
1/128" = 1'-0"
140
0.0078125
141
12.0
290
     0
  0
SCALE
  5
5A
102
{ACAD_REACTORS
330
47
102
}
330
47
100
AcDbScale
 70
     0
300
1/64" = 1'-0"
140
0.015625
141
12.0
290
     0
  0
SCALE
  5
5B
102
{ACAD_REACTORS
330
47
102
}
330
47
100
AcDbScale
 70
     0
300
1/32" = 1'-0"
140
0.03125
141
12.0
290
     0
  0
SCALE
  5
5C
102
{ACAD_REACTORS
330
47
102
}
330
47
100
AcDbScale
 70
     0
300
1/16" = 1'-0"
140
0.0625
141
12.0
290
     0
  0
SCALE
  5
5D
102
{ACAD_REACTORS
330
47
102
}
330
47
100
AcDbScale
 70
     0
300
3/32" = 1'-0"
140
0.09375
141
12.0
290
     0
  0
SCALE
  5
5E
102
{ACAD_REACTORS
330
47
102
}
330
47
100
AcDbScale
 70
     0
300
1/8" = 1'-0"
140
0.125
141
12.0
290
     0
  0
SCALE
  5
5F
102
{ACAD_REACTORS
330
47
102
}
330
47
100
AcDbScale
 70
     0
300
3/16" = 1'-0"
140
0.1875
141
12.0
290
     0
  0
SCALE
  5
60
102
{ACAD_REACTORS
330
47
102
}
330
47
100
AcDbScale
 70
     0
300
1/4" = 1'-0"
140
0.25
141
12.0
290
     0
  0
SCALE
  5
61
102
{ACAD_REACTORS
330
47
102
}
330
47
100
AcDbScale
 70
     0
300
3/8" = 1'-0"
140
0.375
141
12.0
290
     0
  0
SCALE
  5
62
102
{ACAD_REACTORS
330
47
102
}
330
47
100
AcDbScale
 70
     0
300
1/2" = 1'-0"
140
0.5
141
12.0
290
     0
  0
SCALE
  5
63
102
{ACAD_REACTORS
330
47
102
}
330
47
100
AcDbScale
 70
     0
300
3/4" = 1'-0"
140
0.75
141
12.0
290
     0
  0
SCALE
  5
64
102
{ACAD_REACTORS
330
47
102
}
330
47
100
AcDbScale
 70
     0
300
1" = 1'-0"
140
1.0
141
12.0
290
     0
  0
SCALE
  5
65
102
{ACAD_REACTORS
330
47
102
}
330
47
100
AcDbScale
 70
     0
300
1-1/2" = 1'-0"
140
1.5
141
12.0
290
     0
  0
SCALE
  5
66
102
{ACAD_REACTORS
330
47
102
}
330
47
100
AcDbScale
 70
     0
300
3" = 1'-0"
140
3.0
141
12.0
290
     0
  0
SCALE
  5
67
102
{ACAD_REACTORS
330
47
102
}
330
47
100
AcDbScale
 70
     0
300
6" = 1'-0"
140
6.0
141
12.0
290
     0
  0
SCALE
  5
68
102
{ACAD_REACTORS
330
47
102
}
330
47
100
AcDbScale
 70
     0
300
1'-0" = 1'-0"
140
12.0
141
12.0
290
     0
  0
TABLESTYLE
  5
6A
102
{ACAD_REACTORS
330
69
102
}
102
{ACAD_XDICTIONARY
360
169
102
}
330
69
100
AcDbTableStyle
  3
Standard
 70
     0
 71
     0
 40
0.06
 41
0.06
280
     0
281
     0
  7
Standard
140
0.18
170
     2
 62
     0
 63
   257
283
     0
 90
        4
 91
        0
  1

274
    -2
284
     1
 64
     0
275
    -2
285
     1
 65
     0
276
    -2
286
     1
 66
     0
277
    -2
287
     1
 67
     0
278
    -2
288
     1
 68
     0
279
    -2
289
     1
 69
     0
  7
Standard
140
0.25
170
     5
 62
     0
 63
   257
283
     0
 90
        4
 91
        0
  1

274
    -2
284
     1
 64
     0
275
    -2
285
     1
 65
     0
276
    -2
286
     1
 66
     0
277
    -2
287
     1
 67
     0
278
    -2
288
     1
 68
     0
279
    -2
289
     1
 69
     0
  7
Standard
140
0.18
170
     5
 62
     0
 63
   257
283
     0
 90
        4
 91
        0
  1

274
    -2
284
     1
 64
     0
275
    -2
285
     1
 65
     0
276
    -2
286
     1
 66
     0
277
    -2
287
     1
 67
     0
278
    -2
288
     1
 68
     0
279
    -2
289
     1
 69
     0
  0
VISUALSTYLE
  5
2F
102
{ACAD_REACTORS
330
2A
102
}
330
2A
100
AcDbVisualStyle
  2
2dWireframe
 70
     4
177
     3
291
     0
 70
    58
 90
        0
176
     1
 90
        2
176
     1
 90
        0
176
     1
 90
        0
176
     1
 40
0.6
176
     1
 40
30.0
176
     1
 62
     7
420
 16777215
176
     1
 90
        1
176
     1
 90
        4
176
     1
 62
     7
176
     1
 62
   257
176
     1
 90
        1
176
     1
 90
        1
176
     1
 40
1.0
176
     1
 90
        0
176
     1
 62
   257
176
     1
 40
1.0
176
     1
 90
        1
176
     1
 90
        6
176
     1
 90
        2
176
     1
 62
     7
176
     1
 90
        5
176
     1
 90
        0
176
     1
 90
        0
176
     1
290
     0
176
     1
 90
        1
176
     1
 40
0.0
176
     1
 90
        0
176
     1
290
     1
176
     1
290
     1
176
     1
290
     0
176
     1
290
     0
176
     1
290
     0
176
     1
290
     0
176
     1
290
     0
176
     1
290
     0
176
     1
290
     0
176
     1
 90
       50
176
     1
 40
0.0
176
     1
 40
1.0
176
     1
 90
        0
176
     1
 62
    18
420
        0
176
     1
 90
       50
176
     1
 90
        3
176
     1
 62
     5
420
      255
176
     1
290
     0
176
     1
 90
       50
176
     1
 90
       50
176
     1
 90
       50
176
     1
290
     0
176
     1
 90
       50
176
     1
 62
   256
176
     0
 40
1.0
176
     0
 90
        2
176
     1
  1
strokes_ogs.tif
176
     1
290
     0
176
     1
 40
1.0
176
     1
 40
1.0
176
     1
  0
VISUALSTYLE
  5
32
102
{ACAD_REACTORS
330
2A
102
}
330
2A
100
AcDbVisualStyle
  2
Basic
 70
     7
177
     3
291
     1
 70
    58
 90
        1
176
     1
 90
        0
176
     1
 90
        1
176
     1
 90
        0
176
     1
 40
0.6
176
     1
 40
30.0
176
     1
 62
     7
420
 16777215
176
     1
 90
        0
176
     1
 90
        4
176
     1
 62
     7
176
     1
 62
   257
176
     1
 90
        1
176
     1
 90
        1
176
     1
 40
1.0
176
     1
 90
        8
176
     1
 62
     7
176
     1
 40
1.0
176
     1
 90
        1
176
     1
 90
        6
176
     1
 90
        2
176
     1
 62
     7
176
     1
 90
        5
176
     1
 90
        0
176
     1
 90
        0
176
     1
290
     0
176
     1
 90
        1
176
     1
 40
0.0
176
     1
 90
        0
176
     1
290
     0
176
     1
290
     1
176
     1
290
     1
176
     1
290
     0
176
     1
290
     0
176
     1
290
     0
176
     1
290
     0
176
     1
290
     0
176
     1
290
     0
176
     1
 90
       50
176
     1
 40
0.0
176
     1
 40
1.0
176
     1
 90
        0
176
     1
 62
    18
420
        0
176
     1
 90
       50
176
     1
 90
        3
176
     1
 62
     5
420
      255
176
     1
290
     0
176
     1
 90
       50
176
     1
 90
       50
176
     1
 90
       50
176
     1
290
     0
176
     1
 90
       50
176
     1
 62
   256
176
     0
 40
1.0
176
     0
 90
        2
176
     1
  1
strokes_ogs.tif
176
     1
290
     0
176
     1
 40
1.0
176
     1
 40
1.0
176
     1
  0
VISUALSTYLE
  5
36
102
{ACAD_REACTORS
330
2A
102
}
330
2A
100
AcDbVisualStyle
  2
Brighten
 70
    12
177
     3
291
     1
 70
    58
 90
        2
176
     1
 90
        2
176
     1
 90
        0
176
     1
 90
        0
176
     1
 40
0.6
176
     1
 40
30.0
176
     1
 62
     7
420
 16777215
176
     1
 90
        1
176
     1
 90
        4
176
     1
 62
     7
176
     1
 62
   257
176
     1
 90
        1
176
     1
 90
        1
176
     1
 40
1.0
176
     1
 90
        8
176
     1
 62
     7
176
     1
 40
1.0
176
     1
 90
        1
176
     1
 90
        6
176
     1
 90
        2
176
     1
 62
     7
176
     1
 90
        5
176
     1
 90
        0
176
     1
 90
        0
176
     1
290
     0
176
     1
 90
        1
176
     1
 40
50.0
176
     1
 90
        0
176
     1
290
     0
176
     1
290
     1
176
     1
290
     1
176
     1
290
     0
176
     1
290
     0
176
     1
290
     0
176
     1
290
     0
176
     1
290
     0
176
     1
290
     0
176
     1
 90
       50
176
     1
 40
0.0
176
     1
 40
1.0
176
     1
 90
        0
176
     1
 62
    18
420
        0
176
     1
 90
       50
176
     1
 90
        3
176
     1
 62
     5
420
      255
176
     1
290
     0
176
     1
 90
       50
176
     1
 90
       50
176
     1
 90
       50
176
     1
290
     0
176
     1
 90
       50
176
     1
 62
   256
176
     0
 40
1.0
176
     0
 90
        2
176
     1
  1
strokes_ogs.tif
176
     1
290
     0
176
     1
 40
1.0
176
     1
 40
1.0
176
     1
  0
VISUALSTYLE
  5
3A
102
{ACAD_REACTORS
330
2A
102
}
330
2A
100
AcDbVisualStyle
  2
ColorChange
 70
    16
177
     3
291
     1
 70
    58
 90
        2
176
     1
 90
        2
176
     1
 90
        3
176
     1
 90
        0
176
     1
 40
0.6
176
     1
 40
30.0
176
     1
 62
     8
420
  8421504
176
     1
 90
        1
176
     1
 90
        4
176
     1
 62
     7
176
     1
 62
   257
176
     1
 90
        1
176
     1
 90
        1
176
     1
 40
1.0
176
     1
 90
        8
176
     1
 62
     8
420
  8421504
176
     1
 40
1.0
176
     1
 90
        1
176
     1
 90
        6
176
     1
 90
        2
176
     1
 62
     7
176
     1
 90
        5
176
     1
 90
        0
176
     1
 90
        0
176
     1
290
     0
176
     1
 90
        1
176
     1
 40
0.0
176
     1
 90
        0
176
     1
290
     0
176
     1
290
     1
176
     1
290
     1
176
     1
290
     0
176
     1
290
     0
176
     1
290
     0
176
     1
290
     0
176
     1
290
     0
176
     1
290
     0
176
     1
 90
       50
176
     1
 40
0.0
176
     1
 40
1.0
176
     1
 90
        0
176
     1
 62
    18
420
        0
176
     1
 90
       50
176
     1
 90
        3
176
     1
 62
     5
420
      255
176
     1
290
     0
176
     1
 90
       50
176
     1
 90
       50
176
     1
 90
       50
176
     1
290
     0
176
     1
 90
       50
176
     1
 62
   256
176
     0
 40
1.0
176
     0
 90
        2
176
     1
  1
strokes_ogs.tif
176
     1
290
     0
176
     1
 40
1.0
176
     1
 40
1.0
176
     1
  0
VISUALSTYLE
  5
34
102
{ACAD_REACTORS
330
2A
102
}
330
2A
100
AcDbVisualStyle
  2
Conceptual
 70
     9
177
     3
291
     0
 70
    58
 90
        3
176
     1
 90
        2
176
     1
 90
        0
176
     1
 90
        0
176
     1
 40
0.6
176
     1
 40
30.0
176
     1
 62
     7
420
 16777215
176
     1
 90
        2
176
     1
 90
        2
176
     1
 62
     7
176
     1
 62
   257
176
     1
 90
        1
176
     1
 90
        1
176
     1
 40
179.0
176
     1
 90
        8
176
     1
 62
     7
176
     1
 40
1.0
176
     1
 90
        1
176
     1
 90
        6
176
     1
 90
        2
176
     1
 62
     7
176
     1
 90
        3
176
     1
 90
        0
176
     1
 90
        0
176
     1
290
     0
176
     1
 90
        1
176
     1
 40
0.0
176
     1
 90
        0
176
     1
290
     0
176
     1
290
     1
176
     1
290
     1
176
     1
290
     0
176
     1
290
     0
176
     1
290
     0
176
     1
290
     0
176
     1
290
     0
176
     1
290
     0
176
     1
 90
       50
176
     1
 40
0.0
176
     1
 40
1.0
176
     1
 90
        0
176
     1
 62
    18
420
        0
176
     1
 90
       50
176
     1
 90
        3
176
     1
 62
     5
420
      255
176
     1
290
     0
176
     1
 90
       50
176
     1
 90
       50
176
     1
 90
       50
176
     1
290
     0
176
     1
 90
       50
176
     1
 62
   256
176
     0
 40
1.0
176
     0
 90
        2
176
     1
  1
strokes_ogs.tif
176
     1
290
     0
176
     1
 40
1.0
176
     1
 40
1.0
176
     1
  0
VISUALSTYLE
  5
35
102
{ACAD_REACTORS
330
2A
102
}
330
2A
100
AcDbVisualStyle
  2
Dim
 70
    11
177
     3
291
     1
 70
    58
 90
        2
176
     1
 90
        2
176
     1
 90
        0
176
     1
 90
        0
176
     1
 40
0.6
176
     1
 40
30.0
176
     1
 62
     7
420
 16777215
176
     1
 90
        1
176
     1
 90
        4
176
     1
 62
     7
176
     1
 62
   257
176
     1
 90
        1
176
     1
 90
        1
176
     1
 40
1.0
176
     1
 90
        8
176
     1
 62
     7
176
     1
 40
1.0
176
     1
 90
        1
176
     1
 90
        6
176
     1
 90
        2
176
     1
 62
     7
176
     1
 90
        5
176
     1
 90
        0
176
     1
 90
        0
176
     1
290
     0
176
     1
 90
        1
176
     1
 40
-50.0
176
     1
 90
        0
176
     1
290
     0
176
     1
290
     1
176
     1
290
     1
176
     1
290
     0
176
     1
290
     0
176
     1
290
     0
176
     1
290
     0
176
     1
290
     0
176
     1
290
     0
176
     1
 90
       50
176
     1
 40
0.0
176
     1
 40
1.0
176
     1
 90
        0
176
     1
 62
    18
420
        0
176
     1
 90
       50
176
     1
 90
        3
176
     1
 62
     5
420
      255
176
     1
290
     0
176
     1
 90
       50
176
     1
 90
       50
176
     1
 90
       50
176
     1
290
     0
176
     1
 90
       50
176
     1
 62
   256
176
     0
 40
1.0
176
     0
 90
        2
176
     1
  1
strokes_ogs.tif
176
     1
290
     0
176
     1
 40
1.0
176
     1
 40
1.0
176
     1
  0
VISUALSTYLE
  5
3D
102
{ACAD_REACTORS
330
2A
102
}
330
2A
100
AcDbVisualStyle
  2
EdgeColorOff
 70
    22
177
     3
291
     1
 70
    58
 90
        2
176
     0
 90
        2
176
     0
 90
        0
176
     0
 90
        0
176
     0
 40
0.6
176
     0
 40
30.0
176
     0
 62
     7
420
 16777215
176
     0
 90
        1
176
     0
 90
        4
176
     0
 62
     7
176
     0
 62
   257
176
     0
 90
        1
176
     0
 90
        1
176
     0
 40
1.0
176
     0
 90
        8
176
     2
 62
     7
176
     0
 40
1.0
176
     0
 90
        1
176
     0
 90
        6
176
     0
 90
        2
176
     0
 62
     7
176
     0
 90
        5
176
     0
 90
        0
176
     0
 90
        0
176
     0
290
     0
176
     0
 90
        1
176
     0
 40
0.0
176
     0
 90
        0
176
     0
290
     0
176
     0
290
     1
176
     0
290
     1
176
     0
290
     0
176
     0
290
     0
176
     0
290
     0
176
     0
290
     0
176
     0
290
     0
176
     0
290
     0
176
     0
 90
       50
176
     0
 40
0.0
176
     0
 40
1.0
176
     0
 90
        0
176
     0
 62
    18
420
        0
176
     0
 90
       50
176
     0
 90
        3
176
     0
 62
     5
420
      255
176
     0
290
     0
176
     0
 90
       50
176
     0
 90
       50
176
     0
 90
       50
176
     0
290
     0
176
     0
 90
       50
176
     0
 62
   256
176
     0
 40
1.0
176
     0
 90
        2
176
     0
  1
strokes_ogs.tif
176
     0
290
     0
176
     0
 40
1.0
176
     0
 40
1.0
176
     0
  0
VISUALSTYLE
  5
39
102
{ACAD_REACTORS
330
2A
102
}
330
2A
100
AcDbVisualStyle
  2
Facepattern
 70
    15
177
     3
291
     1
 70
    58
 90
        2
176
     1
 90
        2
176
     1
 90
        0
176
     1
 90
        0
176
     1
 40
0.6
176
     1
 40
30.0
176
     1
 62
     7
420
 16777215
176
     1
 90
        1
176
     1
 90
        4
176
     1
 62
     7
176
     1
 62
   257
176
     1
 90
        1
176
     1
 90
        1
176
     1
 40
1.0
176
     1
 90
        8
176
     1
 62
     7
176
     1
 40
1.0
176
     1
 90
        1
176
     1
 90
        6
176
     1
 90
        2
176
     1
 62
     7
176
     1
 90
        5
176
     1
 90
        0
176
     1
 90
        0
176
     1
290
     0
176
     1
 90
        1
176
     1
 40
0.0
176
     1
 90
        0
176
     1
290
     0
176
     1
290
     1
176
     1
290
     1
176
     1
290
     0
176
     1
290
     0
176
     1
290
     0
176
     1
290
     0
176
     1
290
     0
176
     1
290
     0
176
     1
 90
       50
176
     1
 40
0.0
176
     1
 40
1.0
176
     1
 90
        0
176
     1
 62
    18
420
        0
176
     1
 90
       50
176
     1
 90
        3
176
     1
 62
     5
420
      255
176
     1
290
     0
176
     1
 90
       50
176
     1
 90
       50
176
     1
 90
       50
176
     1
290
     0
176
     1
 90
       50
176
     1
 62
   256
176
     0
 40
1.0
176
     0
 90
        2
176
     1
  1
strokes_ogs.tif
176
     1
290
     0
176
     1
 40
1.0
176
     1
 40
1.0
176
     1
  0
VISUALSTYLE
  5
2B
102
{ACAD_REACTORS
330
2A
102
}
330
2A
100
AcDbVisualStyle
  2
Flat
 70
     0
177
     3
291
     1
 70
    58
 90
        2
176
     1
 90
        1
176
     1
 90
        1
176
     1
 90
        2
176
     1
 40
0.6
176
     1
 40
30.0
176
     1
 62
     7
420
 16777215
176
     1
 90
        0
176
     1
 90
        0
176
     1
 62
     7
176
     1
 62
   257
176
     1
 90
        1
176
     1
 90
        1
176
     1
 40
1.0
176
     1
 90
        8
176
     1
 62
     7
176
     1
 40
1.0
176
     1
 90
        1
176
     1
 90
        6
176
     1
 90
        2
176
     1
 62
     7
176
     1
 90
        5
176
     1
 90
        0
176
     1
 90
        0
176
     1
290
     0
176
     1
 90
       13
176
     1
 40
0.0
176
     1
 90
        0
176
     1
290
     0
176
     1
290
     1
176
     1
290
     1
176
     1
290
     0
176
     1
290
     0
176
     1
290
     0
176
     1
290
     0
176
     1
290
     0
176
     1
290
     0
176
     1
 90
       50
176
     1
 40
0.0
176
     1
 40
1.0
176
     1
 90
        0
176
     1
 62
    18
420
        0
176
     1
 90
       50
176
     1
 90
        3
176
     1
 62
     5
420
      255
176
     1
290
     0
176
     1
 90
       50
176
     1
 90
       50
176
     1
 90
       50
176
     1
290
     0
176
     1
 90
       50
176
     1
 62
   256
176
     0
 40
1.0
176
     0
 90
        2
176
     1
  1
strokes_ogs.tif
176
     1
290
     0
176
     1
 40
1.0
176
     1
 40
1.0
176
     1
  0
VISUALSTYLE
  5
2C
102
{ACAD_REACTORS
330
2A
102
}
330
2A
100
AcDbVisualStyle
  2
FlatWithEdges
 70
     1
177
     3
291
     1
 70
    58
 90
        2
176
     1
 90
        1
176
     1
 90
        1
176
     1
 90
        2
176
     1
 40
0.6
176
     1
 40
30.0
176
     1
 62
     7
420
 16777215
176
     1
 90
        1
176
     1
 90
        0
176
     1
 62
     7
176
     1
 62
   257
176
     1
 90
        1
176
     1
 90
        1
176
     1
 40
1.0
176
     1
 90
        0
176
     1
 62
   257
176
     1
 40
1.0
176
     1
 90
        1
176
     1
 90
        6
176
     1
 90
        2
176
     1
 62
     7
176
     1
 90
        5
176
     1
 90
        0
176
     1
 90
        0
176
     1
290
     0
176
     1
 90
       13
176
     1
 40
0.0
176
     1
 90
        0
176
     1
290
     0
176
     1
290
     1
176
     1
290
     1
176
     1
290
     0
176
     1
290
     0
176
     1
290
     0
176
     1
290
     0
176
     1
290
     0
176
     1
290
     0
176
     1
 90
       50
176
     1
 40
0.0
176
     1
 40
1.0
176
     1
 90
        0
176
     1
 62
    18
420
        0
176
     1
 90
       50
176
     1
 90
        3
176
     1
 62
     5
420
      255
176
     1
290
     0
176
     1
 90
       50
176
     1
 90
       50
176
     1
 90
       50
176
     1
290
     0
176
     1
 90
       50
176
     1
 62
   256
176
     0
 40
1.0
176
     0
 90
        2
176
     1
  1
strokes_ogs.tif
176
     1
290
     0
176
     1
 40
1.0
176
     1
 40
1.0
176
     1
  0
VISUALSTYLE
  5
2D
102
{ACAD_REACTORS
330
2A
102
}
330
2A
100
AcDbVisualStyle
  2
Gouraud
 70
     2
177
     3
291
     1
 70
    58
 90
        2
176
     1
 90
        2
176
     1
 90
        1
176
     1
 90
        2
176
     1
 40
0.6
176
     1
 40
30.0
176
     1
 62
     7
420
 16777215
176
     1
 90
        0
176
     1
 90
        0
176
     1
 62
     7
176
     1
 62
   257
176
     1
 90
        1
176
     1
 90
        1
176
     1
 40
1.0
176
     1
 90
        0
176
     1
 62
     7
176
     1
 40
1.0
176
     1
 90
        1
176
     1
 90
        6
176
     1
 90
        2
176
     1
 62
     7
176
     1
 90
        5
176
     1
 90
        0
176
     1
 90
        0
176
     1
290
     0
176
     1
 90
       13
176
     1
 40
0.0
176
     1
 90
        0
176
     1
290
     0
176
     1
290
     1
176
     1
290
     1
176
     1
290
     0
176
     1
290
     0
176
     1
290
     0
176
     1
290
     0
176
     1
290
     0
176
     1
290
     0
176
     1
 90
       50
176
     1
 40
0.0
176
     1
 40
1.0
176
     1
 90
        0
176
     1
 62
    18
420
        0
176
     1
 90
       50
176
     1
 90
        3
176
     1
 62
     5
420
      255
176
     1
290
     0
176
     1
 90
       50
176
     1
 90
       50
176
     1
 90
       50
176
     1
290
     0
176
     1
 90
       50
176
     1
 62
   256
176
     0
 40
1.0
176
     0
 90
        2
176
     1
  1
strokes_ogs.tif
176
     1
290
     0
176
     1
 40
1.0
176
     1
 40
1.0
176
     1
  0
VISUALSTYLE
  5
2E
102
{ACAD_REACTORS
330
2A
102
}
330
2A
100
AcDbVisualStyle
  2
GouraudWithEdges
 70
     3
177
     3
291
     1
 70
    58
 90
        2
176
     1
 90
        2
176
     1
 90
        1
176
     1
 90
        2
176
     1
 40
0.6
176
     1
 40
30.0
176
     1
 62
     7
420
 16777215
176
     1
 90
        1
176
     1
 90
        0
176
     1
 62
     7
176
     1
 62
   257
176
     1
 90
        1
176
     1
 90
        1
176
     1
 40
1.0
176
     1
 90
        0
176
     1
 62
   257
176
     1
 40
1.0
176
     1
 90
        1
176
     1
 90
        6
176
     1
 90
        2
176
     1
 62
     7
176
     1
 90
        5
176
     1
 90
        0
176
     1
 90
        0
176
     1
290
     0
176
     1
 90
       13
176
     1
 40
0.0
176
     1
 90
        0
176
     1
290
     0
176
     1
290
     1
176
     1
290
     1
176
     1
290
     0
176
     1
290
     0
176
     1
290
     0
176
     1
290
     0
176
     1
290
     0
176
     1
290
     0
176
     1
 90
       50
176
     1
 40
0.0
176
     1
 40
1.0
176
     1
 90
        0
176
     1
 62
    18
420
        0
176
     1
 90
       50
176
     1
 90
        3
176
     1
 62
     5
420
      255
176
     1
290
     0
176
     1
 90
       50
176
     1
 90
       50
176
     1
 90
       50
176
     1
290
     0
176
     1
 90
       50
176
     1
 62
   256
176
     0
 40
1.0
176
     0
 90
        2
176
     1
  1
strokes_ogs.tif
176
     1
290
     0
176
     1
 40
1.0
176
     1
 40
1.0
176
     1
  0
VISUALSTYLE
  5
31
102
{ACAD_REACTORS
330
2A
102
}
330
2A
100
AcDbVisualStyle
  2
Hidden
 70
     6
177
     3
291
     0
 70
    58
 90
        1
176
     1
 90
        2
176
     1
 90
        2
176
     1
 90
        0
176
     1
 40
0.6
176
     1
 40
30.0
176
     1
 62
     7
420
 16777215
176
     1
 90
        2
176
     1
 90
        2
176
     1
 62
     7
176
     1
 62
   257
176
     1
 90
        2
176
     1
 90
        1
176
     1
 40
40.0
176
     1
 90
        0
176
     1
 62
   257
176
     1
 40
1.0
176
     1
 90
        1
176
     1
 90
        6
176
     1
 90
        2
176
     1
 62
     7
176
     1
 90
        3
176
     1
 90
        0
176
     1
 90
        0
176
     1
290
     0
176
     1
 90
        1
176
     1
 40
0.0
176
     1
 90
        0
176
     1
290
     0
176
     1
290
     1
176
     1
290
     1
176
     1
290
     0
176
     1
290
     0
176
     1
290
     0
176
     1
290
     0
176
     1
290
     0
176
     1
290
     0
176
     1
 90
       50
176
     1
 40
0.0
176
     1
 40
1.0
176
     1
 90
        0
176
     1
 62
    18
420
        0
176
     1
 90
       50
176
     1
 90
        3
176
     1
 62
     5
420
      255
176
     1
290
     0
176
     1
 90
       50
176
     1
 90
       50
176
     1
 90
       50
176
     1
290
     0
176
     1
 90
       50
176
     1
 62
   256
176
     0
 40
1.0
176
     0
 90
        2
176
     1
  1
strokes_ogs.tif
176
     1
290
     0
176
     1
 40
1.0
176
     1
 40
1.0
176
     1
  0
VISUALSTYLE
  5
3B
102
{ACAD_REACTORS
330
2A
102
}
330
2A
100
AcDbVisualStyle
  2
JitterOff
 70
    20
177
     3
291
     1
 70
    58
 90
        2
176
     0
 90
        2
176
     0
 90
        0
176
     0
 90
        0
176
     0
 40
0.6
176
     0
 40
30.0
176
     0
 62
     7
420
 16777215
176
     0
 90
        1
176
     0
 90
        4
176
     0
 62
     7
176
     0
 62
   257
176
     0
 90
        1
176
     0
 90
        1
176
     0
 40
1.0
176
     0
 90
       10
176
     2
 62
     7
176
     0
 40
1.0
176
     0
 90
        1
176
     0
 90
        6
176
     0
 90
        2
176
     0
 62
     7
176
     0
 90
        5
176
     0
 90
        0
176
     0
 90
        0
176
     0
290
     0
176
     0
 90
        1
176
     0
 40
0.0
176
     0
 90
        0
176
     0
290
     0
176
     0
290
     1
176
     0
290
     1
176
     0
290
     0
176
     0
290
     0
176
     0
290
     0
176
     0
290
     0
176
     0
290
     0
176
     0
290
     0
176
     0
 90
       50
176
     0
 40
0.0
176
     0
 40
1.0
176
     0
 90
        0
176
     0
 62
    18
420
        0
176
     0
 90
       50
176
     0
 90
        3
176
     0
 62
     5
420
      255
176
     0
290
     0
176
     0
 90
       50
176
     0
 90
       50
176
     0
 90
       50
176
     0
290
     0
176
     0
 90
       50
176
     0
 62
   256
176
     0
 40
1.0
176
     0
 90
        2
176
     0
  1
strokes_ogs.tif
176
     0
290
     0
176
     0
 40
1.0
176
     0
 40
1.0
176
     0
  0
VISUALSTYLE
  5
38
102
{ACAD_REACTORS
330
2A
102
}
330
2A
100
AcDbVisualStyle
  2
Linepattern
 70
    14
177
     3
291
     1
 70
    58
 90
        2
176
     1
 90
        2
176
     1
 90
        0
176
     1
 90
        0
176
     1
 40
0.6
176
     1
 40
30.0
176
     1
 62
     7
420
 16777215
176
     1
 90
        1
176
     1
 90
        4
176
     1
 62
     7
176
     1
 62
   257
176
     1
 90
        7
176
     1
 90
        7
176
     1
 40
1.0
176
     1
 90
        8
176
     1
 62
     7
176
     1
 40
1.0
176
     1
 90
        1
176
     1
 90
        6
176
     1
 90
        2
176
     1
 62
     7
176
     1
 90
        5
176
     1
 90
        0
176
     1
 90
        0
176
     1
290
     0
176
     1
 90
        1
176
     1
 40
0.0
176
     1
 90
        0
176
     1
290
     0
176
     1
290
     1
176
     1
290
     1
176
     1
290
     0
176
     1
290
     0
176
     1
290
     0
176
     1
290
     0
176
     1
290
     0
176
     1
290
     0
176
     1
 90
       50
176
     1
 40
0.0
176
     1
 40
1.0
176
     1
 90
        0
176
     1
 62
    18
420
        0
176
     1
 90
       50
176
     1
 90
        3
176
     1
 62
     5
420
      255
176
     1
290
     0
176
     1
 90
       50
176
     1
 90
       50
176
     1
 90
       50
176
     1
290
     0
176
     1
 90
       50
176
     1
 62
   256
176
     0
 40
1.0
176
     0
 90
        2
176
     1
  1
strokes_ogs.tif
176
     1
290
     0
176
     1
 40
1.0
176
     1
 40
1.0
176
     1
  0
VISUALSTYLE
  5
3C
102
{ACAD_REACTORS
330
2A
102
}
330
2A
100
AcDbVisualStyle
  2
OverhangOff
 70
    21
177
     3
291
     1
 70
    58
 90
        2
176
     0
 90
        2
176
     0
 90
        0
176
     0
 90
        0
176
     0
 40
0.6
176
     0
 40
30.0
176
     0
 62
     7
420
 16777215
176
     0
 90
        1
176
     0
 90
        4
176
     0
 62
     7
176
     0
 62
   257
176
     0
 90
        1
176
     0
 90
        1
176
     0
 40
1.0
176
     0
 90
        9
176
     2
 62
     7
176
     0
 40
1.0
176
     0
 90
        1
176
     0
 90
        6
176
     0
 90
        2
176
     0
 62
     7
176
     0
 90
        5
176
     0
 90
        0
176
     0
 90
        0
176
     0
290
     0
176
     0
 90
        1
176
     0
 40
0.0
176
     0
 90
        0
176
     0
290
     0
176
     0
290
     1
176
     0
290
     1
176
     0
290
     0
176
     0
290
     0
176
     0
290
     0
176
     0
290
     0
176
     0
290
     0
176
     0
290
     0
176
     0
 90
       50
176
     0
 40
0.0
176
     0
 40
1.0
176
     0
 90
        0
176
     0
 62
    18
420
        0
176
     0
 90
       50
176
     0
 90
        3
176
     0
 62
     5
420
      255
176
     0
290
     0
176
     0
 90
       50
176
     0
 90
       50
176
     0
 90
       50
176
     0
290
     0
176
     0
 90
       50
176
     0
 62
   256
176
     0
 40
1.0
176
     0
 90
        2
176
     0
  1
strokes_ogs.tif
176
     0
290
     0
176
     0
 40
1.0
176
     0
 40
1.0
176
     0
  0
VISUALSTYLE
  5
33
102
{ACAD_REACTORS
330
2A
102
}
330
2A
100
AcDbVisualStyle
  2
Realistic
 70
     8
177
     3
291
     0
 70
    58
 90
        2
176
     1
 90
        3
176
     1
 90
        0
176
     1
 90
        2
176
     1
 40
0.6
176
     1
 40
30.0
176
     1
 62
     7
420
 16777215
176
     1
 90
        0
176
     1
 90
        0
176
     1
 62
     7
176
     1
 62
   257
176
     1
 90
        1
176
     1
 90
        1
176
     1
 40
1.0
176
     1
 90
        8
176
     1
 62
   257
176
     1
 40
1.0
176
     1
 90
        1
176
     1
 90
        6
176
     1
 90
        2
176
     1
 62
     7
176
     1
 90
        3
176
     1
 90
        0
176
     1
 90
        0
176
     1
290
     0
176
     1
 90
       13
176
     1
 40
0.0
176
     1
 90
        0
176
     1
290
     0
176
     1
290
     1
176
     1
290
     1
176
     1
290
     0
176
     1
290
     0
176
     1
290
     0
176
     1
290
     0
176
     1
290
     0
176
     1
290
     0
176
     1
 90
       50
176
     1
 40
0.0
176
     1
 40
1.0
176
     1
 90
        0
176
     1
 62
    18
420
        0
176
     1
 90
       50
176
     1
 90
        3
176
     1
 62
     5
420
      255
176
     1
290
     0
176
     1
 90
       50
176
     1
 90
       50
176
     1
 90
       50
176
     1
290
     0
176
     1
 90
       50
176
     1
 62
   256
176
     0
 40
1.0
176
     0
 90
        2
176
     1
  1
strokes_ogs.tif
176
     1
290
     0
176
     1
 40
1.0
176
     1
 40
1.0
176
     1
  0
VISUALSTYLE
  5
42
102
{ACAD_REACTORS
330
2A
102
}
330
2A
100
AcDbVisualStyle
  2
Shaded
 70
    27
177
     3
291
     0
 70
    58
 90
        2
176
     1
 90
        2
176
     1
 90
        1
176
     1
 90
        2
176
     1
 40
0.6
176
     1
 40
30.0
176
     1
 62
     7
420
 16777215
176
     1
 90
        0
176
     1
 90
        4
176
     1
 62
     7
176
     1
 62
   257
176
     1
 90
        1
176
     1
 90
        1
176
     1
 40
1.0
176
     1
 90
        8
176
     1
 62
   257
176
     1
 40
1.0
176
     1
 90
        1
176
     1
 90
        6
176
     1
 90
        2
176
     1
 62
     8
420
  7895160
176
     1
 90
        3
176
     1
 90
        0
176
     1
 90
        0
176
     1
290
     0
176
     1
 90
        5
176
     1
 40
0.0
176
     1
 90
        0
176
     1
290
     0
176
     1
290
     1
176
     1
290
     1
176
     1
290
     0
176
     1
290
     0
176
     1
290
     0
176
     1
290
     0
176
     1
290
     0
176
     1
290
     0
176
     1
 90
       50
176
     1
 40
0.0
176
     1
 40
1.0
176
     1
 90
        0
176
     1
 62
    18
420
        0
176
     1
 90
       50
176
     1
 90
        3
176
     1
 62
     5
420
      255
176
     1
290
     0
176
     1
 90
       50
176
     1
 90
       50
176
     1
 90
       50
176
     1
290
     0
176
     1
 90
       50
176
     1
 62
   256
176
     0
 40
1.0
176
     0
 90
        2
176
     1
  1
strokes_ogs.tif
176
     1
290
     0
176
     1
 40
1.0
176
     1
 40
1.0
176
     1
  0
VISUALSTYLE
  5
41
102
{ACAD_REACTORS
330
2A
102
}
330
2A
100
AcDbVisualStyle
  2
Shaded with edges
 70
    26
177
     3
291
     0
 70
    58
 90
        2
176
     1
 90
        2
176
     1
 90
        1
176
     1
 90
        2
176
     1
 40
0.6
176
     1
 40
30.0
176
     1
 62
     7
420
 16777215
176
     1
 90
        1
176
     1
 90
       10
176
     1
 62
     7
176
     1
 62
   257
176
     1
 90
        2
176
     1
 90
        1
176
     1
 40
1.0
176
     1
 90
        8
176
     1
 62
   257
176
     1
 40
1.0
176
     1
 90
        1
176
     1
 90
        6
176
     1
 90
        2
176
     1
 62
     7
176
     1
 90
        3
176
     1
 90
        0
176
     1
 90
        0
176
     1
290
     0
176
     1
 90
        5
176
     1
 40
0.0
176
     1
 90
        0
176
     1
290
     0
176
     1
290
     1
176
     1
290
     1
176
     1
290
     0
176
     1
290
     0
176
     1
290
     0
176
     1
290
     0
176
     1
290
     0
176
     1
290
     0
176
     1
 90
       50
176
     1
 40
0.0
176
     1
 40
1.0
176
     1
 90
        0
176
     1
 62
    18
420
        0
176
     1
 90
       50
176
     1
 90
        3
176
     1
 62
     5
420
      255
176
     1
290
     0
176
     1
 90
       50
176
     1
 90
       50
176
     1
 90
       50
176
     1
290
     0
176
     1
 90
       50
176
     1
 62
   256
176
     0
 40
1.0
176
     0
 90
        2
176
     1
  1
strokes_ogs.tif
176
     1
290
     0
176
     1
 40
1.0
176
     1
 40
1.0
176
     1
  0
VISUALSTYLE
  5
3E
102
{ACAD_REACTORS
330
2A
102
}
330
2A
100
AcDbVisualStyle
  2
Shades of Gray
 70
    23
177
     3
291
     0
 70
    58
 90
        2
176
     1
 90
        2
176
     1
 90
        3
176
     1
 90
        0
176
     1
 40
0.6
176
     1
 40
30.0
176
     1
 62
     7
420
 16777215
176
     1
 90
        2
176
     1
 90
        2
176
     1
 62
     7
176
     1
 62
     7
176
     1
 90
        1
176
     1
 90
        1
176
     1
 40
40.0
176
     1
 90
        8
176
     1
 62
     7
176
     1
 40
1.0
176
     1
 90
        1
176
     1
 90
        6
176
     1
 90
        2
176
     1
 62
     7
176
     1
 90
        3
176
     1
 90
        0
176
     1
 90
        0
176
     1
290
     0
176
     1
 90
        1
176
     1
 40
0.0
176
     1
 90
        0
176
     1
290
     0
176
     1
290
     1
176
     1
290
     1
176
     1
290
     0
176
     1
290
     0
176
     1
290
     0
176
     1
290
     0
176
     1
290
     0
176
     1
290
     0
176
     1
 90
       50
176
     1
 40
0.0
176
     1
 40
1.0
176
     1
 90
        0
176
     1
 62
    18
420
        0
176
     1
 90
       50
176
     1
 90
        3
176
     1
 62
     5
420
      255
176
     1
290
     0
176
     1
 90
       50
176
     1
 90
       50
176
     1
 90
       50
176
     1
290
     0
176
     1
 90
       50
176
     1
 62
   256
176
     0
 40
1.0
176
     0
 90
        2
176
     1
  1
strokes_ogs.tif
176
     1
290
     0
176
     1
 40
1.0
176
     1
 40
1.0
176
     1
  0
VISUALSTYLE
  5
3F
102
{ACAD_REACTORS
330
2A
102
}
330
2A
100
AcDbVisualStyle
  2
Sketchy
 70
    24
177
     3
291
     0
 70
    58
 90
        1
176
     1
 90
        2
176
     1
 90
        2
176
     1
 90
        0
176
     1
 40
0.6
176
     1
 40
30.0
176
     1
 62
     7
420
 16777215
176
     1
 90
        2
176
     1
 90
        2
176
     1
 62
     7
176
     1
 62
     7
176
     1
 90
        1
176
     1
 90
        1
176
     1
 40
40.0
176
     1
 90
       11
176
     1
 62
     7
176
     1
 40
1.0
176
     1
 90
        1
176
     1
 90
        6
176
     1
 90
        2
176
     1
 62
     7
176
     1
 90
        6
176
     1
 90
        0
176
     1
 90
        0
176
     1
290
     0
176
     1
 90
        1
176
     1
 40
0.0
176
     1
 90
        0
176
     1
290
     0
176
     1
290
     1
176
     1
290
     1
176
     1
290
     0
176
     1
290
     0
176
     1
290
     0
176
     1
290
     0
176
     1
290
     0
176
     1
290
     0
176
     1
 90
       50
176
     1
 40
0.0
176
     1
 40
1.0
176
     1
 90
        0
176
     1
 62
    18
420
        0
176
     1
 90
       50
176
     1
 90
        3
176
     1
 62
     5
420
      255
176
     1
290
     0
176
     1
 90
       50
176
     1
 90
       50
176
     1
 90
       50
176
     1
290
     0
176
     1
 90
       50
176
     1
 62
   256
176
     0
 40
1.0
176
     0
 90
        2
176
     1
  1
strokes_ogs.tif
176
     1
290
     0
176
     1
 40
1.0
176
     1
 40
1.0
176
     1
  0
VISUALSTYLE
  5
37
102
{ACAD_REACTORS
330
2A
102
}
330
2A
100
AcDbVisualStyle
  2
Thicken
 70
    13
177
     3
291
     1
 70
    58
 90
        2
176
     1
 90
        2
176
     1
 90
        0
176
     1
 90
        0
176
     1
 40
0.6
176
     1
 40
30.0
176
     1
 62
     7
420
 16777215
176
     1
 90
        1
176
     1
 90
        4
176
     1
 62
     7
176
     1
 62
   257
176
     1
 90
        1
176
     1
 90
        1
176
     1
 40
1.0
176
     1
 90
       12
176
     1
 62
     7
176
     1
 40
1.0
176
     1
 90
        1
176
     1
 90
        6
176
     1
 90
        2
176
     1
 62
     7
176
     1
 90
        5
176
     1
 90
        0
176
     1
 90
        0
176
     1
290
     0
176
     1
 90
        1
176
     1
 40
0.0
176
     1
 90
        0
176
     1
290
     0
176
     1
290
     1
176
     1
290
     1
176
     1
290
     0
176
     1
290
     0
176
     1
290
     0
176
     1
290
     0
176
     1
290
     0
176
     1
290
     0
176
     1
 90
       50
176
     1
 40
0.0
176
     1
 40
1.0
176
     1
 90
        0
176
     1
 62
    18
420
        0
176
     1
 90
       50
176
     1
 90
        3
176
     1
 62
     5
420
      255
176
     1
290
     0
176
     1
 90
       50
176
     1
 90
       50
176
     1
 90
       50
176
     1
290
     0
176
     1
 90
       50
176
     1
 62
   256
176
     0
 40
1.0
176
     0
 90
        2
176
     1
  1
strokes_ogs.tif
176
     1
290
     0
176
     1
 40
1.0
176
     1
 40
1.0
176
     1
  0
VISUALSTYLE
  5
30
102
{ACAD_REACTORS
330
2A
102
}
330
2A
100
AcDbVisualStyle
  2
Wireframe
 70
     5
177
     3
291
     0
 70
    58
 90
        0
176
     1
 90
        2
176
     1
 90
        0
176
     1
 90
        0
176
     1
 40
0.6
176
     1
 40
30.0
176
     1
 62
     7
420
 16777215
176
     1
 90
        1
176
     1
 90
        4
176
     1
 62
     7
176
     1
 62
   257
176
     1
 90
        1
176
     1
 90
        1
176
     1
 40
1.0
176
     1
 90
        0
176
     1
 62
   257
176
     1
 40
1.0
176
     1
 90
        1
176
     1
 90
        6
176
     1
 90
        2
176
     1
 62
     7
176
     1
 90
        3
176
     1
 90
        0
176
     1
 90
        0
176
     1
290
     0
176
     1
 90
        1
176
     1
 40
0.0
176
     1
 90
        0
176
     1
290
     0
176
     1
290
     1
176
     1
290
     1
176
     1
290
     0
176
     1
290
     0
176
     1
290
     0
176
     1
290
     0
176
     1
290
     0
176
     1
290
     0
176
     1
 90
       50
176
     1
 40
0.0
176
     1
 40
1.0
176
     1
 90
        0
176
     1
 62
    18
420
        0
176
     1
 90
       50
176
     1
 90
        3
176
     1
 62
     5
420
      255
176
     1
290
     0
176
     1
 90
       50
176
     1
 90
       50
176
     1
 90
       50
176
     1
290
     0
176
     1
 90
       50
176
     1
 62
   256
176
     0
 40
1.0
176
     0
 90
        2
176
     1
  1
strokes_ogs.tif
176
     1
290
     0
176
     1
 40
1.0
176
     1
 40
1.0
176
     1
  0
VISUALSTYLE
  5
40
102
{ACAD_REACTORS
330
2A
102
}
330
2A
100
AcDbVisualStyle
  2
X-Ray
 70
    25
177
     3
291
     0
 70
    58
 90
        2
176
     1
 90
        2
176
     1
 90
        1
176
     1
 90
        1
176
     1
 40
0.5
176
     1
 40
30.0
176
     1
 62
     7
420
 16777215
176
     1
 90
        1
176
     1
 90
        0
176
     1
 62
     7
176
     1
 62
   257
176
     1
 90
        1
176
     1
 90
        1
176
     1
 40
1.0
176
     1
 90
        8
176
     1
 62
     7
176
     1
 40
1.0
176
     1
 90
        1
176
     1
 90
        6
176
     1
 90
        2
176
     1
 62
     7
176
     1
 90
        3
176
     1
 90
        0
176
     1
 90
        0
176
     1
290
     0
176
     1
 90
       13
176
     1
 40
0.0
176
     1
 90
        0
176
     1
290
     0
176
     1
290
     1
176
     1
290
     1
176
     1
290
     0
176
     1
290
     0
176
     1
290
     0
176
     1
290
     0
176
     1
290
     0
176
     1
290
     0
176
     1
 90
       50
176
     1
 40
0.0
176
     1
 40
1.0
176
     1
 90
        0
176
     1
 62
    18
420
        0
176
     1
 90
       50
176
     1
 90
        3
176
     1
 62
     5
420
      255
176
     1
290
     0
176
     1
 90
       50
176
     1
 90
       50
176
     1
 90
       50
176
     1
290
     0
176
     1
 90
       50
176
     1
 62
   256
176
     0
 40
1.0
176
     0
 90
        2
176
     1
  1
strokes_ogs.tif
176
     1
290
     0
176
     1
 40
1.0
176
     1
 40
1.0
176
     1
  0
DICTIONARYVAR
  5
168
102
{ACAD_REACTORS
330
167
102
}
330
167
100
DictionaryVariables
280
     0
  1
1:1
  0
DICTIONARYVAR
  5
16D
102
{ACAD_REACTORS
330
167
102
}
330
167
100
DictionaryVariables
280
     0
  1
Standard
  0
DICTIONARYVAR
  5
16C
102
{ACAD_REACTORS
330
167
102
}
330
167
100
DictionaryVariables
280
     0
  1
Standard
  0
DICTIONARY
  5
169
330
6A
100
AcDbDictionary
280
     1
281
     1
  3
ACAD_ROUNDTRIP_2008_TABLESTYLE_CELLSTYLEMAP
360
16A
  0
CELLSTYLEMAP
  5
16A
102
{ACAD_REACTORS
330
169
102
}
330
169
100
AcDbCellStyleMap
 90
        3
300
CELLSTYLE
  1
TABLEFORMAT_BEGIN
 90
        5
170
     1
 91
        0
 92
    32768
 62
   257
 93
        1
300
CONTENTFORMAT
  1
CONTENTFORMAT_BEGIN
 90
        0
 91
        0
 92
        4
 93
        0
300

 40
0.0
140
1.0
 94
        5
 62
     0
340
11
144
0.25
309
CONTENTFORMAT_END
171
     1
301
MARGIN
  1
CELLMARGIN_BEGIN
 40
0.06
 40
0.06
 40
0.06
 40
0.06
 40
0.06
 40
0.06
309
CELLMARGIN_END
 94
        6
 95
        1
302
GRIDFORMAT
  1
GRIDFORMAT_BEGIN
 90
        0
 91
        1
 62
     0
 92
       -2
340
14
 93
        0
 40
0.045
309
GRIDFORMAT_END
 95
        2
302
GRIDFORMAT
  1
GRIDFORMAT_BEGIN
 90
        0
 91
        1
 62
     0
 92
       -2
340
14
 93
        0
 40
0.045
309
GRIDFORMAT_END
 95
        4
302
GRIDFORMAT
  1
GRIDFORMAT_BEGIN
 90
        0
 91
        1
 62
     0
 92
       -2
340
14
 93
        0
 40
0.045
309
GRIDFORMAT_END
 95
        8
302
GRIDFORMAT
  1
GRIDFORMAT_BEGIN
 90
        0
 91
        1
 62
     0
 92
       -2
340
14
 93
        0
 40
0.045
309
GRIDFORMAT_END
 95
       16
302
GRIDFORMAT
  1
GRIDFORMAT_BEGIN
 90
        0
 91
        1
 62
     0
 92
       -2
340
14
 93
        0
 40
0.045
309
GRIDFORMAT_END
 95
       32
302
GRIDFORMAT
  1
GRIDFORMAT_BEGIN
 90
        0
 91
        1
 62
     0
 92
       -2
340
14
 93
        0
 40
0.045
309
GRIDFORMAT_END
309
TABLEFORMAT_END
  1
CELLSTYLE_BEGIN
 90
        1
 91
        1
300
_TITLE
309
CELLSTYLE_END
300
CELLSTYLE
  1
TABLEFORMAT_BEGIN
 90
        5
170
     1
 91
        0
 92
        0
 62
   257
 93
        1
300
CONTENTFORMAT
  1
CONTENTFORMAT_BEGIN
 90
        0
 91
        0
 92
        4
 93
        0
300

 40
0.0
140
1.0
 94
        5
 62
     0
340
11
144
0.18
309
CONTENTFORMAT_END
171
     1
301
MARGIN
  1
CELLMARGIN_BEGIN
 40
0.06
 40
0.06
 40
0.06
 40
0.06
 40
0.06
 40
0.06
309
CELLMARGIN_END
 94
        6
 95
        1
302
GRIDFORMAT
  1
GRIDFORMAT_BEGIN
 90
        0
 91
        1
 62
     0
 92
       -2
340
14
 93
        0
 40
0.045
309
GRIDFORMAT_END
 95
        2
302
GRIDFORMAT
  1
GRIDFORMAT_BEGIN
 90
        0
 91
        1
 62
     0
 92
       -2
340
14
 93
        0
 40
0.045
309
GRIDFORMAT_END
 95
        4
302
GRIDFORMAT
  1
GRIDFORMAT_BEGIN
 90
        0
 91
        1
 62
     0
 92
       -2
340
14
 93
        0
 40
0.045
309
GRIDFORMAT_END
 95
        8
302
GRIDFORMAT
  1
GRIDFORMAT_BEGIN
 90
        0
 91
        1
 62
     0
 92
       -2
340
14
 93
        0
 40
0.045
309
GRIDFORMAT_END
 95
       16
302
GRIDFORMAT
  1
GRIDFORMAT_BEGIN
 90
        0
 91
        1
 62
     0
 92
       -2
340
14
 93
        0
 40
0.045
309
GRIDFORMAT_END
 95
       32
302
GRIDFORMAT
  1
GRIDFORMAT_BEGIN
 90
        0
 91
        1
 62
     0
 92
       -2
340
14
 93
        0
 40
0.045
309
GRIDFORMAT_END
309
TABLEFORMAT_END
  1
CELLSTYLE_BEGIN
 90
        2
 91
        1
300
_HEADER
309
CELLSTYLE_END
300
CELLSTYLE
  1
TABLEFORMAT_BEGIN
 90
        5
170
     1
 91
        0
 92
        0
 62
   257
 93
        1
300
CONTENTFORMAT
  1
CONTENTFORMAT_BEGIN
 90
        0
 91
        0
 92
        4
 93
        0
300

 40
0.0
140
1.0
 94
        2
 62
     0
340
11
144
0.18
309
CONTENTFORMAT_END
171
     1
301
MARGIN
  1
CELLMARGIN_BEGIN
 40
0.06
 40
0.06
 40
0.06
 40
0.06
 40
0.06
 40
0.06
309
CELLMARGIN_END
 94
        6
 95
        1
302
GRIDFORMAT
  1
GRIDFORMAT_BEGIN
 90
        0
 91
        1
 62
     0
 92
       -2
340
14
 93
        0
 40
0.045
309
GRIDFORMAT_END
 95
        2
302
GRIDFORMAT
  1
GRIDFORMAT_BEGIN
 90
        0
 91
        1
 62
     0
 92
       -2
340
14
 93
        0
 40
0.045
309
GRIDFORMAT_END
 95
        4
302
GRIDFORMAT
  1
GRIDFORMAT_BEGIN
 90
        0
 91
        1
 62
     0
 92
       -2
340
14
 93
        0
 40
0.045
309
GRIDFORMAT_END
 95
        8
302
GRIDFORMAT
  1
GRIDFORMAT_BEGIN
 90
        0
 91
        1
 62
     0
 92
       -2
340
14
 93
        0
 40
0.045
309
GRIDFORMAT_END
 95
       16
302
GRIDFORMAT
  1
GRIDFORMAT_BEGIN
 90
        0
 91
        1
 62
     0
 92
       -2
340
14
 93
        0
 40
0.045
309
GRIDFORMAT_END
 95
       32
302
GRIDFORMAT
  1
GRIDFORMAT_BEGIN
 90
        0
 91
        1
 62
     0
 92
       -2
340
14
 93
        0
 40
0.045
309
GRIDFORMAT_END
309
TABLEFORMAT_END
  1
CELLSTYLE_BEGIN
 90
        3
 91
        2
300
_DATA
309
CELLSTYLE_END
  0
ENDSEC
  0
EOF