0
SECTION
  2
HEADER
  9
$ACADVER
  1
AC1027
  9
$ACADMAINTVER
 70
     8
  9
$DWGCODEPAGE
  3
ANSI_1252
  9
$REQUIREDVERSIONS
160
                 0
  9
$COMMENTS
  1
File was created by Cadenas
  9
$CUSTOMPROPERTYTAG
  1
NN
  9
$CUSTOMPROPERTY
  1
Set Screw LF  Normal Duty 3-Bolt Flange Inch Bore
  9
$CUSTOMPROPERTYTAG
  1
NT
  9
$CUSTOMPROPERTY
  1
SC 3 Bolt Flange Bearings -(Normal Duty) -Re-Lube and No-Lube
  9
$CUSTOMPROPERTYTAG
  1
NB
  9
$CUSTOMPROPERTY
  1
124628
  9
$CUSTOMPROPERTYTAG
  1
NBSYN
  9
$CUSTOMPROPERTY
  1
$PN.
  9
$CUSTOMPROPERTYTAG
  1
LINA
  9
$CUSTOMPROPERTY
  1
124628
  9
$CUSTOMPROPERTYTAG
  1
SERIES
  9
$CUSTOMPROPERTY
  1
206
  9
$CUSTOMPROPERTYTAG
  1
SS
  9
$CUSTOMPROPERTY
  1
1-3/16
  9
$CUSTOMPROPERTYTAG
  1
PN
  9
$CUSTOMPROPERTY
  1
124628
  9
$CUSTOMPROPERTYTAG
  1
DESCRIPTION
  9
$CUSTOMPROPERTY
  1
LF-SC-103-NL
  9
$CUSTOMPROPERTYTAG
  1
W
  9
$CUSTOMPROPERTY
  1
1.55
  9
$CUSTOMPROPERTYTAG
  1
LF
  9
$CUSTOMPROPERTY
  1
NO-LUBE
  9
$CUSTOMPROPERTYTAG
  1
A
  9
$CUSTOMPROPERTY
  1
1.26
  9
$CUSTOMPROPERTYTAG
  1
B
  9
$CUSTOMPROPERTY
  1
4.44
  9
$CUSTOMPROPERTYTAG
  1
C
  9
$CUSTOMPROPERTY
  1
1.45
  9
$CUSTOMPROPERTYTAG
  1
D
  9
$CUSTOMPROPERTY
  1
3.56
  9
$CUSTOMPROPERTYTAG
  1
G
  9
$CUSTOMPROPERTY
  1
0.41
  9
$CUSTOMPROPERTYTAG
  1
H
  9
$CUSTOMPROPERTY
  1
0.47
  9
$CUSTOMPROPERTYTAG
  1
J
  9
$CUSTOMPROPERTY
  1
0.46
  9
$CUSTOMPROPERTYTAG
  1
L
  9
$CUSTOMPROPERTY
  1
1.57
  9
$CUSTOMPROPERTYTAG
  1
M
  9
$CUSTOMPROPERTY
  1
2.22
  9
$CUSTOMPROPERTYTAG
  1
N
  9
$CUSTOMPROPERTY
  1
2.02
  9
$CUSTOMPROPERTYTAG
  1
COMPANY
  9
$CUSTOMPROPERTY
  1
baldor
  9
$INSBASE
 10
0.0
 20
0.0
 30
0.0
  9
$EXTMIN
 10
1.000000000000000E+20
 20
1.000000000000000E+20
 30
1.000000000000000E+20
  9
$EXTMAX
 10
-1.000000000000000E+20
 20
-1.000000000000000E+20
 30
-1.000000000000000E+20
  9
$LIMMIN
 10
0.0
 20
0.0
  9
$LIMMAX
 10
12.0
 20
9.0
  9
$ORTHOMODE
 70
     0
  9
$REGENMODE
 70
     1
  9
$FILLMODE
 70
     1
  9
$QTEXTMODE
 70
     0
  9
$MIRRTEXT
 70
     1
  9
$LTSCALE
 40
1.0
  9
$ATTMODE
 70
     1
  9
$TEXTSIZE
 40
0.2
  9
$TRACEWID
 40
0.05
  9
$TEXTSTYLE
  7
Standard
  9
$CLAYER
  8
0
  9
$CELTYPE
  6
ByLayer
  9
$CECOLOR
 62
   256
  9
$CELTSCALE
 40
1.0
  9
$DISPSILH
 70
     0
  9
$DIMSCALE
 40
1.0
  9
$DIMASZ
 40
0.18
  9
$DIMEXO
 40
0.0625
  9
$DIMDLI
 40
0.38
  9
$DIMRND
 40
0.0
  9
$DIMDLE
 40
0.0
  9
$DIMEXE
 40
0.18
  9
$DIMTP
 40
0.0
  9
$DIMTM
 40
0.0
  9
$DIMTXT
 40
0.18
  9
$DIMCEN
 40
0.09
  9
$DIMTSZ
 40
0.0
  9
$DIMTOL
 70
     0
  9
$DIMLIM
 70
     0
  9
$DIMTIH
 70
     1
  9
$DIMTOH
 70
     1
  9
$DIMSE1
 70
     0
  9
$DIMSE2
 70
     0
  9
$DIMTAD
 70
     0
  9
$DIMZIN
 70
     0
  9
$DIMBLK
  1

  9
$DIMASO
 70
     1
  9
$DIMSHO
 70
     1
  9
$DIMPOST
  1

  9
$DIMAPOST
  1

  9
$DIMALT
 70
     0
  9
$DIMALTD
 70
     2
  9
$DIMALTF
 40
25.4
  9
$DIMLFAC
 40
1.0
  9
$DIMTOFL
 70
     0
  9
$DIMTVP
 40
0.0
  9
$DIMTIX
 70
     0
  9
$DIMSOXD
 70
     0
  9
$DIMSAH
 70
     0
  9
$DIMBLK1
  1

  9
$DIMBLK2
  1

  9
$DIMSTYLE
  2
Standard
  9
$DIMCLRD
 70
     0
  9
$DIMCLRE
 70
     0
  9
$DIMCLRT
 70
     0
  9
$DIMTFAC
 40
1.0
  9
$DIMGAP
 40
0.09
  9
$DIMJUST
 70
     0
  9
$DIMSD1
 70
     0
  9
$DIMSD2
 70
     0
  9
$DIMTOLJ
 70
     1
  9
$DIMTZIN
 70
     0
  9
$DIMALTZ
 70
     0
  9
$DIMALTTZ
 70
     0
  9
$DIMUPT
 70
     0
  9
$DIMDEC
 70
     4
  9
$DIMTDEC
 70
     4
  9
$DIMALTU
 70
     2
  9
$DIMALTTD
 70
     2
  9
$DIMTXSTY
  7
Standard
  9
$DIMAUNIT
 70
     0
  9
$DIMADEC
 70
     0
  9
$DIMALTRND
 40
0.0
  9
$DIMAZIN
 70
     0
  9
$DIMDSEP
 70
    46
  9
$DIMATFIT
 70
     3
  9
$DIMFRAC
 70
     0
  9
$DIMLDRBLK
  1

  9
$DIMLUNIT
 70
     2
  9
$DIMLWD
 70
    -2
  9
$DIMLWE
 70
    -2
  9
$DIMTMOVE
 70
     0
  9
$DIMFXL
 40
1.0
  9
$DIMFXLON
 70
     0
  9
$DIMJOGANG
 40
0.7853981633974483
  9
$DIMTFILL
 70
     0
  9
$DIMTFILLCLR
 70
     0
  9
$DIMARCSYM
 70
     0
  9
$DIMLTYPE
  6

  9
$DIMLTEX1
  6

  9
$DIMLTEX2
  6

  9
$DIMTXTDIRECTION
 70
     0
  9
$LUNITS
 70
     2
  9
$LUPREC
 70
     4
  9
$SKETCHINC
 40
0.1
  9
$FILLETRAD
 40
0.5
  9
$AUNITS
 70
     0
  9
$AUPREC
 70
     0
  9
$MENU
  1
.
  9
$ELEVATION
 40
0.0
  9
$PELEVATION
 40
0.0
  9
$THICKNESS
 40
0.0
  9
$LIMCHECK
 70
     0
  9
$CHAMFERA
 40
0.0
  9
$CHAMFERB
 40
0.0
  9
$CHAMFERC
 40
0.0
  9
$CHAMFERD
 40
0.0
  9
$SKPOLY
 70
     0
  9
$TDCREATE
 40
2458169.004694896
  9
$TDUCREATE
 40
2458168.963028229
  9
$TDUPDATE
 40
2458169.004695081
  9
$TDUUPDATE
 40
2458168.963028414
  9
$TDINDWG
 40
0.0000000116
  9
$TDUSRTIMER
 40
0.0000000116
  9
$USRTIMER
 70
     1
  9
$ANGBASE
 50
0.0
  9
$ANGDIR
 70
     0
  9
$PDMODE
 70
     0
  9
$PDSIZE
 40
0.0
  9
$PLINEWID
 40
0.0
  9
$SPLFRAME
 70
     0
  9
$SPLINETYPE
 70
     6
  9
$SPLINESEGS
 70
     8
  9
$HANDSEED
  5
17D
  9
$SURFTAB1
 70
     6
  9
$SURFTAB2
 70
     6
  9
$SURFTYPE
 70
     6
  9
$SURFU
 70
     6
  9
$SURFV
 70
     6
  9
$UCSBASE
  2

  9
$UCSNAME
  2

  9
$UCSORG
 10
0.0
 20
0.0
 30
0.0
  9
$UCSXDIR
 10
1.0
 20
0.0
 30
0.0
  9
$UCSYDIR
 10
0.0
 20
1.0
 30
0.0
  9
$UCSORTHOREF
  2

  9
$UCSORTHOVIEW
 70
     0
  9
$UCSORGTOP
 10
0.0
 20
0.0
 30
0.0
  9
$UCSORGBOTTOM
 10
0.0
 20
0.0
 30
0.0
  9
$UCSORGLEFT
 10
0.0
 20
0.0
 30
0.0
  9
$UCSORGRIGHT
 10
0.0
 20
0.0
 30
0.0
  9
$UCSORGFRONT
 10
0.0
 20
0.0
 30
0.0
  9
$UCSORGBACK
 10
0.0
 20
0.0
 30
0.0
  9
$PUCSBASE
  2

  9
$PUCSNAME
  2

  9
$PUCSORG
 10
0.0
 20
0.0
 30
0.0
  9
$PUCSXDIR
 10
1.0
 20
0.0
 30
0.0
  9
$PUCSYDIR
 10
0.0
 20
1.0
 30
0.0
  9
$PUCSORTHOREF
  2

  9
$PUCSORTHOVIEW
 70
     0
  9
$PUCSORGTOP
 10
0.0
 20
0.0
 30
0.0
  9
$PUCSORGBOTTOM
 10
0.0
 20
0.0
 30
0.0
  9
$PUCSORGLEFT
 10
0.0
 20
0.0
 30
0.0
  9
$PUCSORGRIGHT
 10
0.0
 20
0.0
 30
0.0
  9
$PUCSORGFRONT
 10
0.0
 20
0.0
 30
0.0
  9
$PUCSORGBACK
 10
0.0
 20
0.0
 30
0.0
  9
$USERI1
 70
     0
  9
$USERI2
 70
     0
  9
$USERI3
 70
     0
  9
$USERI4
 70
     0
  9
$USERI5
 70
     0
  9
$USERR1
 40
0.0
  9
$USERR2
 40
0.0
  9
$USERR3
 40
0.0
  9
$USERR4
 40
0.0
  9
$USERR5
 40
0.0
  9
$WORLDVIEW
 70
     1
  9
$SHADEDGE
 70
     3
  9
$SHADEDIF
 70
    70
  9
$TILEMODE
 70
     1
  9
$MAXACTVP
 70
    64
  9
$PINSBASE
 10
0.0
 20
0.0
 30
0.0
  9
$PLIMCHECK
 70
     0
  9
$PEXTMIN
 10
1.000000000000000E+20
 20
1.000000000000000E+20
 30
1.000000000000000E+20
  9
$PEXTMAX
 10
-1.000000000000000E+20
 20
-1.000000000000000E+20
 30
-1.000000000000000E+20
  9
$PLIMMIN
 10
0.0
 20
0.0
  9
$PLIMMAX
 10
12.0
 20
9.0
  9
$UNITMODE
 70
     0
  9
$VISRETAIN
 70
     1
  9
$PLINEGEN
 70
     0
  9
$PSLTSCALE
 70
     1
  9
$TREEDEPTH
 70
  3020
  9
$CMLSTYLE
  2
Standard
  9
$CMLJUST
 70
     0
  9
$CMLSCALE
 40
1.0
  9
$PROXYGRAPHICS
 70
     1
  9
$MEASUREMENT
 70
     0
  9
$CELWEIGHT
370
    -1
  9
$ENDCAPS
280
     0
  9
$JOINSTYLE
280
     0
  9
$LWDISPLAY
290
     0
  9
$INSUNITS
 70
     1
  9
$HYPERLINKBASE
  1

  9
$STYLESHEET
  1

  9
$XEDIT
290
     1
  9
$CEPSNTYPE
380
     0
  9
$PSTYLEMODE
290
     1
  9
$FINGERPRINTGUID
  2
{C348AC66-28E8-402B-8C55-453B346D4FE6}
  9
$VERSIONGUID
  2
{FAEB1C32-E019-11D5-929B-00C0DF256EC4}
  9
$EXTNAMES
290
     1
  9
$PSVPSCALE
 40
0.0
  9
$OLESTARTUP
290
     0
  9
$SORTENTS
280
   127
  9
$INDEXCTL
280
     0
  9
$HIDETEXT
280
     1
  9
$XCLIPFRAME
280
     2
  9
$HALOGAP
280
     0
  9
$OBSCOLOR
 70
   257
  9
$OBSLTYPE
280
     0
  9
$INTERSECTIONDISPLAY
280
     0
  9
$INTERSECTIONCOLOR
 70
   257
  9
$DIMASSOC
280
     2
  9
$PROJECTNAME
  1

  9
$CAMERADISPLAY
290
     0
  9
$LENSLENGTH
 40
50.0
  9
$CAMERAHEIGHT
 40
0.0
  9
$STEPSPERSEC
 40
2.0
  9
$STEPSIZE
 40
6.0
  9
$3DDWFPREC
 40
2.0
  9
$PSOLWIDTH
 40
0.25
  9
$PSOLHEIGHT
 40
4.0
  9
$LOFTANG1
 40
1.570796326794897
  9
$LOFTANG2
 40
1.570796326794897
  9
$LOFTMAG1
 40
0.0
  9
$LOFTMAG2
 40
0.0
  9
$LOFTPARAM
 70
     7
  9
$LOFTNORMALS
280
     1
  9
$LATITUDE
 40
37.795
  9
$LONGITUDE
 40
-122.394
  9
$NORTHDIRECTION
 40
0.0
  9
$TIMEZONE
 70
 -8000
  9
$LIGHTGLYPHDISPLAY
280
     1
  9
$TILEMODELIGHTSYNCH
280
     1
  9
$CMATERIAL
347
44
  9
$SOLIDHIST
280
     0
  9
$SHOWHIST
280
     1
  9
$DWFFRAME
280
     2
  9
$DGNFRAME
280
     2
  9
$REALWORLDSCALE
290
     1
  9
$INTERFERECOLOR
 62
   256
  9
$CSHADOW
280
     0
  9
$SHADOWPLANELOCATION
 40
0.0
  0
ENDSEC
  0
SECTION
  2
CLASSES
  0
CLASS
  1
ACDBDICTIONARYWDFLT
  2
AcDbDictionaryWithDefault
  3
ObjectDBX Classes
 90
        0
 91
        4
280
     0
281
     0
  0
CLASS
  1
VISUALSTYLE
  2
AcDbVisualStyle
  3
ObjectDBX Classes
 90
     4095
 91
        4
280
     0
281
     0
  0
CLASS
  1
MATERIAL
  2
AcDbMaterial
  3
ObjectDBX Classes
 90
     1153
 91
        4
280
     0
281
     0
  0
CLASS
  1
SCALE
  2
AcDbScale
  3
ObjectDBX Classes
 90
     1153
 91
        4
280
     0
281
     0
  0
CLASS
  1
TABLESTYLE
  2
AcDbTableStyle
  3
ObjectDBX Classes
 90
     4095
 91
        4
280
     0
281
     0
  0
CLASS
  1
MLEADERSTYLE
  2
AcDbMLeaderStyle
  3
ACDB_MLEADERSTYLE_CLASS
 90
     4095
 91
        4
280
     0
281
     0
  0
CLASS
  1
SUN
  2
AcDbSun
  3
SCENEOE
 90
     1153
 91
        4
280
     0
281
     0
  0
CLASS
  1
DICTIONARYVAR
  2
AcDbDictionaryVar
  3
ObjectDBX Classes
 90
        0
 91
        4
280
     0
281
     0
  0
CLASS
  1
CELLSTYLEMAP
  2
AcDbCellStyleMap
  3
ObjectDBX Classes
 90
     1152
 91
        4
280
     0
281
     0
  0
ENDSEC
  0
SECTION
  2
TABLES
  0
TABLE
  2
VPORT
  5
8
330
0
100
AcDbSymbolTable
 70
     1
  0
VPORT
  5
29
330
8
100
AcDbSymbolTableRecord
100
AcDbViewportTableRecord
  2
*Active
 70
     0
 10
0.0
 20
0.0
 11
1.0
 21
1.0
 12
-0.7447499999999998
 22
0.24125
 13
0.0
 23
0.0
 14
0.5
 24
0.5
 15
0.5
 25
0.5
 16
0.0
 26
0.0
 36
1.0
 17
0.0
 27
0.0
 37
0.0
 40
4.03665
 41
0.3882501579279849
 42
50.0
 43
0.0
 44
0.0
 50
0.0
 51
0.0
 71
     0
 72
   100
 73
     1
 74
     3
 75
     0
 76
     0
 77
     0
 78
     0
281
     0
 65
     1
110
0.0
120
0.0
130
0.0
111
1.0
121
0.0
131
0.0
112
0.0
122
1.0
132
0.0
 79
     0
146
0.0
348
2F
 60
     3
 61
     5
292
     1
282
     1
141
0.0
142
0.0
 63
   250
361
6D
  0
ENDTAB
  0
TABLE
  2
LTYPE
  5
5
330
0
100
AcDbSymbolTable
 70
     3
  0
LTYPE
  5
14
330
5
100
AcDbSymbolTableRecord
100
AcDbLinetypeTableRecord
  2
ByBlock
 70
     0
  3

 72
    65
 73
     0
 40
0.0
  0
LTYPE
  5
15
330
5
100
AcDbSymbolTableRecord
100
AcDbLinetypeTableRecord
  2
ByLayer
 70
     0
  3

 72
    65
 73
     0
 40
0.0
  0
LTYPE
  5
16
330
5
100
AcDbSymbolTableRecord
100
AcDbLinetypeTableRecord
  2
Continuous
 70
     0
  3
Solid line
 72
    65
 73
     0
 40
0.0
  0
LTYPE
  5
9F
330
5
100
AcDbSymbolTableRecord
100
AcDbLinetypeTableRecord
  2
Dashed
 70
     0
  3

 72
    65
 73
     2
 40
2.0
 49
1.0
 74
     0
 49
-1.0
 74
     0
  0
LTYPE
  5
D8
330
5
100
AcDbSymbolTableRecord
100
AcDbLinetypeTableRecord
  2
Center
 70
     0
  3

 72
    65
 73
     4
 40
1.5
 49
0.45
 74
     0
 49
-0.5
 74
     0
 49
0.05
 74
     0
 49
-0.5
 74
     0
  0
ENDTAB
  0
TABLE
  2
LAYER
  5
2
330
0
100
AcDbSymbolTable
 70
     7
  0
LAYER
  5
10
330
2
100
AcDbSymbolTableRecord
100
AcDbLayerTableRecord
  2
0
 70
     0
 62
     7
  6
Continuous
370
    -3
390
F
347
46
348
0
  0
LAYER
  5
72
330
2
100
AcDbSymbolTableRecord
100
AcDbLayerTableRecord
  2
AM_6
 70
     0
 62
    -2
  6
Continuous
370
    35
390
F
347
46
348
0
  0
LAYER
  5
A0
330
2
100
AcDbSymbolTableRecord
100
AcDbLayerTableRecord
  2
AM_9
 70
     0
 62
     6
  6
Dashed
370
    25
390
F
347
46
348
0
  0
LAYER
  5
D5
330
2
100
AcDbSymbolTableRecord
100
AcDbLayerTableRecord
  2
AM_5
 70
     0
 62
     3
  6
Continuous
370
    25
390
F
347
46
348
0
  0
LAYER
  5
D9
330
2
100
AcDbSymbolTableRecord
100
AcDbLayerTableRecord
  2
AM_7
 70
     0
 62
     7
  6
Center
370
    25
390
F
347
46
348
0
  0
LAYER
  5
DC
330
2
100
AcDbSymbolTableRecord
100
AcDbLayerTableRecord
  2
AM_4
 70
     0
 62
     7
  6
Continuous
370
    50
390
F
347
46
348
0
  0
LAYER
  5
170
330
2
100
AcDbSymbolTableRecord
100
AcDbLayerTableRecord
  2
ConnectionPoints
 70
     0
 62
     7
  6
Continuous
370
    50
390
F
347
46
348
0
  0
ENDTAB
  0
TABLE
  2
STYLE
  5
3
330
0
100
AcDbSymbolTable
 70
     1
  0
STYLE
  5
11
330
3
100
AcDbSymbolTableRecord
100
AcDbTextStyleTableRecord
  2
Standard
 70
     0
 40
0.0
 41
1.0
 50
0.0
 71
     0
 42
0.2
  3
txt
  4

  0
ENDTAB
  0
TABLE
  2
VIEW
  5
6
330
0
100
AcDbSymbolTable
 70
     0
  0
ENDTAB
  0
TABLE
  2
UCS
  5
7
330
0
100
AcDbSymbolTable
 70
     0
  0
ENDTAB
  0
TABLE
  2
APPID
  5
9
330
0
100
AcDbSymbolTable
 70
     1
  0
APPID
  5
12
330
9
100
AcDbSymbolTableRecord
100
AcDbRegAppTableRecord
  2
ACAD
 70
     0
  0
ENDTAB
  0
TABLE
  2
DIMSTYLE
  5
A
330
0
100
AcDbSymbolTable
 70
     1
100
AcDbDimStyleTable
  0
DIMSTYLE
105
27
330
A
100
AcDbSymbolTableRecord
100
AcDbDimStyleTableRecord
  2
Standard
 70
     0
178
     0
340
11
  0
ENDTAB
  0
TABLE
  2
BLOCK_RECORD
  5
1
330
0
100
AcDbSymbolTable
 70
     5
  0
BLOCK_RECORD
  5
1F
330
1
100
AcDbSymbolTableRecord
100
AcDbBlockTableRecord
  2
*Model_Space
340
22
 70
     0
280
     1
281
     0
  0
BLOCK_RECORD
  5
1B
330
1
100
AcDbSymbolTableRecord
100
AcDbBlockTableRecord
  2
*Paper_Space
340
1E
 70
     0
280
     1
281
     0
  0
BLOCK_RECORD
  5
23
330
1
100
AcDbSymbolTableRecord
100
AcDbBlockTableRecord
  2
*Paper_Space0
340
26
 70
     0
280
     1
281
     0
  0
BLOCK_RECORD
  5
6E
330
1
100
AcDbSymbolTableRecord
100
AcDbBlockTableRecord
  2
1_124628_2
340
0
102
{BLKREFS
331
6F
102
}
 70
     0
280
     1
281
     0
  0
BLOCK_RECORD
  5
89
330
1
100
AcDbSymbolTableRecord
100
AcDbBlockTableRecord
  2
2_077982_0_in_124628_2
340
0
102
{BLKREFS
331
8A
102
}
 70
     0
280
     1
281
     0
  0
BLOCK_RECORD
  5
ED
330
1
100
AcDbSymbolTableRecord
100
AcDbBlockTableRecord
  2
3_430026_0_in_124628_2
340
0
102
{BLKREFS
331
EE
102
}
 70
     0
280
     1
281
     0
  0
BLOCK_RECORD
  5
10F
330
1
100
AcDbSymbolTableRecord
100
AcDbBlockTableRecord
  2
4_124628H_0_in_124628_2
340
0
102
{BLKREFS
331
110
102
}
 70
     0
280
     1
281
     0
  0
ENDTAB
  0
ENDSEC
  0
SECTION
  2
BLOCKS
  0
BLOCK
  5
20
330
1F
100
AcDbEntity
  8
0
100
AcDbBlockBegin
  2
*Model_Space
 70
     0
 10
0.0
 20
0.0
 30
0.0
  3
*Model_Space
  1

  0
ENDBLK
  5
21
330
1F
100
AcDbEntity
  8
0
100
AcDbBlockEnd
  0
BLOCK
  5
1C
330
1B
100
AcDbEntity
 67
     1
  8
0
100
AcDbBlockBegin
  2
*Paper_Space
 70
     0
 10
0.0
 20
0.0
 30
0.0
  3
*Paper_Space
  1

  0
ENDBLK
  5
1D
330
1B
100
AcDbEntity
 67
     1
  8
0
100
AcDbBlockEnd
  0
BLOCK
  5
24
330
23
100
AcDbEntity
  8
0
100
AcDbBlockBegin
  2
*Paper_Space0
 70
     0
 10
0.0
 20
0.0
 30
0.0
  3
*Paper_Space0
  1

  0
ENDBLK
  5
25
330
23
100
AcDbEntity
  8
0
100
AcDbBlockEnd
  0
BLOCK
  5
70
330
6E
100
AcDbEntity
  8
0
100
AcDbBlockBegin
  2
1_124628_2
 70
     2
 10
0.0
 20
0.0
 30
0.0
  3
1_124628_2
  1

  0
ATTDEF
  5
73
330
6E
100
AcDbEntity
  8
AM_6
100
AcDbText
 10
5.0235
 20
2.22
 30
0.0
 40
0.5
  1
Set Screw LF  Normal Duty 3-Bolt Flange Inch Bore
100
AcDbAttributeDefinition
  3

  2
NN
 70
     8
280
     0
  0
ATTDEF
  5
74
330
6E
100
AcDbEntity
  8
AM_6
100
AcDbText
 10
5.0235
 20
1.72
 30
0.0
 40
0.5
  1
SC 3 Bolt Flange Bearings -(Normal Duty) -Re-Lube and No-Lube
100
AcDbAttributeDefinition
  3

  2
NT
 70
     8
280
     0
  0
ATTDEF
  5
75
330
6E
100
AcDbEntity
  8
AM_6
100
AcDbText
 10
5.0235
 20
1.22
 30
0.0
 40
0.5
  1
124628
100
AcDbAttributeDefinition
  3

  2
NB
 70
     8
280
     0
  0
ATTDEF
  5
76
330
6E
100
AcDbEntity
  8
AM_6
100
AcDbText
 10
5.0235
 20
0.7199999999999998
 30
0.0
 40
0.5
  1
$PN.
100
AcDbAttributeDefinition
  3

  2
NBSYN
 70
     8
280
     0
  0
ATTDEF
  5
77
330
6E
100
AcDbEntity
  8
AM_6
100
AcDbText
 10
5.0235
 20
0.2199999999999998
 30
0.0
 40
0.5
  1
124628
100
AcDbAttributeDefinition
  3

  2
LINA
 70
     8
280
     0
  0
ATTDEF
  5
78
330
6E
100
AcDbEntity
  8
AM_6
100
AcDbText
 10
5.0235
 20
-0.2800000000000002
 30
0.0
 40
0.5
  1
206
100
AcDbAttributeDefinition
  3

  2
SERIES
 70
     8
280
     0
  0
ATTDEF
  5
79
330
6E
100
AcDbEntity
  8
AM_6
100
AcDbText
 10
5.0235
 20
-0.7800000000000002
 30
0.0
 40
0.5
  1
1-3/16
100
AcDbAttributeDefinition
  3

  2
SS
 70
     8
280
     0
  0
ATTDEF
  5
7A
330
6E
100
AcDbEntity
  8
AM_6
100
AcDbText
 10
5.0235
 20
-1.28
 30
0.0
 40
0.5
  1
124628
100
AcDbAttributeDefinition
  3

  2
PN
 70
     8
280
     0
  0
ATTDEF
  5
7B
330
6E
100
AcDbEntity
  8
AM_6
100
AcDbText
 10
5.0235
 20
-1.78
 30
0.0
 40
0.5
  1
LF-SC-103-NL
100
AcDbAttributeDefinition
  3

  2
DESCRIPTION
 70
     8
280
     0
  0
ATTDEF
  5
7C
330
6E
100
AcDbEntity
  8
AM_6
100
AcDbText
 10
5.0235
 20
-2.28
 30
0.0
 40
0.5
  1
1.55
100
AcDbAttributeDefinition
  3

  2
W
 70
     8
280
     0
  0
ATTDEF
  5
7D
330
6E
100
AcDbEntity
  8
AM_6
100
AcDbText
 10
5.0235
 20
-2.78
 30
0.0
 40
0.5
  1
NO-LUBE
100
AcDbAttributeDefinition
  3

  2
LF
 70
     8
280
     0
  0
ATTDEF
  5
7E
330
6E
100
AcDbEntity
  8
AM_6
100
AcDbText
 10
5.0235
 20
-3.28
 30
0.0
 40
0.5
  1
1.26
100
AcDbAttributeDefinition
  3

  2
A
 70
     8
280
     0
  0
ATTDEF
  5
7F
330
6E
100
AcDbEntity
  8
AM_6
100
AcDbText
 10
5.0235
 20
-3.78
 30
0.0
 40
0.5
  1
4.44
100
AcDbAttributeDefinition
  3

  2
B
 70
     8
280
     0
  0
ATTDEF
  5
80
330
6E
100
AcDbEntity
  8
AM_6
100
AcDbText
 10
5.0235
 20
-4.28
 30
0.0
 40
0.5
  1
1.45
100
AcDbAttributeDefinition
  3

  2
C
 70
     8
280
     0
  0
ATTDEF
  5
81
330
6E
100
AcDbEntity
  8
AM_6
100
AcDbText
 10
5.0235
 20
-4.78
 30
0.0
 40
0.5
  1
3.56
100
AcDbAttributeDefinition
  3

  2
D
 70
     8
280
     0
  0
ATTDEF
  5
82
330
6E
100
AcDbEntity
  8
AM_6
100
AcDbText
 10
5.0235
 20
-5.28
 30
0.0
 40
0.5
  1
0.41
100
AcDbAttributeDefinition
  3

  2
G
 70
     8
280
     0
  0
ATTDEF
  5
83
330
6E
100
AcDbEntity
  8
AM_6
100
AcDbText
 10
5.0235
 20
-5.78
 30
0.0
 40
0.5
  1
0.47
100
AcDbAttributeDefinition
  3

  2
H
 70
     8
280
     0
  0
ATTDEF
  5
84
330
6E
100
AcDbEntity
  8
AM_6
100
AcDbText
 10
5.0235
 20
-6.28
 30
0.0
 40
0.5
  1
0.46
100
AcDbAttributeDefinition
  3

  2
J
 70
     8
280
     0
  0
ATTDEF
  5
85
330
6E
100
AcDbEntity
  8
AM_6
100
AcDbText
 10
5.0235
 20
-6.78
 30
0.0
 40
0.5
  1
1.57
100
AcDbAttributeDefinition
  3

  2
L
 70
     8
280
     0
  0
ATTDEF
  5
86
330
6E
100
AcDbEntity
  8
AM_6
100
AcDbText
 10
5.0235
 20
-7.28
 30
0.0
 40
0.5
  1
2.22
100
AcDbAttributeDefinition
  3

  2
M
 70
     8
280
     0
  0
ATTDEF
  5
87
330
6E
100
AcDbEntity
  8
AM_6
100
AcDbText
 10
5.0235
 20
-7.78
 30
0.0
 40
0.5
  1
2.02
100
AcDbAttributeDefinition
  3

  2
N
 70
     8
280
     0
  0
ATTDEF
  5
88
330
6E
100
AcDbEntity
  8
AM_6
100
AcDbText
 10
5.0235
 20
-8.280000000000001
 30
0.0
 40
0.5
  1
baldor
100
AcDbAttributeDefinition
  3

  2
COMPANY
 70
     8
280
     0
  0
INSERT
  5
8A
330
6E
100
AcDbEntity
  8
0
100
AcDbBlockReference
  2
2_077982_0_in_124628_2
 10
0.0
 20
0.0
 30
0.0
  0
INSERT
  5
EE
330
6E
100
AcDbEntity
  8
0
100
AcDbBlockReference
  2
3_430026_0_in_124628_2
 10
0.0
 20
0.0
 30
0.0
  0
INSERT
  5
110
330
6E
100
AcDbEntity
  8
0
100
AcDbBlockReference
  2
4_124628H_0_in_124628_2
 10
0.0
 20
0.0
 30
0.0
  0
ENDBLK
  5
71
330
6E
100
AcDbEntity
  8
0
100
AcDbBlockEnd
  0
BLOCK
  5
8B
330
89
100
AcDbEntity
  8
0
100
AcDbBlockBegin
  2
2_077982_0_in_124628_2
 70
     2
 10
0.0
 20
0.0
 30
0.0
  3
2_077982_0_in_124628_2
  1

  0
ATTDEF
  5
8D
330
89
100
AcDbEntity
  8
AM_6
100
AcDbText
 10
4.81
 20
1.219872827703254
 30
0.0
 40
0.5
  1
Set Screw Light Duty Insert with Pin Inch Bore
100
AcDbAttributeDefinition
  3

  2
NN
 70
     8
280
     0
  0
ATTDEF
  5
8E
330
89
100
AcDbEntity
  8
AM_6
100
AcDbText
 10
4.81
 20
0.719872827703254
 30
0.0
 40
0.5
  1
SCP Bearing Inserts
100
AcDbAttributeDefinition
  3

  2
NT
 70
     8
280
     0
  0
ATTDEF
  5
8F
330
89
100
AcDbEntity
  8
AM_6
100
AcDbText
 10
4.81
 20
0.219872827703254
 30
0.0
 40
0.5
  1
077982
100
AcDbAttributeDefinition
  3

  2
NB
 70
     8
280
     0
  0
ATTDEF
  5
90
330
89
100
AcDbEntity
  8
AM_6
100
AcDbText
 10
4.81
 20
-0.280127172296746
 30
0.0
 40
0.5
  1
$PN.
100
AcDbAttributeDefinition
  3

  2
NBSYN
 70
     8
280
     0
  0
ATTDEF
  5
91
330
89
100
AcDbEntity
  8
AM_6
100
AcDbText
 10
4.81
 20
-0.780127172296746
 30
0.0
 40
0.5
  1
077982
100
AcDbAttributeDefinition
  3

  2
LINA
 70
     8
280
     0
  0
ATTDEF
  5
92
330
89
100
AcDbEntity
  8
AM_6
100
AcDbText
 10
4.81
 20
-1.280127172296746
 30
0.0
 40
0.5
  1
206
100
AcDbAttributeDefinition
  3

  2
SERIES
 70
     8
280
     0
  0
ATTDEF
  5
93
330
89
100
AcDbEntity
  8
AM_6
100
AcDbText
 10
4.81
 20
-1.780127172296746
 30
0.0
 40
0.5
  1
1-3/16
100
AcDbAttributeDefinition
  3

  2
SS
 70
     8
280
     0
  0
ATTDEF
  5
94
330
89
100
AcDbEntity
  8
AM_6
100
AcDbText
 10
4.81
 20
-2.280127172296746
 30
0.0
 40
0.5
  1
077982
100
AcDbAttributeDefinition
  3

  2
PN
 70
     8
280
     0
  0
ATTDEF
  5
95
330
89
100
AcDbEntity
  8
AM_6
100
AcDbText
 10
4.81
 20
-2.780127172296746
 30
0.0
 40
0.5
  1
INS-SCP-103
100
AcDbAttributeDefinition
  3

  2
DESCRIPTION
 70
     8
280
     0
  0
ATTDEF
  5
96
330
89
100
AcDbEntity
  8
AM_6
100
AcDbText
 10
4.81
 20
-3.280127172296746
 30
0.0
 40
0.5
  1
1.26
100
AcDbAttributeDefinition
  3

  2
A
 70
     8
280
     0
  0
ATTDEF
  5
97
330
89
100
AcDbEntity
  8
AM_6
100
AcDbText
 10
4.81
 20
-3.780127172296746
 30
0.0
 40
0.5
  1
0.69
100
AcDbAttributeDefinition
  3

  2
C
 70
     8
280
     0
  0
ATTDEF
  5
98
330
89
100
AcDbEntity
  8
AM_6
100
AcDbText
 10
4.81
 20
-4.280127172296746
 30
0.0
 40
0.5
  1
2.4409
100
AcDbAttributeDefinition
  3

  2
D
 70
     8
280
     0
  0
ATTDEF
  5
99
330
89
100
AcDbEntity
  8
AM_6
100
AcDbText
 10
4.81
 20
-4.780127172296746
 30
0.0
 40
0.5
  1
0.16
100
AcDbAttributeDefinition
  3

  2
J
 70
     8
280
     0
  0
ATTDEF
  5
9A
330
89
100
AcDbEntity
  8
AM_6
100
AcDbText
 10
4.81
 20
-5.280127172296746
 30
0.0
 40
0.5
  1
1.57
100
AcDbAttributeDefinition
  3

  2
L
 70
     8
280
     0
  0
ATTDEF
  5
9B
330
89
100
AcDbEntity
  8
AM_6
100
AcDbText
 10
4.81
 20
-5.780127172296746
 30
0.0
 40
0.5
  1
5/16 - 24
100
AcDbAttributeDefinition
  3

  2
N
 70
     8
280
     0
  0
ATTDEF
  5
9C
330
89
100
AcDbEntity
  8
AM_6
100
AcDbText
 10
4.81
 20
-6.280127172296746
 30
0.0
 40
0.5
  1
0.35
100
AcDbAttributeDefinition
  3

  2
W
 70
     8
280
     0
  0
ATTDEF
  5
9D
330
89
100
AcDbEntity
  8
AM_6
100
AcDbText
 10
4.81
 20
-6.780127172296746
 30
0.0
 40
0.5
  1
0.91
100
AcDbAttributeDefinition
  3

  2
Y
 70
     8
280
     0
  0
ATTDEF
  5
9E
330
89
100
AcDbEntity
  8
AM_6
100
AcDbText
 10
4.81
 20
-7.280127172296746
 30
0.0
 40
0.5
  1
baldor
100
AcDbAttributeDefinition
  3

  2
COMPANY
 70
     8
280
     0
  0
ARC
  5
A1
330
89
100
AcDbEntity
  8
AM_9
100
AcDbCircle
 10
-0.3800000000000157
 20
-0.0000000000000009
 30
0.0
 40
0.1041666666666777
100
AcDbArc
 50
357.1941320142626
 51
8.297332707136402
  0
CIRCLE
  5
A2
330
89
100
AcDbEntity
  8
AM_9
100
AcDbCircle
 10
-0.3799999999999999
 20
-0.0000000000000001
 30
0.0
 40
0.0414393939393896
  0
LINE
  5
A3
330
89
100
AcDbEntity
  8
AM_9
100
AcDbLine
 10
-0.4691963657646947
 20
0.0538022613222422
 30
0.0
 11
-0.4683730302403442
 21
0.0551443738796868
 31
0.0
  0
LWPOLYLINE
  5
A4
330
89
100
AcDbEntity
  8
AM_9
100
AcDbPolyline
 90
        8
 70
     0
 43
0.0
 10
-0.4707638155201349
 20
-0.0511122311290248
 10
-0.4756282801771412
 20
-0.0412845612708099
 10
-0.480818235932249
 20
-0.0261137618426778
 10
-0.4837275698745662
 20
-0.0091930148101634
 10
-0.4837883879259668
 20
0.008475671046001
 10
-0.4809852868649004
 20
0.0254577450710751
 10
-0.4752306187996365
 20
0.0421956561907986
 10
-0.4691963657646947
 20
0.0538022613222422
  0
LINE
  5
A5
330
89
100
AcDbEntity
  8
AM_9
100
AcDbLine
 10
-1.0413
 20
0.59375
 30
0.0
 11
-1.0413
 21
0.7617924915141182
 31
0.0
  0
LINE
  5
A6
330
89
100
AcDbEntity
  8
AM_9
100
AcDbLine
 10
-1.2937
 20
0.7617924915141182
 30
0.0
 11
-1.2937
 21
0.59375
 31
0.0
  0
LINE
  5
A7
330
89
100
AcDbEntity
  8
AM_9
100
AcDbLine
 10
-1.0413
 20
0.7617924915141182
 30
0.0
 11
-1.018092491514125
 21
0.7849999999999931
 31
0.0
  0
LINE
  5
A8
330
89
100
AcDbEntity
  8
AM_9
100
AcDbLine
 10
-1.316907508485875
 20
0.7849999999999931
 30
0.0
 11
-1.2937
 21
0.7617924915141182
 31
0.0
  0
LINE
  5
A9
330
89
100
AcDbEntity
  8
AM_9
100
AcDbLine
 10
-1.2937
 20
0.7617924915141182
 30
0.0
 11
-1.0413
 21
0.7617924915141182
 31
0.0
  0
LINE
  5
AA
330
89
100
AcDbEntity
  8
AM_9
100
AcDbLine
 10
-1.180186880154011
 20
0.58032196186948
 30
0.0
 11
-1.154813119845989
 21
0.58032196186948
 31
0.0
  0
LWPOLYLINE
  5
AB
330
89
100
AcDbEntity
  8
AM_9
100
AcDbPolyline
 90
       10
 70
     0
 43
0.0
 10
-1.154813119845989
 20
0.58032196186948
 10
-1.134370384615713
 20
0.5811283798916645
 10
-1.114301052256352
 20
0.5826171560647964
 10
-1.096297050381066
 20
0.5845361259446985
 10
-1.079807616192383
 20
0.5867730197255684
 10
-1.065985221948088
 20
0.5889973452087275
 10
-1.054683576620813
 20
0.5910500553117917
 10
-1.046848005704441
 20
0.5925955840431951
 10
-1.042287476453601
 20
0.5935408988038294
 10
-1.041300000001423
 20
0.5937499999996976
  0
LWPOLYLINE
  5
AC
330
89
100
AcDbEntity
  8
AM_9
100
AcDbPolyline
 90
        3
 70
     0
 43
0.0
 10
-1.154813119845988
 20
0.3590512761488057
 10
-1.16282957578473
 20
0.3596265718440443
 10
-1.180186880154012
 20
0.3590512761488057
  0
LINE
  5
AD
330
89
100
AcDbEntity
  8
AM_9
100
AcDbLine
 10
-0.6434999999999998
 20
0.59375
 30
0.0
 11
-1.0413
 21
0.59375
 31
0.0
  0
LINE
  5
AE
330
89
100
AcDbEntity
  8
AM_9
100
AcDbLine
 10
-1.2937
 20
0.59375
 30
0.0
 11
-1.4186
 21
0.59375
 31
0.0
  0
LINE
  5
AF
330
89
100
AcDbEntity
  8
AM_9
100
AcDbLine
 10
-1.4186
 20
-0.59375
 30
0.0
 11
-0.6434999999999998
 21
-0.59375
 31
0.0
  0
LWPOLYLINE
  5
B0
330
89
100
AcDbEntity
  8
AM_9
100
AcDbPolyline
 90
       11
 70
     0
 43
0.0
 10
-1.293699999998577
 20
0.5937499999996976
 10
-1.293602961742432
 20
0.593729382345369
 10
-1.290968241468367
 20
0.5931753780723631
 10
-1.285113422331221
 20
0.5919844082511483
 10
-1.275880108087368
 20
0.5902193408632332
 10
-1.263847260694787
 20
0.5881287419803501
 10
-1.248785740862397
 20
0.5858498051271748
 10
-1.231606660595821
 20
0.5837142164045243
 10
-1.212032624911791
 20
0.5818898325125936
 10
-1.196502446298447
 20
0.5809077072920399
 10
-1.180186880154011
 20
0.58032196186948
  0
LINE
  5
B1
330
89
100
AcDbEntity
  8
AM_9
100
AcDbLine
 10
-0.2213999999999999
 20
-0.59375
 30
0.0
 11
-0.2213999999999999
 21
0.59375
 31
0.0
  0
LINE
  5
B2
330
89
100
AcDbEntity
  8
AM_9
100
AcDbLine
 10
-0.2213999999999999
 20
-0.59375
 30
0.0
 11
-0.1899999999999999
 21
-0.6251499999999816
 31
0.0
  0
LINE
  5
B3
330
89
100
AcDbEntity
  8
AM_9
100
AcDbLine
 10
-0.1899999999999999
 20
0.6251499999999816
 30
0.0
 11
-0.2213999999999999
 21
0.59375
 31
0.0
  0
LINE
  5
B4
330
89
100
AcDbEntity
  8
AM_9
100
AcDbLine
 10
-1.4186
 20
0.59375
 30
0.0
 11
-1.45
 21
0.6251499999999816
 31
0.0
  0
LINE
  5
B5
330
89
100
AcDbEntity
  8
AM_9
100
AcDbLine
 10
-1.45
 20
-0.6251499999999816
 30
0.0
 11
-1.4186
 21
-0.59375
 31
0.0
  0
LWPOLYLINE
  5
B6
330
89
100
AcDbEntity
  8
AM_9
100
AcDbPolyline
 90
        3
 70
     0
 43
0.0
 10
-1.180186880154016
 20
0.1314580414016589
 10
-1.1675
 20
0.1308786160512069
 10
-1.154813119845984
 20
0.1314580414016588
  0
LWPOLYLINE
  5
B7
330
89
100
AcDbEntity
  8
AM_9
100
AcDbPolyline
 90
        4
 70
     0
 43
0.0
 10
-1.28728639109767
 20
0.286365832387396
 10
-1.288151994295559
 20
0.2839816710660501
 10
-1.292712523546399
 20
0.2651213653659575
 10
-1.293699999295491
 20
0.2509175073761574
  0
LWPOLYLINE
  5
B8
330
89
100
AcDbEntity
  8
AM_9
100
AcDbPolyline
 90
       10
 70
     0
 43
0.0
 10
-1.154813119845984
 20
0.1314580414016589
 10
-1.134370384615708
 20
0.1352308845367891
 10
-1.114301052256348
 20
0.1425075850592714
 10
-1.096297050381062
 20
0.1526029801433372
 10
-1.07980761619238
 20
0.1657289515427147
 10
-1.065985221948085
 20
0.1809709752762141
 10
-1.05468357662081
 20
0.1985288920834445
 10
-1.04684800570444
 20
0.2169017602210533
 10
-1.0422874764536
 20
0.2365610804830202
 10
-1.041300000704508
 20
0.2509416783143564
  0
LINE
  5
B9
330
89
100
AcDbEntity
  8
AM_9
100
AcDbLine
 10
-1.0413
 20
0.2509018940067034
 30
0.0
 11
-1.0413
 21
0.3219474185708133
 31
0.0
  0
LINE
  5
BA
330
89
100
AcDbEntity
  8
AM_9
100
AcDbLine
 10
-1.2937
 20
0.3219474185708133
 30
0.0
 11
-1.2937
 21
0.2509018940067034
 31
0.0
  0
LWPOLYLINE
  5
BB
330
89
100
AcDbEntity
  8
AM_9
100
AcDbPolyline
 90
       11
 70
     0
 43
0.0
 10
-1.293699999295491
 20
0.2509175073761574
 10
-1.293602961742432
 20
0.246436437828595
 10
-1.290968241468367
 20
0.2270178231036488
 10
-1.285113422331221
 20
0.2087152804464971
 10
-1.275880108087368
 20
0.190840680567421
 10
-1.263847260694787
 20
0.1746821039587828
 10
-1.248785740862396
 20
0.1601001125185313
 10
-1.23160666059582
 20
0.1481681034929176
 10
-1.212032624911791
 20
0.1388989151351449
 10
-1.196502446298449
 20
0.13418746966741
 10
-1.180186880154016
 20
0.1314580414016589
  0
LWPOLYLINE
  5
BC
330
89
100
AcDbEntity
  8
AM_9
100
AcDbPolyline
 90
        4
 70
     0
 43
0.0
 10
-1.041300000704508
 20
0.2509416783143564
 10
-1.041397038257568
 20
0.255405321193767
 10
-1.044031758531634
 20
0.2743556712730036
 10
-1.047602420755725
 20
0.286069999015599
  0
LINE
  5
BD
330
89
100
AcDbEntity
  8
AM_9
100
AcDbLine
 10
-0.885
 20
0.7849999999999931
 30
0.0
 11
-0.9899999999999998
 21
0.7849999999999931
 31
0.0
  0
LINE
  5
BE
330
89
100
AcDbEntity
  8
AM_9
100
AcDbLine
 10
-0.9899999999999998
 20
-0.7849999999999931
 30
0.0
 11
-0.885
 21
-0.7849999999999931
 31
0.0
  0
LINE
  5
BF
330
89
100
AcDbEntity
  8
AM_9
100
AcDbLine
 10
-1.065530791886552
 20
0.7785748323736199
 30
0.0
 11
-1.063045553612936
 21
0.7788530880961875
 31
0.0
  0
LINE
  5
C0
330
89
100
AcDbEntity
  8
AM_9
100
AcDbLine
 10
-0.1899999999999999
 20
-0.7849999999999931
 30
0.0
 11
-0.1899999999999999
 21
0.7849999999999931
 31
0.0
  0
LINE
  5
C1
330
89
100
AcDbEntity
  8
AM_9
100
AcDbLine
 10
-0.1899999999999999
 20
0.7849999999999931
 30
0.0
 11
-0.195
 21
0.7849999999999931
 31
0.0
  0
LINE
  5
C2
330
89
100
AcDbEntity
  8
AM_9
100
AcDbLine
 10
-0.195
 20
-0.7849999999999931
 30
0.0
 11
-0.1899999999999999
 21
-0.7849999999999931
 31
0.0
  0
LINE
  5
C3
330
89
100
AcDbEntity
  8
AM_9
100
AcDbLine
 10
-0.6679999999999998
 20
1.167116666666663
 30
0.0
 11
-0.732
 21
1.167116666666663
 31
0.0
  0
LINE
  5
C4
330
89
100
AcDbEntity
  8
AM_9
100
AcDbLine
 10
-0.732
 20
-1.167116666666663
 30
0.0
 11
-0.6679999999999998
 21
-1.167116666666663
 31
0.0
  0
LINE
  5
C5
330
89
100
AcDbEntity
  8
AM_9
100
AcDbLine
 10
-0.195
 20
-1.146492216502152
 30
0.0
 11
-0.195
 21
1.146492216502152
 31
0.0
  0
ARC
  5
C6
330
89
100
AcDbEntity
  8
AM_9
100
AcDbCircle
 10
-0.227
 20
1.146492216502152
 30
0.0
 40
0.0319999999999999
100
AcDbArc
 50
0.0
 51
74.72994563633438
  0
ARC
  5
C7
330
89
100
AcDbEntity
  8
AM_9
100
AcDbCircle
 10
-0.227
 20
-1.146492216502152
 30
0.0
 40
0.0319999999999999
100
AcDbArc
 50
285.2700543636656
 51
0.0
  0
LINE
  5
C8
330
89
100
AcDbEntity
  8
AM_9
100
AcDbLine
 10
-0.8849999999999999
 20
-1.146492216502148
 30
0.0
 11
-0.8849999999999999
 21
1.146492216502148
 31
0.0
  0
ARC
  5
C9
330
89
100
AcDbEntity
  8
AM_9
100
AcDbCircle
 10
-0.8530000000000002
 20
1.146492216502148
 30
0.0
 40
0.0319999999999995
100
AcDbArc
 50
105.2700435715609
 51
180.0
  0
ARC
  5
CA
330
89
100
AcDbEntity
  8
AM_9
100
AcDbCircle
 10
-0.8530000000000002
 20
-1.146492216502148
 30
0.0
 40
0.0319999999999997
100
AcDbArc
 50
180.0
 51
254.729956428439
  0
LINE
  5
CB
330
89
100
AcDbEntity
  8
AM_9
100
AcDbLine
 10
-0.732
 20
-1.205252754611804
 30
0.0
 11
-0.732
 21
1.205252754612077
 31
0.0
  0
LINE
  5
CC
330
89
100
AcDbEntity
  8
AM_9
100
AcDbLine
 10
-0.8614277986033017
 20
-1.177362464487632
 30
0.0
 11
-0.8614277986033017
 21
1.177362464487906
 31
0.0
  0
ARC
  5
CD
330
89
100
AcDbEntity
  8
AM_9
100
AcDbCircle
 10
-0.540000000000026
 20
0.0000000000001379
 30
0.0
 40
1.22044999999986
100
AcDbArc
 50
99.05131675797634
 51
105.2700173381993
  0
ARC
  5
CE
330
89
100
AcDbEntity
  8
AM_9
100
AcDbCircle
 10
-0.5399999999618197
 20
0.0000000001774354
 30
0.0
 40
1.220450000180963
100
AcDbArc
 50
254.7299826622626
 51
260.9486832415618
  0
LINE
  5
CF
330
89
100
AcDbEntity
  8
AM_9
100
AcDbLine
 10
-0.2185721955820478
 20
-1.177362462900455
 30
0.0
 11
-0.2185721955820478
 21
1.177362462900468
 31
0.0
  0
LINE
  5
D0
330
89
100
AcDbEntity
  8
AM_9
100
AcDbLine
 10
-0.4683730302403548
 20
-0.0551443738796706
 30
0.0
 11
-0.4707638155201349
 21
-0.0511122311290248
 31
0.0
  0
LWPOLYLINE
  5
D1
330
89
100
AcDbEntity
  8
AM_9
100
AcDbPolyline
 90
       32
 70
     0
 43
0.0
 10
-0.4683730302403546
 20
-0.0551443738796702
 10
-0.4580420048107485
 20
-0.0689937673240314
 10
-0.4451924882063816
 20
-0.0812442854969153
 10
-0.4308630900431918
 20
-0.0909045681784015
 10
-0.4146862865296665
 20
-0.0982219729552678
 10
-0.3979040418814453
 20
-0.1026164690912279
 10
-0.38013518171421
 20
-0.104166578950965
 10
-0.3627614269313075
 20
-0.1027303559956785
 10
-0.3453843650223923
 20
-0.0982468944015052
 10
-0.3294600092902868
 20
-0.0910845968509802
 10
-0.3145382361953125
 20
-0.0810274763523015
 10
-0.3019526386139606
 20
-0.068987707782767
 10
-0.2912639452983014
 20
-0.0545582902996478
 10
-0.2834506716662908
 20
-0.0391014276306263
 10
-0.2781928111467306
 20
-0.0220451977137474
 10
-0.2759524103590014
 20
-0.0049793106291774
 10
-0.2766136479063804
 20
0.0127262188106917
 10
-0.2801014706938543
 20
0.0295123412645054
 10
-0.286507367636838
 20
0.0459328002439444
 10
-0.295308902626882
 20
0.0606474440531546
 10
-0.306736837307993
 20
0.074048655874418
 10
-0.3199328606064492
 20
0.0851036615517757
 10
-0.3351917750508345
 20
0.0940367875958576
 10
-0.3513927488941319
 20
0.1001614677838203
 10
-0.3688659597463642
 20
0.1035699164433083
 10
-0.3862771341866404
 20
0.1039773630693064
 10
-0.4040082040114515
 20
0.1013622246430492
 10
-0.420601661142819
 20
0.0959280957638957
 10
-0.4365013798148143
 20
0.0875116479302358
 10
-0.4503055013205082
 20
0.0768624155781971
 10
-0.4624720184802825
 20
0.0636322293514175
 10
-0.4683730302403441
 20
0.0551443738796868
  0
LINE
  5
D2
330
89
100
AcDbEntity
  8
AM_9
100
AcDbLine
 10
-0.6679999999999998
 20
-1.213719161297196
 30
0.0
 11
-0.6679999999999998
 21
1.213719161297209
 31
0.0
  0
ARC
  5
D3
330
89
100
AcDbEntity
  8
AM_9
100
AcDbCircle
 10
-0.5399999999999983
 20
0.0000000000000149
 30
0.0
 40
1.220449999999985
100
AcDbArc
 50
74.72998237883398
 51
96.0202153165514
  0
ARC
  5
D4
330
89
100
AcDbEntity
  8
AM_9
100
AcDbCircle
 10
-0.5399999999994
 20
-0.0000000000073976
 30
0.0
 40
1.220449999992693
100
AcDbArc
 50
263.9797846833843
 51
285.2700176212304
  0
LINE
  5
D6
330
89
100
AcDbEntity
  8
AM_5
100
AcDbLine
 10
-1.01125
 20
0.59375
 30
0.0
 11
-1.01125
 21
0.7849999999999931
 31
0.0
  0
LINE
  5
D7
330
89
100
AcDbEntity
  8
AM_5
100
AcDbLine
 10
-1.32375
 20
0.59375
 30
0.0
 11
-1.32375
 21
0.7849999999999931
 31
0.0
  0
LINE
  5
DA
330
89
100
AcDbEntity
  8
AM_7
100
AcDbLine
 10
-0.3799999999999999
 20
-0.0435113636363592
 30
0.0
 11
-0.3799999999999999
 21
0.043511363636359
 31
0.0
  0
LINE
  5
DB
330
89
100
AcDbEntity
  8
AM_7
100
AcDbLine
 10
-1.1675
 20
0.8039210179963503
 30
0.0
 11
-1.1675
 21
0.5381934353872481
 31
0.0
  0
LWPOLYLINE
  5
DD
330
89
100
AcDbEntity
  8
AM_4
100
AcDbPolyline
 90
        8
 70
     0
 43
0.0
 10
-1.180186880154012
 20
0.3590512761488057
 10
-1.200629615384287
 20
0.3559600469792202
 10
-1.220698947743648
 20
0.3499417144535585
 10
-1.238702949618935
 20
0.3414683027994474
 10
-1.255192383807617
 20
0.3302330357228102
 10
-1.269014778051912
 20
0.3168710931277876
 10
-1.280316423379187
 20
0.3010482018717867
 10
-1.28728639109767
 20
0.286365832387396
  0
ELLIPSE
  5
DE
330
89
100
AcDbEntity
  8
AM_4
100
AcDbEllipse
 10
-1.1675
 20
0.2452546587752409
 30
0.0
 11
0.126199999999989
 21
0.0
 31
0.0
210
0.0
220
0.0
230
1.0
 40
0.9063077870366593
 41
1.470096267866014
 42
1.671496385723781
  0
ELLIPSE
  5
DF
330
89
100
AcDbEntity
  8
AM_4
100
AcDbEllipse
 10
-1.1675
 20
0.3219474185708133
 30
0.0
 11
0.1262000000000001
 21
0.0
 31
0.0
210
0.0
220
0.0
230
1.0
 40
0.9063077870366495
 41
1.570796326794897
 42
6.283185307179586
  0
ELLIPSE
  5
E0
330
89
100
AcDbEntity
  8
AM_4
100
AcDbEllipse
 10
-1.1675
 20
0.3219474185708133
 30
0.0
 11
0.1261999999999999
 21
0.0
 31
0.0
210
0.0
220
0.0
230
1.0
 40
0.9063077870366496
 41
0.0
 42
1.570796326794897
  0
LWPOLYLINE
  5
E1
330
89
100
AcDbEntity
  8
AM_4
100
AcDbPolyline
 90
        9
 70
     0
 43
0.0
 10
-1.047602420755725
 20
0.286069999015599
 10
-1.04988657766878
 20
0.2916515627389001
 10
-1.059119891912634
 20
0.3080342631953044
 10
-1.071152739305216
 20
0.3224257892721799
 10
-1.086214259137607
 20
0.3350815400494193
 10
-1.103393339404183
 20
0.3452084714875132
 10
-1.122967375088213
 20
0.3529356239469745
 10
-1.138497553701555
 20
0.3568169413076647
 10
-1.154813119845988
 20
0.3590512761488057
  0
LWPOLYLINE
  5
E2
330
89
100
AcDbEntity
  8
AM_4
100
AcDbPolyline
 90
       18
 70
     0
 43
0.0
 10
-1.06517911539609
 20
0.778613810413374
 10
-1.081938133312054
 20
0.7769024019979403
 10
-1.100668273443186
 20
0.775345462803702
 10
-1.124199016892097
 20
0.7739272946364014
 10
-1.149491865878055
 20
0.7730765908522439
 10
-1.175619949469443
 20
0.7729347004852952
 10
-1.20225505677819
 20
0.7735615397061938
 10
-1.227444354162275
 20
0.7748681317669948
 10
-1.239756178699469
 20
0.7757575147120204
 10
-1.251611005400598
 20
0.7767683329230035
 10
-1.272168267551617
 20
0.7788773333098258
 10
-1.28158655520445
 20
0.7799930839352562
 10
-1.290162313777021
 20
0.7810899623055134
 10
-1.302968825122456
 20
0.7828703769154615
 10
-1.308069764197831
 20
0.783626660700127
 10
-1.312093512987756
 20
0.7842420498777349
 10
-1.316245341046493
 20
0.784894345115462
 10
-1.316907508485777
 20
0.7849999999999776
  0
LWPOLYLINE
  5
E3
330
89
100
AcDbEntity
  8
AM_4
100
AcDbPolyline
 90
       45
 70
     0
 43
0.0
 10
-1.051340682083353
 20
0.2516104609088703
 10
-1.066645125142119
 20
0.2372980139420662
 10
-1.083968580790934
 20
0.2251651240552484
 10
-1.105901846574781
 20
0.214210556248468
 10
-1.129362323105939
 20
0.2066805451024017
 10
-1.15519681552698
 20
0.2026732732085532
 10
-1.181363266865217
 20
0.2027838875405077
 10
-1.199023021153503
 20
0.2052581026351035
 10
-1.216339548968286
 20
0.2096351967690795
 10
-1.232977822013299
 20
0.2158371363353812
 10
-1.248655992323133
 20
0.2237787283527304
 10
-1.263322316835166
 20
0.2334040681196873
 10
-1.276647263974933
 20
0.2445303200342703
 10
-1.287943958059528
 20
0.2564958790070788
 10
-1.297684805442168
 20
0.2696258795168802
 10
-1.305599381895147
 20
0.2836353529721475
 10
-1.313176133901715
 20
0.3040147646279822
 10
-1.316691273340345
 20
0.3250657101363345
 10
-1.316109709704743
 20
0.3443826825828432
 10
-1.311962863616003
 20
0.3630974078942247
 10
-1.304540098877688
 20
0.3803916238013424
 10
-1.294131458247671
 20
0.3962435711976291
 10
-1.28029868371044
 20
0.4110392037831764
 10
-1.263988902881791
 20
0.4236948702754152
 10
-1.243980043098416
 20
0.4348112431923342
 10
-1.22214744207117
 20
0.4431099738215191
 10
-1.197327735227574
 20
0.4487616216321897
 10
-1.171724371034459
 20
0.4510366246537538
 10
-1.145105034697993
 20
0.4497752956100677
 10
-1.119114597381096
 20
0.4448855636022681
 10
-1.102478798084666
 20
0.4395916035705271
 10
-1.086631583319566
 20
0.4326968595542414
 10
-1.071907136913015
 20
0.4242828862436345
 10
-1.058875143678514
 20
0.414663542217455
 10
-1.047241390454959
 20
0.4036656948122356
 10
-1.037307500355978
 20
0.3914627003918983
 10
-1.029796428524521
 20
0.3791303261160452
 10
-1.024016658186431
 20
0.3659215636476305
 10
-1.020141722238373
 20
0.3521046190343009
 10
-1.018112821977724
 20
0.3325029082958733
 10
-1.019855311842456
 20
0.3126265720447662
 10
-1.025037591694824
 20
0.2939217991275995
 10
-1.033391068375214
 20
0.276035601883321
 10
-1.041625992430716
 20
0.263377774027592
 10
-1.051340680736681
 20
0.2516104590216111
  0
LINE
  5
E4
330
89
100
AcDbEntity
  8
AM_4
100
AcDbLine
 10
-0.9899999999999998
 20
0.7849999999999931
 30
0.0
 11
-1.018092491514125
 21
0.7849999999999931
 31
0.0
  0
LINE
  5
E5
330
89
100
AcDbEntity
  8
AM_4
100
AcDbLine
 10
-1.316907508485875
 20
0.784999999999993
 30
0.0
 11
-1.4186
 21
0.7849999999999931
 31
0.0
  0
LINE
  5
E6
330
89
100
AcDbEntity
  8
AM_4
100
AcDbLine
 10
-1.4186
 20
-0.7849999999999931
 30
0.0
 11
-0.9899999999999998
 21
-0.7849999999999931
 31
0.0
  0
LINE
  5
E7
330
89
100
AcDbEntity
  8
AM_4
100
AcDbLine
 10
-1.019186334651788
 20
0.7848257071909437
 30
0.0
 11
-1.018092491514632
 21
0.7849999999999121
 31
0.0
  0
LWPOLYLINE
  5
E8
330
89
100
AcDbEntity
  8
AM_4
100
AcDbPolyline
 90
        7
 70
     0
 43
0.0
 10
-1.018092491514632
 20
0.7849999999999121
 10
-1.019116161249788
 20
0.7848368521114082
 10
-1.023684378471617
 20
0.7841217894285494
 10
-1.031330637378184
 20
0.782972657284051
 10
-1.042191623480245
 20
0.7814438930019489
 10
-1.052834375782332
 20
0.7800647271305217
 10
-1.06517911539609
 20
0.778613810413374
  0
LINE
  5
E9
330
89
100
AcDbEntity
  8
AM_4
100
AcDbLine
 10
-1.4186
 20
-0.7849999999999931
 30
0.0
 11
-1.4186
 21
0.7849999999999931
 31
0.0
  0
LINE
  5
EA
330
89
100
AcDbEntity
  8
AM_4
100
AcDbLine
 10
-1.45
 20
-0.7535999999999832
 30
0.0
 11
-1.45
 21
0.7535999999999832
 31
0.0
  0
LINE
  5
EB
330
89
100
AcDbEntity
  8
AM_4
100
AcDbLine
 10
-1.45
 20
-0.7535999999999832
 30
0.0
 11
-1.4186
 21
-0.7849999999999931
 31
0.0
  0
LINE
  5
EC
330
89
100
AcDbEntity
  8
AM_4
100
AcDbLine
 10
-1.4186
 20
0.7849999999999931
 30
0.0
 11
-1.45
 21
0.7535999999999832
 31
0.0
  0
ENDBLK
  5
8C
330
89
100
AcDbEntity
  8
0
100
AcDbBlockEnd
  0
BLOCK
  5
EF
330
ED
100
AcDbEntity
  8
0
100
AcDbBlockBegin
  2
3_430026_0_in_124628_2
 70
     2
 10
0.0
 20
0.0
 30
0.0
  3
3_430026_0_in_124628_2
  1

  0
ATTDEF
  5
F1
330
ED
100
AcDbEntity
  8
AM_6
100
AcDbText
 10
4.556048138494789
 20
-1.3845
 30
0.0
 40
0.5
  1
430026 Plug
100
AcDbAttributeDefinition
  3

  2
NN
 70
     8
280
     0
  0
ATTDEF
  5
F2
330
ED
100
AcDbEntity
  8
AM_6
100
AcDbText
 10
4.556048138494789
 20
-1.8845
 30
0.0
 40
0.5
  1
Plug
100
AcDbAttributeDefinition
  3

  2
NT
 70
     8
280
     0
  0
ATTDEF
  5
F3
330
ED
100
AcDbEntity
  8
AM_6
100
AcDbText
 10
4.556048138494789
 20
-2.3845
 30
0.0
 40
0.5
  1
430026
100
AcDbAttributeDefinition
  3

  2
NB
 70
     8
280
     0
  0
ATTDEF
  5
F4
330
ED
100
AcDbEntity
  8
AM_6
100
AcDbText
 10
4.556048138494789
 20
-2.8845
 30
0.0
 40
0.5
  1
$PN.
100
AcDbAttributeDefinition
  3

  2
NBSYN
 70
     8
280
     0
  0
ATTDEF
  5
F5
330
ED
100
AcDbEntity
  8
AM_6
100
AcDbText
 10
4.556048138494789
 20
-3.3845
 30
0.0
 40
0.5
  1
430026
100
AcDbAttributeDefinition
  3

  2
LINA
 70
     8
280
     0
  0
ATTDEF
  5
F6
330
ED
100
AcDbEntity
  8
AM_6
100
AcDbText
 10
4.556048138494789
 20
-3.8845
 30
0.0
 40
0.5
  1
430026
100
AcDbAttributeDefinition
  3

  2
PN
 70
     8
280
     0
  0
ATTDEF
  5
F7
330
ED
100
AcDbEntity
  8
AM_6
100
AcDbText
 10
4.556048138494789
 20
-4.3845
 30
0.0
 40
0.5
  1
baldor
100
AcDbAttributeDefinition
  3

  2
COMPANY
 70
     8
280
     0
  0
LINE
  5
F8
330
ED
100
AcDbEntity
  8
AM_9
100
AcDbLine
 10
-0.7515865088063882
 20
-1.572
 30
0.0
 11
-0.7515865088063882
 21
-1.696253175473055
 31
0.0
  0
LINE
  5
F9
330
ED
100
AcDbEntity
  8
AM_9
100
AcDbLine
 10
-0.5350801578602785
 20
-1.572
 30
0.0
 11
-0.5350801578602785
 21
-1.696253175473055
 31
0.0
  0
LINE
  5
FA
330
ED
100
AcDbEntity
  8
AM_9
100
AcDbLine
 10
-0.5350801578602785
 20
-1.572
 30
0.0
 11
-0.7515865088063882
 21
-1.572
 31
0.0
  0
LINE
  5
FB
330
ED
100
AcDbEntity
  8
AM_9
100
AcDbLine
 10
-0.7143351936916957
 20
-1.5095
 30
0.0
 11
-0.572331472974971
 21
-1.5095
 31
0.0
  0
LINE
  5
FC
330
ED
100
AcDbEntity
  8
AM_9
100
AcDbLine
 10
-0.7143351936916957
 20
-1.5095
 30
0.0
 11
-0.7370833333333333
 21
-1.572
 31
0.0
  0
LINE
  5
FD
330
ED
100
AcDbEntity
  8
AM_9
100
AcDbLine
 10
-0.5495833333333333
 20
-1.572
 30
0.0
 11
-0.572331472974971
 21
-1.5095
 31
0.0
  0
LINE
  5
FE
330
ED
100
AcDbEntity
  8
AM_9
100
AcDbLine
 10
-0.6974599210698608
 20
-1.572
 30
0.0
 11
-0.6974599210698608
 21
-1.696253175473055
 31
0.0
  0
LINE
  5
FF
330
ED
100
AcDbEntity
  8
AM_9
100
AcDbLine
 10
-0.5892067455968059
 20
-1.572
 30
0.0
 11
-0.5892067455968059
 21
-1.696253175473055
 31
0.0
  0
LWPOLYLINE
  5
100
330
ED
100
AcDbEntity
  8
AM_9
100
AcDbPolyline
 90
        9
 70
     0
 43
0.0
 10
-0.7515865088063882
 20
-1.696253175473055
 10
-0.7460515525139425
 20
-1.691164624630302
 10
-0.7403053611163534
 20
-1.686921014208124
 10
-0.7342287641897405
 20
-1.683738462725815
 10
-0.7279223842506937
 20
-1.681996169645694
 10
-0.7192470615714494
 20
-1.682342003780896
 10
-0.7104562860584414
 20
-1.685880419147163
 10
-0.7038690644750291
 20
-1.690447246060629
 10
-0.6974599210698608
 20
-1.696253175473055
  0
LWPOLYLINE
  5
101
330
ED
100
AcDbEntity
  8
AM_9
100
AcDbPolyline
 90
        8
 70
     0
 43
0.0
 10
-0.6974599210698608
 20
-1.696253175473055
 10
-0.6836581974007431
 20
-1.690054677315912
 10
-0.6651205345425031
 20
-1.684248348747024
 10
-0.6553068649040993
 20
-1.682511522886238
 10
-0.645267903550305
 20
-1.681769958205837
 10
-0.6268181457685271
 20
-1.683193560287977
 10
-0.6082968833391277
 20
-1.68808304216098
 10
-0.5892067455968059
 20
-1.696253175473055
  0
LWPOLYLINE
  5
102
330
ED
100
AcDbEntity
  8
AM_9
100
AcDbPolyline
 90
        9
 70
     0
 43
0.0
 10
-0.5892067455968059
 20
-1.696253175473055
 10
-0.5836717893043603
 20
-1.691164624630302
 10
-0.5779255979067711
 20
-1.686921014208124
 10
-0.5718490009801582
 20
-1.683738462725815
 10
-0.5655426210411113
 20
-1.681996169645694
 10
-0.5568672983618671
 20
-1.682342003780896
 10
-0.5480765228488592
 20
-1.685880419147162
 10
-0.5414893012654468
 20
-1.690447246060629
 10
-0.5350801578602785
 20
-1.696253175473055
  0
LINE
  5
103
330
ED
100
AcDbEntity
  8
AM_9
100
AcDbLine
 10
-0.813582785099073
 20
-1.3845
 30
0.0
 11
-0.4730838815675937
 21
-1.3845
 31
0.0
  0
LINE
  5
104
330
ED
100
AcDbEntity
  8
AM_9
100
AcDbLine
 10
-0.813582785099073
 20
-1.3845
 30
0.0
 11
-0.8342068718746278
 21
-1.404490260520978
 31
0.0
  0
LINE
  5
105
330
ED
100
AcDbEntity
  8
AM_9
100
AcDbLine
 10
-0.452459794792039
 20
-1.404490260520978
 30
0.0
 11
-0.4730838815675937
 21
-1.3845
 31
0.0
  0
LINE
  5
106
330
ED
100
AcDbEntity
  8
AM_9
100
AcDbLine
 10
-0.8342068718746278
 20
-1.404490260520978
 30
0.0
 11
-0.452459794792039
 21
-1.404490260520978
 31
0.0
  0
LINE
  5
107
330
ED
100
AcDbEntity
  8
AM_9
100
AcDbLine
 10
-0.8342068718746278
 20
-1.404490260520978
 30
0.0
 11
-0.841715475759177
 21
-1.645
 31
0.0
  0
LINE
  5
108
330
ED
100
AcDbEntity
  8
AM_9
100
AcDbLine
 10
-0.4449511909074896
 20
-1.645
 30
0.0
 11
-0.452459794792039
 21
-1.404490260520978
 31
0.0
  0
LINE
  5
109
330
ED
100
AcDbEntity
  8
AM_4
100
AcDbLine
 10
-0.8233388919370098
 20
-1.697
 30
0.0
 11
-0.463327774729657
 21
-1.697
 31
0.0
  0
LINE
  5
10A
330
ED
100
AcDbEntity
  8
AM_4
100
AcDbLine
 10
-0.463327774729657
 20
-1.697
 30
0.0
 11
-0.4439518615052117
 21
-1.677009739479022
 31
0.0
  0
LINE
  5
10B
330
ED
100
AcDbEntity
  8
AM_4
100
AcDbLine
 10
-0.842714805161455
 20
-1.677009739479022
 30
0.0
 11
-0.8233388919370098
 21
-1.697
 31
0.0
  0
LINE
  5
10C
330
ED
100
AcDbEntity
  8
AM_4
100
AcDbLine
 10
-0.842714805161455
 20
-1.677009739479022
 30
0.0
 11
-0.4439518615052117
 21
-1.677009739479022
 31
0.0
  0
LINE
  5
10D
330
ED
100
AcDbEntity
  8
AM_4
100
AcDbLine
 10
-0.841715475759177
 20
-1.645
 30
0.0
 11
-0.842714805161455
 21
-1.677009739479022
 31
0.0
  0
LINE
  5
10E
330
ED
100
AcDbEntity
  8
AM_4
100
AcDbLine
 10
-0.4439518615052117
 20
-1.677009739479022
 30
0.0
 11
-0.4449511909074896
 21
-1.645
 31
0.0
  0
ENDBLK
  5
F0
330
ED
100
AcDbEntity
  8
0
100
AcDbBlockEnd
  0
BLOCK
  5
111
330
10F
100
AcDbEntity
  8
0
100
AcDbBlockBegin
  2
4_124628H_0_in_124628_2
 70
     2
 10
0.0
 20
0.0
 30
0.0
  3
4_124628H_0_in_124628_2
  1

  0
ATTDEF
  5
113
330
10F
100
AcDbEntity
  8
AM_6
100
AcDbText
 10
5.0235
 20
2.22
 30
0.0
 40
0.5
  1
LF-SC & LF-SC-NL - housing -Inch
100
AcDbAttributeDefinition
  3

  2
NN
 70
     8
280
     0
  0
ATTDEF
  5
114
330
10F
100
AcDbEntity
  8
AM_6
100
AcDbText
 10
5.0235
 20
1.72
 30
0.0
 40
0.5
  1
SC 3 Bolt Flange Bearings -(Normal Duty) -Re-Lube and No-Lube
100
AcDbAttributeDefinition
  3

  2
NT
 70
     8
280
     0
  0
ATTDEF
  5
115
330
10F
100
AcDbEntity
  8
AM_6
100
AcDbText
 10
5.0235
 20
1.22
 30
0.0
 40
0.5
  1
124628H
100
AcDbAttributeDefinition
  3

  2
NB
 70
     8
280
     0
  0
ATTDEF
  5
116
330
10F
100
AcDbEntity
  8
AM_6
100
AcDbText
 10
5.0235
 20
0.7199999999999998
 30
0.0
 40
0.5
  1
$PN.H
100
AcDbAttributeDefinition
  3

  2
NBSYN
 70
     8
280
     0
  0
ATTDEF
  5
117
330
10F
100
AcDbEntity
  8
AM_6
100
AcDbText
 10
5.0235
 20
0.2199999999999998
 30
0.0
 40
0.5
  1
124628
100
AcDbAttributeDefinition
  3

  2
LINA
 70
     8
280
     0
  0
ATTDEF
  5
118
330
10F
100
AcDbEntity
  8
AM_6
100
AcDbText
 10
5.0235
 20
-0.2800000000000002
 30
0.0
 40
0.5
  1
206
100
AcDbAttributeDefinition
  3

  2
SERIES
 70
     8
280
     0
  0
ATTDEF
  5
119
330
10F
100
AcDbEntity
  8
AM_6
100
AcDbText
 10
5.0235
 20
-0.7800000000000002
 30
0.0
 40
0.5
  1
1-3/16
100
AcDbAttributeDefinition
  3

  2
SS
 70
     8
280
     0
  0
ATTDEF
  5
11A
330
10F
100
AcDbEntity
  8
AM_6
100
AcDbText
 10
5.0235
 20
-1.28
 30
0.0
 40
0.5
  1
124628
100
AcDbAttributeDefinition
  3

  2
PN
 70
     8
280
     0
  0
ATTDEF
  5
11B
330
10F
100
AcDbEntity
  8
AM_6
100
AcDbText
 10
5.0235
 20
-1.78
 30
0.0
 40
0.5
  1
LF-SC-103-NL
100
AcDbAttributeDefinition
  3

  2
DESCRIPTION
 70
     8
280
     0
  0
ATTDEF
  5
11C
330
10F
100
AcDbEntity
  8
AM_6
100
AcDbText
 10
5.0235
 20
-2.28
 30
0.0
 40
0.5
  1
1.55
100
AcDbAttributeDefinition
  3

  2
W
 70
     8
280
     0
  0
ATTDEF
  5
11D
330
10F
100
AcDbEntity
  8
AM_6
100
AcDbText
 10
5.0235
 20
-2.78
 30
0.0
 40
0.5
  1
NO-LUBE
100
AcDbAttributeDefinition
  3

  2
LF
 70
     8
280
     0
  0
ATTDEF
  5
11E
330
10F
100
AcDbEntity
  8
AM_6
100
AcDbText
 10
5.0235
 20
-3.28
 30
0.0
 40
0.5
  1
1.26
100
AcDbAttributeDefinition
  3

  2
A
 70
     8
280
     0
  0
ATTDEF
  5
11F
330
10F
100
AcDbEntity
  8
AM_6
100
AcDbText
 10
5.0235
 20
-3.78
 30
0.0
 40
0.5
  1
4.44
100
AcDbAttributeDefinition
  3

  2
B
 70
     8
280
     0
  0
ATTDEF
  5
120
330
10F
100
AcDbEntity
  8
AM_6
100
AcDbText
 10
5.0235
 20
-4.28
 30
0.0
 40
0.5
  1
1.45
100
AcDbAttributeDefinition
  3

  2
C
 70
     8
280
     0
  0
ATTDEF
  5
121
330
10F
100
AcDbEntity
  8
AM_6
100
AcDbText
 10
5.0235
 20
-4.78
 30
0.0
 40
0.5
  1
3.56
100
AcDbAttributeDefinition
  3

  2
D
 70
     8
280
     0
  0
ATTDEF
  5
122
330
10F
100
AcDbEntity
  8
AM_6
100
AcDbText
 10
5.0235
 20
-5.28
 30
0.0
 40
0.5
  1
0.41
100
AcDbAttributeDefinition
  3

  2
G
 70
     8
280
     0
  0
ATTDEF
  5
123
330
10F
100
AcDbEntity
  8
AM_6
100
AcDbText
 10
5.0235
 20
-5.78
 30
0.0
 40
0.5
  1
0.47
100
AcDbAttributeDefinition
  3

  2
H
 70
     8
280
     0
  0
ATTDEF
  5
124
330
10F
100
AcDbEntity
  8
AM_6
100
AcDbText
 10
5.0235
 20
-6.28
 30
0.0
 40
0.5
  1
0.46
100
AcDbAttributeDefinition
  3

  2
J
 70
     8
280
     0
  0
ATTDEF
  5
125
330
10F
100
AcDbEntity
  8
AM_6
100
AcDbText
 10
5.0235
 20
-6.78
 30
0.0
 40
0.5
  1
1.57
100
AcDbAttributeDefinition
  3

  2
L
 70
     8
280
     0
  0
ATTDEF
  5
126
330
10F
100
AcDbEntity
  8
AM_6
100
AcDbText
 10
5.0235
 20
-7.28
 30
0.0
 40
0.5
  1
2.22
100
AcDbAttributeDefinition
  3

  2
M
 70
     8
280
     0
  0
ATTDEF
  5
127
330
10F
100
AcDbEntity
  8
AM_6
100
AcDbText
 10
5.0235
 20
-7.78
 30
0.0
 40
0.5
  1
2.02
100
AcDbAttributeDefinition
  3

  2
N
 70
     8
280
     0
  0
ATTDEF
  5
128
330
10F
100
AcDbEntity
  8
AM_6
100
AcDbText
 10
5.0235
 20
-8.280000000000001
 30
0.0
 40
0.5
  1
2250
100
AcDbAttributeDefinition
  3

  2
CAPS
 70
     8
280
     0
  0
ATTDEF
  5
129
330
10F
100
AcDbEntity
  8
AM_6
100
AcDbText
 10
5.0235
 20
-8.780000000000001
 30
0.0
 40
0.5
  1
4368
100
AcDbAttributeDefinition
  3

  2
CAPD
 70
     8
280
     0
  0
ATTDEF
  5
12A
330
10F
100
AcDbEntity
  8
AM_6
100
AcDbText
 10
5.0235
 20
-9.280000000000001
 30
0.0
 40
0.5
  1
baldor
100
AcDbAttributeDefinition
  3

  2
COMPANY
 70
     8
280
     0
  0
LINE
  5
12B
330
10F
100
AcDbEntity
  8
AM_9
100
AcDbLine
 10
-0.1175000000000001
 20
-0.1577398055903279
 30
0.0
 11
-0.0000000000000001
 21
-0.157739805590328
 31
0.0
  0
LINE
  5
12C
330
10F
100
AcDbEntity
  8
AM_9
100
AcDbLine
 10
-0.4933333333333334
 20
-1.37
 30
0.0
 11
-0.7933333333333332
 21
-1.37
 31
0.0
  0
LINE
  5
12D
330
10F
100
AcDbEntity
  8
AM_9
100
AcDbLine
 10
-0.7933333333333332
 20
-1.37
 30
0.0
 11
-0.7933333333333332
 21
-1.645
 31
0.0
  0
LINE
  5
12E
330
10F
100
AcDbEntity
  8
AM_9
100
AcDbLine
 10
-0.4933333333333334
 20
-1.645
 30
0.0
 11
-0.4933333333333334
 21
-1.37
 31
0.0
  0
LINE
  5
12F
330
10F
100
AcDbEntity
  8
AM_9
100
AcDbLine
 10
-0.235
 20
1.575
 30
0.0
 11
-0.235
 21
1.985
 31
0.0
  0
LINE
  5
130
330
10F
100
AcDbEntity
  8
AM_9
100
AcDbLine
 10
-0.47
 20
1.575
 30
0.0
 11
0.0
 21
1.575
 31
0.0
  0
LINE
  5
131
330
10F
100
AcDbEntity
  8
AM_9
100
AcDbLine
 10
0.0
 20
1.985
 30
0.0
 11
-0.47
 21
1.985
 31
0.0
  0
LINE
  5
132
330
10F
100
AcDbEntity
  8
AM_9
100
AcDbLine
 10
-0.99
 20
1.385641025641026
 30
0.0
 11
-0.47
 21
1.385641025641026
 31
0.0
  0
LINE
  5
133
330
10F
100
AcDbEntity
  8
AM_9
100
AcDbLine
 10
0.0
 20
1.279825
 30
0.0
 11
-0.1175
 21
1.279825
 31
0.0
  0
LINE
  5
134
330
10F
100
AcDbEntity
  8
AM_9
100
AcDbLine
 10
-0.1174999999999999
 20
1.178780189258562
 30
0.0
 11
0.0
 21
1.178780189258562
 31
0.0
  0
LINE
  5
135
330
10F
100
AcDbEntity
  8
AM_9
100
AcDbLine
 10
-0.1174999999999999
 20
-1.205211596712371
 30
0.0
 11
0.0000000000000001
 21
-1.205211596712371
 31
0.0
  0
LINE
  5
136
330
10F
100
AcDbEntity
  8
AM_9
100
AcDbLine
 10
-0.1174999999999999
 20
-1.021040383668233
 30
0.0
 11
0.0
 21
-1.021040383668233
 31
0.0
  0
LINE
  5
137
330
10F
100
AcDbEntity
  8
AM_9
100
AcDbLine
 10
-0.4699999999999999
 20
-1.219185470540704
 30
0.0
 11
-0.1174999999999999
 21
-1.219185470540703
 31
0.0
  0
LINE
  5
138
330
10F
100
AcDbEntity
  8
AM_9
100
AcDbLine
 10
-0.1174999999999999
 20
-0.59375
 30
0.0
 11
-0.1174999999999999
 21
-1.329999999999999
 31
0.0
  0
LINE
  5
139
330
10F
100
AcDbEntity
  8
AM_9
100
AcDbLine
 10
-0.6434999999999998
 20
-0.59375
 30
0.0
 11
-0.1174999999999999
 21
-0.59375
 31
0.0
  0
LINE
  5
13A
330
10F
100
AcDbEntity
  8
AM_9
100
AcDbLine
 10
-0.6434999999999998
 20
0.5937499999999991
 30
0.0
 11
-0.1174999999999998
 21
0.5937499999999991
 31
0.0
  0
LINE
  5
13B
330
10F
100
AcDbEntity
  8
AM_9
100
AcDbLine
 10
-0.99
 20
-1.22045
 30
0.0
 11
-0.1174999999999999
 21
-1.22045
 31
0.0
  0
LINE
  5
13C
330
10F
100
AcDbEntity
  8
AM_9
100
AcDbLine
 10
-0.1174999999999999
 20
1.22045
 30
0.0
 11
-0.99
 21
1.22045
 31
0.0
  0
LINE
  5
13D
330
10F
100
AcDbEntity
  8
AM_9
100
AcDbLine
 10
-0.6434999999999998
 20
-0.59375
 30
0.0
 11
-0.6434999999999998
 21
0.5937499999999991
 31
0.0
  0
LINE
  5
13E
330
10F
100
AcDbEntity
  8
AM_9
100
AcDbLine
 10
-0.2349999999999999
 20
-0.6099647922241899
 30
0.0
 11
-0.4699999999999999
 21
-0.6099647922241899
 31
0.0
  0
LINE
  5
13F
330
10F
100
AcDbEntity
  8
AM_9
100
AcDbLine
 10
-0.2349999999999999
 20
-1.17003520777581
 30
0.0
 11
-0.4699999999999999
 21
-1.17003520777581
 31
0.0
  0
LINE
  5
140
330
10F
100
AcDbEntity
  8
AM_9
100
AcDbLine
 10
-0.2349999999999999
 20
-0.9650352077758096
 30
0.0
 11
-0.4699999999999999
 21
-0.9650352077758096
 31
0.0
  0
LINE
  5
141
330
10F
100
AcDbEntity
  8
AM_9
100
AcDbLine
 10
-0.2349999999999999
 20
-1.17003520777581
 30
0.0
 11
-0.2349999999999999
 21
-0.6099647922241899
 31
0.0
  0
LINE
  5
142
330
10F
100
AcDbEntity
  8
AM_9
100
AcDbLine
 10
-0.2349999999999999
 20
-1.095
 30
0.0
 11
0.0000000000000001
 21
-1.095
 31
0.0
  0
LINE
  5
143
330
10F
100
AcDbEntity
  8
AM_9
100
AcDbLine
 10
0.0000000000000001
 20
-0.6849999999999995
 30
0.0
 11
-0.2349999999999999
 21
-0.6849999999999995
 31
0.0
  0
LINE
  5
144
330
10F
100
AcDbEntity
  8
AM_9
100
AcDbLine
 10
-0.2349999999999999
 20
-0.8149647922241897
 30
0.0
 11
-0.4699999999999999
 21
-0.8149647922241897
 31
0.0
  0
LINE
  5
145
330
10F
100
AcDbEntity
  8
AM_9
100
AcDbLine
 10
-0.4699999999999999
 20
-1.308989418539521
 30
0.0
 11
0.0000000000000001
 21
-1.308989418539521
 31
0.0
  0
LINE
  5
146
330
10F
100
AcDbEntity
  8
AM_7
100
AcDbLine
 10
0.0235
 20
1.78
 30
0.0
 11
-1.5095
 21
1.78
 31
0.0
  0
LINE
  5
147
330
10F
100
AcDbEntity
  8
AM_7
100
AcDbLine
 10
-1.513
 20
0.0
 30
0.0
 11
-0.0738749999999999
 21
0.0
 31
0.0
  0
LINE
  5
148
330
10F
100
AcDbEntity
  8
AM_7
100
AcDbLine
 10
0.0234999999999999
 20
-0.8899999999999996
 30
0.0
 11
-1.5095
 21
-0.8900000000000006
 31
0.0
  0
LINE
  5
149
330
10F
100
AcDbEntity
  8
AM_7
100
AcDbLine
 10
-0.6433333333333333
 20
-1.3525
 30
0.0
 11
-0.6433333333333333
 21
-1.7375
 31
0.0
  0
LINE
  5
14A
330
10F
100
AcDbEntity
  8
AM_4
100
AcDbLine
 10
0.0
 20
2.22
 30
0.0
 11
-0.47
 21
2.22
 31
0.0
  0
LINE
  5
14B
330
10F
100
AcDbEntity
  8
AM_4
100
AcDbLine
 10
-0.989
 20
-1.645
 30
0.0
 11
-0.989
 21
-1.350782323002052
 31
0.0
  0
LINE
  5
14C
330
10F
100
AcDbEntity
  8
AM_4
100
AcDbLine
 10
-0.1185
 20
-1.645
 30
0.0
 11
-0.1185
 21
-1.509345884812358
 31
0.0
  0
LINE
  5
14D
330
10F
100
AcDbEntity
  8
AM_4
100
AcDbLine
 10
-0.989
 20
-1.563
 30
0.0
 11
-0.1185
 21
-1.563
 31
0.0
  0
LINE
  5
14E
330
10F
100
AcDbEntity
  8
AM_4
100
AcDbLine
 10
-0.989
 20
-1.645
 30
0.0
 11
-0.1185
 21
-1.645
 31
0.0
  0
LINE
  5
14F
330
10F
100
AcDbEntity
  8
AM_4
100
AcDbLine
 10
-0.47
 20
1.873150820887368
 30
0.0
 11
0.0
 21
1.873150820887368
 31
0.0
  0
LINE
  5
150
330
10F
100
AcDbEntity
  8
AM_4
100
AcDbLine
 10
-0.1174999999999999
 20
1.320408281407687
 30
0.0
 11
0.0
 21
1.320408281407687
 31
0.0
  0
LINE
  5
151
330
10F
100
AcDbEntity
  8
AM_4
100
AcDbLine
 10
-0.1174999999999999
 20
1.170687603865249
 30
0.0
 11
0.0
 21
1.170687603865249
 31
0.0
  0
LINE
  5
152
330
10F
100
AcDbEntity
  8
AM_4
100
AcDbLine
 10
0.0
 20
1.170687603865249
 30
0.0
 11
0.0
 21
2.22
 31
0.0
  0
LINE
  5
153
330
10F
100
AcDbEntity
  8
AM_4
100
AcDbLine
 10
-0.47
 20
2.22
 30
0.0
 11
-0.4700000000000002
 21
-1.509345884812358
 31
0.0
  0
LINE
  5
154
330
10F
100
AcDbEntity
  8
AM_4
100
AcDbLine
 10
-0.1174999999999999
 20
-1.329999999999999
 30
0.0
 11
-0.1175
 21
-1.575
 31
0.0
  0
LINE
  5
155
330
10F
100
AcDbEntity
  8
AM_4
100
AcDbLine
 10
-0.4700000000000002
 20
-1.509345884812358
 30
0.0
 11
-0.1185
 21
-1.509345884812358
 31
0.0
  0
LINE
  5
156
330
10F
100
AcDbEntity
  8
AM_4
100
AcDbLine
 10
-0.908
 20
-1.423569106155371
 30
0.0
 11
-0.5200000000000001
 21
-1.42356910615537
 31
0.0
  0
LINE
  5
157
330
10F
100
AcDbEntity
  8
AM_4
100
AcDbLine
 10
-0.9079999999999998
 20
-0.9500017891307243
 30
0.0
 11
-0.908
 21
-1.423569106155371
 31
0.0
  0
LWPOLYLINE
  5
158
330
10F
100
AcDbEntity
  8
AM_4
100
AcDbPolyline
 90
       10
 70
     0
 43
0.0
 10
-0.989
 20
-1.350782323002052
 10
-0.9859366381999266
 20
-1.364188926711925
 10
-0.9802673437092775
 20
-1.378140103124767
 10
-0.9720097933502014
 20
-1.391287284537604
 10
-0.9622348283680937
 20
-1.402057143009203
 10
-0.9503408481345379
 20
-1.411212674966718
 10
-0.9339974924588706
 20
-1.419131882187141
 10
-0.921384401894738
 20
-1.422415723771457
 10
-0.9080241753633994
 20
-1.423569102417851
 10
-0.908
 20
-1.423569106155371
  0
ARC
  5
159
330
10F
100
AcDbEntity
  8
AM_4
100
AcDbCircle
 10
-0.9080000000000216
 20
-1.411000000000002
 30
0.0
 40
0.0819999999999785
100
AcDbArc
 50
180.0
 51
188.9572160647238
  0
LINE
  5
15A
330
10F
100
AcDbEntity
  8
AM_4
100
AcDbLine
 10
-0.52
 20
-0.9500017891307245
 30
0.0
 11
-0.5200000000000001
 21
-1.42356910615537
 31
0.0
  0
LWPOLYLINE
  5
15B
330
10F
100
AcDbEntity
  8
AM_4
100
AcDbPolyline
 90
        9
 70
     0
 43
0.0
 10
-0.47
 20
-1.475923100977825
 10
-0.4721689192468955
 20
-1.46068766720935
 10
-0.4754213419760256
 20
-1.452233751653714
 10
-0.4802175659883606
 20
-1.4442291524063
 10
-0.4860190888882404
 20
-1.437534369793475
 10
-0.4931237710091206
 20
-1.431786817029197
 10
-0.5005502136598391
 20
-1.427698652343221
 10
-0.5088338857645242
 20
-1.424893405298378
 10
-0.5200000000000001
 20
-1.42356910615537
  0
LINE
  5
15C
330
10F
100
AcDbEntity
  8
AM_4
100
AcDbLine
 10
0.0000000000000001
 20
-0.067873040659973
 30
0.0
 11
-0.1174999999999999
 21
-0.067873040659973
 31
0.0
  0
LWPOLYLINE
  5
15D
330
10F
100
AcDbEntity
  8
AM_4
100
AcDbPolyline
 90
       13
 70
     0
 43
0.0
 10
-0.9079999999999998
 20
-0.9500017891307243
 10
-0.9189708876500924
 20
-0.9490143066789334
 10
-0.9296011436122997
 20
-0.9461429212277941
 10
-0.9395441944673786
 20
-0.9415263395993178
 10
-0.9486344385283026
 20
-0.9354006750868469
 10
-0.9571090838753185
 20
-0.9275898605938051
 10
-0.9644328202470236
 20
-0.9186736933028957
 10
-0.9737132198269149
 20
-0.9029081706867724
 10
-0.9804521835507892
 20
-0.8858466896046298
 10
-0.9852793384768121
 20
-0.8669407170134901
 10
-0.9881874614181165
 20
-0.8476231197769388
 10
-0.9896211461597747
 20
-0.8282720376896099
 10
-0.9899999999999998
 20
-0.809956692046367
  0
LINE
  5
15E
330
10F
100
AcDbEntity
  8
AM_4
100
AcDbLine
 10
-0.52
 20
-0.9500017891307245
 30
0.0
 11
-0.9079999999999998
 21
-0.9500017891307243
 31
0.0
  0
LWPOLYLINE
  5
15F
330
10F
100
AcDbEntity
  8
AM_4
100
AcDbPolyline
 90
       11
 70
     0
 43
0.0
 10
-0.52
 20
-0.9500017891307245
 10
-0.5130308582267382
 20
-0.9506552750522437
 10
-0.5062886340766167
 20
-0.9525304676839307
 10
-0.5000033645866528
 20
-0.9554851795315177
 10
-0.4942349160467779
 20
-0.9593362379234154
 10
-0.4872133439287922
 20
-0.9658420501034175
 10
-0.4813532586017403
 20
-0.9733640683882991
 10
-0.4766143693295753
 20
-0.9817521216779842
 10
-0.4731164133348834
 20
-0.9906557369979838
 10
-0.4707949863760991
 20
-1.000528101462963
 10
-0.4699999999999999
 20
-1.010543069318264
  0
LINE
  5
160
330
10F
100
AcDbEntity
  8
AM_4
100
AcDbLine
 10
-0.9079999999999998
 20
-0.522450457875608
 30
0.0
 11
-0.52
 21
-0.5224504578756072
 31
0.0
  0
LINE
  5
161
330
10F
100
AcDbEntity
  8
AM_4
100
AcDbLine
 10
-0.5200000000000001
 20
1.472452247006331
 30
0.0
 11
-0.908
 21
1.472452247006331
 31
0.0
  0
LINE
  5
162
330
10F
100
AcDbEntity
  8
AM_4
100
AcDbLine
 10
-0.99
 20
1.405562359365881
 30
0.0
 11
-0.99
 21
-1.411
 31
0.0
  0
LWPOLYLINE
  5
163
330
10F
100
AcDbEntity
  8
AM_4
100
AcDbPolyline
 90
       12
 70
     0
 43
0.0
 10
-0.9899999999999998
 20
-0.5956056673195153
 10
-0.9895540246737009
 20
-0.5826209361026629
 10
-0.9879441949785221
 20
-0.5704036806222184
 10
-0.9840320011915145
 20
-0.5574335149803658
 10
-0.9769694630749352
 20
-0.5457437372598758
 10
-0.9700710274477585
 20
-0.5389735631422811
 10
-0.9608914092473786
 20
-0.5330506540429553
 10
-0.9522234411978469
 20
-0.529265183562155
 10
-0.9419246200065263
 20
-0.526184116736386
 10
-0.9306646757146203
 20
-0.5240326478966587
 10
-0.9180312413339211
 20
-0.5227506870368321
 10
-0.9079999999999998
 20
-0.522450457875608
  0
LINE
  5
164
330
10F
100
AcDbEntity
  8
AM_4
100
AcDbLine
 10
-0.908
 20
1.472452247006331
 30
0.0
 11
-0.9079999999999998
 21
-0.522450457875608
 31
0.0
  0
LWPOLYLINE
  5
165
330
10F
100
AcDbEntity
  8
AM_4
100
AcDbPolyline
 90
       13
 70
     0
 43
0.0
 10
-0.908
 20
1.472452247006331
 10
-0.91880057180615
 20
1.471853171565223
 10
-0.9296011436123
 20
1.470025265856281
 10
-0.9394251679196783
 20
1.46721210231773
 10
-0.9486344385283029
 20
1.463446252056836
 10
-0.9570351685658374
 20
1.458874355595949
 10
-0.9644328202470238
 20
1.453715921020953
 10
-0.9736145925916732
 20
1.445227022627174
 10
-0.9804521835507891
 20
1.436417396094732
 10
-0.9842319447728632
 20
1.429768615981768
 10
-0.9868859251893891
 20
1.423446235969488
 10
-0.9896211461597747
 20
1.411820892449839
 10
-0.99
 20
1.405562359365881
  0
LWPOLYLINE
  5
166
330
10F
100
AcDbEntity
  8
AM_4
100
AcDbPolyline
 90
       11
 70
     0
 43
0.0
 10
-0.4699999999999999
 20
-0.5045496271262704
 10
-0.4700029712954262
 20
-0.5046850185941318
 10
-0.4709089291907932
 20
-0.5070760689698218
 10
-0.4734505643805604
 20
-0.509740657420234
 10
-0.4779086540899429
 20
-0.5127362082983649
 10
-0.4843241758091308
 20
-0.5158161367957967
 10
-0.4901932212850939
 20
-0.517944167115015
 10
-0.497210979132402
 20
-0.5198701267891618
 10
-0.5033227804976477
 20
-0.5210841877143805
 10
-0.5100969716980736
 20
-0.521972353903624
 10
-0.52
 20
-0.5224504578756072
  0
LWPOLYLINE
  5
167
330
10F
100
AcDbEntity
  8
AM_4
100
AcDbPolyline
 90
       11
 70
     0
 43
0.0
 10
-0.5200000000000001
 20
1.472452247006331
 10
-0.5131443170383084
 20
1.472848402495841
 10
-0.5062886340766167
 20
1.474060984237191
 10
-0.5000720750347372
 20
1.475931945419368
 10
-0.4942349160467781
 20
1.478463396990009
 10
-0.4872997995118556
 20
1.482706214178357
 10
-0.4813532586017406
 20
1.487875092131211
 10
-0.4766550183196947
 20
1.493661608912075
 10
-0.4731164133348836
 20
1.500114956198243
 10
-0.4708105682442453
 20
1.507342553601541
 10
-0.47
 20
1.515092696444533
  0
LINE
  5
168
330
10F
100
AcDbEntity
  8
AM_4
100
AcDbLine
 10
-0.5200000000000001
 20
1.472452247006331
 30
0.0
 11
-0.52
 21
-0.5224504578756072
 31
0.0
  0
LINE
  5
169
330
10F
100
AcDbEntity
  8
AM_4
100
AcDbLine
 10
-0.1175
 20
1.473108132537147
 30
0.0
 11
-0.1174999999999999
 21
-0.2539226619964414
 31
0.0
  0
LINE
  5
16A
330
10F
100
AcDbEntity
  8
AM_4
100
AcDbLine
 10
-0.1175
 20
1.473108132537147
 30
0.0
 11
-0.4700000000000002
 21
1.473108132537147
 31
0.0
  0
LINE
  5
16B
330
10F
100
AcDbEntity
  8
AM_4
100
AcDbLine
 10
-0.1174999999999999
 20
-0.1151966850639023
 30
0.0
 11
0.0000000000000001
 21
-0.1151966850639024
 31
0.0
  0
LINE
  5
16C
330
10F
100
AcDbEntity
  8
AM_4
100
AcDbLine
 10
-0.1174999999999999
 20
-0.2539226619964414
 30
0.0
 11
-0.47
 21
-0.2539226619964426
 31
0.0
  0
LINE
  5
16D
330
10F
100
AcDbEntity
  8
AM_4
100
AcDbLine
 10
-0.4699999999999999
 20
-0.5641613929808607
 30
0.0
 11
0.0000000000000001
 21
-0.5641613929808607
 31
0.0
  0
LINE
  5
16E
330
10F
100
AcDbEntity
  8
AM_4
100
AcDbLine
 10
-0.4699999999999999
 20
-1.329999999999999
 30
0.0
 11
0.0000000000000001
 21
-1.329999999999999
 31
0.0
  0
LINE
  5
16F
330
10F
100
AcDbEntity
  8
AM_4
100
AcDbLine
 10
0.0000000000000001
 20
-1.329999999999999
 30
0.0
 11
0.0000000000000001
 21
-0.067873040659973
 31
0.0
  0
ENDBLK
  5
112
330
10F
100
AcDbEntity
  8
0
100
AcDbBlockEnd
  0
ENDSEC
  0
SECTION
  2
ENTITIES
  0
INSERT
  5
6F
330
1F
100
AcDbEntity
  8
0
100
AcDbBlockReference
  2
1_124628_2
 10
0.0
 20
0.0
 30
0.0
  0
POINT
  5
171
330
1F
100
AcDbEntity
  8
ConnectionPoints
100
AcDbPoint
 10
-0.6433333333333333
 20
-1.645
 30
0.0
  0
POINT
  5
172
330
1F
100
AcDbEntity
  8
ConnectionPoints
100
AcDbPoint
 10
-0.6433333333333333
 20
-1.645
 30
0.0
  0
POINT
  5
173
330
1F
100
AcDbEntity
  8
ConnectionPoints
100
AcDbPoint
 10
-1.45
 20
0.0
 30
0.0000000000000001
  0
ENDSEC
  0
SECTION
  2
OBJECTS
  0
DICTIONARY
  5
C
330
0
100
AcDbDictionary
281
     1
  3
ACAD_DETAILVIEWSTYLE
350
17B
  3
ACAD_GROUP
350
D
  3
ACAD_LAYOUT
350
1A
  3
ACAD_MATERIAL
350
43
  3
ACAD_MLEADERSTYLE
350
6B
  3
ACAD_MLINESTYLE
350
17
  3
ACAD_PLOTSETTINGS
350
19
  3
ACAD_PLOTSTYLENAME
350
E
  3
ACAD_SCALELIST
350
47
  3
ACAD_SECTIONVIEWSTYLE
350
17C
  3
ACAD_TABLESTYLE
350
69
  3
ACAD_VISUALSTYLE
350
2A
  3
ACDB_RECOMPOSE_DATA
350
178
  3
AcDbVariableDictionary
350
174
  0
SUN
  5
6D
330
29
100
AcDbSun
 90
        1
290
     0
 63
     7
421
 16777215
 40
1.0
291
     1
 91
  2455826
 92
 54000000
292
     0
 70
     2
 71
   256
280
     1
  0
DICTIONARY
  5
17B
102
{ACAD_REACTORS
330
C
102
}
330
C
100
AcDbDictionary
281
     1
  0
DICTIONARY
  5
D
102
{ACAD_REACTORS
330
C
102
}
330
C
100
AcDbDictionary
281
     1
  0
DICTIONARY
  5
1A
102
{ACAD_REACTORS
330
C
102
}
330
C
100
AcDbDictionary
281
     1
  3
Layout1
350
1E
  3
Layout2
350
26
  3
Model
350
22
  0
DICTIONARY
  5
43
102
{ACAD_REACTORS
330
C
102
}
330
C
100
AcDbDictionary
281
     1
  3
ByBlock
350
45
  3
ByLayer
350
44
  3
Global
350
46
  0
DICTIONARY
  5
6B
102
{ACAD_REACTORS
330
C
102
}
330
C
100
AcDbDictionary
281
     1
  3
Standard
350
6C
  0
DICTIONARY
  5
17
102
{ACAD_REACTORS
330
C
102
}
330
C
100
AcDbDictionary
281
     1
  3
Standard
350
18
  0
DICTIONARY
  5
19
102
{ACAD_REACTORS
330
C
102
}
330
C
100
AcDbDictionary
281
     1
  0
ACDBDICTIONARYWDFLT
  5
E
102
{ACAD_REACTORS
330
C
102
}
330
C
100
AcDbDictionary
281
     1
  3
Normal
350
F
100
AcDbDictionaryWithDefault
340
F
  0
DICTIONARY
  5
47
102
{ACAD_REACTORS
330
C
102
}
330
C
100
AcDbDictionary
281
     1
  3
A0
350
48
  3
A1
350
49
  3
A2
350
4A
  3
A3
350
4B
  3
A4
350
4C
  3
A5
350
4D
  3
A6
350
4E
  3
A7
350
4F
  3
A8
350
50
  3
A9
350
51
  3
B0
350
52
  3
B1
350
53
  3
B2
350
54
  3
B3
350
55
  3
B4
350
56
  3
B5
350
57
  3
B6
350
58
  3
B7
350
59
  3
B8
350
5A
  3
B9
350
5B
  3
C0
350
5C
  3
C1
350
5D
  3
C2
350
5E
  3
C3
350
5F
  3
C4
350
60
  3
C5
350
61
  3
C6
350
62
  3
C7
350
63
  3
C8
350
64
  3
C9
350
65
  3
D0
350
66
  3
D1
350
67
  3
D2
350
68
  0
DICTIONARY
  5
17C
102
{ACAD_REACTORS
330
C
102
}
330
C
100
AcDbDictionary
281
     1
  0
DICTIONARY
  5
69
102
{ACAD_REACTORS
330
C
102
}
330
C
100
AcDbDictionary
281
     1
  3
Standard
350
6A
  0
DICTIONARY
  5
2A
102
{ACAD_REACTORS
330
C
102
}
330
C
100
AcDbDictionary
281
     1
  3
2dWireframe
350
2F
  3
Basic
350
32
  3
Brighten
350
36
  3
ColorChange
350
3A
  3
Conceptual
350
34
  3
Dim
350
35
  3
EdgeColorOff
350
3D
  3
Facepattern
350
39
  3
Flat
350
2B
  3
FlatWithEdges
350
2C
  3
Gouraud
350
2D
  3
GouraudWithEdges
350
2E
  3
Hidden
350
31
  3
JitterOff
350
3B
  3
Linepattern
350
38
  3
OverhangOff
350
3C
  3
Realistic
350
33
  3
Shaded
350
42
  3
Shaded with edges
350
41
  3
Shades of Gray
350
3E
  3
Sketchy
350
3F
  3
Thicken
350
37
  3
Wireframe
350
30
  3
X-Ray
350
40
  0
XRECORD
  5
178
102
{ACAD_REACTORS
330
C
102
}
330
C
100
AcDbXrecord
280
     1
 90
        1
330
6A
  0
DICTIONARY
  5
174
102
{ACAD_REACTORS
330
C
102
}
330
C
100
AcDbDictionary
281
     1
  3
CANNOSCALE
350
175
  3
CMLEADERSTYLE
350
17A
  3
CTABLESTYLE
350
179
  0
LAYOUT
  5
1E
102
{ACAD_REACTORS
330
1A
102
}
330
1A
100
AcDbPlotSettings
  1

  2
none_device
  4

  6

 40
0.0
 41
0.0
 42
0.0
 43
0.0
 44
0.0
 45
0.0
 46
0.0
 47
0.0
 48
0.0
 49
0.0
140
0.0
141
0.0
142
1.0
143
1.0
 70
   688
 72
     0
 73
     0
 74
     5
  7

 75
    16
 76
     0
 77
     2
 78
   300
147
1.0
148
0.0
149
0.0
100
AcDbLayout
  1
Layout1
 70
     1
 71
     1
 10
0.0
 20
0.0
 11
12.0
 21
9.0
 12
0.0
 22
0.0
 32
0.0
 14
1.000000000000000E+20
 24
1.000000000000000E+20
 34
1.000000000000000E+20
 15
-1.000000000000000E+20
 25
-1.000000000000000E+20
 35
-1.000000000000000E+20
146
0.0
 13
0.0
 23
0.0
 33
0.0
 16
1.0
 26
0.0
 36
0.0
 17
0.0
 27
1.0
 37
0.0
 76
     0
330
1B
  0
LAYOUT
  5
26
102
{ACAD_REACTORS
330
1A
102
}
330
1A
100
AcDbPlotSettings
  1

  2
none_device
  4

  6

 40
0.0
 41
0.0
 42
0.0
 43
0.0
 44
0.0
 45
0.0
 46
0.0
 47
0.0
 48
0.0
 49
0.0
140
0.0
141
0.0
142
1.0
143
1.0
 70
   688
 72
     0
 73
     0
 74
     5
  7

 75
    16
 76
     0
 77
     2
 78
   300
147
1.0
148
0.0
149
0.0
100
AcDbLayout
  1
Layout2
 70
     1
 71
     2
 10
0.0
 20
0.0
 11
0.0
 21
0.0
 12
0.0
 22
0.0
 32
0.0
 14
0.0
 24
0.0
 34
0.0
 15
0.0
 25
0.0
 35
0.0
146
0.0
 13
0.0
 23
0.0
 33
0.0
 16
1.0
 26
0.0
 36
0.0
 17
0.0
 27
1.0
 37
0.0
 76
     0
330
23
  0
LAYOUT
  5
22
102
{ACAD_REACTORS
330
1A
102
}
330
1A
100
AcDbPlotSettings
  1

  2
none_device
  4
Letter_(8.50_x_11.00_Inches)
  6

 40
6.35
 41
6.35
 42
6.35000508
 43
6.35000508
 44
215.9
 45
279.4
 46
0.0
 47
0.0
 48
0.0
 49
0.0
140
0.0
141
0.0
142
1.0
143
1.0
 70
  1712
 72
     0
 73
     0
 74
     0
  7

 75
     0
 76
     0
 77
     2
 78
   300
147
1.0
148
0.0
149
0.0
100
AcDbLayout
  1
Model
 70
     1
 71
     0
 10
0.0
 20
0.0
 11
12.0
 21
9.0
 12
0.0
 22
0.0
 32
0.0
 14
1.000000000000000E+20
 24
1.000000000000000E+20
 34
1.000000000000000E+20
 15
-1.000000000000000E+20
 25
-1.000000000000000E+20
 35
-1.000000000000000E+20
146
0.0
 13
0.0
 23
0.0
 33
0.0
 16
1.0
 26
0.0
 36
0.0
 17
0.0
 27
1.0
 37
0.0
 76
     0
330
1F
331
29
  0
MATERIAL
  5
45
102
{ACAD_REACTORS
330
43
102
}
330
43
100
AcDbMaterial
  1
ByBlock
 72
     1
 94
      127
  0
MATERIAL
  5
44
102
{ACAD_REACTORS
330
43
102
}
330
43
100
AcDbMaterial
  1
ByLayer
 72
     1
 94
      127
  0
MATERIAL
  5
46
102
{ACAD_REACTORS
330
43
102
}
330
43
100
AcDbMaterial
  1
Global
 72
     1
 94
      127
  0
MLEADERSTYLE
  5
6C
102
{ACAD_REACTORS
330
6B
102
}
330
6B
100
AcDbMLeaderStyle
179
     2
170
     2
171
     1
172
     0
 90
        2
 40
0.0
 41
0.0
173
     1
 91
-1056964608
340
14
 92
       -2
290
     1
 42
0.09
291
     1
 43
0.36
  3
Standard
341
0
 44
0.18
300

342
11
174
     1
178
     6
175
     1
176
     0
 93
-1056964608
 45
0.18
292
     0
297
     0
 46
0.18
343
0
 94
-1056964608
 47
1.0
 49
1.0
140
1.0
293
     1
141
0.0
294
     1
177
     0
142
1.0
295
     0
296
     0
143
0.125
271
     0
272
     9
273
     9
298
     0
  0
MLINESTYLE
  5
18
102
{ACAD_REACTORS
330
17
102
}
330
17
100
AcDbMlineStyle
  2
Standard
 70
     0
  3

 62
   256
 51
90.0
 52
90.0
 71
     2
 49
0.5
 62
   256
  6
BYLAYER
 49
-0.5
 62
   256
  6
BYLAYER
  0
ACDBPLACEHOLDER
  5
F
102
{ACAD_REACTORS
330
E
102
}
330
E
  0
SCALE
  5
48
102
{ACAD_REACTORS
330
47
102
}
330
47
100
AcDbScale
 70
     0
300
1:1
140
1.0
141
1.0
290
     1
  0
SCALE
  5
49
102
{ACAD_REACTORS
330
47
102
}
330
47
100
AcDbScale
 70
     0
300
1:2
140
1.0
141
2.0
290
     0
  0
SCALE
  5
4A
102
{ACAD_REACTORS
330
47
102
}
330
47
100
AcDbScale
 70
     0
300
1:4
140
1.0
141
4.0
290
     0
  0
SCALE
  5
4B
102
{ACAD_REACTORS
330
47
102
}
330
47
100
AcDbScale
 70
     0
300
1:5
140
1.0
141
5.0
290
     0
  0
SCALE
  5
4C
102
{ACAD_REACTORS
330
47
102
}
330
47
100
AcDbScale
 70
     0
300
1:8
140
1.0
141
8.0
290
     0
  0
SCALE
  5
4D
102
{ACAD_REACTORS
330
47
102
}
330
47
100
AcDbScale
 70
     0
300
1:10
140
1.0
141
10.0
290
     0
  0
SCALE
  5
4E
102
{ACAD_REACTORS
330
47
102
}
330
47
100
AcDbScale
 70
     0
300
1:16
140
1.0
141
16.0
290
     0
  0
SCALE
  5
4F
102
{ACAD_REACTORS
330
47
102
}
330
47
100
AcDbScale
 70
     0
300
1:20
140
1.0
141
20.0
290
     0
  0
SCALE
  5
50
102
{ACAD_REACTORS
330
47
102
}
330
47
100
AcDbScale
 70
     0
300
1:30
140
1.0
141
30.0
290
     0
  0
SCALE
  5
51
102
{ACAD_REACTORS
330
47
102
}
330
47
100
AcDbScale
 70
     0
300
1:40
140
1.0
141
40.0
290
     0
  0
SCALE
  5
52
102
{ACAD_REACTORS
330
47
102
}
330
47
100
AcDbScale
 70
     0
300
1:50
140
1.0
141
50.0
290
     0
  0
SCALE
  5
53
102
{ACAD_REACTORS
330
47
102
}
330
47
100
AcDbScale
 70
     0
300
1:100
140
1.0
141
100.0
290
     0
  0
SCALE
  5
54
102
{ACAD_REACTORS
330
47
102
}
330
47
100
AcDbScale
 70
     0
300
2:1
140
2.0
141
1.0
290
     0
  0
SCALE
  5
55
102
{ACAD_REACTORS
330
47
102
}
330
47
100
AcDbScale
 70
     0
300
4:1
140
4.0
141
1.0
290
     0
  0
SCALE
  5
56
102
{ACAD_REACTORS
330
47
102
}
330
47
100
AcDbScale
 70
     0
300
8:1
140
8.0
141
1.0
290
     0
  0
SCALE
  5
57
102
{ACAD_REACTORS
330
47
102
}
330
47
100
AcDbScale
 70
     0
300
10:1
140
10.0
141
1.0
290
     0
  0
SCALE
  5
58
102
{ACAD_REACTORS
330
47
102
}
330
47
100
AcDbScale
 70
     0
300
100:1
140
100.0
141
1.0
290
     0
  0
SCALE
  5
59
102
{ACAD_REACTORS
330
47
102
}
330
47
100
AcDbScale
 70
     0
300
1/128" = 1'-0"
140
0.0078125
141
12.0
290
     0
  0
SCALE
  5
5A
102
{ACAD_REACTORS
330
47
102
}
330
47
100
AcDbScale
 70
     0
300
1/64" = 1'-0"
140
0.015625
141
12.0
290
     0
  0
SCALE
  5
5B
102
{ACAD_REACTORS
330
47
102
}
330
47
100
AcDbScale
 70
     0
300
1/32" = 1'-0"
140
0.03125
141
12.0
290
     0
  0
SCALE
  5
5C
102
{ACAD_REACTORS
330
47
102
}
330
47
100
AcDbScale
 70
     0
300
1/16" = 1'-0"
140
0.0625
141
12.0
290
     0
  0
SCALE
  5
5D
102
{ACAD_REACTORS
330
47
102
}
330
47
100
AcDbScale
 70
     0
300
3/32" = 1'-0"
140
0.09375
141
12.0
290
     0
  0
SCALE
  5
5E
102
{ACAD_REACTORS
330
47
102
}
330
47
100
AcDbScale
 70
     0
300
1/8" = 1'-0"
140
0.125
141
12.0
290
     0
  0
SCALE
  5
5F
102
{ACAD_REACTORS
330
47
102
}
330
47
100
AcDbScale
 70
     0
300
3/16" = 1'-0"
140
0.1875
141
12.0
290
     0
  0
SCALE
  5
60
102
{ACAD_REACTORS
330
47
102
}
330
47
100
AcDbScale
 70
     0
300
1/4" = 1'-0"
140
0.25
141
12.0
290
     0
  0
SCALE
  5
61
102
{ACAD_REACTORS
330
47
102
}
330
47
100
AcDbScale
 70
     0
300
3/8" = 1'-0"
140
0.375
141
12.0
290
     0
  0
SCALE
  5
62
102
{ACAD_REACTORS
330
47
102
}
330
47
100
AcDbScale
 70
     0
300
1/2" = 1'-0"
140
0.5
141
12.0
290
     0
  0
SCALE
  5
63
102
{ACAD_REACTORS
330
47
102
}
330
47
100
AcDbScale
 70
     0
300
3/4" = 1'-0"
140
0.75
141
12.0
290
     0
  0
SCALE
  5
64
102
{ACAD_REACTORS
330
47
102
}
330
47
100
AcDbScale
 70
     0
300
1" = 1'-0"
140
1.0
141
12.0
290
     0
  0
SCALE
  5
65
102
{ACAD_REACTORS
330
47
102
}
330
47
100
AcDbScale
 70
     0
300
1-1/2" = 1'-0"
140
1.5
141
12.0
290
     0
  0
SCALE
  5
66
102
{ACAD_REACTORS
330
47
102
}
330
47
100
AcDbScale
 70
     0
300
3" = 1'-0"
140
3.0
141
12.0
290
     0
  0
SCALE
  5
67
102
{ACAD_REACTORS
330
47
102
}
330
47
100
AcDbScale
 70
     0
300
6" = 1'-0"
140
6.0
141
12.0
290
     0
  0
SCALE
  5
68
102
{ACAD_REACTORS
330
47
102
}
330
47
100
AcDbScale
 70
     0
300
1'-0" = 1'-0"
140
12.0
141
12.0
290
     0
  0
TABLESTYLE
  5
6A
102
{ACAD_REACTORS
330
69
102
}
102
{ACAD_XDICTIONARY
360
176
102
}
330
69
100
AcDbTableStyle
  3
Standard
 70
     0
 71
     0
 40
0.06
 41
0.06
280
     0
281
     0
  7
Standard
140
0.18
170
     2
 62
     0
 63
   257
283
     0
 90
        4
 91
        0
  1

274
    -2
284
     1
 64
     0
275
    -2
285
     1
 65
     0
276
    -2
286
     1
 66
     0
277
    -2
287
     1
 67
     0
278
    -2
288
     1
 68
     0
279
    -2
289
     1
 69
     0
  7
Standard
140
0.25
170
     5
 62
     0
 63
   257
283
     0
 90
        4
 91
        0
  1

274
    -2
284
     1
 64
     0
275
    -2
285
     1
 65
     0
276
    -2
286
     1
 66
     0
277
    -2
287
     1
 67
     0
278
    -2
288
     1
 68
     0
279
    -2
289
     1
 69
     0
  7
Standard
140
0.18
170
     5
 62
     0
 63
   257
283
     0
 90
        4
 91
        0
  1

274
    -2
284
     1
 64
     0
275
    -2
285
     1
 65
     0
276
    -2
286
     1
 66
     0
277
    -2
287
     1
 67
     0
278
    -2
288
     1
 68
     0
279
    -2
289
     1
 69
     0
  0
VISUALSTYLE
  5
2F
102
{ACAD_REACTORS
330
2A
102
}
330
2A
100
AcDbVisualStyle
  2
2dWireframe
 70
     4
177
     3
291
     0
 70
    58
 90
        0
176
     1
 90
        2
176
     1
 90
        0
176
     1
 90
        0
176
     1
 40
0.6
176
     1
 40
30.0
176
     1
 62
     7
420
 16777215
176
     1
 90
        1
176
     1
 90
        4
176
     1
 62
     7
176
     1
 62
   257
176
     1
 90
        1
176
     1
 90
        1
176
     1
 40
1.0
176
     1
 90
        0
176
     1
 62
   257
176
     1
 40
1.0
176
     1
 90
        1
176
     1
 90
        6
176
     1
 90
        2
176
     1
 62
     7
176
     1
 90
        5
176
     1
 90
        0
176
     1
 90
        0
176
     1
290
     0
176
     1
 90
        1
176
     1
 40
0.0
176
     1
 90
        0
176
     1
290
     1
176
     1
290
     1
176
     1
290
     0
176
     1
290
     0
176
     1
290
     0
176
     1
290
     0
176
     1
290
     0
176
     1
290
     0
176
     1
290
     0
176
     1
 90
       50
176
     1
 40
0.0
176
     1
 40
1.0
176
     1
 90
        0
176
     1
 62
    18
420
        0
176
     1
 90
       50
176
     1
 90
        3
176
     1
 62
     5
420
      255
176
     1
290
     0
176
     1
 90
       50
176
     1
 90
       50
176
     1
 90
       50
176
     1
290
     0
176
     1
 90
       50
176
     1
 62
   256
176
     0
 40
1.0
176
     0
 90
        2
176
     1
  1
strokes_ogs.tif
176
     1
290
     0
176
     1
 40
1.0
176
     1
 40
1.0
176
     1
  0
VISUALSTYLE
  5
32
102
{ACAD_REACTORS
330
2A
102
}
330
2A
100
AcDbVisualStyle
  2
Basic
 70
     7
177
     3
291
     1
 70
    58
 90
        1
176
     1
 90
        0
176
     1
 90
        1
176
     1
 90
        0
176
     1
 40
0.6
176
     1
 40
30.0
176
     1
 62
     7
420
 16777215
176
     1
 90
        0
176
     1
 90
        4
176
     1
 62
     7
176
     1
 62
   257
176
     1
 90
        1
176
     1
 90
        1
176
     1
 40
1.0
176
     1
 90
        8
176
     1
 62
     7
176
     1
 40
1.0
176
     1
 90
        1
176
     1
 90
        6
176
     1
 90
        2
176
     1
 62
     7
176
     1
 90
        5
176
     1
 90
        0
176
     1
 90
        0
176
     1
290
     0
176
     1
 90
        1
176
     1
 40
0.0
176
     1
 90
        0
176
     1
290
     0
176
     1
290
     1
176
     1
290
     1
176
     1
290
     0
176
     1
290
     0
176
     1
290
     0
176
     1
290
     0
176
     1
290
     0
176
     1
290
     0
176
     1
 90
       50
176
     1
 40
0.0
176
     1
 40
1.0
176
     1
 90
        0
176
     1
 62
    18
420
        0
176
     1
 90
       50
176
     1
 90
        3
176
     1
 62
     5
420
      255
176
     1
290
     0
176
     1
 90
       50
176
     1
 90
       50
176
     1
 90
       50
176
     1
290
     0
176
     1
 90
       50
176
     1
 62
   256
176
     0
 40
1.0
176
     0
 90
        2
176
     1
  1
strokes_ogs.tif
176
     1
290
     0
176
     1
 40
1.0
176
     1
 40
1.0
176
     1
  0
VISUALSTYLE
  5
36
102
{ACAD_REACTORS
330
2A
102
}
330
2A
100
AcDbVisualStyle
  2
Brighten
 70
    12
177
     3
291
     1
 70
    58
 90
        2
176
     1
 90
        2
176
     1
 90
        0
176
     1
 90
        0
176
     1
 40
0.6
176
     1
 40
30.0
176
     1
 62
     7
420
 16777215
176
     1
 90
        1
176
     1
 90
        4
176
     1
 62
     7
176
     1
 62
   257
176
     1
 90
        1
176
     1
 90
        1
176
     1
 40
1.0
176
     1
 90
        8
176
     1
 62
     7
176
     1
 40
1.0
176
     1
 90
        1
176
     1
 90
        6
176
     1
 90
        2
176
     1
 62
     7
176
     1
 90
        5
176
     1
 90
        0
176
     1
 90
        0
176
     1
290
     0
176
     1
 90
        1
176
     1
 40
50.0
176
     1
 90
        0
176
     1
290
     0
176
     1
290
     1
176
     1
290
     1
176
     1
290
     0
176
     1
290
     0
176
     1
290
     0
176
     1
290
     0
176
     1
290
     0
176
     1
290
     0
176
     1
 90
       50
176
     1
 40
0.0
176
     1
 40
1.0
176
     1
 90
        0
176
     1
 62
    18
420
        0
176
     1
 90
       50
176
     1
 90
        3
176
     1
 62
     5
420
      255
176
     1
290
     0
176
     1
 90
       50
176
     1
 90
       50
176
     1
 90
       50
176
     1
290
     0
176
     1
 90
       50
176
     1
 62
   256
176
     0
 40
1.0
176
     0
 90
        2
176
     1
  1
strokes_ogs.tif
176
     1
290
     0
176
     1
 40
1.0
176
     1
 40
1.0
176
     1
  0
VISUALSTYLE
  5
3A
102
{ACAD_REACTORS
330
2A
102
}
330
2A
100
AcDbVisualStyle
  2
ColorChange
 70
    16
177
     3
291
     1
 70
    58
 90
        2
176
     1
 90
        2
176
     1
 90
        3
176
     1
 90
        0
176
     1
 40
0.6
176
     1
 40
30.0
176
     1
 62
     8
420
  8421504
176
     1
 90
        1
176
     1
 90
        4
176
     1
 62
     7
176
     1
 62
   257
176
     1
 90
        1
176
     1
 90
        1
176
     1
 40
1.0
176
     1
 90
        8
176
     1
 62
     8
420
  8421504
176
     1
 40
1.0
176
     1
 90
        1
176
     1
 90
        6
176
     1
 90
        2
176
     1
 62
     7
176
     1
 90
        5
176
     1
 90
        0
176
     1
 90
        0
176
     1
290
     0
176
     1
 90
        1
176
     1
 40
0.0
176
     1
 90
        0
176
     1
290
     0
176
     1
290
     1
176
     1
290
     1
176
     1
290
     0
176
     1
290
     0
176
     1
290
     0
176
     1
290
     0
176
     1
290
     0
176
     1
290
     0
176
     1
 90
       50
176
     1
 40
0.0
176
     1
 40
1.0
176
     1
 90
        0
176
     1
 62
    18
420
        0
176
     1
 90
       50
176
     1
 90
        3
176
     1
 62
     5
420
      255
176
     1
290
     0
176
     1
 90
       50
176
     1
 90
       50
176
     1
 90
       50
176
     1
290
     0
176
     1
 90
       50
176
     1
 62
   256
176
     0
 40
1.0
176
     0
 90
        2
176
     1
  1
strokes_ogs.tif
176
     1
290
     0
176
     1
 40
1.0
176
     1
 40
1.0
176
     1
  0
VISUALSTYLE
  5
34
102
{ACAD_REACTORS
330
2A
102
}
330
2A
100
AcDbVisualStyle
  2
Conceptual
 70
     9
177
     3
291
     0
 70
    58
 90
        3
176
     1
 90
        2
176
     1
 90
        0
176
     1
 90
        0
176
     1
 40
0.6
176
     1
 40
30.0
176
     1
 62
     7
420
 16777215
176
     1
 90
        2
176
     1
 90
        2
176
     1
 62
     7
176
     1
 62
   257
176
     1
 90
        1
176
     1
 90
        1
176
     1
 40
179.0
176
     1
 90
        8
176
     1
 62
     7
176
     1
 40
1.0
176
     1
 90
        1
176
     1
 90
        6
176
     1
 90
        2
176
     1
 62
     7
176
     1
 90
        3
176
     1
 90
        0
176
     1
 90
        0
176
     1
290
     0
176
     1
 90
        1
176
     1
 40
0.0
176
     1
 90
        0
176
     1
290
     0
176
     1
290
     1
176
     1
290
     1
176
     1
290
     0
176
     1
290
     0
176
     1
290
     0
176
     1
290
     0
176
     1
290
     0
176
     1
290
     0
176
     1
 90
       50
176
     1
 40
0.0
176
     1
 40
1.0
176
     1
 90
        0
176
     1
 62
    18
420
        0
176
     1
 90
       50
176
     1
 90
        3
176
     1
 62
     5
420
      255
176
     1
290
     0
176
     1
 90
       50
176
     1
 90
       50
176
     1
 90
       50
176
     1
290
     0
176
     1
 90
       50
176
     1
 62
   256
176
     0
 40
1.0
176
     0
 90
        2
176
     1
  1
strokes_ogs.tif
176
     1
290
     0
176
     1
 40
1.0
176
     1
 40
1.0
176
     1
  0
VISUALSTYLE
  5
35
102
{ACAD_REACTORS
330
2A
102
}
330
2A
100
AcDbVisualStyle
  2
Dim
 70
    11
177
     3
291
     1
 70
    58
 90
        2
176
     1
 90
        2
176
     1
 90
        0
176
     1
 90
        0
176
     1
 40
0.6
176
     1
 40
30.0
176
     1
 62
     7
420
 16777215
176
     1
 90
        1
176
     1
 90
        4
176
     1
 62
     7
176
     1
 62
   257
176
     1
 90
        1
176
     1
 90
        1
176
     1
 40
1.0
176
     1
 90
        8
176
     1
 62
     7
176
     1
 40
1.0
176
     1
 90
        1
176
     1
 90
        6
176
     1
 90
        2
176
     1
 62
     7
176
     1
 90
        5
176
     1
 90
        0
176
     1
 90
        0
176
     1
290
     0
176
     1
 90
        1
176
     1
 40
-50.0
176
     1
 90
        0
176
     1
290
     0
176
     1
290
     1
176
     1
290
     1
176
     1
290
     0
176
     1
290
     0
176
     1
290
     0
176
     1
290
     0
176
     1
290
     0
176
     1
290
     0
176
     1
 90
       50
176
     1
 40
0.0
176
     1
 40
1.0
176
     1
 90
        0
176
     1
 62
    18
420
        0
176
     1
 90
       50
176
     1
 90
        3
176
     1
 62
     5
420
      255
176
     1
290
     0
176
     1
 90
       50
176
     1
 90
       50
176
     1
 90
       50
176
     1
290
     0
176
     1
 90
       50
176
     1
 62
   256
176
     0
 40
1.0
176
     0
 90
        2
176
     1
  1
strokes_ogs.tif
176
     1
290
     0
176
     1
 40
1.0
176
     1
 40
1.0
176
     1
  0
VISUALSTYLE
  5
3D
102
{ACAD_REACTORS
330
2A
102
}
330
2A
100
AcDbVisualStyle
  2
EdgeColorOff
 70
    22
177
     3
291
     1
 70
    58
 90
        2
176
     0
 90
        2
176
     0
 90
        0
176
     0
 90
        0
176
     0
 40
0.6
176
     0
 40
30.0
176
     0
 62
     7
420
 16777215
176
     0
 90
        1
176
     0
 90
        4
176
     0
 62
     7
176
     0
 62
   257
176
     0
 90
        1
176
     0
 90
        1
176
     0
 40
1.0
176
     0
 90
        8
176
     2
 62
     7
176
     0
 40
1.0
176
     0
 90
        1
176
     0
 90
        6
176
     0
 90
        2
176
     0
 62
     7
176
     0
 90
        5
176
     0
 90
        0
176
     0
 90
        0
176
     0
290
     0
176
     0
 90
        1
176
     0
 40
0.0
176
     0
 90
        0
176
     0
290
     0
176
     0
290
     1
176
     0
290
     1
176
     0
290
     0
176
     0
290
     0
176
     0
290
     0
176
     0
290
     0
176
     0
290
     0
176
     0
290
     0
176
     0
 90
       50
176
     0
 40
0.0
176
     0
 40
1.0
176
     0
 90
        0
176
     0
 62
    18
420
        0
176
     0
 90
       50
176
     0
 90
        3
176
     0
 62
     5
420
      255
176
     0
290
     0
176
     0
 90
       50
176
     0
 90
       50
176
     0
 90
       50
176
     0
290
     0
176
     0
 90
       50
176
     0
 62
   256
176
     0
 40
1.0
176
     0
 90
        2
176
     0
  1
strokes_ogs.tif
176
     0
290
     0
176
     0
 40
1.0
176
     0
 40
1.0
176
     0
  0
VISUALSTYLE
  5
39
102
{ACAD_REACTORS
330
2A
102
}
330
2A
100
AcDbVisualStyle
  2
Facepattern
 70
    15
177
     3
291
     1
 70
    58
 90
        2
176
     1
 90
        2
176
     1
 90
        0
176
     1
 90
        0
176
     1
 40
0.6
176
     1
 40
30.0
176
     1
 62
     7
420
 16777215
176
     1
 90
        1
176
     1
 90
        4
176
     1
 62
     7
176
     1
 62
   257
176
     1
 90
        1
176
     1
 90
        1
176
     1
 40
1.0
176
     1
 90
        8
176
     1
 62
     7
176
     1
 40
1.0
176
     1
 90
        1
176
     1
 90
        6
176
     1
 90
        2
176
     1
 62
     7
176
     1
 90
        5
176
     1
 90
        0
176
     1
 90
        0
176
     1
290
     0
176
     1
 90
        1
176
     1
 40
0.0
176
     1
 90
        0
176
     1
290
     0
176
     1
290
     1
176
     1
290
     1
176
     1
290
     0
176
     1
290
     0
176
     1
290
     0
176
     1
290
     0
176
     1
290
     0
176
     1
290
     0
176
     1
 90
       50
176
     1
 40
0.0
176
     1
 40
1.0
176
     1
 90
        0
176
     1
 62
    18
420
        0
176
     1
 90
       50
176
     1
 90
        3
176
     1
 62
     5
420
      255
176
     1
290
     0
176
     1
 90
       50
176
     1
 90
       50
176
     1
 90
       50
176
     1
290
     0
176
     1
 90
       50
176
     1
 62
   256
176
     0
 40
1.0
176
     0
 90
        2
176
     1
  1
strokes_ogs.tif
176
     1
290
     0
176
     1
 40
1.0
176
     1
 40
1.0
176
     1
  0
VISUALSTYLE
  5
2B
102
{ACAD_REACTORS
330
2A
102
}
330
2A
100
AcDbVisualStyle
  2
Flat
 70
     0
177
     3
291
     1
 70
    58
 90
        2
176
     1
 90
        1
176
     1
 90
        1
176
     1
 90
        2
176
     1
 40
0.6
176
     1
 40
30.0
176
     1
 62
     7
420
 16777215
176
     1
 90
        0
176
     1
 90
        0
176
     1
 62
     7
176
     1
 62
   257
176
     1
 90
        1
176
     1
 90
        1
176
     1
 40
1.0
176
     1
 90
        8
176
     1
 62
     7
176
     1
 40
1.0
176
     1
 90
        1
176
     1
 90
        6
176
     1
 90
        2
176
     1
 62
     7
176
     1
 90
        5
176
     1
 90
        0
176
     1
 90
        0
176
     1
290
     0
176
     1
 90
       13
176
     1
 40
0.0
176
     1
 90
        0
176
     1
290
     0
176
     1
290
     1
176
     1
290
     1
176
     1
290
     0
176
     1
290
     0
176
     1
290
     0
176
     1
290
     0
176
     1
290
     0
176
     1
290
     0
176
     1
 90
       50
176
     1
 40
0.0
176
     1
 40
1.0
176
     1
 90
        0
176
     1
 62
    18
420
        0
176
     1
 90
       50
176
     1
 90
        3
176
     1
 62
     5
420
      255
176
     1
290
     0
176
     1
 90
       50
176
     1
 90
       50
176
     1
 90
       50
176
     1
290
     0
176
     1
 90
       50
176
     1
 62
   256
176
     0
 40
1.0
176
     0
 90
        2
176
     1
  1
strokes_ogs.tif
176
     1
290
     0
176
     1
 40
1.0
176
     1
 40
1.0
176
     1
  0
VISUALSTYLE
  5
2C
102
{ACAD_REACTORS
330
2A
102
}
330
2A
100
AcDbVisualStyle
  2
FlatWithEdges
 70
     1
177
     3
291
     1
 70
    58
 90
        2
176
     1
 90
        1
176
     1
 90
        1
176
     1
 90
        2
176
     1
 40
0.6
176
     1
 40
30.0
176
     1
 62
     7
420
 16777215
176
     1
 90
        1
176
     1
 90
        0
176
     1
 62
     7
176
     1
 62
   257
176
     1
 90
        1
176
     1
 90
        1
176
     1
 40
1.0
176
     1
 90
        0
176
     1
 62
   257
176
     1
 40
1.0
176
     1
 90
        1
176
     1
 90
        6
176
     1
 90
        2
176
     1
 62
     7
176
     1
 90
        5
176
     1
 90
        0
176
     1
 90
        0
176
     1
290
     0
176
     1
 90
       13
176
     1
 40
0.0
176
     1
 90
        0
176
     1
290
     0
176
     1
290
     1
176
     1
290
     1
176
     1
290
     0
176
     1
290
     0
176
     1
290
     0
176
     1
290
     0
176
     1
290
     0
176
     1
290
     0
176
     1
 90
       50
176
     1
 40
0.0
176
     1
 40
1.0
176
     1
 90
        0
176
     1
 62
    18
420
        0
176
     1
 90
       50
176
     1
 90
        3
176
     1
 62
     5
420
      255
176
     1
290
     0
176
     1
 90
       50
176
     1
 90
       50
176
     1
 90
       50
176
     1
290
     0
176
     1
 90
       50
176
     1
 62
   256
176
     0
 40
1.0
176
     0
 90
        2
176
     1
  1
strokes_ogs.tif
176
     1
290
     0
176
     1
 40
1.0
176
     1
 40
1.0
176
     1
  0
VISUALSTYLE
  5
2D
102
{ACAD_REACTORS
330
2A
102
}
330
2A
100
AcDbVisualStyle
  2
Gouraud
 70
     2
177
     3
291
     1
 70
    58
 90
        2
176
     1
 90
        2
176
     1
 90
        1
176
     1
 90
        2
176
     1
 40
0.6
176
     1
 40
30.0
176
     1
 62
     7
420
 16777215
176
     1
 90
        0
176
     1
 90
        0
176
     1
 62
     7
176
     1
 62
   257
176
     1
 90
        1
176
     1
 90
        1
176
     1
 40
1.0
176
     1
 90
        0
176
     1
 62
     7
176
     1
 40
1.0
176
     1
 90
        1
176
     1
 90
        6
176
     1
 90
        2
176
     1
 62
     7
176
     1
 90
        5
176
     1
 90
        0
176
     1
 90
        0
176
     1
290
     0
176
     1
 90
       13
176
     1
 40
0.0
176
     1
 90
        0
176
     1
290
     0
176
     1
290
     1
176
     1
290
     1
176
     1
290
     0
176
     1
290
     0
176
     1
290
     0
176
     1
290
     0
176
     1
290
     0
176
     1
290
     0
176
     1
 90
       50
176
     1
 40
0.0
176
     1
 40
1.0
176
     1
 90
        0
176
     1
 62
    18
420
        0
176
     1
 90
       50
176
     1
 90
        3
176
     1
 62
     5
420
      255
176
     1
290
     0
176
     1
 90
       50
176
     1
 90
       50
176
     1
 90
       50
176
     1
290
     0
176
     1
 90
       50
176
     1
 62
   256
176
     0
 40
1.0
176
     0
 90
        2
176
     1
  1
strokes_ogs.tif
176
     1
290
     0
176
     1
 40
1.0
176
     1
 40
1.0
176
     1
  0
VISUALSTYLE
  5
2E
102
{ACAD_REACTORS
330
2A
102
}
330
2A
100
AcDbVisualStyle
  2
GouraudWithEdges
 70
     3
177
     3
291
     1
 70
    58
 90
        2
176
     1
 90
        2
176
     1
 90
        1
176
     1
 90
        2
176
     1
 40
0.6
176
     1
 40
30.0
176
     1
 62
     7
420
 16777215
176
     1
 90
        1
176
     1
 90
        0
176
     1
 62
     7
176
     1
 62
   257
176
     1
 90
        1
176
     1
 90
        1
176
     1
 40
1.0
176
     1
 90
        0
176
     1
 62
   257
176
     1
 40
1.0
176
     1
 90
        1
176
     1
 90
        6
176
     1
 90
        2
176
     1
 62
     7
176
     1
 90
        5
176
     1
 90
        0
176
     1
 90
        0
176
     1
290
     0
176
     1
 90
       13
176
     1
 40
0.0
176
     1
 90
        0
176
     1
290
     0
176
     1
290
     1
176
     1
290
     1
176
     1
290
     0
176
     1
290
     0
176
     1
290
     0
176
     1
290
     0
176
     1
290
     0
176
     1
290
     0
176
     1
 90
       50
176
     1
 40
0.0
176
     1
 40
1.0
176
     1
 90
        0
176
     1
 62
    18
420
        0
176
     1
 90
       50
176
     1
 90
        3
176
     1
 62
     5
420
      255
176
     1
290
     0
176
     1
 90
       50
176
     1
 90
       50
176
     1
 90
       50
176
     1
290
     0
176
     1
 90
       50
176
     1
 62
   256
176
     0
 40
1.0
176
     0
 90
        2
176
     1
  1
strokes_ogs.tif
176
     1
290
     0
176
     1
 40
1.0
176
     1
 40
1.0
176
     1
  0
VISUALSTYLE
  5
31
102
{ACAD_REACTORS
330
2A
102
}
330
2A
100
AcDbVisualStyle
  2
Hidden
 70
     6
177
     3
291
     0
 70
    58
 90
        1
176
     1
 90
        2
176
     1
 90
        2
176
     1
 90
        0
176
     1
 40
0.6
176
     1
 40
30.0
176
     1
 62
     7
420
 16777215
176
     1
 90
        2
176
     1
 90
        2
176
     1
 62
     7
176
     1
 62
   257
176
     1
 90
        2
176
     1
 90
        1
176
     1
 40
40.0
176
     1
 90
        0
176
     1
 62
   257
176
     1
 40
1.0
176
     1
 90
        1
176
     1
 90
        6
176
     1
 90
        2
176
     1
 62
     7
176
     1
 90
        3
176
     1
 90
        0
176
     1
 90
        0
176
     1
290
     0
176
     1
 90
        1
176
     1
 40
0.0
176
     1
 90
        0
176
     1
290
     0
176
     1
290
     1
176
     1
290
     1
176
     1
290
     0
176
     1
290
     0
176
     1
290
     0
176
     1
290
     0
176
     1
290
     0
176
     1
290
     0
176
     1
 90
       50
176
     1
 40
0.0
176
     1
 40
1.0
176
     1
 90
        0
176
     1
 62
    18
420
        0
176
     1
 90
       50
176
     1
 90
        3
176
     1
 62
     5
420
      255
176
     1
290
     0
176
     1
 90
       50
176
     1
 90
       50
176
     1
 90
       50
176
     1
290
     0
176
     1
 90
       50
176
     1
 62
   256
176
     0
 40
1.0
176
     0
 90
        2
176
     1
  1
strokes_ogs.tif
176
     1
290
     0
176
     1
 40
1.0
176
     1
 40
1.0
176
     1
  0
VISUALSTYLE
  5
3B
102
{ACAD_REACTORS
330
2A
102
}
330
2A
100
AcDbVisualStyle
  2
JitterOff
 70
    20
177
     3
291
     1
 70
    58
 90
        2
176
     0
 90
        2
176
     0
 90
        0
176
     0
 90
        0
176
     0
 40
0.6
176
     0
 40
30.0
176
     0
 62
     7
420
 16777215
176
     0
 90
        1
176
     0
 90
        4
176
     0
 62
     7
176
     0
 62
   257
176
     0
 90
        1
176
     0
 90
        1
176
     0
 40
1.0
176
     0
 90
       10
176
     2
 62
     7
176
     0
 40
1.0
176
     0
 90
        1
176
     0
 90
        6
176
     0
 90
        2
176
     0
 62
     7
176
     0
 90
        5
176
     0
 90
        0
176
     0
 90
        0
176
     0
290
     0
176
     0
 90
        1
176
     0
 40
0.0
176
     0
 90
        0
176
     0
290
     0
176
     0
290
     1
176
     0
290
     1
176
     0
290
     0
176
     0
290
     0
176
     0
290
     0
176
     0
290
     0
176
     0
290
     0
176
     0
290
     0
176
     0
 90
       50
176
     0
 40
0.0
176
     0
 40
1.0
176
     0
 90
        0
176
     0
 62
    18
420
        0
176
     0
 90
       50
176
     0
 90
        3
176
     0
 62
     5
420
      255
176
     0
290
     0
176
     0
 90
       50
176
     0
 90
       50
176
     0
 90
       50
176
     0
290
     0
176
     0
 90
       50
176
     0
 62
   256
176
     0
 40
1.0
176
     0
 90
        2
176
     0
  1
strokes_ogs.tif
176
     0
290
     0
176
     0
 40
1.0
176
     0
 40
1.0
176
     0
  0
VISUALSTYLE
  5
38
102
{ACAD_REACTORS
330
2A
102
}
330
2A
100
AcDbVisualStyle
  2
Linepattern
 70
    14
177
     3
291
     1
 70
    58
 90
        2
176
     1
 90
        2
176
     1
 90
        0
176
     1
 90
        0
176
     1
 40
0.6
176
     1
 40
30.0
176
     1
 62
     7
420
 16777215
176
     1
 90
        1
176
     1
 90
        4
176
     1
 62
     7
176
     1
 62
   257
176
     1
 90
        7
176
     1
 90
        7
176
     1
 40
1.0
176
     1
 90
        8
176
     1
 62
     7
176
     1
 40
1.0
176
     1
 90
        1
176
     1
 90
        6
176
     1
 90
        2
176
     1
 62
     7
176
     1
 90
        5
176
     1
 90
        0
176
     1
 90
        0
176
     1
290
     0
176
     1
 90
        1
176
     1
 40
0.0
176
     1
 90
        0
176
     1
290
     0
176
     1
290
     1
176
     1
290
     1
176
     1
290
     0
176
     1
290
     0
176
     1
290
     0
176
     1
290
     0
176
     1
290
     0
176
     1
290
     0
176
     1
 90
       50
176
     1
 40
0.0
176
     1
 40
1.0
176
     1
 90
        0
176
     1
 62
    18
420
        0
176
     1
 90
       50
176
     1
 90
        3
176
     1
 62
     5
420
      255
176
     1
290
     0
176
     1
 90
       50
176
     1
 90
       50
176
     1
 90
       50
176
     1
290
     0
176
     1
 90
       50
176
     1
 62
   256
176
     0
 40
1.0
176
     0
 90
        2
176
     1
  1
strokes_ogs.tif
176
     1
290
     0
176
     1
 40
1.0
176
     1
 40
1.0
176
     1
  0
VISUALSTYLE
  5
3C
102
{ACAD_REACTORS
330
2A
102
}
330
2A
100
AcDbVisualStyle
  2
OverhangOff
 70
    21
177
     3
291
     1
 70
    58
 90
        2
176
     0
 90
        2
176
     0
 90
        0
176
     0
 90
        0
176
     0
 40
0.6
176
     0
 40
30.0
176
     0
 62
     7
420
 16777215
176
     0
 90
        1
176
     0
 90
        4
176
     0
 62
     7
176
     0
 62
   257
176
     0
 90
        1
176
     0
 90
        1
176
     0
 40
1.0
176
     0
 90
        9
176
     2
 62
     7
176
     0
 40
1.0
176
     0
 90
        1
176
     0
 90
        6
176
     0
 90
        2
176
     0
 62
     7
176
     0
 90
        5
176
     0
 90
        0
176
     0
 90
        0
176
     0
290
     0
176
     0
 90
        1
176
     0
 40
0.0
176
     0
 90
        0
176
     0
290
     0
176
     0
290
     1
176
     0
290
     1
176
     0
290
     0
176
     0
290
     0
176
     0
290
     0
176
     0
290
     0
176
     0
290
     0
176
     0
290
     0
176
     0
 90
       50
176
     0
 40
0.0
176
     0
 40
1.0
176
     0
 90
        0
176
     0
 62
    18
420
        0
176
     0
 90
       50
176
     0
 90
        3
176
     0
 62
     5
420
      255
176
     0
290
     0
176
     0
 90
       50
176
     0
 90
       50
176
     0
 90
       50
176
     0
290
     0
176
     0
 90
       50
176
     0
 62
   256
176
     0
 40
1.0
176
     0
 90
        2
176
     0
  1
strokes_ogs.tif
176
     0
290
     0
176
     0
 40
1.0
176
     0
 40
1.0
176
     0
  0
VISUALSTYLE
  5
33
102
{ACAD_REACTORS
330
2A
102
}
330
2A
100
AcDbVisualStyle
  2
Realistic
 70
     8
177
     3
291
     0
 70
    58
 90
        2
176
     1
 90
        3
176
     1
 90
        0
176
     1
 90
        2
176
     1
 40
0.6
176
     1
 40
30.0
176
     1
 62
     7
420
 16777215
176
     1
 90
        0
176
     1
 90
        0
176
     1
 62
     7
176
     1
 62
   257
176
     1
 90
        1
176
     1
 90
        1
176
     1
 40
1.0
176
     1
 90
        8
176
     1
 62
   257
176
     1
 40
1.0
176
     1
 90
        1
176
     1
 90
        6
176
     1
 90
        2
176
     1
 62
     7
176
     1
 90
        3
176
     1
 90
        0
176
     1
 90
        0
176
     1
290
     0
176
     1
 90
       13
176
     1
 40
0.0
176
     1
 90
        0
176
     1
290
     0
176
     1
290
     1
176
     1
290
     1
176
     1
290
     0
176
     1
290
     0
176
     1
290
     0
176
     1
290
     0
176
     1
290
     0
176
     1
290
     0
176
     1
 90
       50
176
     1
 40
0.0
176
     1
 40
1.0
176
     1
 90
        0
176
     1
 62
    18
420
        0
176
     1
 90
       50
176
     1
 90
        3
176
     1
 62
     5
420
      255
176
     1
290
     0
176
     1
 90
       50
176
     1
 90
       50
176
     1
 90
       50
176
     1
290
     0
176
     1
 90
       50
176
     1
 62
   256
176
     0
 40
1.0
176
     0
 90
        2
176
     1
  1
strokes_ogs.tif
176
     1
290
     0
176
     1
 40
1.0
176
     1
 40
1.0
176
     1
  0
VISUALSTYLE
  5
42
102
{ACAD_REACTORS
330
2A
102
}
330
2A
100
AcDbVisualStyle
  2
Shaded
 70
    27
177
     3
291
     0
 70
    58
 90
        2
176
     1
 90
        2
176
     1
 90
        1
176
     1
 90
        2
176
     1
 40
0.6
176
     1
 40
30.0
176
     1
 62
     7
420
 16777215
176
     1
 90
        0
176
     1
 90
        4
176
     1
 62
     7
176
     1
 62
   257
176
     1
 90
        1
176
     1
 90
        1
176
     1
 40
1.0
176
     1
 90
        8
176
     1
 62
   257
176
     1
 40
1.0
176
     1
 90
        1
176
     1
 90
        6
176
     1
 90
        2
176
     1
 62
     8
420
  7895160
176
     1
 90
        3
176
     1
 90
        0
176
     1
 90
        0
176
     1
290
     0
176
     1
 90
        5
176
     1
 40
0.0
176
     1
 90
        0
176
     1
290
     0
176
     1
290
     1
176
     1
290
     1
176
     1
290
     0
176
     1
290
     0
176
     1
290
     0
176
     1
290
     0
176
     1
290
     0
176
     1
290
     0
176
     1
 90
       50
176
     1
 40
0.0
176
     1
 40
1.0
176
     1
 90
        0
176
     1
 62
    18
420
        0
176
     1
 90
       50
176
     1
 90
        3
176
     1
 62
     5
420
      255
176
     1
290
     0
176
     1
 90
       50
176
     1
 90
       50
176
     1
 90
       50
176
     1
290
     0
176
     1
 90
       50
176
     1
 62
   256
176
     0
 40
1.0
176
     0
 90
        2
176
     1
  1
strokes_ogs.tif
176
     1
290
     0
176
     1
 40
1.0
176
     1
 40
1.0
176
     1
  0
VISUALSTYLE
  5
41
102
{ACAD_REACTORS
330
2A
102
}
330
2A
100
AcDbVisualStyle
  2
Shaded with edges
 70
    26
177
     3
291
     0
 70
    58
 90
        2
176
     1
 90
        2
176
     1
 90
        1
176
     1
 90
        2
176
     1
 40
0.6
176
     1
 40
30.0
176
     1
 62
     7
420
 16777215
176
     1
 90
        1
176
     1
 90
       10
176
     1
 62
     7
176
     1
 62
   257
176
     1
 90
        2
176
     1
 90
        1
176
     1
 40
1.0
176
     1
 90
        8
176
     1
 62
   257
176
     1
 40
1.0
176
     1
 90
        1
176
     1
 90
        6
176
     1
 90
        2
176
     1
 62
     7
176
     1
 90
        3
176
     1
 90
        0
176
     1
 90
        0
176
     1
290
     0
176
     1
 90
        5
176
     1
 40
0.0
176
     1
 90
        0
176
     1
290
     0
176
     1
290
     1
176
     1
290
     1
176
     1
290
     0
176
     1
290
     0
176
     1
290
     0
176
     1
290
     0
176
     1
290
     0
176
     1
290
     0
176
     1
 90
       50
176
     1
 40
0.0
176
     1
 40
1.0
176
     1
 90
        0
176
     1
 62
    18
420
        0
176
     1
 90
       50
176
     1
 90
        3
176
     1
 62
     5
420
      255
176
     1
290
     0
176
     1
 90
       50
176
     1
 90
       50
176
     1
 90
       50
176
     1
290
     0
176
     1
 90
       50
176
     1
 62
   256
176
     0
 40
1.0
176
     0
 90
        2
176
     1
  1
strokes_ogs.tif
176
     1
290
     0
176
     1
 40
1.0
176
     1
 40
1.0
176
     1
  0
VISUALSTYLE
  5
3E
102
{ACAD_REACTORS
330
2A
102
}
330
2A
100
AcDbVisualStyle
  2
Shades of Gray
 70
    23
177
     3
291
     0
 70
    58
 90
        2
176
     1
 90
        2
176
     1
 90
        3
176
     1
 90
        0
176
     1
 40
0.6
176
     1
 40
30.0
176
     1
 62
     7
420
 16777215
176
     1
 90
        2
176
     1
 90
        2
176
     1
 62
     7
176
     1
 62
     7
176
     1
 90
        1
176
     1
 90
        1
176
     1
 40
40.0
176
     1
 90
        8
176
     1
 62
     7
176
     1
 40
1.0
176
     1
 90
        1
176
     1
 90
        6
176
     1
 90
        2
176
     1
 62
     7
176
     1
 90
        3
176
     1
 90
        0
176
     1
 90
        0
176
     1
290
     0
176
     1
 90
        1
176
     1
 40
0.0
176
     1
 90
        0
176
     1
290
     0
176
     1
290
     1
176
     1
290
     1
176
     1
290
     0
176
     1
290
     0
176
     1
290
     0
176
     1
290
     0
176
     1
290
     0
176
     1
290
     0
176
     1
 90
       50
176
     1
 40
0.0
176
     1
 40
1.0
176
     1
 90
        0
176
     1
 62
    18
420
        0
176
     1
 90
       50
176
     1
 90
        3
176
     1
 62
     5
420
      255
176
     1
290
     0
176
     1
 90
       50
176
     1
 90
       50
176
     1
 90
       50
176
     1
290
     0
176
     1
 90
       50
176
     1
 62
   256
176
     0
 40
1.0
176
     0
 90
        2
176
     1
  1
strokes_ogs.tif
176
     1
290
     0
176
     1
 40
1.0
176
     1
 40
1.0
176
     1
  0
VISUALSTYLE
  5
3F
102
{ACAD_REACTORS
330
2A
102
}
330
2A
100
AcDbVisualStyle
  2
Sketchy
 70
    24
177
     3
291
     0
 70
    58
 90
        1
176
     1
 90
        2
176
     1
 90
        2
176
     1
 90
        0
176
     1
 40
0.6
176
     1
 40
30.0
176
     1
 62
     7
420
 16777215
176
     1
 90
        2
176
     1
 90
        2
176
     1
 62
     7
176
     1
 62
     7
176
     1
 90
        1
176
     1
 90
        1
176
     1
 40
40.0
176
     1
 90
       11
176
     1
 62
     7
176
     1
 40
1.0
176
     1
 90
        1
176
     1
 90
        6
176
     1
 90
        2
176
     1
 62
     7
176
     1
 90
        6
176
     1
 90
        0
176
     1
 90
        0
176
     1
290
     0
176
     1
 90
        1
176
     1
 40
0.0
176
     1
 90
        0
176
     1
290
     0
176
     1
290
     1
176
     1
290
     1
176
     1
290
     0
176
     1
290
     0
176
     1
290
     0
176
     1
290
     0
176
     1
290
     0
176
     1
290
     0
176
     1
 90
       50
176
     1
 40
0.0
176
     1
 40
1.0
176
     1
 90
        0
176
     1
 62
    18
420
        0
176
     1
 90
       50
176
     1
 90
        3
176
     1
 62
     5
420
      255
176
     1
290
     0
176
     1
 90
       50
176
     1
 90
       50
176
     1
 90
       50
176
     1
290
     0
176
     1
 90
       50
176
     1
 62
   256
176
     0
 40
1.0
176
     0
 90
        2
176
     1
  1
strokes_ogs.tif
176
     1
290
     0
176
     1
 40
1.0
176
     1
 40
1.0
176
     1
  0
VISUALSTYLE
  5
37
102
{ACAD_REACTORS
330
2A
102
}
330
2A
100
AcDbVisualStyle
  2
Thicken
 70
    13
177
     3
291
     1
 70
    58
 90
        2
176
     1
 90
        2
176
     1
 90
        0
176
     1
 90
        0
176
     1
 40
0.6
176
     1
 40
30.0
176
     1
 62
     7
420
 16777215
176
     1
 90
        1
176
     1
 90
        4
176
     1
 62
     7
176
     1
 62
   257
176
     1
 90
        1
176
     1
 90
        1
176
     1
 40
1.0
176
     1
 90
       12
176
     1
 62
     7
176
     1
 40
1.0
176
     1
 90
        1
176
     1
 90
        6
176
     1
 90
        2
176
     1
 62
     7
176
     1
 90
        5
176
     1
 90
        0
176
     1
 90
        0
176
     1
290
     0
176
     1
 90
        1
176
     1
 40
0.0
176
     1
 90
        0
176
     1
290
     0
176
     1
290
     1
176
     1
290
     1
176
     1
290
     0
176
     1
290
     0
176
     1
290
     0
176
     1
290
     0
176
     1
290
     0
176
     1
290
     0
176
     1
 90
       50
176
     1
 40
0.0
176
     1
 40
1.0
176
     1
 90
        0
176
     1
 62
    18
420
        0
176
     1
 90
       50
176
     1
 90
        3
176
     1
 62
     5
420
      255
176
     1
290
     0
176
     1
 90
       50
176
     1
 90
       50
176
     1
 90
       50
176
     1
290
     0
176
     1
 90
       50
176
     1
 62
   256
176
     0
 40
1.0
176
     0
 90
        2
176
     1
  1
strokes_ogs.tif
176
     1
290
     0
176
     1
 40
1.0
176
     1
 40
1.0
176
     1
  0
VISUALSTYLE
  5
30
102
{ACAD_REACTORS
330
2A
102
}
330
2A
100
AcDbVisualStyle
  2
Wireframe
 70
     5
177
     3
291
     0
 70
    58
 90
        0
176
     1
 90
        2
176
     1
 90
        0
176
     1
 90
        0
176
     1
 40
0.6
176
     1
 40
30.0
176
     1
 62
     7
420
 16777215
176
     1
 90
        1
176
     1
 90
        4
176
     1
 62
     7
176
     1
 62
   257
176
     1
 90
        1
176
     1
 90
        1
176
     1
 40
1.0
176
     1
 90
        0
176
     1
 62
   257
176
     1
 40
1.0
176
     1
 90
        1
176
     1
 90
        6
176
     1
 90
        2
176
     1
 62
     7
176
     1
 90
        3
176
     1
 90
        0
176
     1
 90
        0
176
     1
290
     0
176
     1
 90
        1
176
     1
 40
0.0
176
     1
 90
        0
176
     1
290
     0
176
     1
290
     1
176
     1
290
     1
176
     1
290
     0
176
     1
290
     0
176
     1
290
     0
176
     1
290
     0
176
     1
290
     0
176
     1
290
     0
176
     1
 90
       50
176
     1
 40
0.0
176
     1
 40
1.0
176
     1
 90
        0
176
     1
 62
    18
420
        0
176
     1
 90
       50
176
     1
 90
        3
176
     1
 62
     5
420
      255
176
     1
290
     0
176
     1
 90
       50
176
     1
 90
       50
176
     1
 90
       50
176
     1
290
     0
176
     1
 90
       50
176
     1
 62
   256
176
     0
 40
1.0
176
     0
 90
        2
176
     1
  1
strokes_ogs.tif
176
     1
290
     0
176
     1
 40
1.0
176
     1
 40
1.0
176
     1
  0
VISUALSTYLE
  5
40
102
{ACAD_REACTORS
330
2A
102
}
330
2A
100
AcDbVisualStyle
  2
X-Ray
 70
    25
177
     3
291
     0
 70
    58
 90
        2
176
     1
 90
        2
176
     1
 90
        1
176
     1
 90
        1
176
     1
 40
0.5
176
     1
 40
30.0
176
     1
 62
     7
420
 16777215
176
     1
 90
        1
176
     1
 90
        0
176
     1
 62
     7
176
     1
 62
   257
176
     1
 90
        1
176
     1
 90
        1
176
     1
 40
1.0
176
     1
 90
        8
176
     1
 62
     7
176
     1
 40
1.0
176
     1
 90
        1
176
     1
 90
        6
176
     1
 90
        2
176
     1
 62
     7
176
     1
 90
        3
176
     1
 90
        0
176
     1
 90
        0
176
     1
290
     0
176
     1
 90
       13
176
     1
 40
0.0
176
     1
 90
        0
176
     1
290
     0
176
     1
290
     1
176
     1
290
     1
176
     1
290
     0
176
     1
290
     0
176
     1
290
     0
176
     1
290
     0
176
     1
290
     0
176
     1
290
     0
176
     1
 90
       50
176
     1
 40
0.0
176
     1
 40
1.0
176
     1
 90
        0
176
     1
 62
    18
420
        0
176
     1
 90
       50
176
     1
 90
        3
176
     1
 62
     5
420
      255
176
     1
290
     0
176
     1
 90
       50
176
     1
 90
       50
176
     1
 90
       50
176
     1
290
     0
176
     1
 90
       50
176
     1
 62
   256
176
     0
 40
1.0
176
     0
 90
        2
176
     1
  1
strokes_ogs.tif
176
     1
290
     0
176
     1
 40
1.0
176
     1
 40
1.0
176
     1
  0
DICTIONARYVAR
  5
175
102
{ACAD_REACTORS
330
174
102
}
330
174
100
DictionaryVariables
280
     0
  1
1:1
  0
DICTIONARYVAR
  5
17A
102
{ACAD_REACTORS
330
174
102
}
330
174
100
DictionaryVariables
280
     0
  1
Standard
  0
DICTIONARYVAR
  5
179
102
{ACAD_REACTORS
330
174
102
}
330
174
100
DictionaryVariables
280
     0
  1
Standard
  0
DICTIONARY
  5
176
330
6A
100
AcDbDictionary
280
     1
281
     1
  3
ACAD_ROUNDTRIP_2008_TABLESTYLE_CELLSTYLEMAP
360
177
  0
CELLSTYLEMAP
  5
177
102
{ACAD_REACTORS
330
176
102
}
330
176
100
AcDbCellStyleMap
 90
        3
300
CELLSTYLE
  1
TABLEFORMAT_BEGIN
 90
        5
170
     1
 91
        0
 92
    32768
 62
   257
 93
        1
300
CONTENTFORMAT
  1
CONTENTFORMAT_BEGIN
 90
        0
 91
        0
 92
        4
 93
        0
300

 40
0.0
140
1.0
 94
        5
 62
     0
340
11
144
0.25
309
CONTENTFORMAT_END
171
     1
301
MARGIN
  1
CELLMARGIN_BEGIN
 40
0.06
 40
0.06
 40
0.06
 40
0.06
 40
0.06
 40
0.06
309
CELLMARGIN_END
 94
        6
 95
        1
302
GRIDFORMAT
  1
GRIDFORMAT_BEGIN
 90
        0
 91
        1
 62
     0
 92
       -2
340
14
 93
        0
 40
0.045
309
GRIDFORMAT_END
 95
        2
302
GRIDFORMAT
  1
GRIDFORMAT_BEGIN
 90
        0
 91
        1
 62
     0
 92
       -2
340
14
 93
        0
 40
0.045
309
GRIDFORMAT_END
 95
        4
302
GRIDFORMAT
  1
GRIDFORMAT_BEGIN
 90
        0
 91
        1
 62
     0
 92
       -2
340
14
 93
        0
 40
0.045
309
GRIDFORMAT_END
 95
        8
302
GRIDFORMAT
  1
GRIDFORMAT_BEGIN
 90
        0
 91
        1
 62
     0
 92
       -2
340
14
 93
        0
 40
0.045
309
GRIDFORMAT_END
 95
       16
302
GRIDFORMAT
  1
GRIDFORMAT_BEGIN
 90
        0
 91
        1
 62
     0
 92
       -2
340
14
 93
        0
 40
0.045
309
GRIDFORMAT_END
 95
       32
302
GRIDFORMAT
  1
GRIDFORMAT_BEGIN
 90
        0
 91
        1
 62
     0
 92
       -2
340
14
 93
        0
 40
0.045
309
GRIDFORMAT_END
309
TABLEFORMAT_END
  1
CELLSTYLE_BEGIN
 90
        1
 91
        1
300
_TITLE
309
CELLSTYLE_END
300
CELLSTYLE
  1
TABLEFORMAT_BEGIN
 90
        5
170
     1
 91
        0
 92
        0
 62
   257
 93
        1
300
CONTENTFORMAT
  1
CONTENTFORMAT_BEGIN
 90
        0
 91
        0
 92
        4
 93
        0
300

 40
0.0
140
1.0
 94
        5
 62
     0
340
11
144
0.18
309
CONTENTFORMAT_END
171
     1
301
MARGIN
  1
CELLMARGIN_BEGIN
 40
0.06
 40
0.06
 40
0.06
 40
0.06
 40
0.06
 40
0.06
309
CELLMARGIN_END
 94
        6
 95
        1
302
GRIDFORMAT
  1
GRIDFORMAT_BEGIN
 90
        0
 91
        1
 62
     0
 92
       -2
340
14
 93
        0
 40
0.045
309
GRIDFORMAT_END
 95
        2
302
GRIDFORMAT
  1
GRIDFORMAT_BEGIN
 90
        0
 91
        1
 62
     0
 92
       -2
340
14
 93
        0
 40
0.045
309
GRIDFORMAT_END
 95
        4
302
GRIDFORMAT
  1
GRIDFORMAT_BEGIN
 90
        0
 91
        1
 62
     0
 92
       -2
340
14
 93
        0
 40
0.045
309
GRIDFORMAT_END
 95
        8
302
GRIDFORMAT
  1
GRIDFORMAT_BEGIN
 90
        0
 91
        1
 62
     0
 92
       -2
340
14
 93
        0
 40
0.045
309
GRIDFORMAT_END
 95
       16
302
GRIDFORMAT
  1
GRIDFORMAT_BEGIN
 90
        0
 91
        1
 62
     0
 92
       -2
340
14
 93
        0
 40
0.045
309
GRIDFORMAT_END
 95
       32
302
GRIDFORMAT
  1
GRIDFORMAT_BEGIN
 90
        0
 91
        1
 62
     0
 92
       -2
340
14
 93
        0
 40
0.045
309
GRIDFORMAT_END
309
TABLEFORMAT_END
  1
CELLSTYLE_BEGIN
 90
        2
 91
        1
300
_HEADER
309
CELLSTYLE_END
300
CELLSTYLE
  1
TABLEFORMAT_BEGIN
 90
        5
170
     1
 91
        0
 92
        0
 62
   257
 93
        1
300
CONTENTFORMAT
  1
CONTENTFORMAT_BEGIN
 90
        0
 91
        0
 92
        4
 93
        0
300

 40
0.0
140
1.0
 94
        2
 62
     0
340
11
144
0.18
309
CONTENTFORMAT_END
171
     1
301
MARGIN
  1
CELLMARGIN_BEGIN
 40
0.06
 40
0.06
 40
0.06
 40
0.06
 40
0.06
 40
0.06
309
CELLMARGIN_END
 94
        6
 95
        1
302
GRIDFORMAT
  1
GRIDFORMAT_BEGIN
 90
        0
 91
        1
 62
     0
 92
       -2
340
14
 93
        0
 40
0.045
309
GRIDFORMAT_END
 95
        2
302
GRIDFORMAT
  1
GRIDFORMAT_BEGIN
 90
        0
 91
        1
 62
     0
 92
       -2
340
14
 93
        0
 40
0.045
309
GRIDFORMAT_END
 95
        4
302
GRIDFORMAT
  1
GRIDFORMAT_BEGIN
 90
        0
 91
        1
 62
     0
 92
       -2
340
14
 93
        0
 40
0.045
309
GRIDFORMAT_END
 95
        8
302
GRIDFORMAT
  1
GRIDFORMAT_BEGIN
 90
        0
 91
        1
 62
     0
 92
       -2
340
14
 93
        0
 40
0.045
309
GRIDFORMAT_END
 95
       16
302
GRIDFORMAT
  1
GRIDFORMAT_BEGIN
 90
        0
 91
        1
 62
     0
 92
       -2
340
14
 93
        0
 40
0.045
309
GRIDFORMAT_END
 95
       32
302
GRIDFORMAT
  1
GRIDFORMAT_BEGIN
 90
        0
 91
        1
 62
     0
 92
       -2
340
14
 93
        0
 40
0.045
309
GRIDFORMAT_END
309
TABLEFORMAT_END
  1
CELLSTYLE_BEGIN
 90
        3
 91
        2
300
_DATA
309
CELLSTYLE_END
  0
ENDSEC
  0
EOF