0
SECTION
  2
HEADER
  9
$ACADVER
  1
AC1027
  9
$ACADMAINTVER
 70
     8
  9
$DWGCODEPAGE
  3
ANSI_1252
  9
$REQUIREDVERSIONS
160
                 0
  9
$COMMENTS
  1
File was created by Cadenas
  9
$CUSTOMPROPERTYTAG
  1
NN
  9
$CUSTOMPROPERTY
  1
Set Screw LF  Normal Duty 3-Bolt Flange Inch Bore
  9
$CUSTOMPROPERTYTAG
  1
NT
  9
$CUSTOMPROPERTY
  1
SC 3 Bolt Flange Bearings -(Normal Duty) -Re-Lube and No-Lube
  9
$CUSTOMPROPERTYTAG
  1
NB
  9
$CUSTOMPROPERTY
  1
124623
  9
$CUSTOMPROPERTYTAG
  1
NBSYN
  9
$CUSTOMPROPERTY
  1
$PN.
  9
$CUSTOMPROPERTYTAG
  1
LINA
  9
$CUSTOMPROPERTY
  1
124623
  9
$CUSTOMPROPERTYTAG
  1
SERIES
  9
$CUSTOMPROPERTY
  1
205
  9
$CUSTOMPROPERTYTAG
  1
SS
  9
$CUSTOMPROPERTY
  1
7/8
  9
$CUSTOMPROPERTYTAG
  1
PN
  9
$CUSTOMPROPERTY
  1
124623
  9
$CUSTOMPROPERTYTAG
  1
DESCRIPTION
  9
$CUSTOMPROPERTY
  1
LF-SC-014-NL
  9
$CUSTOMPROPERTYTAG
  1
W
  9
$CUSTOMPROPERTY
  1
1.10
  9
$CUSTOMPROPERTYTAG
  1
LF
  9
$CUSTOMPROPERTY
  1
NO-LUBE
  9
$CUSTOMPROPERTYTAG
  1
A
  9
$CUSTOMPROPERTY
  1
1.06
  9
$CUSTOMPROPERTYTAG
  1
B
  9
$CUSTOMPROPERTY
  1
3.75
  9
$CUSTOMPROPERTYTAG
  1
C
  9
$CUSTOMPROPERTY
  1
1.24
  9
$CUSTOMPROPERTYTAG
  1
D
  9
$CUSTOMPROPERTY
  1
3.00
  9
$CUSTOMPROPERTYTAG
  1
G
  9
$CUSTOMPROPERTY
  1
0.34
  9
$CUSTOMPROPERTYTAG
  1
H
  9
$CUSTOMPROPERTY
  1
0.42
  9
$CUSTOMPROPERTYTAG
  1
J
  9
$CUSTOMPROPERTY
  1
0.37
  9
$CUSTOMPROPERTYTAG
  1
L
  9
$CUSTOMPROPERTY
  1
1.32
  9
$CUSTOMPROPERTYTAG
  1
M
  9
$CUSTOMPROPERTY
  1
1.88
  9
$CUSTOMPROPERTYTAG
  1
N
  9
$CUSTOMPROPERTY
  1
1.70
  9
$CUSTOMPROPERTYTAG
  1
COMPANY
  9
$CUSTOMPROPERTY
  1
baldor
  9
$INSBASE
 10
0.0
 20
0.0
 30
0.0
  9
$EXTMIN
 10
1.000000000000000E+20
 20
1.000000000000000E+20
 30
1.000000000000000E+20
  9
$EXTMAX
 10
-1.000000000000000E+20
 20
-1.000000000000000E+20
 30
-1.000000000000000E+20
  9
$LIMMIN
 10
0.0
 20
0.0
  9
$LIMMAX
 10
12.0
 20
9.0
  9
$ORTHOMODE
 70
     0
  9
$REGENMODE
 70
     1
  9
$FILLMODE
 70
     1
  9
$QTEXTMODE
 70
     0
  9
$MIRRTEXT
 70
     1
  9
$LTSCALE
 40
1.0
  9
$ATTMODE
 70
     1
  9
$TEXTSIZE
 40
0.2
  9
$TRACEWID
 40
0.05
  9
$TEXTSTYLE
  7
Standard
  9
$CLAYER
  8
0
  9
$CELTYPE
  6
ByLayer
  9
$CECOLOR
 62
   256
  9
$CELTSCALE
 40
1.0
  9
$DISPSILH
 70
     0
  9
$DIMSCALE
 40
1.0
  9
$DIMASZ
 40
0.18
  9
$DIMEXO
 40
0.0625
  9
$DIMDLI
 40
0.38
  9
$DIMRND
 40
0.0
  9
$DIMDLE
 40
0.0
  9
$DIMEXE
 40
0.18
  9
$DIMTP
 40
0.0
  9
$DIMTM
 40
0.0
  9
$DIMTXT
 40
0.18
  9
$DIMCEN
 40
0.09
  9
$DIMTSZ
 40
0.0
  9
$DIMTOL
 70
     0
  9
$DIMLIM
 70
     0
  9
$DIMTIH
 70
     1
  9
$DIMTOH
 70
     1
  9
$DIMSE1
 70
     0
  9
$DIMSE2
 70
     0
  9
$DIMTAD
 70
     0
  9
$DIMZIN
 70
     0
  9
$DIMBLK
  1

  9
$DIMASO
 70
     1
  9
$DIMSHO
 70
     1
  9
$DIMPOST
  1

  9
$DIMAPOST
  1

  9
$DIMALT
 70
     0
  9
$DIMALTD
 70
     2
  9
$DIMALTF
 40
25.4
  9
$DIMLFAC
 40
1.0
  9
$DIMTOFL
 70
     0
  9
$DIMTVP
 40
0.0
  9
$DIMTIX
 70
     0
  9
$DIMSOXD
 70
     0
  9
$DIMSAH
 70
     0
  9
$DIMBLK1
  1

  9
$DIMBLK2
  1

  9
$DIMSTYLE
  2
Standard
  9
$DIMCLRD
 70
     0
  9
$DIMCLRE
 70
     0
  9
$DIMCLRT
 70
     0
  9
$DIMTFAC
 40
1.0
  9
$DIMGAP
 40
0.09
  9
$DIMJUST
 70
     0
  9
$DIMSD1
 70
     0
  9
$DIMSD2
 70
     0
  9
$DIMTOLJ
 70
     1
  9
$DIMTZIN
 70
     0
  9
$DIMALTZ
 70
     0
  9
$DIMALTTZ
 70
     0
  9
$DIMUPT
 70
     0
  9
$DIMDEC
 70
     4
  9
$DIMTDEC
 70
     4
  9
$DIMALTU
 70
     2
  9
$DIMALTTD
 70
     2
  9
$DIMTXSTY
  7
Standard
  9
$DIMAUNIT
 70
     0
  9
$DIMADEC
 70
     0
  9
$DIMALTRND
 40
0.0
  9
$DIMAZIN
 70
     0
  9
$DIMDSEP
 70
    46
  9
$DIMATFIT
 70
     3
  9
$DIMFRAC
 70
     0
  9
$DIMLDRBLK
  1

  9
$DIMLUNIT
 70
     2
  9
$DIMLWD
 70
    -2
  9
$DIMLWE
 70
    -2
  9
$DIMTMOVE
 70
     0
  9
$DIMFXL
 40
1.0
  9
$DIMFXLON
 70
     0
  9
$DIMJOGANG
 40
0.7853981633974483
  9
$DIMTFILL
 70
     0
  9
$DIMTFILLCLR
 70
     0
  9
$DIMARCSYM
 70
     0
  9
$DIMLTYPE
  6

  9
$DIMLTEX1
  6

  9
$DIMLTEX2
  6

  9
$DIMTXTDIRECTION
 70
     0
  9
$LUNITS
 70
     2
  9
$LUPREC
 70
     4
  9
$SKETCHINC
 40
0.1
  9
$FILLETRAD
 40
0.5
  9
$AUNITS
 70
     0
  9
$AUPREC
 70
     0
  9
$MENU
  1
.
  9
$ELEVATION
 40
0.0
  9
$PELEVATION
 40
0.0
  9
$THICKNESS
 40
0.0
  9
$LIMCHECK
 70
     0
  9
$CHAMFERA
 40
0.0
  9
$CHAMFERB
 40
0.0
  9
$CHAMFERC
 40
0.0
  9
$CHAMFERD
 40
0.0
  9
$SKPOLY
 70
     0
  9
$TDCREATE
 40
2458169.004788391
  9
$TDUCREATE
 40
2458168.963121724
  9
$TDUPDATE
 40
2458169.004788576
  9
$TDUUPDATE
 40
2458168.96312191
  9
$TDINDWG
 40
0.0000000116
  9
$TDUSRTIMER
 40
0.0000000116
  9
$USRTIMER
 70
     1
  9
$ANGBASE
 50
0.0
  9
$ANGDIR
 70
     0
  9
$PDMODE
 70
     0
  9
$PDSIZE
 40
0.0
  9
$PLINEWID
 40
0.0
  9
$SPLFRAME
 70
     0
  9
$SPLINETYPE
 70
     6
  9
$SPLINESEGS
 70
     8
  9
$HANDSEED
  5
196
  9
$SURFTAB1
 70
     6
  9
$SURFTAB2
 70
     6
  9
$SURFTYPE
 70
     6
  9
$SURFU
 70
     6
  9
$SURFV
 70
     6
  9
$UCSBASE
  2

  9
$UCSNAME
  2

  9
$UCSORG
 10
0.0
 20
0.0
 30
0.0
  9
$UCSXDIR
 10
1.0
 20
0.0
 30
0.0
  9
$UCSYDIR
 10
0.0
 20
1.0
 30
0.0
  9
$UCSORTHOREF
  2

  9
$UCSORTHOVIEW
 70
     0
  9
$UCSORGTOP
 10
0.0
 20
0.0
 30
0.0
  9
$UCSORGBOTTOM
 10
0.0
 20
0.0
 30
0.0
  9
$UCSORGLEFT
 10
0.0
 20
0.0
 30
0.0
  9
$UCSORGRIGHT
 10
0.0
 20
0.0
 30
0.0
  9
$UCSORGFRONT
 10
0.0
 20
0.0
 30
0.0
  9
$UCSORGBACK
 10
0.0
 20
0.0
 30
0.0
  9
$PUCSBASE
  2

  9
$PUCSNAME
  2

  9
$PUCSORG
 10
0.0
 20
0.0
 30
0.0
  9
$PUCSXDIR
 10
1.0
 20
0.0
 30
0.0
  9
$PUCSYDIR
 10
0.0
 20
1.0
 30
0.0
  9
$PUCSORTHOREF
  2

  9
$PUCSORTHOVIEW
 70
     0
  9
$PUCSORGTOP
 10
0.0
 20
0.0
 30
0.0
  9
$PUCSORGBOTTOM
 10
0.0
 20
0.0
 30
0.0
  9
$PUCSORGLEFT
 10
0.0
 20
0.0
 30
0.0
  9
$PUCSORGRIGHT
 10
0.0
 20
0.0
 30
0.0
  9
$PUCSORGFRONT
 10
0.0
 20
0.0
 30
0.0
  9
$PUCSORGBACK
 10
0.0
 20
0.0
 30
0.0
  9
$USERI1
 70
     0
  9
$USERI2
 70
     0
  9
$USERI3
 70
     0
  9
$USERI4
 70
     0
  9
$USERI5
 70
     0
  9
$USERR1
 40
0.0
  9
$USERR2
 40
0.0
  9
$USERR3
 40
0.0
  9
$USERR4
 40
0.0
  9
$USERR5
 40
0.0
  9
$WORLDVIEW
 70
     1
  9
$SHADEDGE
 70
     3
  9
$SHADEDIF
 70
    70
  9
$TILEMODE
 70
     1
  9
$MAXACTVP
 70
    64
  9
$PINSBASE
 10
0.0
 20
0.0
 30
0.0
  9
$PLIMCHECK
 70
     0
  9
$PEXTMIN
 10
1.000000000000000E+20
 20
1.000000000000000E+20
 30
1.000000000000000E+20
  9
$PEXTMAX
 10
-1.000000000000000E+20
 20
-1.000000000000000E+20
 30
-1.000000000000000E+20
  9
$PLIMMIN
 10
0.0
 20
0.0
  9
$PLIMMAX
 10
12.0
 20
9.0
  9
$UNITMODE
 70
     0
  9
$VISRETAIN
 70
     1
  9
$PLINEGEN
 70
     0
  9
$PSLTSCALE
 70
     1
  9
$TREEDEPTH
 70
  3020
  9
$CMLSTYLE
  2
Standard
  9
$CMLJUST
 70
     0
  9
$CMLSCALE
 40
1.0
  9
$PROXYGRAPHICS
 70
     1
  9
$MEASUREMENT
 70
     0
  9
$CELWEIGHT
370
    -1
  9
$ENDCAPS
280
     0
  9
$JOINSTYLE
280
     0
  9
$LWDISPLAY
290
     0
  9
$INSUNITS
 70
     1
  9
$HYPERLINKBASE
  1

  9
$STYLESHEET
  1

  9
$XEDIT
290
     1
  9
$CEPSNTYPE
380
     0
  9
$PSTYLEMODE
290
     1
  9
$FINGERPRINTGUID
  2
{E002A65F-23C7-4499-8760-1BBD1A9BB832}
  9
$VERSIONGUID
  2
{FAEB1C32-E019-11D5-929B-00C0DF256EC4}
  9
$EXTNAMES
290
     1
  9
$PSVPSCALE
 40
0.0
  9
$OLESTARTUP
290
     0
  9
$SORTENTS
280
   127
  9
$INDEXCTL
280
     0
  9
$HIDETEXT
280
     1
  9
$XCLIPFRAME
280
     2
  9
$HALOGAP
280
     0
  9
$OBSCOLOR
 70
   257
  9
$OBSLTYPE
280
     0
  9
$INTERSECTIONDISPLAY
280
     0
  9
$INTERSECTIONCOLOR
 70
   257
  9
$DIMASSOC
280
     2
  9
$PROJECTNAME
  1

  9
$CAMERADISPLAY
290
     0
  9
$LENSLENGTH
 40
50.0
  9
$CAMERAHEIGHT
 40
0.0
  9
$STEPSPERSEC
 40
2.0
  9
$STEPSIZE
 40
6.0
  9
$3DDWFPREC
 40
2.0
  9
$PSOLWIDTH
 40
0.25
  9
$PSOLHEIGHT
 40
4.0
  9
$LOFTANG1
 40
1.570796326794897
  9
$LOFTANG2
 40
1.570796326794897
  9
$LOFTMAG1
 40
0.0
  9
$LOFTMAG2
 40
0.0
  9
$LOFTPARAM
 70
     7
  9
$LOFTNORMALS
280
     1
  9
$LATITUDE
 40
37.795
  9
$LONGITUDE
 40
-122.394
  9
$NORTHDIRECTION
 40
0.0
  9
$TIMEZONE
 70
 -8000
  9
$LIGHTGLYPHDISPLAY
280
     1
  9
$TILEMODELIGHTSYNCH
280
     1
  9
$CMATERIAL
347
44
  9
$SOLIDHIST
280
     0
  9
$SHOWHIST
280
     1
  9
$DWFFRAME
280
     2
  9
$DGNFRAME
280
     2
  9
$REALWORLDSCALE
290
     1
  9
$INTERFERECOLOR
 62
   256
  9
$CSHADOW
280
     0
  9
$SHADOWPLANELOCATION
 40
0.0
  0
ENDSEC
  0
SECTION
  2
CLASSES
  0
CLASS
  1
ACDBDICTIONARYWDFLT
  2
AcDbDictionaryWithDefault
  3
ObjectDBX Classes
 90
        0
 91
        4
280
     0
281
     0
  0
CLASS
  1
VISUALSTYLE
  2
AcDbVisualStyle
  3
ObjectDBX Classes
 90
     4095
 91
        4
280
     0
281
     0
  0
CLASS
  1
MATERIAL
  2
AcDbMaterial
  3
ObjectDBX Classes
 90
     1153
 91
        4
280
     0
281
     0
  0
CLASS
  1
SCALE
  2
AcDbScale
  3
ObjectDBX Classes
 90
     1153
 91
        4
280
     0
281
     0
  0
CLASS
  1
TABLESTYLE
  2
AcDbTableStyle
  3
ObjectDBX Classes
 90
     4095
 91
        4
280
     0
281
     0
  0
CLASS
  1
MLEADERSTYLE
  2
AcDbMLeaderStyle
  3
ACDB_MLEADERSTYLE_CLASS
 90
     4095
 91
        4
280
     0
281
     0
  0
CLASS
  1
SUN
  2
AcDbSun
  3
SCENEOE
 90
     1153
 91
        4
280
     0
281
     0
  0
CLASS
  1
DICTIONARYVAR
  2
AcDbDictionaryVar
  3
ObjectDBX Classes
 90
        0
 91
        4
280
     0
281
     0
  0
CLASS
  1
CELLSTYLEMAP
  2
AcDbCellStyleMap
  3
ObjectDBX Classes
 90
     1152
 91
        4
280
     0
281
     0
  0
ENDSEC
  0
SECTION
  2
TABLES
  0
TABLE
  2
VPORT
  5
8
330
0
100
AcDbSymbolTable
 70
     1
  0
VPORT
  5
29
330
8
100
AcDbSymbolTableRecord
100
AcDbViewportTableRecord
  2
*Active
 70
     0
 10
0.0
 20
0.0
 11
1.0
 21
1.0
 12
0.0
 22
-0.65625
 13
0.0
 23
0.0
 14
0.5
 24
0.5
 15
0.5
 25
0.5
 16
0.0
 26
0.0
 36
1.0
 17
0.0
 27
0.0
 37
0.0
 40
1.38159
 41
2.47181706264549
 42
50.0
 43
0.0
 44
0.0
 50
0.0
 51
0.0
 71
     0
 72
   100
 73
     1
 74
     3
 75
     0
 76
     0
 77
     0
 78
     0
281
     0
 65
     1
110
0.0
120
0.0
130
0.0
111
1.0
121
0.0
131
0.0
112
0.0
122
1.0
132
0.0
 79
     0
146
0.0
348
2F
 60
     3
 61
     5
292
     1
282
     1
141
0.0
142
0.0
 63
   250
361
6D
  0
ENDTAB
  0
TABLE
  2
LTYPE
  5
5
330
0
100
AcDbSymbolTable
 70
     3
  0
LTYPE
  5
14
330
5
100
AcDbSymbolTableRecord
100
AcDbLinetypeTableRecord
  2
ByBlock
 70
     0
  3

 72
    65
 73
     0
 40
0.0
  0
LTYPE
  5
15
330
5
100
AcDbSymbolTableRecord
100
AcDbLinetypeTableRecord
  2
ByLayer
 70
     0
  3

 72
    65
 73
     0
 40
0.0
  0
LTYPE
  5
16
330
5
100
AcDbSymbolTableRecord
100
AcDbLinetypeTableRecord
  2
Continuous
 70
     0
  3
Solid line
 72
    65
 73
     0
 40
0.0
  0
LTYPE
  5
9F
330
5
100
AcDbSymbolTableRecord
100
AcDbLinetypeTableRecord
  2
Dashed
 70
     0
  3

 72
    65
 73
     2
 40
2.0
 49
1.0
 74
     0
 49
-1.0
 74
     0
  0
LTYPE
  5
CE
330
5
100
AcDbSymbolTableRecord
100
AcDbLinetypeTableRecord
  2
Center
 70
     0
  3

 72
    65
 73
     4
 40
1.5
 49
0.45
 74
     0
 49
-0.5
 74
     0
 49
0.05
 74
     0
 49
-0.5
 74
     0
  0
ENDTAB
  0
TABLE
  2
LAYER
  5
2
330
0
100
AcDbSymbolTable
 70
     7
  0
LAYER
  5
10
330
2
100
AcDbSymbolTableRecord
100
AcDbLayerTableRecord
  2
0
 70
     0
 62
     7
  6
Continuous
370
    -3
390
F
347
46
348
0
  0
LAYER
  5
72
330
2
100
AcDbSymbolTableRecord
100
AcDbLayerTableRecord
  2
AM_6
 70
     0
 62
    -2
  6
Continuous
370
    35
390
F
347
46
348
0
  0
LAYER
  5
A0
330
2
100
AcDbSymbolTableRecord
100
AcDbLayerTableRecord
  2
AM_9
 70
     0
 62
     6
  6
Dashed
370
    25
390
F
347
46
348
0
  0
LAYER
  5
CC
330
2
100
AcDbSymbolTableRecord
100
AcDbLayerTableRecord
  2
AM_5
 70
     0
 62
     3
  6
Continuous
370
    25
390
F
347
46
348
0
  0
LAYER
  5
CF
330
2
100
AcDbSymbolTableRecord
100
AcDbLayerTableRecord
  2
AM_7
 70
     0
 62
     7
  6
Center
370
    25
390
F
347
46
348
0
  0
LAYER
  5
D2
330
2
100
AcDbSymbolTableRecord
100
AcDbLayerTableRecord
  2
AM_4
 70
     0
 62
     7
  6
Continuous
370
    50
390
F
347
46
348
0
  0
LAYER
  5
189
330
2
100
AcDbSymbolTableRecord
100
AcDbLayerTableRecord
  2
ConnectionPoints
 70
     0
 62
     7
  6
Continuous
370
    50
390
F
347
46
348
0
  0
ENDTAB
  0
TABLE
  2
STYLE
  5
3
330
0
100
AcDbSymbolTable
 70
     1
  0
STYLE
  5
11
330
3
100
AcDbSymbolTableRecord
100
AcDbTextStyleTableRecord
  2
Standard
 70
     0
 40
0.0
 41
1.0
 50
0.0
 71
     0
 42
0.2
  3
txt
  4

  0
ENDTAB
  0
TABLE
  2
VIEW
  5
6
330
0
100
AcDbSymbolTable
 70
     0
  0
ENDTAB
  0
TABLE
  2
UCS
  5
7
330
0
100
AcDbSymbolTable
 70
     0
  0
ENDTAB
  0
TABLE
  2
APPID
  5
9
330
0
100
AcDbSymbolTable
 70
     1
  0
APPID
  5
12
330
9
100
AcDbSymbolTableRecord
100
AcDbRegAppTableRecord
  2
ACAD
 70
     0
  0
ENDTAB
  0
TABLE
  2
DIMSTYLE
  5
A
330
0
100
AcDbSymbolTable
 70
     1
100
AcDbDimStyleTable
  0
DIMSTYLE
105
27
330
A
100
AcDbSymbolTableRecord
100
AcDbDimStyleTableRecord
  2
Standard
 70
     0
178
     0
340
11
  0
ENDTAB
  0
TABLE
  2
BLOCK_RECORD
  5
1
330
0
100
AcDbSymbolTable
 70
     5
  0
BLOCK_RECORD
  5
1F
330
1
100
AcDbSymbolTableRecord
100
AcDbBlockTableRecord
  2
*Model_Space
340
22
 70
     0
280
     1
281
     0
  0
BLOCK_RECORD
  5
1B
330
1
100
AcDbSymbolTableRecord
100
AcDbBlockTableRecord
  2
*Paper_Space
340
1E
 70
     0
280
     1
281
     0
  0
BLOCK_RECORD
  5
23
330
1
100
AcDbSymbolTableRecord
100
AcDbBlockTableRecord
  2
*Paper_Space0
340
26
 70
     0
280
     1
281
     0
  0
BLOCK_RECORD
  5
6E
330
1
100
AcDbSymbolTableRecord
100
AcDbBlockTableRecord
  2
1_124623_4
340
0
102
{BLKREFS
331
6F
102
}
 70
     0
280
     1
281
     0
  0
BLOCK_RECORD
  5
89
330
1
100
AcDbSymbolTableRecord
100
AcDbBlockTableRecord
  2
2_077977_0_in_124623_4
340
0
102
{BLKREFS
331
8A
102
}
 70
     0
280
     1
281
     0
  0
BLOCK_RECORD
  5
E1
330
1
100
AcDbSymbolTableRecord
100
AcDbBlockTableRecord
  2
3_430026_0_in_124623_4
340
0
102
{BLKREFS
331
E2
102
}
 70
     0
280
     1
281
     0
  0
BLOCK_RECORD
  5
FC
330
1
100
AcDbSymbolTableRecord
100
AcDbBlockTableRecord
  2
4_124623H_0_in_124623_4
340
0
102
{BLKREFS
331
FD
102
}
 70
     0
280
     1
281
     0
  0
ENDTAB
  0
ENDSEC
  0
SECTION
  2
BLOCKS
  0
BLOCK
  5
20
330
1F
100
AcDbEntity
  8
0
100
AcDbBlockBegin
  2
*Model_Space
 70
     0
 10
0.0
 20
0.0
 30
0.0
  3
*Model_Space
  1

  0
ENDBLK
  5
21
330
1F
100
AcDbEntity
  8
0
100
AcDbBlockEnd
  0
BLOCK
  5
1C
330
1B
100
AcDbEntity
 67
     1
  8
0
100
AcDbBlockBegin
  2
*Paper_Space
 70
     0
 10
0.0
 20
0.0
 30
0.0
  3
*Paper_Space
  1

  0
ENDBLK
  5
1D
330
1B
100
AcDbEntity
 67
     1
  8
0
100
AcDbBlockEnd
  0
BLOCK
  5
24
330
23
100
AcDbEntity
  8
0
100
AcDbBlockBegin
  2
*Paper_Space0
 70
     0
 10
0.0
 20
0.0
 30
0.0
  3
*Paper_Space0
  1

  0
ENDBLK
  5
25
330
23
100
AcDbEntity
  8
0
100
AcDbBlockEnd
  0
BLOCK
  5
70
330
6E
100
AcDbEntity
  8
0
100
AcDbBlockBegin
  2
1_124623_4
 70
     2
 10
0.0
 20
0.0
 30
0.0
  3
1_124623_4
  1

  0
ATTDEF
  5
73
330
6E
100
AcDbEntity
  8
AM_6
100
AcDbText
 10
6.674038105676659
 20
0.0210000000000001
 30
0.0
 40
0.5
  1
Set Screw LF  Normal Duty 3-Bolt Flange Inch Bore
100
AcDbAttributeDefinition
  3

  2
NN
 70
     8
280
     0
  0
ATTDEF
  5
74
330
6E
100
AcDbEntity
  8
AM_6
100
AcDbText
 10
6.674038105676659
 20
-0.4789999999999999
 30
0.0
 40
0.5
  1
SC 3 Bolt Flange Bearings -(Normal Duty) -Re-Lube and No-Lube
100
AcDbAttributeDefinition
  3

  2
NT
 70
     8
280
     0
  0
ATTDEF
  5
75
330
6E
100
AcDbEntity
  8
AM_6
100
AcDbText
 10
6.674038105676659
 20
-0.9789999999999999
 30
0.0
 40
0.5
  1
124623
100
AcDbAttributeDefinition
  3

  2
NB
 70
     8
280
     0
  0
ATTDEF
  5
76
330
6E
100
AcDbEntity
  8
AM_6
100
AcDbText
 10
6.674038105676659
 20
-1.479
 30
0.0
 40
0.5
  1
$PN.
100
AcDbAttributeDefinition
  3

  2
NBSYN
 70
     8
280
     0
  0
ATTDEF
  5
77
330
6E
100
AcDbEntity
  8
AM_6
100
AcDbText
 10
6.674038105676659
 20
-1.979
 30
0.0
 40
0.5
  1
124623
100
AcDbAttributeDefinition
  3

  2
LINA
 70
     8
280
     0
  0
ATTDEF
  5
78
330
6E
100
AcDbEntity
  8
AM_6
100
AcDbText
 10
6.674038105676659
 20
-2.479
 30
0.0
 40
0.5
  1
205
100
AcDbAttributeDefinition
  3

  2
SERIES
 70
     8
280
     0
  0
ATTDEF
  5
79
330
6E
100
AcDbEntity
  8
AM_6
100
AcDbText
 10
6.674038105676659
 20
-2.979
 30
0.0
 40
0.5
  1
7/8
100
AcDbAttributeDefinition
  3

  2
SS
 70
     8
280
     0
  0
ATTDEF
  5
7A
330
6E
100
AcDbEntity
  8
AM_6
100
AcDbText
 10
6.674038105676659
 20
-3.479
 30
0.0
 40
0.5
  1
124623
100
AcDbAttributeDefinition
  3

  2
PN
 70
     8
280
     0
  0
ATTDEF
  5
7B
330
6E
100
AcDbEntity
  8
AM_6
100
AcDbText
 10
6.674038105676659
 20
-3.979
 30
0.0
 40
0.5
  1
LF-SC-014-NL
100
AcDbAttributeDefinition
  3

  2
DESCRIPTION
 70
     8
280
     0
  0
ATTDEF
  5
7C
330
6E
100
AcDbEntity
  8
AM_6
100
AcDbText
 10
6.674038105676659
 20
-4.479
 30
0.0
 40
0.5
  1
1.10
100
AcDbAttributeDefinition
  3

  2
W
 70
     8
280
     0
  0
ATTDEF
  5
7D
330
6E
100
AcDbEntity
  8
AM_6
100
AcDbText
 10
6.674038105676659
 20
-4.979
 30
0.0
 40
0.5
  1
NO-LUBE
100
AcDbAttributeDefinition
  3

  2
LF
 70
     8
280
     0
  0
ATTDEF
  5
7E
330
6E
100
AcDbEntity
  8
AM_6
100
AcDbText
 10
6.674038105676659
 20
-5.479
 30
0.0
 40
0.5
  1
1.06
100
AcDbAttributeDefinition
  3

  2
A
 70
     8
280
     0
  0
ATTDEF
  5
7F
330
6E
100
AcDbEntity
  8
AM_6
100
AcDbText
 10
6.674038105676659
 20
-5.979
 30
0.0
 40
0.5
  1
3.75
100
AcDbAttributeDefinition
  3

  2
B
 70
     8
280
     0
  0
ATTDEF
  5
80
330
6E
100
AcDbEntity
  8
AM_6
100
AcDbText
 10
6.674038105676659
 20
-6.479
 30
0.0
 40
0.5
  1
1.24
100
AcDbAttributeDefinition
  3

  2
C
 70
     8
280
     0
  0
ATTDEF
  5
81
330
6E
100
AcDbEntity
  8
AM_6
100
AcDbText
 10
6.674038105676659
 20
-6.979
 30
0.0
 40
0.5
  1
3.00
100
AcDbAttributeDefinition
  3

  2
D
 70
     8
280
     0
  0
ATTDEF
  5
82
330
6E
100
AcDbEntity
  8
AM_6
100
AcDbText
 10
6.674038105676659
 20
-7.479
 30
0.0
 40
0.5
  1
0.34
100
AcDbAttributeDefinition
  3

  2
G
 70
     8
280
     0
  0
ATTDEF
  5
83
330
6E
100
AcDbEntity
  8
AM_6
100
AcDbText
 10
6.674038105676659
 20
-7.979
 30
0.0
 40
0.5
  1
0.42
100
AcDbAttributeDefinition
  3

  2
H
 70
     8
280
     0
  0
ATTDEF
  5
84
330
6E
100
AcDbEntity
  8
AM_6
100
AcDbText
 10
6.674038105676659
 20
-8.479
 30
0.0
 40
0.5
  1
0.37
100
AcDbAttributeDefinition
  3

  2
J
 70
     8
280
     0
  0
ATTDEF
  5
85
330
6E
100
AcDbEntity
  8
AM_6
100
AcDbText
 10
6.674038105676659
 20
-8.979
 30
0.0
 40
0.5
  1
1.32
100
AcDbAttributeDefinition
  3

  2
L
 70
     8
280
     0
  0
ATTDEF
  5
86
330
6E
100
AcDbEntity
  8
AM_6
100
AcDbText
 10
6.674038105676659
 20
-9.479
 30
0.0
 40
0.5
  1
1.88
100
AcDbAttributeDefinition
  3

  2
M
 70
     8
280
     0
  0
ATTDEF
  5
87
330
6E
100
AcDbEntity
  8
AM_6
100
AcDbText
 10
6.674038105676659
 20
-9.979
 30
0.0
 40
0.5
  1
1.70
100
AcDbAttributeDefinition
  3

  2
N
 70
     8
280
     0
  0
ATTDEF
  5
88
330
6E
100
AcDbEntity
  8
AM_6
100
AcDbText
 10
6.674038105676659
 20
-10.479
 30
0.0
 40
0.5
  1
baldor
100
AcDbAttributeDefinition
  3

  2
COMPANY
 70
     8
280
     0
  0
INSERT
  5
8A
330
6E
100
AcDbEntity
  8
0
100
AcDbBlockReference
  2
2_077977_0_in_124623_4
 10
0.0
 20
0.0
 30
0.0
  0
INSERT
  5
E2
330
6E
100
AcDbEntity
  8
0
100
AcDbBlockReference
  2
3_430026_0_in_124623_4
 10
0.0
 20
0.0
 30
0.0
  0
INSERT
  5
FD
330
6E
100
AcDbEntity
  8
0
100
AcDbBlockReference
  2
4_124623H_0_in_124623_4
 10
0.0
 20
0.0
 30
0.0
  0
ENDBLK
  5
71
330
6E
100
AcDbEntity
  8
0
100
AcDbBlockEnd
  0
BLOCK
  5
8B
330
89
100
AcDbEntity
  8
0
100
AcDbBlockBegin
  2
2_077977_0_in_124623_4
 70
     2
 10
0.0
 20
0.0
 30
0.0
  3
2_077977_0_in_124623_4
  1

  0
ATTDEF
  5
8D
330
89
100
AcDbEntity
  8
AM_6
100
AcDbText
 10
6.023071041545304
 20
-0.18
 30
0.0
 40
0.5
  1
Set Screw Light Duty Insert with Pin Inch Bore
100
AcDbAttributeDefinition
  3

  2
NN
 70
     8
280
     0
  0
ATTDEF
  5
8E
330
89
100
AcDbEntity
  8
AM_6
100
AcDbText
 10
6.023071041545304
 20
-0.68
 30
0.0
 40
0.5
  1
SCP Bearing Inserts
100
AcDbAttributeDefinition
  3

  2
NT
 70
     8
280
     0
  0
ATTDEF
  5
8F
330
89
100
AcDbEntity
  8
AM_6
100
AcDbText
 10
6.023071041545304
 20
-1.18
 30
0.0
 40
0.5
  1
077977
100
AcDbAttributeDefinition
  3

  2
NB
 70
     8
280
     0
  0
ATTDEF
  5
90
330
89
100
AcDbEntity
  8
AM_6
100
AcDbText
 10
6.023071041545304
 20
-1.68
 30
0.0
 40
0.5
  1
$PN.
100
AcDbAttributeDefinition
  3

  2
NBSYN
 70
     8
280
     0
  0
ATTDEF
  5
91
330
89
100
AcDbEntity
  8
AM_6
100
AcDbText
 10
6.023071041545304
 20
-2.18
 30
0.0
 40
0.5
  1
077977
100
AcDbAttributeDefinition
  3

  2
LINA
 70
     8
280
     0
  0
ATTDEF
  5
92
330
89
100
AcDbEntity
  8
AM_6
100
AcDbText
 10
6.023071041545304
 20
-2.68
 30
0.0
 40
0.5
  1
205
100
AcDbAttributeDefinition
  3

  2
SERIES
 70
     8
280
     0
  0
ATTDEF
  5
93
330
89
100
AcDbEntity
  8
AM_6
100
AcDbText
 10
6.023071041545304
 20
-3.18
 30
0.0
 40
0.5
  1
7/8
100
AcDbAttributeDefinition
  3

  2
SS
 70
     8
280
     0
  0
ATTDEF
  5
94
330
89
100
AcDbEntity
  8
AM_6
100
AcDbText
 10
6.023071041545304
 20
-3.68
 30
0.0
 40
0.5
  1
077977
100
AcDbAttributeDefinition
  3

  2
PN
 70
     8
280
     0
  0
ATTDEF
  5
95
330
89
100
AcDbEntity
  8
AM_6
100
AcDbText
 10
6.023071041545304
 20
-4.18
 30
0.0
 40
0.5
  1
INS-SCP-014
100
AcDbAttributeDefinition
  3

  2
DESCRIPTION
 70
     8
280
     0
  0
ATTDEF
  5
96
330
89
100
AcDbEntity
  8
AM_6
100
AcDbText
 10
6.023071041545304
 20
-4.68
 30
0.0
 40
0.5
  1
1.06
100
AcDbAttributeDefinition
  3

  2
A
 70
     8
280
     0
  0
ATTDEF
  5
97
330
89
100
AcDbEntity
  8
AM_6
100
AcDbText
 10
6.023071041545304
 20
-5.18
 30
0.0
 40
0.5
  1
0.59
100
AcDbAttributeDefinition
  3

  2
C
 70
     8
280
     0
  0
ATTDEF
  5
98
330
89
100
AcDbEntity
  8
AM_6
100
AcDbText
 10
6.023071041545304
 20
-5.68
 30
0.0
 40
0.5
  1
2.0472
100
AcDbAttributeDefinition
  3

  2
D
 70
     8
280
     0
  0
ATTDEF
  5
99
330
89
100
AcDbEntity
  8
AM_6
100
AcDbText
 10
6.023071041545304
 20
-6.18
 30
0.0
 40
0.5
  1
0.16
100
AcDbAttributeDefinition
  3

  2
J
 70
     8
280
     0
  0
ATTDEF
  5
9A
330
89
100
AcDbEntity
  8
AM_6
100
AcDbText
 10
6.023071041545304
 20
-6.68
 30
0.0
 40
0.5
  1
1.32
100
AcDbAttributeDefinition
  3

  2
L
 70
     8
280
     0
  0
ATTDEF
  5
9B
330
89
100
AcDbEntity
  8
AM_6
100
AcDbText
 10
6.023071041545304
 20
-7.18
 30
0.0
 40
0.5
  1
1/4 - 28
100
AcDbAttributeDefinition
  3

  2
N
 70
     8
280
     0
  0
ATTDEF
  5
9C
330
89
100
AcDbEntity
  8
AM_6
100
AcDbText
 10
6.023071041545304
 20
-7.68
 30
0.0
 40
0.5
  1
0.30
100
AcDbAttributeDefinition
  3

  2
W
 70
     8
280
     0
  0
ATTDEF
  5
9D
330
89
100
AcDbEntity
  8
AM_6
100
AcDbText
 10
6.023071041545304
 20
-8.18
 30
0.0
 40
0.5
  1
0.76
100
AcDbAttributeDefinition
  3

  2
Y
 70
     8
280
     0
  0
ATTDEF
  5
9E
330
89
100
AcDbEntity
  8
AM_6
100
AcDbText
 10
6.023071041545304
 20
-8.68
 30
0.0
 40
0.5
  1
baldor
100
AcDbAttributeDefinition
  3

  2
COMPANY
 70
     8
280
     0
  0
LINE
  5
A1
330
89
100
AcDbEntity
  8
AM_9
100
AcDbLine
 10
-1.06735
 20
-0.2903030303030275
 30
0.0
 11
-1.06735
 21
-0.3496969696969725
 31
0.0
  0
ARC
  5
A2
330
89
100
AcDbEntity
  8
AM_9
100
AcDbCircle
 10
-1.013713636363636
 20
-0.3496969696969744
 30
0.0
 40
0.0536363636363637
100
AcDbArc
 50
179.9999991462263
 51
262.5431050920659
  0
ARC
  5
A3
330
89
100
AcDbEntity
  8
AM_9
100
AcDbCircle
 10
-1.013713636363637
 20
-0.2903030303030257
 30
0.0
 40
0.0536363636363638
100
AcDbArc
 50
90.0
 51
180.0
  0
LINE
  5
A4
330
89
100
AcDbEntity
  8
AM_9
100
AcDbLine
 10
-0.9942701762377514
 20
-0.2366666666666619
 30
0.0
 11
-1.013713636363636
 21
-0.2366666666666619
 31
0.0
  0
LINE
  5
A5
330
89
100
AcDbEntity
  8
AM_9
100
AcDbLine
 10
-1.013713636363636
 20
-0.2366666666666619
 30
0.0
 11
-1.013713636363636
 21
-0.3587588156064313
 31
0.0
  0
LINE
  5
A6
330
89
100
AcDbEntity
  8
AM_9
100
AcDbLine
 10
0.3964412749278927
 20
-1.10545
 30
0.0
 11
0.5809476251235367
 21
-1.10545
 31
0.0
  0
LINE
  5
A7
330
89
100
AcDbEntity
  8
AM_9
100
AcDbLine
 10
0.5809476251235367
 20
-0.90955
 30
0.0
 11
0.3964718429336836
 21
-0.90955
 31
0.0
  0
LWPOLYLINE
  5
A8
330
89
100
AcDbEntity
  8
AM_9
100
AcDbPolyline
 90
       21
 70
     0
 43
0.0
 10
0.3965069526749168
 20
-1.105449999791013
 10
0.4007024480274375
 20
-1.104920105467638
 10
0.4067208578758349
 20
-1.101992766971642
 10
0.4121331628732897
 20
-1.096399841019361
 10
0.4166118264167987
 20
-1.088542062582912
 10
0.4203583349796894
 20
-1.078241867403823
 10
0.4232567715215576
 20
-1.066048819190597
 10
0.4254437316747205
 20
-1.051804435211044
 10
0.4268667636263318
 20
-1.036642843622313
 10
0.4276634607272558
 20
-1.020141996915132
 10
0.4278271713690498
 20
-1.004093807138676
 10
0.4274004593494938
 20
-0.987672072509849
 10
0.4264032900158415
 20
-0.9724617021322118
 10
0.424733193637049
 20
-0.9578115146676406
 10
0.4223801854313544
 20
-0.9446961887108865
 10
0.41916746737116
 20
-0.9329812645472104
 10
0.4151343264450465
 20
-0.9234447691132941
 10
0.4100753403541771
 20
-0.9160658865173739
 10
0.4043501581054099
 20
-0.9115072094489459
 10
0.3976758519700389
 20
-0.9095894124793212
 10
0.3965138799985955
 20
-0.9095500005097619
  0
LWPOLYLINE
  5
A9
330
89
100
AcDbEntity
  8
AM_9
100
AcDbPolyline
 90
       11
 70
     0
 43
0.0
 10
0.3965138799985955
 20
-0.9095500005097619
 10
0.3907619301731799
 20
-0.9104400814078955
 10
0.3832808569340363
 20
-0.914006399855144
 10
0.3759370920817844
 20
-0.9199565970632372
 10
0.3685842089671431
 20
-0.9284520773706499
 10
0.361794075466746
 20
-0.9390289616690344
 10
0.3556593442116657
 20
-0.9518426994131473
 10
0.3507587754180478
 20
-0.9660535376309077
 10
0.3471785902711472
 20
-0.9819299883017951
 10
0.345596435466933
 20
-0.99447978180443
 10
0.3450489608914671
 20
-1.0075
  0
ELLIPSE
  5
AA
330
89
100
AcDbEntity
  8
AM_9
100
AcDbEllipse
 10
0.5809476251235364
 20
-1.007500000000001
 30
0.0
 11
-1.799312309647232E-17
 21
-0.09794999999999909
 31
0.0
210
0.0
220
0.0
230
1.0
 40
0.4226182617406987
 41
3.466623772562697
 42
5.947669466455692
  0
LINE
  5
AB
330
89
100
AcDbEntity
  8
AM_9
100
AcDbLine
 10
0.5616446057014005
 20
-1.094148784971865
 30
0.0
 11
0.5734853450170826
 21
-1.108917580285053
 31
0.0
  0
LINE
  5
AC
330
89
100
AcDbEntity
  8
AM_9
100
AcDbLine
 10
0.5735656130906105
 20
-0.9059823024235755
 30
0.0
 11
0.5616446057014005
 21
-0.9208512150281354
 31
0.0
  0
LWPOLYLINE
  5
AD
330
89
100
AcDbEntity
  8
AM_9
100
AcDbPolyline
 90
       11
 70
     0
 43
0.0
 10
0.3450489608914671
 20
-1.0075
 10
0.3458747764791527
 20
-1.023479191730239
 10
0.3483982102283003
 20
-1.039458383460478
 10
0.3523302675995151
 20
-1.054086024269056
 10
0.3576709089913062
 20
-1.067805986590095
 10
0.3639669890856648
 20
-1.079692849307076
 10
0.3711824629778925
 20
-1.089862486205457
 10
0.3786777311447849
 20
-1.097546932997538
 10
0.3864835358930601
 20
-1.102834524334585
 10
0.3937231409289277
 20
-1.105234741047366
 10
0.3965069526749168
 20
-1.105449999791013
  0
LINE
  5
AE
330
89
100
AcDbEntity
  8
AM_9
100
AcDbLine
 10
-0.4375000000000001
 20
-0.2063999999999999
 30
0.0
 11
-0.4375000000000001
 21
-1.2136
 31
0.0
  0
LINE
  5
AF
330
89
100
AcDbEntity
  8
AM_9
100
AcDbLine
 10
0.4375000000000001
 20
-1.2136
 30
0.0
 11
0.4375000000000001
 21
-0.2063999999999999
 31
0.0
  0
LINE
  5
B0
330
89
100
AcDbEntity
  8
AM_9
100
AcDbLine
 10
0.4375
 20
-0.2063999999999999
 30
0.0
 11
-0.4375
 21
-0.2063999999999999
 31
0.0
  0
LINE
  5
B1
330
89
100
AcDbEntity
  8
AM_9
100
AcDbLine
 10
0.4375
 20
-0.2063999999999999
 30
0.0
 11
0.4639000000000049
 21
-0.18
 31
0.0
  0
LINE
  5
B2
330
89
100
AcDbEntity
  8
AM_9
100
AcDbLine
 10
-0.4639000000000049
 20
-0.18
 30
0.0
 11
-0.4375
 21
-0.2063999999999999
 31
0.0
  0
LINE
  5
B3
330
89
100
AcDbEntity
  8
AM_9
100
AcDbLine
 10
-0.4375000000000001
 20
-1.2136
 30
0.0
 11
-0.4639000000000049
 21
-1.24
 31
0.0
  0
LINE
  5
B4
330
89
100
AcDbEntity
  8
AM_9
100
AcDbLine
 10
0.4639000000000049
 20
-1.24
 30
0.0
 11
0.4375000000000001
 21
-1.2136
 31
0.0
  0
LINE
  5
B5
330
89
100
AcDbEntity
  8
AM_9
100
AcDbLine
 10
0.6599999999999931
 20
-0.18
 30
0.0
 11
-0.6599999999999931
 21
-0.18
 31
0.0
  0
LINE
  5
B6
330
89
100
AcDbEntity
  8
AM_9
100
AcDbLine
 10
-0.6599999999999931
 20
-0.18
 30
0.0
 11
-0.6599999999999931
 21
-0.185
 31
0.0
  0
LINE
  5
B7
330
89
100
AcDbEntity
  8
AM_9
100
AcDbLine
 10
0.6599999999999931
 20
-0.185
 30
0.0
 11
0.6599999999999931
 21
-0.18
 31
0.0
  0
LINE
  5
B8
330
89
100
AcDbEntity
  8
AM_9
100
AcDbLine
 10
-0.6599999999999928
 20
-0.775
 30
0.0
 11
-0.6599999999999928
 21
-0.87
 31
0.0
  0
LINE
  5
B9
330
89
100
AcDbEntity
  8
AM_9
100
AcDbLine
 10
0.6599999999999928
 20
-0.87
 30
0.0
 11
0.6599999999999928
 21
-0.775
 31
0.0
  0
LINE
  5
BA
330
89
100
AcDbEntity
  8
AM_9
100
AcDbLine
 10
-0.9702666666666678
 20
-0.608
 30
0.0
 11
-0.9702666666666678
 21
-0.6719999999999999
 31
0.0
  0
LINE
  5
BB
330
89
100
AcDbEntity
  8
AM_9
100
AcDbLine
 10
0.9702666666666678
 20
-0.6719999999999999
 30
0.0
 11
0.9702666666666678
 21
-0.608
 31
0.0
  0
LINE
  5
BC
330
89
100
AcDbEntity
  8
AM_9
100
AcDbLine
 10
0.9560865860370594
 20
-0.1849999999999999
 30
0.0
 11
-0.95608658603491
 21
-0.1849999999999999
 31
0.0
  0
ARC
  5
BD
330
89
100
AcDbEntity
  8
AM_9
100
AcDbCircle
 10
-0.9560865860370593
 20
-0.2170000000000005
 30
0.0
 40
0.0320000000000007
100
AcDbArc
 50
90.0
 51
164.6195040508812
  0
ARC
  5
BE
330
89
100
AcDbEntity
  8
AM_9
100
AcDbCircle
 10
0.9560865860370594
 20
-0.2170000000000002
 30
0.0
 40
0.0320000000000004
100
AcDbArc
 50
15.38049594911837
 51
90.0
  0
LINE
  5
BF
330
89
100
AcDbEntity
  8
AM_9
100
AcDbLine
 10
0.9560865860370598
 20
-0.775
 30
0.0
 11
-0.9560865860349104
 21
-0.775
 31
0.0
  0
ARC
  5
C0
330
89
100
AcDbEntity
  8
AM_9
100
AcDbCircle
 10
-0.9560865860370595
 20
-0.7429999999999998
 30
0.0
 40
0.0320000000000002
100
AcDbArc
 50
195.3804930608772
 51
270.0
  0
ARC
  5
C1
330
89
100
AcDbEntity
  8
AM_9
100
AcDbCircle
 10
0.9560865860370595
 20
-0.7429999999999998
 30
0.0
 40
0.0320000000000003
100
AcDbArc
 50
270.0
 51
344.6195069391228
  0
LINE
  5
C2
330
89
100
AcDbEntity
  8
AM_9
100
AcDbLine
 10
1.005431728164573
 20
-0.6720000000000002
 30
0.0
 11
-1.005431728164673
 21
-0.6720000000000002
 31
0.0
  0
LINE
  5
C3
330
89
100
AcDbEntity
  8
AM_9
100
AcDbLine
 10
0.9869405303466913
 20
-0.7514872917080866
 30
0.0
 11
-0.9869405303467907
 21
-0.7514872917080866
 31
0.0
  0
ARC
  5
C4
330
89
100
AcDbEntity
  8
AM_9
100
AcDbCircle
 10
-0.0000000001181228
 20
-0.4800000000274557
 30
0.0
 40
1.023599999878922
100
AcDbArc
 50
190.8111968125822
 51
195.3804958590953
  0
ARC
  5
C5
330
89
100
AcDbEntity
  8
AM_9
100
AcDbCircle
 10
0.0000000001183784
 20
-0.4800000000275151
 30
0.0
 40
1.023599999878659
100
AcDbArc
 50
344.6195041409042
 51
349.1888031874184
  0
LINE
  5
C6
330
89
100
AcDbEntity
  8
AM_9
100
AcDbLine
 10
0.9869405299188527
 20
-0.2085127067365871
 30
0.0
 11
-0.9869405299188455
 21
-0.2085127067365871
 31
0.0
  0
LINE
  5
C7
330
89
100
AcDbEntity
  8
AM_9
100
AcDbLine
 10
1.015565340093881
 20
-0.608
 30
0.0
 11
-1.015565340093874
 21
-0.608
 31
0.0
  0
ARC
  5
C8
330
89
100
AcDbEntity
  8
AM_9
100
AcDbCircle
 10
0.0000000000311126
 20
-0.4800000000078349
 30
0.0
 40
1.023600000032069
100
AcDbArc
 50
164.6195040509213
 51
166.2526016024214
  0
ARC
  5
C9
330
89
100
AcDbEntity
  8
AM_9
100
AcDbCircle
 10
0.0000000000007561
 20
-0.4800000000000166
 30
0.0
 40
1.023600000000741
100
AcDbArc
 50
175.663117580052
 51
187.1835766537045
  0
ARC
  5
CA
330
89
100
AcDbEntity
  8
AM_9
100
AcDbCircle
 10
-0.0000000000003781
 20
-0.480000000000027
 30
0.0
 40
1.023600000000365
100
AcDbArc
 50
352.8164233462933
 51
15.38049594911367
  0
LINE
  5
CB
330
89
100
AcDbEntity
  8
AM_9
100
AcDbLine
 10
-1.020690501753221
 20
-0.4028776320985265
 30
0.0
 11
-0.9942564301522573
 21
-0.2366666666987004
 31
0.0
  0
ARC
  5
CD
330
89
100
AcDbEntity
  8
AM_5
100
AcDbCircle
 10
0.0000000000000002
 20
-1.0075
 30
0.0
 40
0.1250000000000002
100
AcDbArc
 50
75.0000000000001
 51
15.00000000000012
  0
LINE
  5
D0
330
89
100
AcDbEntity
  8
AM_7
100
AcDbLine
 10
-0.1028475
 20
-1.0075
 30
0.0
 11
0.1028475
 21
-1.0075
 31
0.0
  0
LINE
  5
D1
330
89
100
AcDbEntity
  8
AM_7
100
AcDbLine
 10
-1.0877175
 20
-0.32
 30
0.0
 11
-0.6396325
 21
-0.32
 31
0.0
  0
ELLIPSE
  5
D3
330
89
100
AcDbEntity
  8
AM_4
100
AcDbEllipse
 10
0.5809476251235367
 20
-1.0075
 30
0.0
 11
-1.799312309647248E-17
 21
-0.09794999999999998
 31
0.0
210
0.0
220
0.0
230
1.0
 40
0.4226182617406994
 41
5.947669466455683
 42
9.749809079742292
  0
LWPOLYLINE
  5
D4
330
89
100
AcDbEntity
  8
AM_4
100
AcDbPolyline
 90
       15
 70
     0
 43
0.0
 10
0.5735660731769253
 20
-1.109018269137403
 10
0.5719726994579839
 20
-1.106959249745153
 10
0.5650278433204309
 20
-1.096163702989883
 10
0.5588105674882015
 20
-1.083392121340318
 10
0.553158609426175
 20
-1.067776456308797
 10
0.5487921335557101
 20
-1.050713265502481
 10
0.5457453127463127
 20
-1.031360170572237
 10
0.5444677717709605
 20
-1.011379662502821
 10
0.5450936915365804
 20
-0.9906009107289822
 10
0.5476415499847281
 20
-0.9702963876546935
 10
0.5520497310441538
 20
-0.9509914126023976
 10
0.5580875747281323
 20
-0.9333464819397349
 10
0.5652867661607005
 20
-0.918383376950456
 10
0.5734581055326967
 20
-0.9061167729003105
 10
0.5735740480938537
 20
-0.9059717815944667
  0
LWPOLYLINE
  5
D5
330
89
100
AcDbEntity
  8
AM_4
100
AcDbPolyline
 90
        9
 70
     0
 43
0.0
 10
0.5735740480938537
 20
-0.9059717815944667
 10
0.5816266571414173
 20
-0.8976373544216402
 10
0.5899796433437982
 20
-0.892345252403008
 10
0.5974928286954456
 20
-0.8905809963324571
 10
0.6046244137532618
 20
-0.8918000942647346
 10
0.6109002520462056
 20
-0.8957639755349945
 10
0.6165169241279203
 20
-0.9022612393715136
 10
0.6202281888867066
 20
-0.9086400425718337
 10
0.6235201798650335
 20
-0.9161852069615743
  0
CIRCLE
  5
D6
330
89
100
AcDbEntity
  8
AM_4
100
AcDbCircle
 10
0.0
 20
-1.0075
 30
0.0
 40
0.09795
  0
LWPOLYLINE
  5
D7
330
89
100
AcDbEntity
  8
AM_4
100
AcDbPolyline
 90
       41
 70
     0
 43
0.0
 10
0.0783723973826378
 20
-0.9271037726986062
 10
0.0882927003008661
 20
-0.9402077979870508
 10
0.0964386074881698
 20
-0.9548774629343639
 10
0.1032779882244038
 20
-0.9732323954938126
 10
0.107201640456723
 20
-0.9929776721112378
 10
0.1079052792069236
 20
-1.013365897579817
 10
0.1051831161124921
 20
-1.034162835074476
 10
0.0991562433840549
 20
-1.053849463316632
 10
0.0895923345827996
 20
-1.072752145769712
 10
0.0775137867499855
 20
-1.088865464840267
 10
0.0702190142006018
 20
-1.096286881305526
 10
0.062263760819969
 20
-1.102996661672844
 10
0.0462587313234874
 20
-1.113137675759941
 10
0.028038897964453
 20
-1.120420296913159
 10
0.0109951432142765
 20
-1.123835191573719
 10
-0.0069583371654788
 20
-1.124201274614034
 10
-0.0231895963823718
 20
-1.121707172631685
 10
-0.0392216348719989
 20
-1.116432958768331
 10
-0.0539357832490657
 20
-1.108770272118095
 10
-0.067594457462963
 20
-1.098645498428971
 10
-0.0799713500900033
 20
-1.086030395311825
 10
-0.0904938784831169
 20
-1.071280718396633
 10
-0.099017740790964
 20
-1.054193949192598
 10
-0.1048890144443358
 20
-1.035481785484865
 10
-0.1077872476441166
 20
-1.015505803205837
 10
-0.107395580242193
 20
-0.9947576949674954
 10
-0.1036333836134581
 20
-0.9745081678423047
 10
-0.0963219135287693
 20
-0.9546283578702898
 10
-0.0861246251594965
 20
-0.9369972210643788
 10
-0.0725715625884871
 20
-0.920957885672327
 10
-0.0575722758133624
 20
-0.9086085552236407
 10
-0.0490050800843971
 20
-0.9033288726336545
 10
-0.0399697184626558
 20
-0.8988872075163487
 10
-0.022988767321439
 20
-0.8932450621894473
 10
-0.004657531144196
 20
-0.8906640123116306
 10
0.0119588649160308
 20
-0.8912767724702438
 10
0.0287138700192915
 20
-0.8947794225747451
 10
0.0440039167478096
 20
-0.900736178601335
 10
0.0585126122389553
 20
-0.9092586311793881
 10
0.0689094916866091
 20
-0.9175167577600245
 10
0.0783723974410399
 20
-0.9271037725701932
  0
LWPOLYLINE
  5
D8
330
89
100
AcDbEntity
  8
AM_4
100
AcDbPolyline
 90
       19
 70
     0
 43
0.0
 10
0.6235201798650335
 20
-0.9161852069615743
 10
0.6273219536004824
 20
-0.928105823960352
 10
0.6303739018364952
 20
-0.9416296097810877
 10
0.6329915919715248
 20
-0.9587248789236411
 10
0.634724239757466
 20
-0.9770343791762455
 10
0.6356381709244592
 20
-0.9971753151555413
 10
0.6356440952072423
 20
-1.017594725844426
 10
0.6347061407814356
 20
-1.038205292762595
 10
0.6327858771889889
 20
-1.0579399383943
 10
0.6298389962551173
 20
-1.076086912908907
 10
0.6257967721609009
 20
-1.092191460034521
 10
0.6208225664245381
 20
-1.105126271258354
 10
0.6147740775028752
 20
-1.115115910902679
 10
0.6082798287473445
 20
-1.121251322656702
 10
0.6010408441850225
 20
-1.124206306342539
 10
0.5938469705060506
 20
-1.123924069347829
 10
0.586398920611479
 20
-1.120807091368136
 10
0.5790729773451615
 20
-1.11507753529551
 10
0.5735660731769253
 20
-1.109018269137403
  0
LINE
  5
D9
330
89
100
AcDbEntity
  8
AM_4
100
AcDbLine
 10
-0.6599999999999928
 20
-0.87
 30
0.0
 11
-0.6599999999999928
 21
-1.2136
 31
0.0
  0
LINE
  5
DA
330
89
100
AcDbEntity
  8
AM_4
100
AcDbLine
 10
0.6599999999999928
 20
-1.2136
 30
0.0
 11
0.6599999999999928
 21
-0.87
 31
0.0
  0
LINE
  5
DB
330
89
100
AcDbEntity
  8
AM_4
100
AcDbLine
 10
0.6599999999999931
 20
-1.2136
 30
0.0
 11
-0.6599999999999931
 21
-1.2136
 31
0.0
  0
LINE
  5
DC
330
89
100
AcDbEntity
  8
AM_4
100
AcDbLine
 10
0.6336000000000167
 20
-1.24
 30
0.0
 11
-0.6336000000000167
 21
-1.24
 31
0.0
  0
LINE
  5
DD
330
89
100
AcDbEntity
  8
AM_4
100
AcDbLine
 10
0.6336000000000167
 20
-1.24
 30
0.0
 11
0.6599999999999931
 21
-1.2136
 31
0.0
  0
LINE
  5
DE
330
89
100
AcDbEntity
  8
AM_4
100
AcDbLine
 10
-0.6599999999999931
 20
-1.2136
 30
0.0
 11
-0.6336000000000167
 21
-1.24
 31
0.0
  0
ARC
  5
DF
330
89
100
AcDbEntity
  8
AM_5
100
AcDbCircle
 10
0.0000000000000001
 20
-1.0075
 30
0.0
 40
0.1249999999999999
100
AcDbArc
 50
345.0
 51
285.0
  0
ARC
  5
E0
330
89
100
AcDbEntity
  8
AM_5
100
AcDbCircle
 10
-0.0000000000000001
 20
-0.9900000000000001
 30
0.0
 40
0.1250000000000001
100
AcDbArc
 50
75.0
 51
15.00000000000002
  0
ENDBLK
  5
8C
330
89
100
AcDbEntity
  8
0
100
AcDbBlockEnd
  0
BLOCK
  5
E3
330
E1
100
AcDbEntity
  8
0
100
AcDbBlockBegin
  2
3_430026_0_in_124623_4
 70
     2
 10
0.0
 20
0.0
 30
0.0
  3
3_430026_0_in_124623_4
  1

  0
ATTDEF
  5
E5
330
E1
100
AcDbEntity
  8
AM_6
100
AcDbText
 10
5.209350545419528
 20
-0.3706185281718785
 30
0.0
 40
0.5
  1
430026 Plug
100
AcDbAttributeDefinition
  3

  2
NN
 70
     8
280
     0
  0
ATTDEF
  5
E6
330
E1
100
AcDbEntity
  8
AM_6
100
AcDbText
 10
5.209350545419528
 20
-0.8706185281718785
 30
0.0
 40
0.5
  1
Plug
100
AcDbAttributeDefinition
  3

  2
NT
 70
     8
280
     0
  0
ATTDEF
  5
E7
330
E1
100
AcDbEntity
  8
AM_6
100
AcDbText
 10
5.209350545419528
 20
-1.370618528171879
 30
0.0
 40
0.5
  1
430026
100
AcDbAttributeDefinition
  3

  2
NB
 70
     8
280
     0
  0
ATTDEF
  5
E8
330
E1
100
AcDbEntity
  8
AM_6
100
AcDbText
 10
5.209350545419528
 20
-1.870618528171879
 30
0.0
 40
0.5
  1
$PN.
100
AcDbAttributeDefinition
  3

  2
NBSYN
 70
     8
280
     0
  0
ATTDEF
  5
E9
330
E1
100
AcDbEntity
  8
AM_6
100
AcDbText
 10
5.209350545419528
 20
-2.370618528171879
 30
0.0
 40
0.5
  1
430026
100
AcDbAttributeDefinition
  3

  2
LINA
 70
     8
280
     0
  0
ATTDEF
  5
EA
330
E1
100
AcDbEntity
  8
AM_6
100
AcDbText
 10
5.209350545419528
 20
-2.870618528171879
 30
0.0
 40
0.5
  1
430026
100
AcDbAttributeDefinition
  3

  2
PN
 70
     8
280
     0
  0
ATTDEF
  5
EB
330
E1
100
AcDbEntity
  8
AM_6
100
AcDbText
 10
5.209350545419528
 20
-3.370618528171879
 30
0.0
 40
0.5
  1
baldor
100
AcDbAttributeDefinition
  3

  2
COMPANY
 70
     8
280
     0
  0
CIRCLE
  5
EC
330
E1
100
AcDbEntity
  8
AM_9
100
AcDbCircle
 10
0.0
 20
-0.57
 30
0.0
 40
0.1800055586036764
  0
CIRCLE
  5
ED
330
E1
100
AcDbEntity
  8
AM_9
100
AcDbCircle
 10
0.0
 20
-0.57
 30
0.0
 40
0.109
  0
LINE
  5
EE
330
E1
100
AcDbEntity
  8
AM_9
100
AcDbLine
 10
0.09375
 20
-0.5158734122634726
 30
0.0
 11
0.09375
 21
-0.6241265877365274
 31
0.0
  0
LINE
  5
EF
330
E1
100
AcDbEntity
  8
AM_9
100
AcDbLine
 10
-0.09375
 20
-0.5158734122634726
 30
0.0
 11
0.0
 21
-0.4617468245269452
 31
0.0
  0
LINE
  5
F0
330
E1
100
AcDbEntity
  8
AM_9
100
AcDbLine
 10
0.0
 20
-0.4617468245269452
 30
0.0
 11
0.09375
 21
-0.5158734122634726
 31
0.0
  0
LINE
  5
F1
330
E1
100
AcDbEntity
  8
AM_9
100
AcDbLine
 10
0.09375
 20
-0.6241265877365274
 30
0.0
 11
0.0
 21
-0.6782531754730549
 31
0.0
  0
LINE
  5
F2
330
E1
100
AcDbEntity
  8
AM_9
100
AcDbLine
 10
0.0
 20
-0.6782531754730549
 30
0.0
 11
-0.09375
 21
-0.6241265877365274
 31
0.0
  0
LINE
  5
F3
330
E1
100
AcDbEntity
  8
AM_9
100
AcDbLine
 10
-0.09375
 20
-0.6241265877365274
 30
0.0
 11
-0.09375
 21
-0.5158734122634726
 31
0.0
  0
CIRCLE
  5
F4
330
E1
100
AcDbEntity
  8
AM_9
100
AcDbCircle
 10
0.0
 20
-0.57
 30
0.0
 40
0.0710018603583624
  0
ARC
  5
F5
330
E1
100
AcDbEntity
  8
AM_5
100
AcDbCircle
 10
0.0
 20
-0.5699999999999997
 30
0.0
 40
0.1817549999999999
100
AcDbArc
 50
75.0
 51
14.99999999999994
  0
CIRCLE
  5
F6
330
E1
100
AcDbEntity
  8
AM_9
100
AcDbCircle
 10
0.0
 20
-0.5700000000000001
 30
0.0
 40
0.0937499999999999
  0
CIRCLE
  5
F7
330
E1
100
AcDbEntity
  8
AM_9
100
AcDbCircle
 10
0.0000000000000002
 20
-0.57
 30
0.0
 40
0.1993814718281215
  0
CIRCLE
  5
F8
330
E1
100
AcDbEntity
  8
AM_9
100
AcDbCircle
 10
0.0000000000000001
 20
-0.57
 30
0.0
 40
0.1908735385412943
  0
CIRCLE
  5
F9
330
E1
100
AcDbEntity
  8
AM_9
100
AcDbCircle
 10
-0.0000000000000001
 20
-0.5700000000000001
 30
0.0
 40
0.1702494517657398
  0
LINE
  5
FA
330
E1
100
AcDbEntity
  8
AM_7
100
AcDbLine
 10
-0.2093505454195279
 20
-0.5699999999999997
 30
0.0
 11
0.209350545419528
 21
-0.5699999999999997
 31
0.0
  0
ARC
  5
FB
330
E1
100
AcDbEntity
  8
AM_5
100
AcDbCircle
 10
0.0
 20
-0.5700000000000001
 30
0.0
 40
0.1817550000000001
100
AcDbArc
 50
345.0
 51
285.0
  0
ENDBLK
  5
E4
330
E1
100
AcDbEntity
  8
0
100
AcDbBlockEnd
  0
BLOCK
  5
FE
330
FC
100
AcDbEntity
  8
0
100
AcDbBlockBegin
  2
4_124623H_0_in_124623_4
 70
     2
 10
0.0
 20
0.0
 30
0.0
  3
4_124623H_0_in_124623_4
  1

  0
ATTDEF
  5
100
330
FC
100
AcDbEntity
  8
AM_6
100
AcDbText
 10
6.674038105676659
 20
0.0210000000000001
 30
0.0
 40
0.5
  1
LF-SC & LF-SC-NL - housing -Inch
100
AcDbAttributeDefinition
  3

  2
NN
 70
     8
280
     0
  0
ATTDEF
  5
101
330
FC
100
AcDbEntity
  8
AM_6
100
AcDbText
 10
6.674038105676659
 20
-0.4789999999999999
 30
0.0
 40
0.5
  1
SC 3 Bolt Flange Bearings -(Normal Duty) -Re-Lube and No-Lube
100
AcDbAttributeDefinition
  3

  2
NT
 70
     8
280
     0
  0
ATTDEF
  5
102
330
FC
100
AcDbEntity
  8
AM_6
100
AcDbText
 10
6.674038105676659
 20
-0.9789999999999999
 30
0.0
 40
0.5
  1
124623H
100
AcDbAttributeDefinition
  3

  2
NB
 70
     8
280
     0
  0
ATTDEF
  5
103
330
FC
100
AcDbEntity
  8
AM_6
100
AcDbText
 10
6.674038105676659
 20
-1.479
 30
0.0
 40
0.5
  1
$PN.H
100
AcDbAttributeDefinition
  3

  2
NBSYN
 70
     8
280
     0
  0
ATTDEF
  5
104
330
FC
100
AcDbEntity
  8
AM_6
100
AcDbText
 10
6.674038105676659
 20
-1.979
 30
0.0
 40
0.5
  1
124623
100
AcDbAttributeDefinition
  3

  2
LINA
 70
     8
280
     0
  0
ATTDEF
  5
105
330
FC
100
AcDbEntity
  8
AM_6
100
AcDbText
 10
6.674038105676659
 20
-2.479
 30
0.0
 40
0.5
  1
205
100
AcDbAttributeDefinition
  3

  2
SERIES
 70
     8
280
     0
  0
ATTDEF
  5
106
330
FC
100
AcDbEntity
  8
AM_6
100
AcDbText
 10
6.674038105676659
 20
-2.979
 30
0.0
 40
0.5
  1
7/8
100
AcDbAttributeDefinition
  3

  2
SS
 70
     8
280
     0
  0
ATTDEF
  5
107
330
FC
100
AcDbEntity
  8
AM_6
100
AcDbText
 10
6.674038105676659
 20
-3.479
 30
0.0
 40
0.5
  1
124623
100
AcDbAttributeDefinition
  3

  2
PN
 70
     8
280
     0
  0
ATTDEF
  5
108
330
FC
100
AcDbEntity
  8
AM_6
100
AcDbText
 10
6.674038105676659
 20
-3.979
 30
0.0
 40
0.5
  1
LF-SC-014-NL
100
AcDbAttributeDefinition
  3

  2
DESCRIPTION
 70
     8
280
     0
  0
ATTDEF
  5
109
330
FC
100
AcDbEntity
  8
AM_6
100
AcDbText
 10
6.674038105676659
 20
-4.479
 30
0.0
 40
0.5
  1
1.10
100
AcDbAttributeDefinition
  3

  2
W
 70
     8
280
     0
  0
ATTDEF
  5
10A
330
FC
100
AcDbEntity
  8
AM_6
100
AcDbText
 10
6.674038105676659
 20
-4.979
 30
0.0
 40
0.5
  1
NO-LUBE
100
AcDbAttributeDefinition
  3

  2
LF
 70
     8
280
     0
  0
ATTDEF
  5
10B
330
FC
100
AcDbEntity
  8
AM_6
100
AcDbText
 10
6.674038105676659
 20
-5.479
 30
0.0
 40
0.5
  1
1.06
100
AcDbAttributeDefinition
  3

  2
A
 70
     8
280
     0
  0
ATTDEF
  5
10C
330
FC
100
AcDbEntity
  8
AM_6
100
AcDbText
 10
6.674038105676659
 20
-5.979
 30
0.0
 40
0.5
  1
3.75
100
AcDbAttributeDefinition
  3

  2
B
 70
     8
280
     0
  0
ATTDEF
  5
10D
330
FC
100
AcDbEntity
  8
AM_6
100
AcDbText
 10
6.674038105676659
 20
-6.479
 30
0.0
 40
0.5
  1
1.24
100
AcDbAttributeDefinition
  3

  2
C
 70
     8
280
     0
  0
ATTDEF
  5
10E
330
FC
100
AcDbEntity
  8
AM_6
100
AcDbText
 10
6.674038105676659
 20
-6.979
 30
0.0
 40
0.5
  1
3.00
100
AcDbAttributeDefinition
  3

  2
D
 70
     8
280
     0
  0
ATTDEF
  5
10F
330
FC
100
AcDbEntity
  8
AM_6
100
AcDbText
 10
6.674038105676659
 20
-7.479
 30
0.0
 40
0.5
  1
0.34
100
AcDbAttributeDefinition
  3

  2
G
 70
     8
280
     0
  0
ATTDEF
  5
110
330
FC
100
AcDbEntity
  8
AM_6
100
AcDbText
 10
6.674038105676659
 20
-7.979
 30
0.0
 40
0.5
  1
0.42
100
AcDbAttributeDefinition
  3

  2
H
 70
     8
280
     0
  0
ATTDEF
  5
111
330
FC
100
AcDbEntity
  8
AM_6
100
AcDbText
 10
6.674038105676659
 20
-8.479
 30
0.0
 40
0.5
  1
0.37
100
AcDbAttributeDefinition
  3

  2
J
 70
     8
280
     0
  0
ATTDEF
  5
112
330
FC
100
AcDbEntity
  8
AM_6
100
AcDbText
 10
6.674038105676659
 20
-8.979
 30
0.0
 40
0.5
  1
1.32
100
AcDbAttributeDefinition
  3

  2
L
 70
     8
280
     0
  0
ATTDEF
  5
113
330
FC
100
AcDbEntity
  8
AM_6
100
AcDbText
 10
6.674038105676659
 20
-9.479
 30
0.0
 40
0.5
  1
1.88
100
AcDbAttributeDefinition
  3

  2
M
 70
     8
280
     0
  0
ATTDEF
  5
114
330
FC
100
AcDbEntity
  8
AM_6
100
AcDbText
 10
6.674038105676659
 20
-9.979
 30
0.0
 40
0.5
  1
1.70
100
AcDbAttributeDefinition
  3

  2
N
 70
     8
280
     0
  0
ATTDEF
  5
115
330
FC
100
AcDbEntity
  8
AM_6
100
AcDbText
 10
6.674038105676659
 20
-10.479
 30
0.0
 40
0.5
  1
1565
100
AcDbAttributeDefinition
  3

  2
CAPS
 70
     8
280
     0
  0
ATTDEF
  5
116
330
FC
100
AcDbEntity
  8
AM_6
100
AcDbText
 10
6.674038105676659
 20
-10.979
 30
0.0
 40
0.5
  1
3146
100
AcDbAttributeDefinition
  3

  2
CAPD
 70
     8
280
     0
  0
ATTDEF
  5
117
330
FC
100
AcDbEntity
  8
AM_6
100
AcDbText
 10
6.674038105676659
 20
-11.479
 30
0.0
 40
0.5
  1
baldor
100
AcDbAttributeDefinition
  3

  2
COMPANY
 70
     8
280
     0
  0
LINE
  5
118
330
FC
100
AcDbEntity
  8
AM_9
100
AcDbLine
 10
0.1152171862180301
 20
-0.1060000000000001
 30
0.0
 11
0.1152171862180257
 21
-0.42
 31
0.0
  0
LINE
  5
119
330
FC
100
AcDbEntity
  8
AM_9
100
AcDbLine
 10
-0.1152171862180257
 20
-0.42
 30
0.0
 11
-0.1152171862180301
 21
-0.1060000000000001
 31
0.0
  0
LINE
  5
11A
330
FC
100
AcDbEntity
  8
AM_9
100
AcDbLine
 10
-0.382
 20
-0.8690000000000002
 30
0.0
 11
-0.382
 21
-0.1060000000000001
 31
0.0
  0
LINE
  5
11B
330
FC
100
AcDbEntity
  8
AM_9
100
AcDbLine
 10
0.382
 20
-0.8690000000000002
 30
0.0
 11
0.382
 21
-0.1060000000000001
 31
0.0
  0
LINE
  5
11C
330
FC
100
AcDbEntity
  8
AM_9
100
AcDbLine
 10
-0.1152171862180301
 20
-0.1060000000000001
 30
0.0
 11
-0.4499999999999998
 21
-0.1060000000000001
 31
0.0
  0
LINE
  5
11D
330
FC
100
AcDbEntity
  8
AM_9
100
AcDbLine
 10
0.4499999999999998
 20
-0.1060000000000001
 30
0.0
 11
0.1152171862180301
 21
-0.1060000000000001
 31
0.0
  0
CIRCLE
  5
11E
330
FC
100
AcDbEntity
  8
AM_9
100
AcDbCircle
 10
0.0
 20
-0.57
 30
0.0
 40
0.15
  0
LINE
  5
11F
330
FC
100
AcDbEntity
  8
AM_9
100
AcDbLine
 10
0.8451373934391124
 20
-0.42
 30
0.0
 11
0.8451373934391128
 21
-0.1050000000000001
 31
0.0
  0
LINE
  5
120
330
FC
100
AcDbEntity
  8
AM_9
100
AcDbLine
 10
-0.8451373934391121
 20
-0.1050000000000001
 30
0.0
 11
-0.845137393439112
 21
-0.42
 31
0.0
  0
LINE
  5
121
330
FC
100
AcDbEntity
  8
AM_9
100
AcDbLine
 10
0.6809871833924652
 20
-0.1050000000000001
 30
0.0
 11
0.6809871833924652
 21
-0.0000000000000001
 31
0.0
  0
LINE
  5
122
330
FC
100
AcDbEntity
  8
AM_9
100
AcDbLine
 10
-0.6809871910622314
 20
-0.1050000000000001
 30
0.0
 11
-0.6809871910622314
 21
-0.0000000000000001
 31
0.0
  0
LINE
  5
123
330
FC
100
AcDbEntity
  8
AM_9
100
AcDbLine
 10
-1.066813787033303
 20
-0.21
 30
0.0
 11
-1.066813787033303
 21
-0.42
 31
0.0
  0
LINE
  5
124
330
FC
100
AcDbEntity
  8
AM_9
100
AcDbLine
 10
1.066813787033303
 20
-0.21
 30
0.0
 11
1.066813787033303
 21
-0.42
 31
0.0
  0
LINE
  5
125
330
FC
100
AcDbEntity
  8
AM_9
100
AcDbLine
 10
0.4499999999999998
 20
-0.1060000000000001
 30
0.0
 11
0.4499999999999998
 21
-0.8690000000000002
 31
0.0
  0
LINE
  5
126
330
FC
100
AcDbEntity
  8
AM_9
100
AcDbLine
 10
-0.4499999999999998
 20
-0.1060000000000001
 30
0.0
 11
-0.4499999999999998
 21
-0.8690000000000002
 31
0.0
  0
LINE
  5
127
330
FC
100
AcDbEntity
  8
AM_9
100
AcDbLine
 10
0.4499999999999998
 20
-0.8690000000000002
 30
0.0
 11
-0.4499999999999998
 21
-0.8690000000000002
 31
0.0
  0
LINE
  5
128
330
FC
100
AcDbEntity
  8
AM_9
100
AcDbLine
 10
1.531262424320012
 20
-0.21
 30
0.0
 11
1.531262424320012
 21
-0.42
 31
0.0
  0
LINE
  5
129
330
FC
100
AcDbEntity
  8
AM_9
100
AcDbLine
 10
1.361262424320013
 20
-0.21
 30
0.0
 11
1.361262424320013
 21
-0.42
 31
0.0
  0
LINE
  5
12A
330
FC
100
AcDbEntity
  8
AM_9
100
AcDbLine
 10
-1.531262424320012
 20
-0.21
 30
0.0
 11
-1.531262424320012
 21
-0.42
 31
0.0
  0
LINE
  5
12B
330
FC
100
AcDbEntity
  8
AM_9
100
AcDbLine
 10
-1.361262424320013
 20
-0.21
 30
0.0
 11
-1.361262424320013
 21
-0.42
 31
0.0
  0
LINE
  5
12C
330
FC
100
AcDbEntity
  8
AM_9
100
AcDbLine
 10
1.531262424320012
 20
-0.21
 30
0.0
 11
1.06735
 21
-0.21
 31
0.0
  0
LINE
  5
12D
330
FC
100
AcDbEntity
  8
AM_9
100
AcDbLine
 10
-1.129038105676658
 20
-0.21
 30
0.0
 11
-1.129038105676658
 21
0.0
 31
0.0
  0
LINE
  5
12E
330
FC
100
AcDbEntity
  8
AM_9
100
AcDbLine
 10
-1.469038105676658
 20
0.0
 30
0.0
 11
-1.469038105676658
 21
-0.21
 31
0.0
  0
LINE
  5
12F
330
FC
100
AcDbEntity
  8
AM_9
100
AcDbLine
 10
1.469038105676658
 20
-0.21
 30
0.0
 11
1.469038105676658
 21
0.0
 31
0.0
  0
LINE
  5
130
330
FC
100
AcDbEntity
  8
AM_9
100
AcDbLine
 10
1.129038105676658
 20
0.0
 30
0.0
 11
1.129038105676658
 21
-0.21
 31
0.0
  0
LINE
  5
131
330
FC
100
AcDbEntity
  8
AM_9
100
AcDbLine
 10
-1.06735
 20
-0.21
 30
0.0
 11
-1.531262424320012
 21
-0.21
 31
0.0
  0
LINE
  5
132
330
FC
100
AcDbEntity
  8
AM_9
100
AcDbLine
 10
1.236813787033303
 20
-0.21
 30
0.0
 11
1.236813787033303
 21
-0.42
 31
0.0
  0
LINE
  5
133
330
FC
100
AcDbEntity
  8
AM_9
100
AcDbLine
 10
-1.236813787033303
 20
-0.21
 30
0.0
 11
-1.236813787033303
 21
-0.42
 31
0.0
  0
LINE
  5
134
330
FC
100
AcDbEntity
  8
AM_9
100
AcDbLine
 10
-1.180216410470614
 20
-0.42
 30
0.0
 11
-1.180216410470614
 21
-0.0000000000000001
 31
0.0
  0
LINE
  5
135
330
FC
100
AcDbEntity
  8
AM_9
100
AcDbLine
 10
1.180216410470614
 20
-0.42
 30
0.0
 11
1.180216410470614
 21
-0.0000000000000001
 31
0.0
  0
LWPOLYLINE
  5
136
330
FC
100
AcDbEntity
  8
AM_9
100
AcDbPolyline
 90
       11
 70
     0
 43
0.0
 10
-0.9838542956721862
 20
-0.42
 10
-0.9831760396527055
 20
-0.4200295159603772
 10
-0.9798681778167729
 20
-0.4210980964722548
 10
-0.9768525483167133
 20
-0.4237191890939963
 10
-0.9740945475970543
 20
-0.4281254153003153
 10
-0.9717681504708646
 20
-0.4343259795988795
 10
-0.9703202549911238
 20
-0.4402985416057088
 10
-0.969173091062985
 20
-0.4474200281893368
 10
-0.9685158056678334
 20
-0.4536836141580172
 10
-0.9680746343019466
 20
-0.4606028037474559
 10
-0.9678666262029888
 20
-0.4699999999999999
  0
LINE
  5
137
330
FC
100
AcDbEntity
  8
AM_9
100
AcDbLine
 10
-0.967866626202989
 20
-0.802
 30
0.0
 11
-0.9678666262029888
 21
-0.4699999999999999
 31
0.0
  0
LWPOLYLINE
  5
138
330
FC
100
AcDbEntity
  8
AM_9
100
AcDbPolyline
 90
        5
 70
     0
 43
0.0
 10
-0.9659671060831266
 20
-0.8700000000000265
 10
-0.9641352262375673
 20
-0.869592300192191
 10
-0.9629810683316115
 20
-0.868183249234955
 10
-0.9625227711968054
 20
-0.8656973238808722
 10
-0.962499646576349
 20
-0.8647365748315721
  0
LINE
  5
139
330
FC
100
AcDbEntity
  8
AM_9
100
AcDbLine
 10
-0.9624996441381963
 20
-0.864576987199864
 30
0.0
 11
-0.9624996441381963
 21
-0.42
 31
0.0
  0
LWPOLYLINE
  5
13A
330
FC
100
AcDbEntity
  8
AM_9
100
AcDbPolyline
 90
        9
 70
     0
 43
0.0
 10
-0.962499646576349
 20
-0.8647365748315721
 10
-0.9626465155743156
 20
-0.8617534276408663
 10
-0.9632914506575717
 20
-0.8561433313607895
 10
-0.964369871040443
 20
-0.8483583591581306
 10
-0.9653063020610124
 20
-0.8412867601937051
 10
-0.966270873696094
 20
-0.8328149281674021
 10
-0.9670858887689586
 20
-0.8234704132431943
 10
-0.9676641627768545
 20
-0.8129099932882317
 10
-0.967866626202989
 20
-0.802
  0
LWPOLYLINE
  5
13B
330
FC
100
AcDbEntity
  8
AM_9
100
AcDbPolyline
 90
       10
 70
     0
 43
0.0
 10
0.9678666262029886
 20
-0.802
 10
0.9677243412580601
 20
-0.8111441503233915
 10
0.9672992049990827
 20
-0.820288300646783
 10
0.9666712607804478
 20
-0.8286155818186693
 10
0.965884283098297
 20
-0.8364245472769504
 10
0.9650198002835988
 20
-0.8435303699996776
 10
0.9641725305613664
 20
-0.8497787037558695
 10
0.963139330269827
 20
-0.8573061722912436
 10
0.9625628899521075
 20
-0.8628872174682873
 10
0.9624996455287231
 20
-0.8647391235599363
  0
LINE
  5
13C
330
FC
100
AcDbEntity
  8
AM_9
100
AcDbLine
 10
0.9678666262029886
 20
-0.4699999999999999
 30
0.0
 11
0.9678666262029886
 21
-0.802
 31
0.0
  0
LWPOLYLINE
  5
13D
330
FC
100
AcDbEntity
  8
AM_9
100
AcDbPolyline
 90
       11
 70
     0
 43
0.0
 10
0.9678666262029886
 20
-0.4699999999999999
 10
0.9679854715278957
 20
-0.462897537021576
 10
0.968336418223336
 20
-0.4560228004825239
 10
0.968912524739703
 20
-0.449606442221357
 10
0.9697067975699433
 20
-0.4437165242851622
 10
0.9711240590231337
 20
-0.4367086423851883
 10
0.9729251428474323
 20
-0.4308606715070404
 10
0.9751397151980684
 20
-0.4261714668571306
 10
0.9777344957977275
 20
-0.4227562926806843
 10
0.980638844301868
 20
-0.42070356746806
 10
0.9838542956721859
 20
-0.42
  0
LINE
  5
13E
330
FC
100
AcDbEntity
  8
AM_9
100
AcDbLine
 10
0.9624996441381961
 20
-0.42
 30
0.0
 11
0.9624996441381961
 21
-0.8646196063486158
 31
0.0
  0
LWPOLYLINE
  5
13F
330
FC
100
AcDbEntity
  8
AM_9
100
AcDbPolyline
 90
        5
 70
     0
 43
0.0
 10
0.9624996455287231
 20
-0.8647391235599363
 10
0.9625326873566608
 20
-0.8658553092334368
 10
0.9628818313396196
 20
-0.8679119266813434
 10
0.9648363113534792
 20
-0.8698724962670714
 10
0.9659671060831352
 20
-0.8700000000000117
  0
LINE
  5
140
330
FC
100
AcDbEntity
  8
AM_9
100
AcDbLine
 10
0.9735654947151738
 20
-0.5655
 30
0.0
 11
0.9735654947151738
 21
-0.1050000000000001
 31
0.0
  0
LINE
  5
141
330
FC
100
AcDbEntity
  8
AM_9
100
AcDbLine
 10
1.06735
 20
-0.5655
 30
0.0
 11
1.06735
 21
-0.105
 31
0.0
  0
LINE
  5
142
330
FC
100
AcDbEntity
  8
AM_9
100
AcDbLine
 10
1.06735
 20
-0.5655
 30
0.0
 11
0.9253921925324421
 21
-0.5655
 31
0.0
  0
LINE
  5
143
330
FC
100
AcDbEntity
  8
AM_9
100
AcDbLine
 10
-0.9253921925324421
 20
-0.5655
 30
0.0
 11
-1.06735
 21
-0.5655
 31
0.0
  0
LINE
  5
144
330
FC
100
AcDbEntity
  8
AM_9
100
AcDbLine
 10
-0.9735654947151732
 20
-0.5655
 30
0.0
 11
-0.9735654947151732
 21
-0.1050000000000001
 31
0.0
  0
LINE
  5
145
330
FC
100
AcDbEntity
  8
AM_9
100
AcDbLine
 10
-1.06735
 20
-0.3496969696969725
 30
0.0
 11
-1.06735
 21
-0.5655
 31
0.0
  0
LINE
  5
146
330
FC
100
AcDbEntity
  8
AM_9
100
AcDbLine
 10
-1.06735
 20
-0.105
 30
0.0
 11
-1.06735
 21
-0.2903030303030275
 31
0.0
  0
LINE
  5
147
330
FC
100
AcDbEntity
  8
AM_9
100
AcDbLine
 10
-0.9253921925324421
 20
-0.5655
 30
0.0
 11
-0.925392192532442
 21
-0.1050000000000001
 31
0.0
  0
LINE
  5
148
330
FC
100
AcDbEntity
  8
AM_9
100
AcDbLine
 10
0.925392192532442
 20
-0.1050000000000001
 30
0.0
 11
0.9253921925324421
 21
-0.5655
 31
0.0
  0
LINE
  5
149
330
FC
100
AcDbEntity
  8
AM_9
100
AcDbLine
 10
1.0236
 20
-0.87
 30
0.0
 11
1.0236
 21
-0.5655
 31
0.0
  0
LINE
  5
14A
330
FC
100
AcDbEntity
  8
AM_9
100
AcDbLine
 10
-1.0236
 20
-0.5655
 30
0.0
 11
-1.0236
 21
-0.87
 31
0.0
  0
LINE
  5
14B
330
FC
100
AcDbEntity
  8
AM_9
100
AcDbLine
 10
0.4257056865522051
 20
-0.105
 30
0.0
 11
0.4257056865522051
 21
0.0000000000000001
 31
0.0
  0
LINE
  5
14C
330
FC
100
AcDbEntity
  8
AM_9
100
AcDbLine
 10
0.4668030420141457
 20
-0.105
 30
0.0
 11
-0.4668030420141459
 21
-0.105
 31
0.0
  0
LINE
  5
14D
330
FC
100
AcDbEntity
  8
AM_9
100
AcDbLine
 10
-0.4257056865522051
 20
-0.105
 30
0.0
 11
-0.4257056865522051
 21
0.0000000000000001
 31
0.0
  0
LINE
  5
14E
330
FC
100
AcDbEntity
  8
AM_9
100
AcDbLine
 10
1.185295306234736
 20
-0.802
 30
0.0
 11
1.185295306234736
 21
-0.4699999999999999
 31
0.0
  0
LINE
  5
14F
330
FC
100
AcDbEntity
  8
AM_9
100
AcDbLine
 10
-1.185295306234736
 20
-0.4699999999999999
 30
0.0
 11
-1.185295306234736
 21
-0.802
 31
0.0
  0
LINE
  5
150
330
FC
100
AcDbEntity
  8
AM_9
100
AcDbLine
 10
-1.311940435453258
 20
-0.42
 30
0.0
 11
-1.311940435453258
 21
-0.105
 31
0.0
  0
LINE
  5
151
330
FC
100
AcDbEntity
  8
AM_9
100
AcDbLine
 10
1.311940435453258
 20
-0.105
 30
0.0
 11
1.311940435453258
 21
-0.4199999999999999
 31
0.0
  0
LWPOLYLINE
  5
152
330
FC
100
AcDbEntity
  8
AM_9
100
AcDbPolyline
 90
       13
 70
     0
 43
0.0
 10
-1.185295306234736
 20
-0.802
 10
-1.184537789039037
 20
-0.8111441503233915
 10
-1.182215351495017
 20
-0.820288300646783
 10
-1.178601949609289
 20
-0.8286155818186695
 10
-1.173692250001851
 20
-0.8364245472769505
 10
-1.167629947597805
 20
-0.8435303699996776
 10
-1.160629222457244
 20
-0.8497787037558697
 10
-1.149050109376738
 20
-0.8573061722912437
 10
-1.136450628197299
 20
-0.8628872174682874
 10
-1.126791586013272
 20
-0.8658457025958158
 10
-1.117073950760513
 20
-0.8679119266813435
 10
-1.0976520430002
 20
-0.8698724962670714
 10
-1.09077271259776
 20
-0.87
  0
LWPOLYLINE
  5
153
330
FC
100
AcDbEntity
  8
AM_9
100
AcDbPolyline
 90
       12
 70
     0
 43
0.0
 10
1.09077271259776
 20
-0.87
 10
1.102887396305073
 20
-0.8695923001921911
 10
1.115425851599601
 20
-0.8681832492349555
 10
1.127363668625832
 20
-0.8656973238808728
 10
1.139451936187559
 20
-0.8617534276408672
 10
1.151145764219531
 20
-0.8561433313607907
 10
1.162387560756747
 20
-0.848358359158132
 10
1.169734345881664
 20
-0.8412867601937064
 10
1.176164018079602
 20
-0.8328149281674037
 10
1.181014018437285
 20
-0.8234704132431959
 10
1.184214525249025
 20
-0.8129099932882331
 10
1.185295306234736
 20
-0.802
  0
LWPOLYLINE
  5
154
330
FC
100
AcDbEntity
  8
AM_9
100
AcDbPolyline
 90
       11
 70
     0
 43
0.0
 10
1.243612616410243
 20
-0.42
 10
1.241690214921802
 20
-0.4200295159603771
 10
1.231873485467364
 20
-0.4210980964722546
 10
1.22215311786251
 20
-0.4237191890939959
 10
1.212410674599848
 20
-0.4281254153003152
 10
1.203332388232432
 20
-0.4343259795988794
 10
1.197145435636398
 20
-0.4402985416057088
 10
1.191858573803533
 20
-0.4474200281893372
 10
1.188639137260871
 20
-0.4536836141580176
 10
1.186386167762021
 20
-0.4606028037474563
 10
1.185295306234736
 20
-0.4699999999999999
  0
LWPOLYLINE
  5
155
330
FC
100
AcDbEntity
  8
AM_9
100
AcDbPolyline
 90
       11
 70
     0
 43
0.0
 10
-1.185295306234736
 20
-0.4699999999999999
 10
-1.185896493291124
 20
-0.4630114002412618
 10
-1.187732590218499
 20
-0.4560228004825237
 10
-1.190558913840894
 20
-0.4496770905762805
 10
-1.194366361285418
 20
-0.443716524285162
 10
-1.200539487568843
 20
-0.4367956569566137
 10
-1.207963244673538
 20
-0.43086067150704
 10
-1.216117846335211
 20
-0.4262141194245595
 10
-1.225084598183465
 20
-0.422756292680684
 10
-1.234127898100235
 20
-0.4207162486247228
 10
-1.243612616410243
 20
-0.42
  0
LINE
  5
156
330
FC
100
AcDbEntity
  8
AM_9
100
AcDbLine
 10
0.17
 20
-0.2099999999999999
 30
0.0
 11
-0.17
 21
-0.2099999999999999
 31
0.0
  0
LINE
  5
157
330
FC
100
AcDbEntity
  8
AM_9
100
AcDbLine
 10
0.17
 20
0.0000000000000001
 30
0.0
 11
0.17
 21
-0.4199999999999999
 31
0.0
  0
LINE
  5
158
330
FC
100
AcDbEntity
  8
AM_9
100
AcDbLine
 10
-0.17
 20
0.0000000000000001
 30
0.0
 11
-0.17
 21
-0.4199999999999999
 31
0.0
  0
LINE
  5
159
330
FC
100
AcDbEntity
  8
AM_7
100
AcDbLine
 10
0.0
 20
-1.3335
 30
0.0
 11
0.0
 21
0.0210000000000001
 31
0.0
  0
LINE
  5
15A
330
FC
100
AcDbEntity
  8
AM_7
100
AcDbLine
 10
-1.299038105676658
 20
0.021
 30
0.0
 11
-1.299038105676658
 21
-1.3335
 31
0.0
  0
LINE
  5
15B
330
FC
100
AcDbEntity
  8
AM_7
100
AcDbLine
 10
1.299038105676658
 20
0.021
 30
0.0
 11
1.299038105676658
 21
-1.3335
 31
0.0
  0
LINE
  5
15C
330
FC
100
AcDbEntity
  8
AM_4
100
AcDbLine
 10
1.674038105676659
 20
0.0
 30
0.0
 11
0.6003485747860376
 21
-0.0000000000000001
 31
0.0
  0
LINE
  5
15D
330
FC
100
AcDbEntity
  8
AM_4
100
AcDbLine
 10
0.6003485747860376
 20
-0.0000000000000001
 30
0.0
 11
0.6003485747860376
 21
-0.1050000000000001
 31
0.0
  0
LINE
  5
15E
330
FC
100
AcDbEntity
  8
AM_4
100
AcDbLine
 10
-0.6003485747860384
 20
-0.1050000000000001
 30
0.0
 11
-0.6003485747860384
 21
-0.0000000000000001
 31
0.0
  0
LINE
  5
15F
330
FC
100
AcDbEntity
  8
AM_4
100
AcDbLine
 10
-0.6003485747860384
 20
-0.0000000000000001
 30
0.0
 11
-1.674038105676658
 21
0.0
 31
0.0
  0
LINE
  5
160
330
FC
100
AcDbEntity
  8
AM_4
100
AcDbLine
 10
-1.674038105676658
 20
0.0
 30
0.0
 11
-1.674038105676658
 21
-0.42
 31
0.0
  0
LINE
  5
161
330
FC
100
AcDbEntity
  8
AM_4
100
AcDbLine
 10
1.674038105676659
 20
-0.42
 30
0.0
 11
1.674038105676659
 21
0.0
 31
0.0
  0
LINE
  5
162
330
FC
100
AcDbEntity
  8
AM_4
100
AcDbLine
 10
-1.547652912137175
 20
-0.42
 30
0.0
 11
-1.547652912137175
 21
0.0
 31
0.0
  0
LINE
  5
163
330
FC
100
AcDbEntity
  8
AM_4
100
AcDbLine
 10
1.547652912137176
 20
-0.42
 30
0.0
 11
1.547652912137176
 21
0.0
 31
0.0
  0
LINE
  5
164
330
FC
100
AcDbEntity
  8
AM_4
100
AcDbLine
 10
-1.216290471819312
 20
-0.105
 30
0.0
 11
-1.216290471819312
 21
0.0
 31
0.0
  0
LINE
  5
165
330
FC
100
AcDbEntity
  8
AM_4
100
AcDbLine
 10
1.216290467095626
 20
-0.105
 30
0.0
 11
1.216290467095626
 21
0.0
 31
0.0
  0
LINE
  5
166
330
FC
100
AcDbEntity
  8
AM_4
100
AcDbLine
 10
1.060501366074813
 20
-0.105
 30
0.0
 11
1.060501366424164
 21
0.0
 31
0.0
  0
LINE
  5
167
330
FC
100
AcDbEntity
  8
AM_4
100
AcDbLine
 10
0.6347956795226083
 20
-0.1050000000000001
 30
0.0
 11
0.6347956795226083
 21
-0.0000000000000001
 31
0.0
  0
LINE
  5
168
330
FC
100
AcDbEntity
  8
AM_4
100
AcDbLine
 10
-1.060501366074814
 20
-0.105
 30
0.0
 11
-1.060501366074814
 21
0.0
 31
0.0
  0
LINE
  5
169
330
FC
100
AcDbEntity
  8
AM_4
100
AcDbLine
 10
-0.6347956820057894
 20
-0.1050000000000001
 30
0.0
 11
-0.6347956820057894
 21
-0.0000000000000001
 31
0.0
  0
LINE
  5
16A
330
FC
100
AcDbEntity
  8
AM_4
100
AcDbLine
 10
0.5446073901704539
 20
-0.105
 30
0.0
 11
0.5446073901704539
 21
0.0000000000000001
 31
0.0
  0
LINE
  5
16B
330
FC
100
AcDbEntity
  8
AM_4
100
AcDbLine
 10
0.5446073901704539
 20
0.0000000000000001
 30
0.0
 11
-0.5446073901704538
 21
0.0000000000000001
 31
0.0
  0
LINE
  5
16C
330
FC
100
AcDbEntity
  8
AM_4
100
AcDbLine
 10
-0.5446073901704538
 20
0.0000000000000001
 30
0.0
 11
-0.5446073901704538
 21
-0.105
 31
0.0
  0
LINE
  5
16D
330
FC
100
AcDbEntity
  8
AM_4
100
AcDbLine
 10
1.262
 20
-0.802
 30
0.0
 11
1.262
 21
-0.4699999999999999
 31
0.0
  0
LINE
  5
16E
330
FC
100
AcDbEntity
  8
AM_4
100
AcDbLine
 10
-1.262
 20
-0.4699999999999999
 30
0.0
 11
-1.262
 21
-0.802
 31
0.0
  0
LINE
  5
16F
330
FC
100
AcDbEntity
  8
AM_4
100
AcDbLine
 10
-1.33
 20
-0.105
 30
0.0
 11
-1.33
 21
-0.4199999999999999
 31
0.0
  0
LINE
  5
170
330
FC
100
AcDbEntity
  8
AM_4
100
AcDbLine
 10
-1.33
 20
-0.105
 30
0.0
 11
-0.4668030420141459
 21
-0.1049999999999999
 31
0.0
  0
LINE
  5
171
330
FC
100
AcDbEntity
  8
AM_4
100
AcDbLine
 10
0.4668030420141457
 20
-0.1049999999999999
 30
0.0
 11
1.33
 21
-0.105
 31
0.0
  0
LINE
  5
172
330
FC
100
AcDbEntity
  8
AM_4
100
AcDbLine
 10
1.33
 20
-0.4199999999999999
 30
0.0
 11
1.33
 21
-0.105
 31
0.0
  0
ARC
  5
173
330
FC
100
AcDbEntity
  8
AM_4
100
AcDbCircle
 10
-1.194
 20
-0.8020000000000002
 30
0.0
 40
0.0679999999999998
100
AcDbArc
 50
180.0
 51
270.0
  0
LINE
  5
174
330
FC
100
AcDbEntity
  8
AM_4
100
AcDbLine
 10
-1.262
 20
-0.802
 30
0.0
 11
-0.2174286800317467
 21
-0.8019999999999999
 31
0.0
  0
LINE
  5
175
330
FC
100
AcDbEntity
  8
AM_4
100
AcDbLine
 10
-1.194
 20
-0.87
 30
0.0
 11
1.194
 21
-0.87
 31
0.0
  0
LINE
  5
176
330
FC
100
AcDbEntity
  8
AM_4
100
AcDbLine
 10
0.2174286800317469
 20
-0.8019999999999999
 30
0.0
 11
1.262
 21
-0.802
 31
0.0
  0
ARC
  5
177
330
FC
100
AcDbEntity
  8
AM_4
100
AcDbCircle
 10
1.194
 20
-0.8020000000000002
 30
0.0
 40
0.0679999999999998
100
AcDbArc
 50
270.0
 51
0.0
  0
LINE
  5
178
330
FC
100
AcDbEntity
  8
AM_4
100
AcDbLine
 10
0.2174286800317471
 20
-0.4699999999999998
 30
0.0
 11
1.262
 21
-0.4699999999999999
 31
0.0
  0
ARC
  5
179
330
FC
100
AcDbEntity
  8
AM_4
100
AcDbCircle
 10
1.312
 20
-0.4700000000000003
 30
0.0
 40
0.0500000000000004
100
AcDbArc
 50
90.0
 51
180.0
  0
ARC
  5
17A
330
FC
100
AcDbEntity
  8
AM_4
100
AcDbCircle
 10
-1.312
 20
-0.4700000000000003
 30
0.0
 40
0.0500000000000005
100
AcDbArc
 50
0.0
 51
90.0
  0
LINE
  5
17B
330
FC
100
AcDbEntity
  8
AM_4
100
AcDbLine
 10
-1.262
 20
-0.4699999999999999
 30
0.0
 11
-0.217428680031747
 21
-0.4699999999999998
 31
0.0
  0
LWPOLYLINE
  5
17C
330
FC
100
AcDbEntity
  8
AM_4
100
AcDbPolyline
 90
       11
 70
     0
 43
0.0
 10
-0.2597583207380574
 20
-0.4199999999999999
 10
-0.2576233818526166
 20
-0.4200863161500032
 10
-0.2509747044574264
 20
-0.4214043831731078
 10
-0.2443145647988588
 20
-0.4242339657392596
 10
-0.2372418020520154
 20
-0.4289718879040968
 10
-0.230651785547331
 20
-0.4353498245670459
 10
-0.2260539816915562
 20
-0.4414568877247806
 10
-0.2221837345349957
 20
-0.4484847438955515
 10
-0.2197498482340457
 20
-0.4548498603599536
 10
-0.2181245662722392
 20
-0.4616517998726181
 10
-0.217428680031747
 20
-0.4699999999999998
  0
LINE
  5
17D
330
FC
100
AcDbEntity
  8
AM_4
100
AcDbLine
 10
-0.2174286800317467
 20
-0.8019999999999999
 30
0.0
 11
-0.217428680031747
 21
-0.4699999999999998
 31
0.0
  0
LWPOLYLINE
  5
17E
330
FC
100
AcDbEntity
  8
AM_4
100
AcDbPolyline
 90
       12
 70
     0
 43
0.0
 10
-0.1248056065146172
 20
-0.8699999999999999
 10
-0.1387957636043924
 20
-0.8695907038771511
 10
-0.1524447832679917
 20
-0.868183249234955
 10
-0.1649133781422652
 20
-0.865678469459975
 10
-0.1768054206132451
 20
-0.8617534276408665
 10
-0.187988705769242
 20
-0.8560522078490066
 10
-0.1980176897163055
 20
-0.8483583591581308
 10
-0.2045022550898188
 20
-0.8411804634110474
 10
-0.2098931443835087
 20
-0.8328149281674027
 10
-0.2139842331522228
 20
-0.8232742832753822
 10
-0.216550362472171
 20
-0.812909993288232
 10
-0.2174286800317467
 20
-0.8019999999999999
  0
LWPOLYLINE
  5
17F
330
FC
100
AcDbEntity
  8
AM_4
100
AcDbPolyline
 90
       13
 70
     0
 43
0.0
 10
0.2174286800317469
 20
-0.8019999999999999
 10
0.2168134477809771
 20
-0.8111441503233914
 10
0.2149161464959339
 20
-0.8202883006467828
 10
0.2119306888288408
 20
-0.8286155818186693
 10
0.2078079669035538
 20
-0.8364245472769501
 10
0.202610147314206
 20
-0.8435303699996775
 10
0.1964566918958773
 20
-0.8497787037558695
 10
0.1859107791069113
 20
-0.8573061722912435
 10
0.1738877382451921
 20
-0.8628872174682873
 10
0.1642223212286766
 20
-0.8658553092334368
 10
0.154192119420894
 20
-0.8679119266813434
 10
0.1328157316467208
 20
-0.8698724962670713
 10
0.1248056065146172
 20
-0.8699999999999999
  0
LINE
  5
180
330
FC
100
AcDbEntity
  8
AM_4
100
AcDbLine
 10
0.2174286800317471
 20
-0.4699999999999998
 30
0.0
 11
0.2174286800317469
 21
-0.8019999999999999
 31
0.0
  0
LWPOLYLINE
  5
181
330
FC
100
AcDbEntity
  8
AM_4
100
AcDbPolyline
 90
       11
 70
     0
 43
0.0
 10
0.2174286800317471
 20
-0.4699999999999998
 10
0.2179156847883141
 20
-0.4630114002412618
 10
0.2193961719951623
 20
-0.4560228004825237
 10
0.2216549505577603
 20
-0.4496770905762806
 10
0.2246595637154739
 20
-0.443716524285162
 10
0.2294389015760792
 20
-0.4367956569566137
 10
0.2350381018261049
 20
-0.4308606715070402
 10
0.2410053992245137
 20
-0.4262141194245595
 10
0.2473501023857365
 20
-0.4227562926806841
 10
0.2535232184414573
 20
-0.4207162486247227
 10
0.2597583207380574
 20
-0.4199999999999999
  0
LINE
  5
182
330
FC
100
AcDbEntity
  8
AM_4
100
AcDbLine
 10
-0.4668030420141457
 20
-0.4199999999999998
 30
0.0
 11
-0.4668030420141459
 21
-0.1049999999999999
 31
0.0
  0
LINE
  5
183
330
FC
100
AcDbEntity
  8
AM_4
100
AcDbLine
 10
-0.5353032760333951
 20
-0.105
 30
0.0
 11
-0.5353032760333951
 21
0.0000000000000001
 31
0.0
  0
LINE
  5
184
330
FC
100
AcDbEntity
  8
AM_4
100
AcDbLine
 10
-1.674038105676658
 20
-0.42
 30
0.0
 11
1.674038105676659
 21
-0.42
 31
0.0
  0
LINE
  5
185
330
FC
100
AcDbEntity
  8
AM_4
100
AcDbLine
 10
0.5353032795270141
 20
-0.105
 30
0.0
 11
0.5353032795270141
 21
0.0000000000000001
 31
0.0
  0
LINE
  5
186
330
FC
100
AcDbEntity
  8
AM_4
100
AcDbLine
 10
0.4668030420141457
 20
-0.1049999999999999
 30
0.0
 11
0.4668030420141454
 21
-0.4199999999999998
 31
0.0
  0
LINE
  5
187
330
FC
100
AcDbEntity
  8
AM_4
100
AcDbLine
 10
-0.3674365016665618
 20
-0.4199999999999999
 30
0.0
 11
-0.3674365016665618
 21
0.0000000000000001
 31
0.0
  0
LINE
  5
188
330
FC
100
AcDbEntity
  8
AM_4
100
AcDbLine
 10
0.3674365016665608
 20
-0.4199999999999999
 30
0.0
 11
0.3674365016665608
 21
0.0000000000000001
 31
0.0
  0
ENDBLK
  5
FF
330
FC
100
AcDbEntity
  8
0
100
AcDbBlockEnd
  0
ENDSEC
  0
SECTION
  2
ENTITIES
  0
INSERT
  5
6F
330
1F
100
AcDbEntity
  8
0
100
AcDbBlockReference
  2
1_124623_4
 10
0.0
 20
0.0
 30
0.0
  0
POINT
  5
18A
330
1F
100
AcDbEntity
  8
ConnectionPoints
100
AcDbPoint
 10
0.0
 20
-0.5700000000000001
 30
-1.325
  0
POINT
  5
18B
330
1F
100
AcDbEntity
  8
ConnectionPoints
100
AcDbPoint
 10
0.0
 20
-0.5700000000000001
 30
-1.325
  0
POINT
  5
18C
330
1F
100
AcDbEntity
  8
ConnectionPoints
100
AcDbPoint
 10
0.0
 20
-1.24
 30
0.0000000000000001
  0
ENDSEC
  0
SECTION
  2
OBJECTS
  0
DICTIONARY
  5
C
330
0
100
AcDbDictionary
281
     1
  3
ACAD_DETAILVIEWSTYLE
350
194
  3
ACAD_GROUP
350
D
  3
ACAD_LAYOUT
350
1A
  3
ACAD_MATERIAL
350
43
  3
ACAD_MLEADERSTYLE
350
6B
  3
ACAD_MLINESTYLE
350
17
  3
ACAD_PLOTSETTINGS
350
19
  3
ACAD_PLOTSTYLENAME
350
E
  3
ACAD_SCALELIST
350
47
  3
ACAD_SECTIONVIEWSTYLE
350
195
  3
ACAD_TABLESTYLE
350
69
  3
ACAD_VISUALSTYLE
350
2A
  3
ACDB_RECOMPOSE_DATA
350
191
  3
AcDbVariableDictionary
350
18D
  0
SUN
  5
6D
330
29
100
AcDbSun
 90
        1
290
     0
 63
     7
421
 16777215
 40
1.0
291
     1
 91
  2455826
 92
 54000000
292
     0
 70
     2
 71
   256
280
     1
  0
DICTIONARY
  5
194
102
{ACAD_REACTORS
330
C
102
}
330
C
100
AcDbDictionary
281
     1
  0
DICTIONARY
  5
D
102
{ACAD_REACTORS
330
C
102
}
330
C
100
AcDbDictionary
281
     1
  0
DICTIONARY
  5
1A
102
{ACAD_REACTORS
330
C
102
}
330
C
100
AcDbDictionary
281
     1
  3
Layout1
350
1E
  3
Layout2
350
26
  3
Model
350
22
  0
DICTIONARY
  5
43
102
{ACAD_REACTORS
330
C
102
}
330
C
100
AcDbDictionary
281
     1
  3
ByBlock
350
45
  3
ByLayer
350
44
  3
Global
350
46
  0
DICTIONARY
  5
6B
102
{ACAD_REACTORS
330
C
102
}
330
C
100
AcDbDictionary
281
     1
  3
Standard
350
6C
  0
DICTIONARY
  5
17
102
{ACAD_REACTORS
330
C
102
}
330
C
100
AcDbDictionary
281
     1
  3
Standard
350
18
  0
DICTIONARY
  5
19
102
{ACAD_REACTORS
330
C
102
}
330
C
100
AcDbDictionary
281
     1
  0
ACDBDICTIONARYWDFLT
  5
E
102
{ACAD_REACTORS
330
C
102
}
330
C
100
AcDbDictionary
281
     1
  3
Normal
350
F
100
AcDbDictionaryWithDefault
340
F
  0
DICTIONARY
  5
47
102
{ACAD_REACTORS
330
C
102
}
330
C
100
AcDbDictionary
281
     1
  3
A0
350
48
  3
A1
350
49
  3
A2
350
4A
  3
A3
350
4B
  3
A4
350
4C
  3
A5
350
4D
  3
A6
350
4E
  3
A7
350
4F
  3
A8
350
50
  3
A9
350
51
  3
B0
350
52
  3
B1
350
53
  3
B2
350
54
  3
B3
350
55
  3
B4
350
56
  3
B5
350
57
  3
B6
350
58
  3
B7
350
59
  3
B8
350
5A
  3
B9
350
5B
  3
C0
350
5C
  3
C1
350
5D
  3
C2
350
5E
  3
C3
350
5F
  3
C4
350
60
  3
C5
350
61
  3
C6
350
62
  3
C7
350
63
  3
C8
350
64
  3
C9
350
65
  3
D0
350
66
  3
D1
350
67
  3
D2
350
68
  0
DICTIONARY
  5
195
102
{ACAD_REACTORS
330
C
102
}
330
C
100
AcDbDictionary
281
     1
  0
DICTIONARY
  5
69
102
{ACAD_REACTORS
330
C
102
}
330
C
100
AcDbDictionary
281
     1
  3
Standard
350
6A
  0
DICTIONARY
  5
2A
102
{ACAD_REACTORS
330
C
102
}
330
C
100
AcDbDictionary
281
     1
  3
2dWireframe
350
2F
  3
Basic
350
32
  3
Brighten
350
36
  3
ColorChange
350
3A
  3
Conceptual
350
34
  3
Dim
350
35
  3
EdgeColorOff
350
3D
  3
Facepattern
350
39
  3
Flat
350
2B
  3
FlatWithEdges
350
2C
  3
Gouraud
350
2D
  3
GouraudWithEdges
350
2E
  3
Hidden
350
31
  3
JitterOff
350
3B
  3
Linepattern
350
38
  3
OverhangOff
350
3C
  3
Realistic
350
33
  3
Shaded
350
42
  3
Shaded with edges
350
41
  3
Shades of Gray
350
3E
  3
Sketchy
350
3F
  3
Thicken
350
37
  3
Wireframe
350
30
  3
X-Ray
350
40
  0
XRECORD
  5
191
102
{ACAD_REACTORS
330
C
102
}
330
C
100
AcDbXrecord
280
     1
 90
        1
330
6A
  0
DICTIONARY
  5
18D
102
{ACAD_REACTORS
330
C
102
}
330
C
100
AcDbDictionary
281
     1
  3
CANNOSCALE
350
18E
  3
CMLEADERSTYLE
350
193
  3
CTABLESTYLE
350
192
  0
LAYOUT
  5
1E
102
{ACAD_REACTORS
330
1A
102
}
330
1A
100
AcDbPlotSettings
  1

  2
none_device
  4

  6

 40
0.0
 41
0.0
 42
0.0
 43
0.0
 44
0.0
 45
0.0
 46
0.0
 47
0.0
 48
0.0
 49
0.0
140
0.0
141
0.0
142
1.0
143
1.0
 70
   688
 72
     0
 73
     0
 74
     5
  7

 75
    16
 76
     0
 77
     2
 78
   300
147
1.0
148
0.0
149
0.0
100
AcDbLayout
  1
Layout1
 70
     1
 71
     1
 10
0.0
 20
0.0
 11
12.0
 21
9.0
 12
0.0
 22
0.0
 32
0.0
 14
1.000000000000000E+20
 24
1.000000000000000E+20
 34
1.000000000000000E+20
 15
-1.000000000000000E+20
 25
-1.000000000000000E+20
 35
-1.000000000000000E+20
146
0.0
 13
0.0
 23
0.0
 33
0.0
 16
1.0
 26
0.0
 36
0.0
 17
0.0
 27
1.0
 37
0.0
 76
     0
330
1B
  0
LAYOUT
  5
26
102
{ACAD_REACTORS
330
1A
102
}
330
1A
100
AcDbPlotSettings
  1

  2
none_device
  4

  6

 40
0.0
 41
0.0
 42
0.0
 43
0.0
 44
0.0
 45
0.0
 46
0.0
 47
0.0
 48
0.0
 49
0.0
140
0.0
141
0.0
142
1.0
143
1.0
 70
   688
 72
     0
 73
     0
 74
     5
  7

 75
    16
 76
     0
 77
     2
 78
   300
147
1.0
148
0.0
149
0.0
100
AcDbLayout
  1
Layout2
 70
     1
 71
     2
 10
0.0
 20
0.0
 11
0.0
 21
0.0
 12
0.0
 22
0.0
 32
0.0
 14
0.0
 24
0.0
 34
0.0
 15
0.0
 25
0.0
 35
0.0
146
0.0
 13
0.0
 23
0.0
 33
0.0
 16
1.0
 26
0.0
 36
0.0
 17
0.0
 27
1.0
 37
0.0
 76
     0
330
23
  0
LAYOUT
  5
22
102
{ACAD_REACTORS
330
1A
102
}
330
1A
100
AcDbPlotSettings
  1

  2
none_device
  4
Letter_(8.50_x_11.00_Inches)
  6

 40
6.35
 41
6.35
 42
6.35000508
 43
6.35000508
 44
215.9
 45
279.4
 46
0.0
 47
0.0
 48
0.0
 49
0.0
140
0.0
141
0.0
142
1.0
143
1.0
 70
  1712
 72
     0
 73
     0
 74
     0
  7

 75
     0
 76
     0
 77
     2
 78
   300
147
1.0
148
0.0
149
0.0
100
AcDbLayout
  1
Model
 70
     1
 71
     0
 10
0.0
 20
0.0
 11
12.0
 21
9.0
 12
0.0
 22
0.0
 32
0.0
 14
1.000000000000000E+20
 24
1.000000000000000E+20
 34
1.000000000000000E+20
 15
-1.000000000000000E+20
 25
-1.000000000000000E+20
 35
-1.000000000000000E+20
146
0.0
 13
0.0
 23
0.0
 33
0.0
 16
1.0
 26
0.0
 36
0.0
 17
0.0
 27
1.0
 37
0.0
 76
     0
330
1F
331
29
  0
MATERIAL
  5
45
102
{ACAD_REACTORS
330
43
102
}
330
43
100
AcDbMaterial
  1
ByBlock
 72
     1
 94
      127
  0
MATERIAL
  5
44
102
{ACAD_REACTORS
330
43
102
}
330
43
100
AcDbMaterial
  1
ByLayer
 72
     1
 94
      127
  0
MATERIAL
  5
46
102
{ACAD_REACTORS
330
43
102
}
330
43
100
AcDbMaterial
  1
Global
 72
     1
 94
      127
  0
MLEADERSTYLE
  5
6C
102
{ACAD_REACTORS
330
6B
102
}
330
6B
100
AcDbMLeaderStyle
179
     2
170
     2
171
     1
172
     0
 90
        2
 40
0.0
 41
0.0
173
     1
 91
-1056964608
340
14
 92
       -2
290
     1
 42
0.09
291
     1
 43
0.36
  3
Standard
341
0
 44
0.18
300

342
11
174
     1
178
     6
175
     1
176
     0
 93
-1056964608
 45
0.18
292
     0
297
     0
 46
0.18
343
0
 94
-1056964608
 47
1.0
 49
1.0
140
1.0
293
     1
141
0.0
294
     1
177
     0
142
1.0
295
     0
296
     0
143
0.125
271
     0
272
     9
273
     9
298
     0
  0
MLINESTYLE
  5
18
102
{ACAD_REACTORS
330
17
102
}
330
17
100
AcDbMlineStyle
  2
Standard
 70
     0
  3

 62
   256
 51
90.0
 52
90.0
 71
     2
 49
0.5
 62
   256
  6
BYLAYER
 49
-0.5
 62
   256
  6
BYLAYER
  0
ACDBPLACEHOLDER
  5
F
102
{ACAD_REACTORS
330
E
102
}
330
E
  0
SCALE
  5
48
102
{ACAD_REACTORS
330
47
102
}
330
47
100
AcDbScale
 70
     0
300
1:1
140
1.0
141
1.0
290
     1
  0
SCALE
  5
49
102
{ACAD_REACTORS
330
47
102
}
330
47
100
AcDbScale
 70
     0
300
1:2
140
1.0
141
2.0
290
     0
  0
SCALE
  5
4A
102
{ACAD_REACTORS
330
47
102
}
330
47
100
AcDbScale
 70
     0
300
1:4
140
1.0
141
4.0
290
     0
  0
SCALE
  5
4B
102
{ACAD_REACTORS
330
47
102
}
330
47
100
AcDbScale
 70
     0
300
1:5
140
1.0
141
5.0
290
     0
  0
SCALE
  5
4C
102
{ACAD_REACTORS
330
47
102
}
330
47
100
AcDbScale
 70
     0
300
1:8
140
1.0
141
8.0
290
     0
  0
SCALE
  5
4D
102
{ACAD_REACTORS
330
47
102
}
330
47
100
AcDbScale
 70
     0
300
1:10
140
1.0
141
10.0
290
     0
  0
SCALE
  5
4E
102
{ACAD_REACTORS
330
47
102
}
330
47
100
AcDbScale
 70
     0
300
1:16
140
1.0
141
16.0
290
     0
  0
SCALE
  5
4F
102
{ACAD_REACTORS
330
47
102
}
330
47
100
AcDbScale
 70
     0
300
1:20
140
1.0
141
20.0
290
     0
  0
SCALE
  5
50
102
{ACAD_REACTORS
330
47
102
}
330
47
100
AcDbScale
 70
     0
300
1:30
140
1.0
141
30.0
290
     0
  0
SCALE
  5
51
102
{ACAD_REACTORS
330
47
102
}
330
47
100
AcDbScale
 70
     0
300
1:40
140
1.0
141
40.0
290
     0
  0
SCALE
  5
52
102
{ACAD_REACTORS
330
47
102
}
330
47
100
AcDbScale
 70
     0
300
1:50
140
1.0
141
50.0
290
     0
  0
SCALE
  5
53
102
{ACAD_REACTORS
330
47
102
}
330
47
100
AcDbScale
 70
     0
300
1:100
140
1.0
141
100.0
290
     0
  0
SCALE
  5
54
102
{ACAD_REACTORS
330
47
102
}
330
47
100
AcDbScale
 70
     0
300
2:1
140
2.0
141
1.0
290
     0
  0
SCALE
  5
55
102
{ACAD_REACTORS
330
47
102
}
330
47
100
AcDbScale
 70
     0
300
4:1
140
4.0
141
1.0
290
     0
  0
SCALE
  5
56
102
{ACAD_REACTORS
330
47
102
}
330
47
100
AcDbScale
 70
     0
300
8:1
140
8.0
141
1.0
290
     0
  0
SCALE
  5
57
102
{ACAD_REACTORS
330
47
102
}
330
47
100
AcDbScale
 70
     0
300
10:1
140
10.0
141
1.0
290
     0
  0
SCALE
  5
58
102
{ACAD_REACTORS
330
47
102
}
330
47
100
AcDbScale
 70
     0
300
100:1
140
100.0
141
1.0
290
     0
  0
SCALE
  5
59
102
{ACAD_REACTORS
330
47
102
}
330
47
100
AcDbScale
 70
     0
300
1/128" = 1'-0"
140
0.0078125
141
12.0
290
     0
  0
SCALE
  5
5A
102
{ACAD_REACTORS
330
47
102
}
330
47
100
AcDbScale
 70
     0
300
1/64" = 1'-0"
140
0.015625
141
12.0
290
     0
  0
SCALE
  5
5B
102
{ACAD_REACTORS
330
47
102
}
330
47
100
AcDbScale
 70
     0
300
1/32" = 1'-0"
140
0.03125
141
12.0
290
     0
  0
SCALE
  5
5C
102
{ACAD_REACTORS
330
47
102
}
330
47
100
AcDbScale
 70
     0
300
1/16" = 1'-0"
140
0.0625
141
12.0
290
     0
  0
SCALE
  5
5D
102
{ACAD_REACTORS
330
47
102
}
330
47
100
AcDbScale
 70
     0
300
3/32" = 1'-0"
140
0.09375
141
12.0
290
     0
  0
SCALE
  5
5E
102
{ACAD_REACTORS
330
47
102
}
330
47
100
AcDbScale
 70
     0
300
1/8" = 1'-0"
140
0.125
141
12.0
290
     0
  0
SCALE
  5
5F
102
{ACAD_REACTORS
330
47
102
}
330
47
100
AcDbScale
 70
     0
300
3/16" = 1'-0"
140
0.1875
141
12.0
290
     0
  0
SCALE
  5
60
102
{ACAD_REACTORS
330
47
102
}
330
47
100
AcDbScale
 70
     0
300
1/4" = 1'-0"
140
0.25
141
12.0
290
     0
  0
SCALE
  5
61
102
{ACAD_REACTORS
330
47
102
}
330
47
100
AcDbScale
 70
     0
300
3/8" = 1'-0"
140
0.375
141
12.0
290
     0
  0
SCALE
  5
62
102
{ACAD_REACTORS
330
47
102
}
330
47
100
AcDbScale
 70
     0
300
1/2" = 1'-0"
140
0.5
141
12.0
290
     0
  0
SCALE
  5
63
102
{ACAD_REACTORS
330
47
102
}
330
47
100
AcDbScale
 70
     0
300
3/4" = 1'-0"
140
0.75
141
12.0
290
     0
  0
SCALE
  5
64
102
{ACAD_REACTORS
330
47
102
}
330
47
100
AcDbScale
 70
     0
300
1" = 1'-0"
140
1.0
141
12.0
290
     0
  0
SCALE
  5
65
102
{ACAD_REACTORS
330
47
102
}
330
47
100
AcDbScale
 70
     0
300
1-1/2" = 1'-0"
140
1.5
141
12.0
290
     0
  0
SCALE
  5
66
102
{ACAD_REACTORS
330
47
102
}
330
47
100
AcDbScale
 70
     0
300
3" = 1'-0"
140
3.0
141
12.0
290
     0
  0
SCALE
  5
67
102
{ACAD_REACTORS
330
47
102
}
330
47
100
AcDbScale
 70
     0
300
6" = 1'-0"
140
6.0
141
12.0
290
     0
  0
SCALE
  5
68
102
{ACAD_REACTORS
330
47
102
}
330
47
100
AcDbScale
 70
     0
300
1'-0" = 1'-0"
140
12.0
141
12.0
290
     0
  0
TABLESTYLE
  5
6A
102
{ACAD_REACTORS
330
69
102
}
102
{ACAD_XDICTIONARY
360
18F
102
}
330
69
100
AcDbTableStyle
  3
Standard
 70
     0
 71
     0
 40
0.06
 41
0.06
280
     0
281
     0
  7
Standard
140
0.18
170
     2
 62
     0
 63
   257
283
     0
 90
        4
 91
        0
  1

274
    -2
284
     1
 64
     0
275
    -2
285
     1
 65
     0
276
    -2
286
     1
 66
     0
277
    -2
287
     1
 67
     0
278
    -2
288
     1
 68
     0
279
    -2
289
     1
 69
     0
  7
Standard
140
0.25
170
     5
 62
     0
 63
   257
283
     0
 90
        4
 91
        0
  1

274
    -2
284
     1
 64
     0
275
    -2
285
     1
 65
     0
276
    -2
286
     1
 66
     0
277
    -2
287
     1
 67
     0
278
    -2
288
     1
 68
     0
279
    -2
289
     1
 69
     0
  7
Standard
140
0.18
170
     5
 62
     0
 63
   257
283
     0
 90
        4
 91
        0
  1

274
    -2
284
     1
 64
     0
275
    -2
285
     1
 65
     0
276
    -2
286
     1
 66
     0
277
    -2
287
     1
 67
     0
278
    -2
288
     1
 68
     0
279
    -2
289
     1
 69
     0
  0
VISUALSTYLE
  5
2F
102
{ACAD_REACTORS
330
2A
102
}
330
2A
100
AcDbVisualStyle
  2
2dWireframe
 70
     4
177
     3
291
     0
 70
    58
 90
        0
176
     1
 90
        2
176
     1
 90
        0
176
     1
 90
        0
176
     1
 40
0.6
176
     1
 40
30.0
176
     1
 62
     7
420
 16777215
176
     1
 90
        1
176
     1
 90
        4
176
     1
 62
     7
176
     1
 62
   257
176
     1
 90
        1
176
     1
 90
        1
176
     1
 40
1.0
176
     1
 90
        0
176
     1
 62
   257
176
     1
 40
1.0
176
     1
 90
        1
176
     1
 90
        6
176
     1
 90
        2
176
     1
 62
     7
176
     1
 90
        5
176
     1
 90
        0
176
     1
 90
        0
176
     1
290
     0
176
     1
 90
        1
176
     1
 40
0.0
176
     1
 90
        0
176
     1
290
     1
176
     1
290
     1
176
     1
290
     0
176
     1
290
     0
176
     1
290
     0
176
     1
290
     0
176
     1
290
     0
176
     1
290
     0
176
     1
290
     0
176
     1
 90
       50
176
     1
 40
0.0
176
     1
 40
1.0
176
     1
 90
        0
176
     1
 62
    18
420
        0
176
     1
 90
       50
176
     1
 90
        3
176
     1
 62
     5
420
      255
176
     1
290
     0
176
     1
 90
       50
176
     1
 90
       50
176
     1
 90
       50
176
     1
290
     0
176
     1
 90
       50
176
     1
 62
   256
176
     0
 40
1.0
176
     0
 90
        2
176
     1
  1
strokes_ogs.tif
176
     1
290
     0
176
     1
 40
1.0
176
     1
 40
1.0
176
     1
  0
VISUALSTYLE
  5
32
102
{ACAD_REACTORS
330
2A
102
}
330
2A
100
AcDbVisualStyle
  2
Basic
 70
     7
177
     3
291
     1
 70
    58
 90
        1
176
     1
 90
        0
176
     1
 90
        1
176
     1
 90
        0
176
     1
 40
0.6
176
     1
 40
30.0
176
     1
 62
     7
420
 16777215
176
     1
 90
        0
176
     1
 90
        4
176
     1
 62
     7
176
     1
 62
   257
176
     1
 90
        1
176
     1
 90
        1
176
     1
 40
1.0
176
     1
 90
        8
176
     1
 62
     7
176
     1
 40
1.0
176
     1
 90
        1
176
     1
 90
        6
176
     1
 90
        2
176
     1
 62
     7
176
     1
 90
        5
176
     1
 90
        0
176
     1
 90
        0
176
     1
290
     0
176
     1
 90
        1
176
     1
 40
0.0
176
     1
 90
        0
176
     1
290
     0
176
     1
290
     1
176
     1
290
     1
176
     1
290
     0
176
     1
290
     0
176
     1
290
     0
176
     1
290
     0
176
     1
290
     0
176
     1
290
     0
176
     1
 90
       50
176
     1
 40
0.0
176
     1
 40
1.0
176
     1
 90
        0
176
     1
 62
    18
420
        0
176
     1
 90
       50
176
     1
 90
        3
176
     1
 62
     5
420
      255
176
     1
290
     0
176
     1
 90
       50
176
     1
 90
       50
176
     1
 90
       50
176
     1
290
     0
176
     1
 90
       50
176
     1
 62
   256
176
     0
 40
1.0
176
     0
 90
        2
176
     1
  1
strokes_ogs.tif
176
     1
290
     0
176
     1
 40
1.0
176
     1
 40
1.0
176
     1
  0
VISUALSTYLE
  5
36
102
{ACAD_REACTORS
330
2A
102
}
330
2A
100
AcDbVisualStyle
  2
Brighten
 70
    12
177
     3
291
     1
 70
    58
 90
        2
176
     1
 90
        2
176
     1
 90
        0
176
     1
 90
        0
176
     1
 40
0.6
176
     1
 40
30.0
176
     1
 62
     7
420
 16777215
176
     1
 90
        1
176
     1
 90
        4
176
     1
 62
     7
176
     1
 62
   257
176
     1
 90
        1
176
     1
 90
        1
176
     1
 40
1.0
176
     1
 90
        8
176
     1
 62
     7
176
     1
 40
1.0
176
     1
 90
        1
176
     1
 90
        6
176
     1
 90
        2
176
     1
 62
     7
176
     1
 90
        5
176
     1
 90
        0
176
     1
 90
        0
176
     1
290
     0
176
     1
 90
        1
176
     1
 40
50.0
176
     1
 90
        0
176
     1
290
     0
176
     1
290
     1
176
     1
290
     1
176
     1
290
     0
176
     1
290
     0
176
     1
290
     0
176
     1
290
     0
176
     1
290
     0
176
     1
290
     0
176
     1
 90
       50
176
     1
 40
0.0
176
     1
 40
1.0
176
     1
 90
        0
176
     1
 62
    18
420
        0
176
     1
 90
       50
176
     1
 90
        3
176
     1
 62
     5
420
      255
176
     1
290
     0
176
     1
 90
       50
176
     1
 90
       50
176
     1
 90
       50
176
     1
290
     0
176
     1
 90
       50
176
     1
 62
   256
176
     0
 40
1.0
176
     0
 90
        2
176
     1
  1
strokes_ogs.tif
176
     1
290
     0
176
     1
 40
1.0
176
     1
 40
1.0
176
     1
  0
VISUALSTYLE
  5
3A
102
{ACAD_REACTORS
330
2A
102
}
330
2A
100
AcDbVisualStyle
  2
ColorChange
 70
    16
177
     3
291
     1
 70
    58
 90
        2
176
     1
 90
        2
176
     1
 90
        3
176
     1
 90
        0
176
     1
 40
0.6
176
     1
 40
30.0
176
     1
 62
     8
420
  8421504
176
     1
 90
        1
176
     1
 90
        4
176
     1
 62
     7
176
     1
 62
   257
176
     1
 90
        1
176
     1
 90
        1
176
     1
 40
1.0
176
     1
 90
        8
176
     1
 62
     8
420
  8421504
176
     1
 40
1.0
176
     1
 90
        1
176
     1
 90
        6
176
     1
 90
        2
176
     1
 62
     7
176
     1
 90
        5
176
     1
 90
        0
176
     1
 90
        0
176
     1
290
     0
176
     1
 90
        1
176
     1
 40
0.0
176
     1
 90
        0
176
     1
290
     0
176
     1
290
     1
176
     1
290
     1
176
     1
290
     0
176
     1
290
     0
176
     1
290
     0
176
     1
290
     0
176
     1
290
     0
176
     1
290
     0
176
     1
 90
       50
176
     1
 40
0.0
176
     1
 40
1.0
176
     1
 90
        0
176
     1
 62
    18
420
        0
176
     1
 90
       50
176
     1
 90
        3
176
     1
 62
     5
420
      255
176
     1
290
     0
176
     1
 90
       50
176
     1
 90
       50
176
     1
 90
       50
176
     1
290
     0
176
     1
 90
       50
176
     1
 62
   256
176
     0
 40
1.0
176
     0
 90
        2
176
     1
  1
strokes_ogs.tif
176
     1
290
     0
176
     1
 40
1.0
176
     1
 40
1.0
176
     1
  0
VISUALSTYLE
  5
34
102
{ACAD_REACTORS
330
2A
102
}
330
2A
100
AcDbVisualStyle
  2
Conceptual
 70
     9
177
     3
291
     0
 70
    58
 90
        3
176
     1
 90
        2
176
     1
 90
        0
176
     1
 90
        0
176
     1
 40
0.6
176
     1
 40
30.0
176
     1
 62
     7
420
 16777215
176
     1
 90
        2
176
     1
 90
        2
176
     1
 62
     7
176
     1
 62
   257
176
     1
 90
        1
176
     1
 90
        1
176
     1
 40
179.0
176
     1
 90
        8
176
     1
 62
     7
176
     1
 40
1.0
176
     1
 90
        1
176
     1
 90
        6
176
     1
 90
        2
176
     1
 62
     7
176
     1
 90
        3
176
     1
 90
        0
176
     1
 90
        0
176
     1
290
     0
176
     1
 90
        1
176
     1
 40
0.0
176
     1
 90
        0
176
     1
290
     0
176
     1
290
     1
176
     1
290
     1
176
     1
290
     0
176
     1
290
     0
176
     1
290
     0
176
     1
290
     0
176
     1
290
     0
176
     1
290
     0
176
     1
 90
       50
176
     1
 40
0.0
176
     1
 40
1.0
176
     1
 90
        0
176
     1
 62
    18
420
        0
176
     1
 90
       50
176
     1
 90
        3
176
     1
 62
     5
420
      255
176
     1
290
     0
176
     1
 90
       50
176
     1
 90
       50
176
     1
 90
       50
176
     1
290
     0
176
     1
 90
       50
176
     1
 62
   256
176
     0
 40
1.0
176
     0
 90
        2
176
     1
  1
strokes_ogs.tif
176
     1
290
     0
176
     1
 40
1.0
176
     1
 40
1.0
176
     1
  0
VISUALSTYLE
  5
35
102
{ACAD_REACTORS
330
2A
102
}
330
2A
100
AcDbVisualStyle
  2
Dim
 70
    11
177
     3
291
     1
 70
    58
 90
        2
176
     1
 90
        2
176
     1
 90
        0
176
     1
 90
        0
176
     1
 40
0.6
176
     1
 40
30.0
176
     1
 62
     7
420
 16777215
176
     1
 90
        1
176
     1
 90
        4
176
     1
 62
     7
176
     1
 62
   257
176
     1
 90
        1
176
     1
 90
        1
176
     1
 40
1.0
176
     1
 90
        8
176
     1
 62
     7
176
     1
 40
1.0
176
     1
 90
        1
176
     1
 90
        6
176
     1
 90
        2
176
     1
 62
     7
176
     1
 90
        5
176
     1
 90
        0
176
     1
 90
        0
176
     1
290
     0
176
     1
 90
        1
176
     1
 40
-50.0
176
     1
 90
        0
176
     1
290
     0
176
     1
290
     1
176
     1
290
     1
176
     1
290
     0
176
     1
290
     0
176
     1
290
     0
176
     1
290
     0
176
     1
290
     0
176
     1
290
     0
176
     1
 90
       50
176
     1
 40
0.0
176
     1
 40
1.0
176
     1
 90
        0
176
     1
 62
    18
420
        0
176
     1
 90
       50
176
     1
 90
        3
176
     1
 62
     5
420
      255
176
     1
290
     0
176
     1
 90
       50
176
     1
 90
       50
176
     1
 90
       50
176
     1
290
     0
176
     1
 90
       50
176
     1
 62
   256
176
     0
 40
1.0
176
     0
 90
        2
176
     1
  1
strokes_ogs.tif
176
     1
290
     0
176
     1
 40
1.0
176
     1
 40
1.0
176
     1
  0
VISUALSTYLE
  5
3D
102
{ACAD_REACTORS
330
2A
102
}
330
2A
100
AcDbVisualStyle
  2
EdgeColorOff
 70
    22
177
     3
291
     1
 70
    58
 90
        2
176
     0
 90
        2
176
     0
 90
        0
176
     0
 90
        0
176
     0
 40
0.6
176
     0
 40
30.0
176
     0
 62
     7
420
 16777215
176
     0
 90
        1
176
     0
 90
        4
176
     0
 62
     7
176
     0
 62
   257
176
     0
 90
        1
176
     0
 90
        1
176
     0
 40
1.0
176
     0
 90
        8
176
     2
 62
     7
176
     0
 40
1.0
176
     0
 90
        1
176
     0
 90
        6
176
     0
 90
        2
176
     0
 62
     7
176
     0
 90
        5
176
     0
 90
        0
176
     0
 90
        0
176
     0
290
     0
176
     0
 90
        1
176
     0
 40
0.0
176
     0
 90
        0
176
     0
290
     0
176
     0
290
     1
176
     0
290
     1
176
     0
290
     0
176
     0
290
     0
176
     0
290
     0
176
     0
290
     0
176
     0
290
     0
176
     0
290
     0
176
     0
 90
       50
176
     0
 40
0.0
176
     0
 40
1.0
176
     0
 90
        0
176
     0
 62
    18
420
        0
176
     0
 90
       50
176
     0
 90
        3
176
     0
 62
     5
420
      255
176
     0
290
     0
176
     0
 90
       50
176
     0
 90
       50
176
     0
 90
       50
176
     0
290
     0
176
     0
 90
       50
176
     0
 62
   256
176
     0
 40
1.0
176
     0
 90
        2
176
     0
  1
strokes_ogs.tif
176
     0
290
     0
176
     0
 40
1.0
176
     0
 40
1.0
176
     0
  0
VISUALSTYLE
  5
39
102
{ACAD_REACTORS
330
2A
102
}
330
2A
100
AcDbVisualStyle
  2
Facepattern
 70
    15
177
     3
291
     1
 70
    58
 90
        2
176
     1
 90
        2
176
     1
 90
        0
176
     1
 90
        0
176
     1
 40
0.6
176
     1
 40
30.0
176
     1
 62
     7
420
 16777215
176
     1
 90
        1
176
     1
 90
        4
176
     1
 62
     7
176
     1
 62
   257
176
     1
 90
        1
176
     1
 90
        1
176
     1
 40
1.0
176
     1
 90
        8
176
     1
 62
     7
176
     1
 40
1.0
176
     1
 90
        1
176
     1
 90
        6
176
     1
 90
        2
176
     1
 62
     7
176
     1
 90
        5
176
     1
 90
        0
176
     1
 90
        0
176
     1
290
     0
176
     1
 90
        1
176
     1
 40
0.0
176
     1
 90
        0
176
     1
290
     0
176
     1
290
     1
176
     1
290
     1
176
     1
290
     0
176
     1
290
     0
176
     1
290
     0
176
     1
290
     0
176
     1
290
     0
176
     1
290
     0
176
     1
 90
       50
176
     1
 40
0.0
176
     1
 40
1.0
176
     1
 90
        0
176
     1
 62
    18
420
        0
176
     1
 90
       50
176
     1
 90
        3
176
     1
 62
     5
420
      255
176
     1
290
     0
176
     1
 90
       50
176
     1
 90
       50
176
     1
 90
       50
176
     1
290
     0
176
     1
 90
       50
176
     1
 62
   256
176
     0
 40
1.0
176
     0
 90
        2
176
     1
  1
strokes_ogs.tif
176
     1
290
     0
176
     1
 40
1.0
176
     1
 40
1.0
176
     1
  0
VISUALSTYLE
  5
2B
102
{ACAD_REACTORS
330
2A
102
}
330
2A
100
AcDbVisualStyle
  2
Flat
 70
     0
177
     3
291
     1
 70
    58
 90
        2
176
     1
 90
        1
176
     1
 90
        1
176
     1
 90
        2
176
     1
 40
0.6
176
     1
 40
30.0
176
     1
 62
     7
420
 16777215
176
     1
 90
        0
176
     1
 90
        0
176
     1
 62
     7
176
     1
 62
   257
176
     1
 90
        1
176
     1
 90
        1
176
     1
 40
1.0
176
     1
 90
        8
176
     1
 62
     7
176
     1
 40
1.0
176
     1
 90
        1
176
     1
 90
        6
176
     1
 90
        2
176
     1
 62
     7
176
     1
 90
        5
176
     1
 90
        0
176
     1
 90
        0
176
     1
290
     0
176
     1
 90
       13
176
     1
 40
0.0
176
     1
 90
        0
176
     1
290
     0
176
     1
290
     1
176
     1
290
     1
176
     1
290
     0
176
     1
290
     0
176
     1
290
     0
176
     1
290
     0
176
     1
290
     0
176
     1
290
     0
176
     1
 90
       50
176
     1
 40
0.0
176
     1
 40
1.0
176
     1
 90
        0
176
     1
 62
    18
420
        0
176
     1
 90
       50
176
     1
 90
        3
176
     1
 62
     5
420
      255
176
     1
290
     0
176
     1
 90
       50
176
     1
 90
       50
176
     1
 90
       50
176
     1
290
     0
176
     1
 90
       50
176
     1
 62
   256
176
     0
 40
1.0
176
     0
 90
        2
176
     1
  1
strokes_ogs.tif
176
     1
290
     0
176
     1
 40
1.0
176
     1
 40
1.0
176
     1
  0
VISUALSTYLE
  5
2C
102
{ACAD_REACTORS
330
2A
102
}
330
2A
100
AcDbVisualStyle
  2
FlatWithEdges
 70
     1
177
     3
291
     1
 70
    58
 90
        2
176
     1
 90
        1
176
     1
 90
        1
176
     1
 90
        2
176
     1
 40
0.6
176
     1
 40
30.0
176
     1
 62
     7
420
 16777215
176
     1
 90
        1
176
     1
 90
        0
176
     1
 62
     7
176
     1
 62
   257
176
     1
 90
        1
176
     1
 90
        1
176
     1
 40
1.0
176
     1
 90
        0
176
     1
 62
   257
176
     1
 40
1.0
176
     1
 90
        1
176
     1
 90
        6
176
     1
 90
        2
176
     1
 62
     7
176
     1
 90
        5
176
     1
 90
        0
176
     1
 90
        0
176
     1
290
     0
176
     1
 90
       13
176
     1
 40
0.0
176
     1
 90
        0
176
     1
290
     0
176
     1
290
     1
176
     1
290
     1
176
     1
290
     0
176
     1
290
     0
176
     1
290
     0
176
     1
290
     0
176
     1
290
     0
176
     1
290
     0
176
     1
 90
       50
176
     1
 40
0.0
176
     1
 40
1.0
176
     1
 90
        0
176
     1
 62
    18
420
        0
176
     1
 90
       50
176
     1
 90
        3
176
     1
 62
     5
420
      255
176
     1
290
     0
176
     1
 90
       50
176
     1
 90
       50
176
     1
 90
       50
176
     1
290
     0
176
     1
 90
       50
176
     1
 62
   256
176
     0
 40
1.0
176
     0
 90
        2
176
     1
  1
strokes_ogs.tif
176
     1
290
     0
176
     1
 40
1.0
176
     1
 40
1.0
176
     1
  0
VISUALSTYLE
  5
2D
102
{ACAD_REACTORS
330
2A
102
}
330
2A
100
AcDbVisualStyle
  2
Gouraud
 70
     2
177
     3
291
     1
 70
    58
 90
        2
176
     1
 90
        2
176
     1
 90
        1
176
     1
 90
        2
176
     1
 40
0.6
176
     1
 40
30.0
176
     1
 62
     7
420
 16777215
176
     1
 90
        0
176
     1
 90
        0
176
     1
 62
     7
176
     1
 62
   257
176
     1
 90
        1
176
     1
 90
        1
176
     1
 40
1.0
176
     1
 90
        0
176
     1
 62
     7
176
     1
 40
1.0
176
     1
 90
        1
176
     1
 90
        6
176
     1
 90
        2
176
     1
 62
     7
176
     1
 90
        5
176
     1
 90
        0
176
     1
 90
        0
176
     1
290
     0
176
     1
 90
       13
176
     1
 40
0.0
176
     1
 90
        0
176
     1
290
     0
176
     1
290
     1
176
     1
290
     1
176
     1
290
     0
176
     1
290
     0
176
     1
290
     0
176
     1
290
     0
176
     1
290
     0
176
     1
290
     0
176
     1
 90
       50
176
     1
 40
0.0
176
     1
 40
1.0
176
     1
 90
        0
176
     1
 62
    18
420
        0
176
     1
 90
       50
176
     1
 90
        3
176
     1
 62
     5
420
      255
176
     1
290
     0
176
     1
 90
       50
176
     1
 90
       50
176
     1
 90
       50
176
     1
290
     0
176
     1
 90
       50
176
     1
 62
   256
176
     0
 40
1.0
176
     0
 90
        2
176
     1
  1
strokes_ogs.tif
176
     1
290
     0
176
     1
 40
1.0
176
     1
 40
1.0
176
     1
  0
VISUALSTYLE
  5
2E
102
{ACAD_REACTORS
330
2A
102
}
330
2A
100
AcDbVisualStyle
  2
GouraudWithEdges
 70
     3
177
     3
291
     1
 70
    58
 90
        2
176
     1
 90
        2
176
     1
 90
        1
176
     1
 90
        2
176
     1
 40
0.6
176
     1
 40
30.0
176
     1
 62
     7
420
 16777215
176
     1
 90
        1
176
     1
 90
        0
176
     1
 62
     7
176
     1
 62
   257
176
     1
 90
        1
176
     1
 90
        1
176
     1
 40
1.0
176
     1
 90
        0
176
     1
 62
   257
176
     1
 40
1.0
176
     1
 90
        1
176
     1
 90
        6
176
     1
 90
        2
176
     1
 62
     7
176
     1
 90
        5
176
     1
 90
        0
176
     1
 90
        0
176
     1
290
     0
176
     1
 90
       13
176
     1
 40
0.0
176
     1
 90
        0
176
     1
290
     0
176
     1
290
     1
176
     1
290
     1
176
     1
290
     0
176
     1
290
     0
176
     1
290
     0
176
     1
290
     0
176
     1
290
     0
176
     1
290
     0
176
     1
 90
       50
176
     1
 40
0.0
176
     1
 40
1.0
176
     1
 90
        0
176
     1
 62
    18
420
        0
176
     1
 90
       50
176
     1
 90
        3
176
     1
 62
     5
420
      255
176
     1
290
     0
176
     1
 90
       50
176
     1
 90
       50
176
     1
 90
       50
176
     1
290
     0
176
     1
 90
       50
176
     1
 62
   256
176
     0
 40
1.0
176
     0
 90
        2
176
     1
  1
strokes_ogs.tif
176
     1
290
     0
176
     1
 40
1.0
176
     1
 40
1.0
176
     1
  0
VISUALSTYLE
  5
31
102
{ACAD_REACTORS
330
2A
102
}
330
2A
100
AcDbVisualStyle
  2
Hidden
 70
     6
177
     3
291
     0
 70
    58
 90
        1
176
     1
 90
        2
176
     1
 90
        2
176
     1
 90
        0
176
     1
 40
0.6
176
     1
 40
30.0
176
     1
 62
     7
420
 16777215
176
     1
 90
        2
176
     1
 90
        2
176
     1
 62
     7
176
     1
 62
   257
176
     1
 90
        2
176
     1
 90
        1
176
     1
 40
40.0
176
     1
 90
        0
176
     1
 62
   257
176
     1
 40
1.0
176
     1
 90
        1
176
     1
 90
        6
176
     1
 90
        2
176
     1
 62
     7
176
     1
 90
        3
176
     1
 90
        0
176
     1
 90
        0
176
     1
290
     0
176
     1
 90
        1
176
     1
 40
0.0
176
     1
 90
        0
176
     1
290
     0
176
     1
290
     1
176
     1
290
     1
176
     1
290
     0
176
     1
290
     0
176
     1
290
     0
176
     1
290
     0
176
     1
290
     0
176
     1
290
     0
176
     1
 90
       50
176
     1
 40
0.0
176
     1
 40
1.0
176
     1
 90
        0
176
     1
 62
    18
420
        0
176
     1
 90
       50
176
     1
 90
        3
176
     1
 62
     5
420
      255
176
     1
290
     0
176
     1
 90
       50
176
     1
 90
       50
176
     1
 90
       50
176
     1
290
     0
176
     1
 90
       50
176
     1
 62
   256
176
     0
 40
1.0
176
     0
 90
        2
176
     1
  1
strokes_ogs.tif
176
     1
290
     0
176
     1
 40
1.0
176
     1
 40
1.0
176
     1
  0
VISUALSTYLE
  5
3B
102
{ACAD_REACTORS
330
2A
102
}
330
2A
100
AcDbVisualStyle
  2
JitterOff
 70
    20
177
     3
291
     1
 70
    58
 90
        2
176
     0
 90
        2
176
     0
 90
        0
176
     0
 90
        0
176
     0
 40
0.6
176
     0
 40
30.0
176
     0
 62
     7
420
 16777215
176
     0
 90
        1
176
     0
 90
        4
176
     0
 62
     7
176
     0
 62
   257
176
     0
 90
        1
176
     0
 90
        1
176
     0
 40
1.0
176
     0
 90
       10
176
     2
 62
     7
176
     0
 40
1.0
176
     0
 90
        1
176
     0
 90
        6
176
     0
 90
        2
176
     0
 62
     7
176
     0
 90
        5
176
     0
 90
        0
176
     0
 90
        0
176
     0
290
     0
176
     0
 90
        1
176
     0
 40
0.0
176
     0
 90
        0
176
     0
290
     0
176
     0
290
     1
176
     0
290
     1
176
     0
290
     0
176
     0
290
     0
176
     0
290
     0
176
     0
290
     0
176
     0
290
     0
176
     0
290
     0
176
     0
 90
       50
176
     0
 40
0.0
176
     0
 40
1.0
176
     0
 90
        0
176
     0
 62
    18
420
        0
176
     0
 90
       50
176
     0
 90
        3
176
     0
 62
     5
420
      255
176
     0
290
     0
176
     0
 90
       50
176
     0
 90
       50
176
     0
 90
       50
176
     0
290
     0
176
     0
 90
       50
176
     0
 62
   256
176
     0
 40
1.0
176
     0
 90
        2
176
     0
  1
strokes_ogs.tif
176
     0
290
     0
176
     0
 40
1.0
176
     0
 40
1.0
176
     0
  0
VISUALSTYLE
  5
38
102
{ACAD_REACTORS
330
2A
102
}
330
2A
100
AcDbVisualStyle
  2
Linepattern
 70
    14
177
     3
291
     1
 70
    58
 90
        2
176
     1
 90
        2
176
     1
 90
        0
176
     1
 90
        0
176
     1
 40
0.6
176
     1
 40
30.0
176
     1
 62
     7
420
 16777215
176
     1
 90
        1
176
     1
 90
        4
176
     1
 62
     7
176
     1
 62
   257
176
     1
 90
        7
176
     1
 90
        7
176
     1
 40
1.0
176
     1
 90
        8
176
     1
 62
     7
176
     1
 40
1.0
176
     1
 90
        1
176
     1
 90
        6
176
     1
 90
        2
176
     1
 62
     7
176
     1
 90
        5
176
     1
 90
        0
176
     1
 90
        0
176
     1
290
     0
176
     1
 90
        1
176
     1
 40
0.0
176
     1
 90
        0
176
     1
290
     0
176
     1
290
     1
176
     1
290
     1
176
     1
290
     0
176
     1
290
     0
176
     1
290
     0
176
     1
290
     0
176
     1
290
     0
176
     1
290
     0
176
     1
 90
       50
176
     1
 40
0.0
176
     1
 40
1.0
176
     1
 90
        0
176
     1
 62
    18
420
        0
176
     1
 90
       50
176
     1
 90
        3
176
     1
 62
     5
420
      255
176
     1
290
     0
176
     1
 90
       50
176
     1
 90
       50
176
     1
 90
       50
176
     1
290
     0
176
     1
 90
       50
176
     1
 62
   256
176
     0
 40
1.0
176
     0
 90
        2
176
     1
  1
strokes_ogs.tif
176
     1
290
     0
176
     1
 40
1.0
176
     1
 40
1.0
176
     1
  0
VISUALSTYLE
  5
3C
102
{ACAD_REACTORS
330
2A
102
}
330
2A
100
AcDbVisualStyle
  2
OverhangOff
 70
    21
177
     3
291
     1
 70
    58
 90
        2
176
     0
 90
        2
176
     0
 90
        0
176
     0
 90
        0
176
     0
 40
0.6
176
     0
 40
30.0
176
     0
 62
     7
420
 16777215
176
     0
 90
        1
176
     0
 90
        4
176
     0
 62
     7
176
     0
 62
   257
176
     0
 90
        1
176
     0
 90
        1
176
     0
 40
1.0
176
     0
 90
        9
176
     2
 62
     7
176
     0
 40
1.0
176
     0
 90
        1
176
     0
 90
        6
176
     0
 90
        2
176
     0
 62
     7
176
     0
 90
        5
176
     0
 90
        0
176
     0
 90
        0
176
     0
290
     0
176
     0
 90
        1
176
     0
 40
0.0
176
     0
 90
        0
176
     0
290
     0
176
     0
290
     1
176
     0
290
     1
176
     0
290
     0
176
     0
290
     0
176
     0
290
     0
176
     0
290
     0
176
     0
290
     0
176
     0
290
     0
176
     0
 90
       50
176
     0
 40
0.0
176
     0
 40
1.0
176
     0
 90
        0
176
     0
 62
    18
420
        0
176
     0
 90
       50
176
     0
 90
        3
176
     0
 62
     5
420
      255
176
     0
290
     0
176
     0
 90
       50
176
     0
 90
       50
176
     0
 90
       50
176
     0
290
     0
176
     0
 90
       50
176
     0
 62
   256
176
     0
 40
1.0
176
     0
 90
        2
176
     0
  1
strokes_ogs.tif
176
     0
290
     0
176
     0
 40
1.0
176
     0
 40
1.0
176
     0
  0
VISUALSTYLE
  5
33
102
{ACAD_REACTORS
330
2A
102
}
330
2A
100
AcDbVisualStyle
  2
Realistic
 70
     8
177
     3
291
     0
 70
    58
 90
        2
176
     1
 90
        3
176
     1
 90
        0
176
     1
 90
        2
176
     1
 40
0.6
176
     1
 40
30.0
176
     1
 62
     7
420
 16777215
176
     1
 90
        0
176
     1
 90
        0
176
     1
 62
     7
176
     1
 62
   257
176
     1
 90
        1
176
     1
 90
        1
176
     1
 40
1.0
176
     1
 90
        8
176
     1
 62
   257
176
     1
 40
1.0
176
     1
 90
        1
176
     1
 90
        6
176
     1
 90
        2
176
     1
 62
     7
176
     1
 90
        3
176
     1
 90
        0
176
     1
 90
        0
176
     1
290
     0
176
     1
 90
       13
176
     1
 40
0.0
176
     1
 90
        0
176
     1
290
     0
176
     1
290
     1
176
     1
290
     1
176
     1
290
     0
176
     1
290
     0
176
     1
290
     0
176
     1
290
     0
176
     1
290
     0
176
     1
290
     0
176
     1
 90
       50
176
     1
 40
0.0
176
     1
 40
1.0
176
     1
 90
        0
176
     1
 62
    18
420
        0
176
     1
 90
       50
176
     1
 90
        3
176
     1
 62
     5
420
      255
176
     1
290
     0
176
     1
 90
       50
176
     1
 90
       50
176
     1
 90
       50
176
     1
290
     0
176
     1
 90
       50
176
     1
 62
   256
176
     0
 40
1.0
176
     0
 90
        2
176
     1
  1
strokes_ogs.tif
176
     1
290
     0
176
     1
 40
1.0
176
     1
 40
1.0
176
     1
  0
VISUALSTYLE
  5
42
102
{ACAD_REACTORS
330
2A
102
}
330
2A
100
AcDbVisualStyle
  2
Shaded
 70
    27
177
     3
291
     0
 70
    58
 90
        2
176
     1
 90
        2
176
     1
 90
        1
176
     1
 90
        2
176
     1
 40
0.6
176
     1
 40
30.0
176
     1
 62
     7
420
 16777215
176
     1
 90
        0
176
     1
 90
        4
176
     1
 62
     7
176
     1
 62
   257
176
     1
 90
        1
176
     1
 90
        1
176
     1
 40
1.0
176
     1
 90
        8
176
     1
 62
   257
176
     1
 40
1.0
176
     1
 90
        1
176
     1
 90
        6
176
     1
 90
        2
176
     1
 62
     8
420
  7895160
176
     1
 90
        3
176
     1
 90
        0
176
     1
 90
        0
176
     1
290
     0
176
     1
 90
        5
176
     1
 40
0.0
176
     1
 90
        0
176
     1
290
     0
176
     1
290
     1
176
     1
290
     1
176
     1
290
     0
176
     1
290
     0
176
     1
290
     0
176
     1
290
     0
176
     1
290
     0
176
     1
290
     0
176
     1
 90
       50
176
     1
 40
0.0
176
     1
 40
1.0
176
     1
 90
        0
176
     1
 62
    18
420
        0
176
     1
 90
       50
176
     1
 90
        3
176
     1
 62
     5
420
      255
176
     1
290
     0
176
     1
 90
       50
176
     1
 90
       50
176
     1
 90
       50
176
     1
290
     0
176
     1
 90
       50
176
     1
 62
   256
176
     0
 40
1.0
176
     0
 90
        2
176
     1
  1
strokes_ogs.tif
176
     1
290
     0
176
     1
 40
1.0
176
     1
 40
1.0
176
     1
  0
VISUALSTYLE
  5
41
102
{ACAD_REACTORS
330
2A
102
}
330
2A
100
AcDbVisualStyle
  2
Shaded with edges
 70
    26
177
     3
291
     0
 70
    58
 90
        2
176
     1
 90
        2
176
     1
 90
        1
176
     1
 90
        2
176
     1
 40
0.6
176
     1
 40
30.0
176
     1
 62
     7
420
 16777215
176
     1
 90
        1
176
     1
 90
       10
176
     1
 62
     7
176
     1
 62
   257
176
     1
 90
        2
176
     1
 90
        1
176
     1
 40
1.0
176
     1
 90
        8
176
     1
 62
   257
176
     1
 40
1.0
176
     1
 90
        1
176
     1
 90
        6
176
     1
 90
        2
176
     1
 62
     7
176
     1
 90
        3
176
     1
 90
        0
176
     1
 90
        0
176
     1
290
     0
176
     1
 90
        5
176
     1
 40
0.0
176
     1
 90
        0
176
     1
290
     0
176
     1
290
     1
176
     1
290
     1
176
     1
290
     0
176
     1
290
     0
176
     1
290
     0
176
     1
290
     0
176
     1
290
     0
176
     1
290
     0
176
     1
 90
       50
176
     1
 40
0.0
176
     1
 40
1.0
176
     1
 90
        0
176
     1
 62
    18
420
        0
176
     1
 90
       50
176
     1
 90
        3
176
     1
 62
     5
420
      255
176
     1
290
     0
176
     1
 90
       50
176
     1
 90
       50
176
     1
 90
       50
176
     1
290
     0
176
     1
 90
       50
176
     1
 62
   256
176
     0
 40
1.0
176
     0
 90
        2
176
     1
  1
strokes_ogs.tif
176
     1
290
     0
176
     1
 40
1.0
176
     1
 40
1.0
176
     1
  0
VISUALSTYLE
  5
3E
102
{ACAD_REACTORS
330
2A
102
}
330
2A
100
AcDbVisualStyle
  2
Shades of Gray
 70
    23
177
     3
291
     0
 70
    58
 90
        2
176
     1
 90
        2
176
     1
 90
        3
176
     1
 90
        0
176
     1
 40
0.6
176
     1
 40
30.0
176
     1
 62
     7
420
 16777215
176
     1
 90
        2
176
     1
 90
        2
176
     1
 62
     7
176
     1
 62
     7
176
     1
 90
        1
176
     1
 90
        1
176
     1
 40
40.0
176
     1
 90
        8
176
     1
 62
     7
176
     1
 40
1.0
176
     1
 90
        1
176
     1
 90
        6
176
     1
 90
        2
176
     1
 62
     7
176
     1
 90
        3
176
     1
 90
        0
176
     1
 90
        0
176
     1
290
     0
176
     1
 90
        1
176
     1
 40
0.0
176
     1
 90
        0
176
     1
290
     0
176
     1
290
     1
176
     1
290
     1
176
     1
290
     0
176
     1
290
     0
176
     1
290
     0
176
     1
290
     0
176
     1
290
     0
176
     1
290
     0
176
     1
 90
       50
176
     1
 40
0.0
176
     1
 40
1.0
176
     1
 90
        0
176
     1
 62
    18
420
        0
176
     1
 90
       50
176
     1
 90
        3
176
     1
 62
     5
420
      255
176
     1
290
     0
176
     1
 90
       50
176
     1
 90
       50
176
     1
 90
       50
176
     1
290
     0
176
     1
 90
       50
176
     1
 62
   256
176
     0
 40
1.0
176
     0
 90
        2
176
     1
  1
strokes_ogs.tif
176
     1
290
     0
176
     1
 40
1.0
176
     1
 40
1.0
176
     1
  0
VISUALSTYLE
  5
3F
102
{ACAD_REACTORS
330
2A
102
}
330
2A
100
AcDbVisualStyle
  2
Sketchy
 70
    24
177
     3
291
     0
 70
    58
 90
        1
176
     1
 90
        2
176
     1
 90
        2
176
     1
 90
        0
176
     1
 40
0.6
176
     1
 40
30.0
176
     1
 62
     7
420
 16777215
176
     1
 90
        2
176
     1
 90
        2
176
     1
 62
     7
176
     1
 62
     7
176
     1
 90
        1
176
     1
 90
        1
176
     1
 40
40.0
176
     1
 90
       11
176
     1
 62
     7
176
     1
 40
1.0
176
     1
 90
        1
176
     1
 90
        6
176
     1
 90
        2
176
     1
 62
     7
176
     1
 90
        6
176
     1
 90
        0
176
     1
 90
        0
176
     1
290
     0
176
     1
 90
        1
176
     1
 40
0.0
176
     1
 90
        0
176
     1
290
     0
176
     1
290
     1
176
     1
290
     1
176
     1
290
     0
176
     1
290
     0
176
     1
290
     0
176
     1
290
     0
176
     1
290
     0
176
     1
290
     0
176
     1
 90
       50
176
     1
 40
0.0
176
     1
 40
1.0
176
     1
 90
        0
176
     1
 62
    18
420
        0
176
     1
 90
       50
176
     1
 90
        3
176
     1
 62
     5
420
      255
176
     1
290
     0
176
     1
 90
       50
176
     1
 90
       50
176
     1
 90
       50
176
     1
290
     0
176
     1
 90
       50
176
     1
 62
   256
176
     0
 40
1.0
176
     0
 90
        2
176
     1
  1
strokes_ogs.tif
176
     1
290
     0
176
     1
 40
1.0
176
     1
 40
1.0
176
     1
  0
VISUALSTYLE
  5
37
102
{ACAD_REACTORS
330
2A
102
}
330
2A
100
AcDbVisualStyle
  2
Thicken
 70
    13
177
     3
291
     1
 70
    58
 90
        2
176
     1
 90
        2
176
     1
 90
        0
176
     1
 90
        0
176
     1
 40
0.6
176
     1
 40
30.0
176
     1
 62
     7
420
 16777215
176
     1
 90
        1
176
     1
 90
        4
176
     1
 62
     7
176
     1
 62
   257
176
     1
 90
        1
176
     1
 90
        1
176
     1
 40
1.0
176
     1
 90
       12
176
     1
 62
     7
176
     1
 40
1.0
176
     1
 90
        1
176
     1
 90
        6
176
     1
 90
        2
176
     1
 62
     7
176
     1
 90
        5
176
     1
 90
        0
176
     1
 90
        0
176
     1
290
     0
176
     1
 90
        1
176
     1
 40
0.0
176
     1
 90
        0
176
     1
290
     0
176
     1
290
     1
176
     1
290
     1
176
     1
290
     0
176
     1
290
     0
176
     1
290
     0
176
     1
290
     0
176
     1
290
     0
176
     1
290
     0
176
     1
 90
       50
176
     1
 40
0.0
176
     1
 40
1.0
176
     1
 90
        0
176
     1
 62
    18
420
        0
176
     1
 90
       50
176
     1
 90
        3
176
     1
 62
     5
420
      255
176
     1
290
     0
176
     1
 90
       50
176
     1
 90
       50
176
     1
 90
       50
176
     1
290
     0
176
     1
 90
       50
176
     1
 62
   256
176
     0
 40
1.0
176
     0
 90
        2
176
     1
  1
strokes_ogs.tif
176
     1
290
     0
176
     1
 40
1.0
176
     1
 40
1.0
176
     1
  0
VISUALSTYLE
  5
30
102
{ACAD_REACTORS
330
2A
102
}
330
2A
100
AcDbVisualStyle
  2
Wireframe
 70
     5
177
     3
291
     0
 70
    58
 90
        0
176
     1
 90
        2
176
     1
 90
        0
176
     1
 90
        0
176
     1
 40
0.6
176
     1
 40
30.0
176
     1
 62
     7
420
 16777215
176
     1
 90
        1
176
     1
 90
        4
176
     1
 62
     7
176
     1
 62
   257
176
     1
 90
        1
176
     1
 90
        1
176
     1
 40
1.0
176
     1
 90
        0
176
     1
 62
   257
176
     1
 40
1.0
176
     1
 90
        1
176
     1
 90
        6
176
     1
 90
        2
176
     1
 62
     7
176
     1
 90
        3
176
     1
 90
        0
176
     1
 90
        0
176
     1
290
     0
176
     1
 90
        1
176
     1
 40
0.0
176
     1
 90
        0
176
     1
290
     0
176
     1
290
     1
176
     1
290
     1
176
     1
290
     0
176
     1
290
     0
176
     1
290
     0
176
     1
290
     0
176
     1
290
     0
176
     1
290
     0
176
     1
 90
       50
176
     1
 40
0.0
176
     1
 40
1.0
176
     1
 90
        0
176
     1
 62
    18
420
        0
176
     1
 90
       50
176
     1
 90
        3
176
     1
 62
     5
420
      255
176
     1
290
     0
176
     1
 90
       50
176
     1
 90
       50
176
     1
 90
       50
176
     1
290
     0
176
     1
 90
       50
176
     1
 62
   256
176
     0
 40
1.0
176
     0
 90
        2
176
     1
  1
strokes_ogs.tif
176
     1
290
     0
176
     1
 40
1.0
176
     1
 40
1.0
176
     1
  0
VISUALSTYLE
  5
40
102
{ACAD_REACTORS
330
2A
102
}
330
2A
100
AcDbVisualStyle
  2
X-Ray
 70
    25
177
     3
291
     0
 70
    58
 90
        2
176
     1
 90
        2
176
     1
 90
        1
176
     1
 90
        1
176
     1
 40
0.5
176
     1
 40
30.0
176
     1
 62
     7
420
 16777215
176
     1
 90
        1
176
     1
 90
        0
176
     1
 62
     7
176
     1
 62
   257
176
     1
 90
        1
176
     1
 90
        1
176
     1
 40
1.0
176
     1
 90
        8
176
     1
 62
     7
176
     1
 40
1.0
176
     1
 90
        1
176
     1
 90
        6
176
     1
 90
        2
176
     1
 62
     7
176
     1
 90
        3
176
     1
 90
        0
176
     1
 90
        0
176
     1
290
     0
176
     1
 90
       13
176
     1
 40
0.0
176
     1
 90
        0
176
     1
290
     0
176
     1
290
     1
176
     1
290
     1
176
     1
290
     0
176
     1
290
     0
176
     1
290
     0
176
     1
290
     0
176
     1
290
     0
176
     1
290
     0
176
     1
 90
       50
176
     1
 40
0.0
176
     1
 40
1.0
176
     1
 90
        0
176
     1
 62
    18
420
        0
176
     1
 90
       50
176
     1
 90
        3
176
     1
 62
     5
420
      255
176
     1
290
     0
176
     1
 90
       50
176
     1
 90
       50
176
     1
 90
       50
176
     1
290
     0
176
     1
 90
       50
176
     1
 62
   256
176
     0
 40
1.0
176
     0
 90
        2
176
     1
  1
strokes_ogs.tif
176
     1
290
     0
176
     1
 40
1.0
176
     1
 40
1.0
176
     1
  0
DICTIONARYVAR
  5
18E
102
{ACAD_REACTORS
330
18D
102
}
330
18D
100
DictionaryVariables
280
     0
  1
1:1
  0
DICTIONARYVAR
  5
193
102
{ACAD_REACTORS
330
18D
102
}
330
18D
100
DictionaryVariables
280
     0
  1
Standard
  0
DICTIONARYVAR
  5
192
102
{ACAD_REACTORS
330
18D
102
}
330
18D
100
DictionaryVariables
280
     0
  1
Standard
  0
DICTIONARY
  5
18F
330
6A
100
AcDbDictionary
280
     1
281
     1
  3
ACAD_ROUNDTRIP_2008_TABLESTYLE_CELLSTYLEMAP
360
190
  0
CELLSTYLEMAP
  5
190
102
{ACAD_REACTORS
330
18F
102
}
330
18F
100
AcDbCellStyleMap
 90
        3
300
CELLSTYLE
  1
TABLEFORMAT_BEGIN
 90
        5
170
     1
 91
        0
 92
    32768
 62
   257
 93
        1
300
CONTENTFORMAT
  1
CONTENTFORMAT_BEGIN
 90
        0
 91
        0
 92
        4
 93
        0
300

 40
0.0
140
1.0
 94
        5
 62
     0
340
11
144
0.25
309
CONTENTFORMAT_END
171
     1
301
MARGIN
  1
CELLMARGIN_BEGIN
 40
0.06
 40
0.06
 40
0.06
 40
0.06
 40
0.06
 40
0.06
309
CELLMARGIN_END
 94
        6
 95
        1
302
GRIDFORMAT
  1
GRIDFORMAT_BEGIN
 90
        0
 91
        1
 62
     0
 92
       -2
340
14
 93
        0
 40
0.045
309
GRIDFORMAT_END
 95
        2
302
GRIDFORMAT
  1
GRIDFORMAT_BEGIN
 90
        0
 91
        1
 62
     0
 92
       -2
340
14
 93
        0
 40
0.045
309
GRIDFORMAT_END
 95
        4
302
GRIDFORMAT
  1
GRIDFORMAT_BEGIN
 90
        0
 91
        1
 62
     0
 92
       -2
340
14
 93
        0
 40
0.045
309
GRIDFORMAT_END
 95
        8
302
GRIDFORMAT
  1
GRIDFORMAT_BEGIN
 90
        0
 91
        1
 62
     0
 92
       -2
340
14
 93
        0
 40
0.045
309
GRIDFORMAT_END
 95
       16
302
GRIDFORMAT
  1
GRIDFORMAT_BEGIN
 90
        0
 91
        1
 62
     0
 92
       -2
340
14
 93
        0
 40
0.045
309
GRIDFORMAT_END
 95
       32
302
GRIDFORMAT
  1
GRIDFORMAT_BEGIN
 90
        0
 91
        1
 62
     0
 92
       -2
340
14
 93
        0
 40
0.045
309
GRIDFORMAT_END
309
TABLEFORMAT_END
  1
CELLSTYLE_BEGIN
 90
        1
 91
        1
300
_TITLE
309
CELLSTYLE_END
300
CELLSTYLE
  1
TABLEFORMAT_BEGIN
 90
        5
170
     1
 91
        0
 92
        0
 62
   257
 93
        1
300
CONTENTFORMAT
  1
CONTENTFORMAT_BEGIN
 90
        0
 91
        0
 92
        4
 93
        0
300

 40
0.0
140
1.0
 94
        5
 62
     0
340
11
144
0.18
309
CONTENTFORMAT_END
171
     1
301
MARGIN
  1
CELLMARGIN_BEGIN
 40
0.06
 40
0.06
 40
0.06
 40
0.06
 40
0.06
 40
0.06
309
CELLMARGIN_END
 94
        6
 95
        1
302
GRIDFORMAT
  1
GRIDFORMAT_BEGIN
 90
        0
 91
        1
 62
     0
 92
       -2
340
14
 93
        0
 40
0.045
309
GRIDFORMAT_END
 95
        2
302
GRIDFORMAT
  1
GRIDFORMAT_BEGIN
 90
        0
 91
        1
 62
     0
 92
       -2
340
14
 93
        0
 40
0.045
309
GRIDFORMAT_END
 95
        4
302
GRIDFORMAT
  1
GRIDFORMAT_BEGIN
 90
        0
 91
        1
 62
     0
 92
       -2
340
14
 93
        0
 40
0.045
309
GRIDFORMAT_END
 95
        8
302
GRIDFORMAT
  1
GRIDFORMAT_BEGIN
 90
        0
 91
        1
 62
     0
 92
       -2
340
14
 93
        0
 40
0.045
309
GRIDFORMAT_END
 95
       16
302
GRIDFORMAT
  1
GRIDFORMAT_BEGIN
 90
        0
 91
        1
 62
     0
 92
       -2
340
14
 93
        0
 40
0.045
309
GRIDFORMAT_END
 95
       32
302
GRIDFORMAT
  1
GRIDFORMAT_BEGIN
 90
        0
 91
        1
 62
     0
 92
       -2
340
14
 93
        0
 40
0.045
309
GRIDFORMAT_END
309
TABLEFORMAT_END
  1
CELLSTYLE_BEGIN
 90
        2
 91
        1
300
_HEADER
309
CELLSTYLE_END
300
CELLSTYLE
  1
TABLEFORMAT_BEGIN
 90
        5
170
     1
 91
        0
 92
        0
 62
   257
 93
        1
300
CONTENTFORMAT
  1
CONTENTFORMAT_BEGIN
 90
        0
 91
        0
 92
        4
 93
        0
300

 40
0.0
140
1.0
 94
        2
 62
     0
340
11
144
0.18
309
CONTENTFORMAT_END
171
     1
301
MARGIN
  1
CELLMARGIN_BEGIN
 40
0.06
 40
0.06
 40
0.06
 40
0.06
 40
0.06
 40
0.06
309
CELLMARGIN_END
 94
        6
 95
        1
302
GRIDFORMAT
  1
GRIDFORMAT_BEGIN
 90
        0
 91
        1
 62
     0
 92
       -2
340
14
 93
        0
 40
0.045
309
GRIDFORMAT_END
 95
        2
302
GRIDFORMAT
  1
GRIDFORMAT_BEGIN
 90
        0
 91
        1
 62
     0
 92
       -2
340
14
 93
        0
 40
0.045
309
GRIDFORMAT_END
 95
        4
302
GRIDFORMAT
  1
GRIDFORMAT_BEGIN
 90
        0
 91
        1
 62
     0
 92
       -2
340
14
 93
        0
 40
0.045
309
GRIDFORMAT_END
 95
        8
302
GRIDFORMAT
  1
GRIDFORMAT_BEGIN
 90
        0
 91
        1
 62
     0
 92
       -2
340
14
 93
        0
 40
0.045
309
GRIDFORMAT_END
 95
       16
302
GRIDFORMAT
  1
GRIDFORMAT_BEGIN
 90
        0
 91
        1
 62
     0
 92
       -2
340
14
 93
        0
 40
0.045
309
GRIDFORMAT_END
 95
       32
302
GRIDFORMAT
  1
GRIDFORMAT_BEGIN
 90
        0
 91
        1
 62
     0
 92
       -2
340
14
 93
        0
 40
0.045
309
GRIDFORMAT_END
309
TABLEFORMAT_END
  1
CELLSTYLE_BEGIN
 90
        3
 91
        2
300
_DATA
309
CELLSTYLE_END
  0
ENDSEC
  0
EOF