0
SECTION
  2
HEADER
  9
$ACADVER
  1
AC1027
  9
$ACADMAINTVER
 70
     8
  9
$DWGCODEPAGE
  3
ANSI_1252
  9
$REQUIREDVERSIONS
160
                 0
  9
$COMMENTS
  1
File was created by Cadenas
  9
$CUSTOMPROPERTYTAG
  1
NN
  9
$CUSTOMPROPERTY
  1
Set Screw LF  Normal Duty 3-Bolt Flange Inch Bore
  9
$CUSTOMPROPERTYTAG
  1
NT
  9
$CUSTOMPROPERTY
  1
SC 3 Bolt Flange Bearings -(Normal Duty) -Re-Lube and No-Lube
  9
$CUSTOMPROPERTYTAG
  1
NB
  9
$CUSTOMPROPERTY
  1
124623
  9
$CUSTOMPROPERTYTAG
  1
NBSYN
  9
$CUSTOMPROPERTY
  1
$PN.
  9
$CUSTOMPROPERTYTAG
  1
LINA
  9
$CUSTOMPROPERTY
  1
124623
  9
$CUSTOMPROPERTYTAG
  1
SERIES
  9
$CUSTOMPROPERTY
  1
205
  9
$CUSTOMPROPERTYTAG
  1
SS
  9
$CUSTOMPROPERTY
  1
7/8
  9
$CUSTOMPROPERTYTAG
  1
PN
  9
$CUSTOMPROPERTY
  1
124623
  9
$CUSTOMPROPERTYTAG
  1
DESCRIPTION
  9
$CUSTOMPROPERTY
  1
LF-SC-014-NL
  9
$CUSTOMPROPERTYTAG
  1
W
  9
$CUSTOMPROPERTY
  1
1.10
  9
$CUSTOMPROPERTYTAG
  1
LF
  9
$CUSTOMPROPERTY
  1
NO-LUBE
  9
$CUSTOMPROPERTYTAG
  1
A
  9
$CUSTOMPROPERTY
  1
1.06
  9
$CUSTOMPROPERTYTAG
  1
B
  9
$CUSTOMPROPERTY
  1
3.75
  9
$CUSTOMPROPERTYTAG
  1
C
  9
$CUSTOMPROPERTY
  1
1.24
  9
$CUSTOMPROPERTYTAG
  1
D
  9
$CUSTOMPROPERTY
  1
3.00
  9
$CUSTOMPROPERTYTAG
  1
G
  9
$CUSTOMPROPERTY
  1
0.34
  9
$CUSTOMPROPERTYTAG
  1
H
  9
$CUSTOMPROPERTY
  1
0.42
  9
$CUSTOMPROPERTYTAG
  1
J
  9
$CUSTOMPROPERTY
  1
0.37
  9
$CUSTOMPROPERTYTAG
  1
L
  9
$CUSTOMPROPERTY
  1
1.32
  9
$CUSTOMPROPERTYTAG
  1
M
  9
$CUSTOMPROPERTY
  1
1.88
  9
$CUSTOMPROPERTYTAG
  1
N
  9
$CUSTOMPROPERTY
  1
1.70
  9
$CUSTOMPROPERTYTAG
  1
COMPANY
  9
$CUSTOMPROPERTY
  1
baldor
  9
$INSBASE
 10
0.0
 20
0.0
 30
0.0
  9
$EXTMIN
 10
1.000000000000000E+20
 20
1.000000000000000E+20
 30
1.000000000000000E+20
  9
$EXTMAX
 10
-1.000000000000000E+20
 20
-1.000000000000000E+20
 30
-1.000000000000000E+20
  9
$LIMMIN
 10
0.0
 20
0.0
  9
$LIMMAX
 10
12.0
 20
9.0
  9
$ORTHOMODE
 70
     0
  9
$REGENMODE
 70
     1
  9
$FILLMODE
 70
     1
  9
$QTEXTMODE
 70
     0
  9
$MIRRTEXT
 70
     1
  9
$LTSCALE
 40
1.0
  9
$ATTMODE
 70
     1
  9
$TEXTSIZE
 40
0.2
  9
$TRACEWID
 40
0.05
  9
$TEXTSTYLE
  7
Standard
  9
$CLAYER
  8
0
  9
$CELTYPE
  6
ByLayer
  9
$CECOLOR
 62
   256
  9
$CELTSCALE
 40
1.0
  9
$DISPSILH
 70
     0
  9
$DIMSCALE
 40
1.0
  9
$DIMASZ
 40
0.18
  9
$DIMEXO
 40
0.0625
  9
$DIMDLI
 40
0.38
  9
$DIMRND
 40
0.0
  9
$DIMDLE
 40
0.0
  9
$DIMEXE
 40
0.18
  9
$DIMTP
 40
0.0
  9
$DIMTM
 40
0.0
  9
$DIMTXT
 40
0.18
  9
$DIMCEN
 40
0.09
  9
$DIMTSZ
 40
0.0
  9
$DIMTOL
 70
     0
  9
$DIMLIM
 70
     0
  9
$DIMTIH
 70
     1
  9
$DIMTOH
 70
     1
  9
$DIMSE1
 70
     0
  9
$DIMSE2
 70
     0
  9
$DIMTAD
 70
     0
  9
$DIMZIN
 70
     0
  9
$DIMBLK
  1

  9
$DIMASO
 70
     1
  9
$DIMSHO
 70
     1
  9
$DIMPOST
  1

  9
$DIMAPOST
  1

  9
$DIMALT
 70
     0
  9
$DIMALTD
 70
     2
  9
$DIMALTF
 40
25.4
  9
$DIMLFAC
 40
1.0
  9
$DIMTOFL
 70
     0
  9
$DIMTVP
 40
0.0
  9
$DIMTIX
 70
     0
  9
$DIMSOXD
 70
     0
  9
$DIMSAH
 70
     0
  9
$DIMBLK1
  1

  9
$DIMBLK2
  1

  9
$DIMSTYLE
  2
Standard
  9
$DIMCLRD
 70
     0
  9
$DIMCLRE
 70
     0
  9
$DIMCLRT
 70
     0
  9
$DIMTFAC
 40
1.0
  9
$DIMGAP
 40
0.09
  9
$DIMJUST
 70
     0
  9
$DIMSD1
 70
     0
  9
$DIMSD2
 70
     0
  9
$DIMTOLJ
 70
     1
  9
$DIMTZIN
 70
     0
  9
$DIMALTZ
 70
     0
  9
$DIMALTTZ
 70
     0
  9
$DIMUPT
 70
     0
  9
$DIMDEC
 70
     4
  9
$DIMTDEC
 70
     4
  9
$DIMALTU
 70
     2
  9
$DIMALTTD
 70
     2
  9
$DIMTXSTY
  7
Standard
  9
$DIMAUNIT
 70
     0
  9
$DIMADEC
 70
     0
  9
$DIMALTRND
 40
0.0
  9
$DIMAZIN
 70
     0
  9
$DIMDSEP
 70
    46
  9
$DIMATFIT
 70
     3
  9
$DIMFRAC
 70
     0
  9
$DIMLDRBLK
  1

  9
$DIMLUNIT
 70
     2
  9
$DIMLWD
 70
    -2
  9
$DIMLWE
 70
    -2
  9
$DIMTMOVE
 70
     0
  9
$DIMFXL
 40
1.0
  9
$DIMFXLON
 70
     0
  9
$DIMJOGANG
 40
0.7853981633974483
  9
$DIMTFILL
 70
     0
  9
$DIMTFILLCLR
 70
     0
  9
$DIMARCSYM
 70
     0
  9
$DIMLTYPE
  6

  9
$DIMLTEX1
  6

  9
$DIMLTEX2
  6

  9
$DIMTXTDIRECTION
 70
     0
  9
$LUNITS
 70
     2
  9
$LUPREC
 70
     4
  9
$SKETCHINC
 40
0.1
  9
$FILLETRAD
 40
0.5
  9
$AUNITS
 70
     0
  9
$AUPREC
 70
     0
  9
$MENU
  1
.
  9
$ELEVATION
 40
0.0
  9
$PELEVATION
 40
0.0
  9
$THICKNESS
 40
0.0
  9
$LIMCHECK
 70
     0
  9
$CHAMFERA
 40
0.0
  9
$CHAMFERB
 40
0.0
  9
$CHAMFERC
 40
0.0
  9
$CHAMFERD
 40
0.0
  9
$SKPOLY
 70
     0
  9
$TDCREATE
 40
2458169.004782963
  9
$TDUCREATE
 40
2458168.963116296
  9
$TDUPDATE
 40
2458169.004783148
  9
$TDUUPDATE
 40
2458168.963116481
  9
$TDINDWG
 40
0.0000000116
  9
$TDUSRTIMER
 40
0.0000000116
  9
$USRTIMER
 70
     1
  9
$ANGBASE
 50
0.0
  9
$ANGDIR
 70
     0
  9
$PDMODE
 70
     0
  9
$PDSIZE
 40
0.0
  9
$PLINEWID
 40
0.0
  9
$SPLFRAME
 70
     0
  9
$SPLINETYPE
 70
     6
  9
$SPLINESEGS
 70
     8
  9
$HANDSEED
  5
177
  9
$SURFTAB1
 70
     6
  9
$SURFTAB2
 70
     6
  9
$SURFTYPE
 70
     6
  9
$SURFU
 70
     6
  9
$SURFV
 70
     6
  9
$UCSBASE
  2

  9
$UCSNAME
  2

  9
$UCSORG
 10
0.0
 20
0.0
 30
0.0
  9
$UCSXDIR
 10
1.0
 20
0.0
 30
0.0
  9
$UCSYDIR
 10
0.0
 20
1.0
 30
0.0
  9
$UCSORTHOREF
  2

  9
$UCSORTHOVIEW
 70
     0
  9
$UCSORGTOP
 10
0.0
 20
0.0
 30
0.0
  9
$UCSORGBOTTOM
 10
0.0
 20
0.0
 30
0.0
  9
$UCSORGLEFT
 10
0.0
 20
0.0
 30
0.0
  9
$UCSORGRIGHT
 10
0.0
 20
0.0
 30
0.0
  9
$UCSORGFRONT
 10
0.0
 20
0.0
 30
0.0
  9
$UCSORGBACK
 10
0.0
 20
0.0
 30
0.0
  9
$PUCSBASE
  2

  9
$PUCSNAME
  2

  9
$PUCSORG
 10
0.0
 20
0.0
 30
0.0
  9
$PUCSXDIR
 10
1.0
 20
0.0
 30
0.0
  9
$PUCSYDIR
 10
0.0
 20
1.0
 30
0.0
  9
$PUCSORTHOREF
  2

  9
$PUCSORTHOVIEW
 70
     0
  9
$PUCSORGTOP
 10
0.0
 20
0.0
 30
0.0
  9
$PUCSORGBOTTOM
 10
0.0
 20
0.0
 30
0.0
  9
$PUCSORGLEFT
 10
0.0
 20
0.0
 30
0.0
  9
$PUCSORGRIGHT
 10
0.0
 20
0.0
 30
0.0
  9
$PUCSORGFRONT
 10
0.0
 20
0.0
 30
0.0
  9
$PUCSORGBACK
 10
0.0
 20
0.0
 30
0.0
  9
$USERI1
 70
     0
  9
$USERI2
 70
     0
  9
$USERI3
 70
     0
  9
$USERI4
 70
     0
  9
$USERI5
 70
     0
  9
$USERR1
 40
0.0
  9
$USERR2
 40
0.0
  9
$USERR3
 40
0.0
  9
$USERR4
 40
0.0
  9
$USERR5
 40
0.0
  9
$WORLDVIEW
 70
     1
  9
$SHADEDGE
 70
     3
  9
$SHADEDIF
 70
    70
  9
$TILEMODE
 70
     1
  9
$MAXACTVP
 70
    64
  9
$PINSBASE
 10
0.0
 20
0.0
 30
0.0
  9
$PLIMCHECK
 70
     0
  9
$PEXTMIN
 10
1.000000000000000E+20
 20
1.000000000000000E+20
 30
1.000000000000000E+20
  9
$PEXTMAX
 10
-1.000000000000000E+20
 20
-1.000000000000000E+20
 30
-1.000000000000000E+20
  9
$PLIMMIN
 10
0.0
 20
0.0
  9
$PLIMMAX
 10
12.0
 20
9.0
  9
$UNITMODE
 70
     0
  9
$VISRETAIN
 70
     1
  9
$PLINEGEN
 70
     0
  9
$PSLTSCALE
 70
     1
  9
$TREEDEPTH
 70
  3020
  9
$CMLSTYLE
  2
Standard
  9
$CMLJUST
 70
     0
  9
$CMLSCALE
 40
1.0
  9
$PROXYGRAPHICS
 70
     1
  9
$MEASUREMENT
 70
     0
  9
$CELWEIGHT
370
    -1
  9
$ENDCAPS
280
     0
  9
$JOINSTYLE
280
     0
  9
$LWDISPLAY
290
     0
  9
$INSUNITS
 70
     1
  9
$HYPERLINKBASE
  1

  9
$STYLESHEET
  1

  9
$XEDIT
290
     1
  9
$CEPSNTYPE
380
     0
  9
$PSTYLEMODE
290
     1
  9
$FINGERPRINTGUID
  2
{084E69B8-B091-460E-B2A8-7EB0D7100CA3}
  9
$VERSIONGUID
  2
{FAEB1C32-E019-11D5-929B-00C0DF256EC4}
  9
$EXTNAMES
290
     1
  9
$PSVPSCALE
 40
0.0
  9
$OLESTARTUP
290
     0
  9
$SORTENTS
280
   127
  9
$INDEXCTL
280
     0
  9
$HIDETEXT
280
     1
  9
$XCLIPFRAME
280
     2
  9
$HALOGAP
280
     0
  9
$OBSCOLOR
 70
   257
  9
$OBSLTYPE
280
     0
  9
$INTERSECTIONDISPLAY
280
     0
  9
$INTERSECTIONCOLOR
 70
   257
  9
$DIMASSOC
280
     2
  9
$PROJECTNAME
  1

  9
$CAMERADISPLAY
290
     0
  9
$LENSLENGTH
 40
50.0
  9
$CAMERAHEIGHT
 40
0.0
  9
$STEPSPERSEC
 40
2.0
  9
$STEPSIZE
 40
6.0
  9
$3DDWFPREC
 40
2.0
  9
$PSOLWIDTH
 40
0.25
  9
$PSOLHEIGHT
 40
4.0
  9
$LOFTANG1
 40
1.570796326794897
  9
$LOFTANG2
 40
1.570796326794897
  9
$LOFTMAG1
 40
0.0
  9
$LOFTMAG2
 40
0.0
  9
$LOFTPARAM
 70
     7
  9
$LOFTNORMALS
280
     1
  9
$LATITUDE
 40
37.795
  9
$LONGITUDE
 40
-122.394
  9
$NORTHDIRECTION
 40
0.0
  9
$TIMEZONE
 70
 -8000
  9
$LIGHTGLYPHDISPLAY
280
     1
  9
$TILEMODELIGHTSYNCH
280
     1
  9
$CMATERIAL
347
44
  9
$SOLIDHIST
280
     0
  9
$SHOWHIST
280
     1
  9
$DWFFRAME
280
     2
  9
$DGNFRAME
280
     2
  9
$REALWORLDSCALE
290
     1
  9
$INTERFERECOLOR
 62
   256
  9
$CSHADOW
280
     0
  9
$SHADOWPLANELOCATION
 40
0.0
  0
ENDSEC
  0
SECTION
  2
CLASSES
  0
CLASS
  1
ACDBDICTIONARYWDFLT
  2
AcDbDictionaryWithDefault
  3
ObjectDBX Classes
 90
        0
 91
        4
280
     0
281
     0
  0
CLASS
  1
VISUALSTYLE
  2
AcDbVisualStyle
  3
ObjectDBX Classes
 90
     4095
 91
        4
280
     0
281
     0
  0
CLASS
  1
MATERIAL
  2
AcDbMaterial
  3
ObjectDBX Classes
 90
     1153
 91
        4
280
     0
281
     0
  0
CLASS
  1
SCALE
  2
AcDbScale
  3
ObjectDBX Classes
 90
     1153
 91
        4
280
     0
281
     0
  0
CLASS
  1
TABLESTYLE
  2
AcDbTableStyle
  3
ObjectDBX Classes
 90
     4095
 91
        4
280
     0
281
     0
  0
CLASS
  1
MLEADERSTYLE
  2
AcDbMLeaderStyle
  3
ACDB_MLEADERSTYLE_CLASS
 90
     4095
 91
        4
280
     0
281
     0
  0
CLASS
  1
SUN
  2
AcDbSun
  3
SCENEOE
 90
     1153
 91
        4
280
     0
281
     0
  0
CLASS
  1
DICTIONARYVAR
  2
AcDbDictionaryVar
  3
ObjectDBX Classes
 90
        0
 91
        4
280
     0
281
     0
  0
CLASS
  1
CELLSTYLEMAP
  2
AcDbCellStyleMap
  3
ObjectDBX Classes
 90
     1152
 91
        4
280
     0
281
     0
  0
ENDSEC
  0
SECTION
  2
TABLES
  0
TABLE
  2
VPORT
  5
8
330
0
100
AcDbSymbolTable
 70
     1
  0
VPORT
  5
29
330
8
100
AcDbSymbolTableRecord
100
AcDbViewportTableRecord
  2
*Active
 70
     0
 10
0.0
 20
0.0
 11
1.0
 21
1.0
 12
-0.65625
 22
0.2287499999999998
 13
0.0
 23
0.0
 14
0.5
 24
0.5
 15
0.5
 25
0.5
 16
0.0
 26
0.0
 36
1.0
 17
0.0
 27
0.0
 37
0.0
 40
3.358350000000001
 41
0.4113895216400915
 42
50.0
 43
0.0
 44
0.0
 50
0.0
 51
0.0
 71
     0
 72
   100
 73
     1
 74
     3
 75
     0
 76
     0
 77
     0
 78
     0
281
     0
 65
     1
110
0.0
120
0.0
130
0.0
111
1.0
121
0.0
131
0.0
112
0.0
122
1.0
132
0.0
 79
     0
146
0.0
348
2F
 60
     3
 61
     5
292
     1
282
     1
141
0.0
142
0.0
 63
   250
361
6D
  0
ENDTAB
  0
TABLE
  2
LTYPE
  5
5
330
0
100
AcDbSymbolTable
 70
     3
  0
LTYPE
  5
14
330
5
100
AcDbSymbolTableRecord
100
AcDbLinetypeTableRecord
  2
ByBlock
 70
     0
  3

 72
    65
 73
     0
 40
0.0
  0
LTYPE
  5
15
330
5
100
AcDbSymbolTableRecord
100
AcDbLinetypeTableRecord
  2
ByLayer
 70
     0
  3

 72
    65
 73
     0
 40
0.0
  0
LTYPE
  5
16
330
5
100
AcDbSymbolTableRecord
100
AcDbLinetypeTableRecord
  2
Continuous
 70
     0
  3
Solid line
 72
    65
 73
     0
 40
0.0
  0
LTYPE
  5
9F
330
5
100
AcDbSymbolTableRecord
100
AcDbLinetypeTableRecord
  2
Dashed
 70
     0
  3

 72
    65
 73
     2
 40
2.0
 49
1.0
 74
     0
 49
-1.0
 74
     0
  0
LTYPE
  5
D3
330
5
100
AcDbSymbolTableRecord
100
AcDbLinetypeTableRecord
  2
Center
 70
     0
  3

 72
    65
 73
     4
 40
1.5
 49
0.45
 74
     0
 49
-0.5
 74
     0
 49
0.05
 74
     0
 49
-0.5
 74
     0
  0
ENDTAB
  0
TABLE
  2
LAYER
  5
2
330
0
100
AcDbSymbolTable
 70
     7
  0
LAYER
  5
10
330
2
100
AcDbSymbolTableRecord
100
AcDbLayerTableRecord
  2
0
 70
     0
 62
     7
  6
Continuous
370
    -3
390
F
347
46
348
0
  0
LAYER
  5
72
330
2
100
AcDbSymbolTableRecord
100
AcDbLayerTableRecord
  2
AM_6
 70
     0
 62
    -2
  6
Continuous
370
    35
390
F
347
46
348
0
  0
LAYER
  5
A0
330
2
100
AcDbSymbolTableRecord
100
AcDbLayerTableRecord
  2
AM_9
 70
     0
 62
     6
  6
Dashed
370
    25
390
F
347
46
348
0
  0
LAYER
  5
D0
330
2
100
AcDbSymbolTableRecord
100
AcDbLayerTableRecord
  2
AM_5
 70
     0
 62
     3
  6
Continuous
370
    25
390
F
347
46
348
0
  0
LAYER
  5
D4
330
2
100
AcDbSymbolTableRecord
100
AcDbLayerTableRecord
  2
AM_7
 70
     0
 62
     7
  6
Center
370
    25
390
F
347
46
348
0
  0
LAYER
  5
D7
330
2
100
AcDbSymbolTableRecord
100
AcDbLayerTableRecord
  2
AM_4
 70
     0
 62
     7
  6
Continuous
370
    50
390
F
347
46
348
0
  0
LAYER
  5
16A
330
2
100
AcDbSymbolTableRecord
100
AcDbLayerTableRecord
  2
ConnectionPoints
 70
     0
 62
     7
  6
Continuous
370
    50
390
F
347
46
348
0
  0
ENDTAB
  0
TABLE
  2
STYLE
  5
3
330
0
100
AcDbSymbolTable
 70
     1
  0
STYLE
  5
11
330
3
100
AcDbSymbolTableRecord
100
AcDbTextStyleTableRecord
  2
Standard
 70
     0
 40
0.0
 41
1.0
 50
0.0
 71
     0
 42
0.2
  3
txt
  4

  0
ENDTAB
  0
TABLE
  2
VIEW
  5
6
330
0
100
AcDbSymbolTable
 70
     0
  0
ENDTAB
  0
TABLE
  2
UCS
  5
7
330
0
100
AcDbSymbolTable
 70
     0
  0
ENDTAB
  0
TABLE
  2
APPID
  5
9
330
0
100
AcDbSymbolTable
 70
     1
  0
APPID
  5
12
330
9
100
AcDbSymbolTableRecord
100
AcDbRegAppTableRecord
  2
ACAD
 70
     0
  0
ENDTAB
  0
TABLE
  2
DIMSTYLE
  5
A
330
0
100
AcDbSymbolTable
 70
     1
100
AcDbDimStyleTable
  0
DIMSTYLE
105
27
330
A
100
AcDbSymbolTableRecord
100
AcDbDimStyleTableRecord
  2
Standard
 70
     0
178
     0
340
11
  0
ENDTAB
  0
TABLE
  2
BLOCK_RECORD
  5
1
330
0
100
AcDbSymbolTable
 70
     5
  0
BLOCK_RECORD
  5
1F
330
1
100
AcDbSymbolTableRecord
100
AcDbBlockTableRecord
  2
*Model_Space
340
22
 70
     0
280
     1
281
     0
  0
BLOCK_RECORD
  5
1B
330
1
100
AcDbSymbolTableRecord
100
AcDbBlockTableRecord
  2
*Paper_Space
340
1E
 70
     0
280
     1
281
     0
  0
BLOCK_RECORD
  5
23
330
1
100
AcDbSymbolTableRecord
100
AcDbBlockTableRecord
  2
*Paper_Space0
340
26
 70
     0
280
     1
281
     0
  0
BLOCK_RECORD
  5
6E
330
1
100
AcDbSymbolTableRecord
100
AcDbBlockTableRecord
  2
1_124623_2
340
0
102
{BLKREFS
331
6F
102
}
 70
     0
280
     1
281
     0
  0
BLOCK_RECORD
  5
89
330
1
100
AcDbSymbolTableRecord
100
AcDbBlockTableRecord
  2
2_077977_0_in_124623_2
340
0
102
{BLKREFS
331
8A
102
}
 70
     0
280
     1
281
     0
  0
BLOCK_RECORD
  5
E5
330
1
100
AcDbSymbolTableRecord
100
AcDbBlockTableRecord
  2
3_430026_0_in_124623_2
340
0
102
{BLKREFS
331
E6
102
}
 70
     0
280
     1
281
     0
  0
BLOCK_RECORD
  5
107
330
1
100
AcDbSymbolTableRecord
100
AcDbBlockTableRecord
  2
4_124623H_0_in_124623_2
340
0
102
{BLKREFS
331
108
102
}
 70
     0
280
     1
281
     0
  0
ENDTAB
  0
ENDSEC
  0
SECTION
  2
BLOCKS
  0
BLOCK
  5
20
330
1F
100
AcDbEntity
  8
0
100
AcDbBlockBegin
  2
*Model_Space
 70
     0
 10
0.0
 20
0.0
 30
0.0
  3
*Model_Space
  1

  0
ENDBLK
  5
21
330
1F
100
AcDbEntity
  8
0
100
AcDbBlockEnd
  0
BLOCK
  5
1C
330
1B
100
AcDbEntity
 67
     1
  8
0
100
AcDbBlockBegin
  2
*Paper_Space
 70
     0
 10
0.0
 20
0.0
 30
0.0
  3
*Paper_Space
  1

  0
ENDBLK
  5
1D
330
1B
100
AcDbEntity
 67
     1
  8
0
100
AcDbBlockEnd
  0
BLOCK
  5
24
330
23
100
AcDbEntity
  8
0
100
AcDbBlockBegin
  2
*Paper_Space0
 70
     0
 10
0.0
 20
0.0
 30
0.0
  3
*Paper_Space0
  1

  0
ENDBLK
  5
25
330
23
100
AcDbEntity
  8
0
100
AcDbBlockEnd
  0
BLOCK
  5
70
330
6E
100
AcDbEntity
  8
0
100
AcDbBlockBegin
  2
1_124623_2
 70
     2
 10
0.0
 20
0.0
 30
0.0
  3
1_124623_2
  1

  0
ATTDEF
  5
73
330
6E
100
AcDbEntity
  8
AM_6
100
AcDbText
 10
5.021
 20
1.875
 30
0.0
 40
0.5
  1
Set Screw LF  Normal Duty 3-Bolt Flange Inch Bore
100
AcDbAttributeDefinition
  3

  2
NN
 70
     8
280
     0
  0
ATTDEF
  5
74
330
6E
100
AcDbEntity
  8
AM_6
100
AcDbText
 10
5.021
 20
1.375
 30
0.0
 40
0.5
  1
SC 3 Bolt Flange Bearings -(Normal Duty) -Re-Lube and No-Lube
100
AcDbAttributeDefinition
  3

  2
NT
 70
     8
280
     0
  0
ATTDEF
  5
75
330
6E
100
AcDbEntity
  8
AM_6
100
AcDbText
 10
5.021
 20
0.8749999999999996
 30
0.0
 40
0.5
  1
124623
100
AcDbAttributeDefinition
  3

  2
NB
 70
     8
280
     0
  0
ATTDEF
  5
76
330
6E
100
AcDbEntity
  8
AM_6
100
AcDbText
 10
5.021
 20
0.3749999999999996
 30
0.0
 40
0.5
  1
$PN.
100
AcDbAttributeDefinition
  3

  2
NBSYN
 70
     8
280
     0
  0
ATTDEF
  5
77
330
6E
100
AcDbEntity
  8
AM_6
100
AcDbText
 10
5.021
 20
-0.1250000000000004
 30
0.0
 40
0.5
  1
124623
100
AcDbAttributeDefinition
  3

  2
LINA
 70
     8
280
     0
  0
ATTDEF
  5
78
330
6E
100
AcDbEntity
  8
AM_6
100
AcDbText
 10
5.021
 20
-0.6250000000000004
 30
0.0
 40
0.5
  1
205
100
AcDbAttributeDefinition
  3

  2
SERIES
 70
     8
280
     0
  0
ATTDEF
  5
79
330
6E
100
AcDbEntity
  8
AM_6
100
AcDbText
 10
5.021
 20
-1.125
 30
0.0
 40
0.5
  1
7/8
100
AcDbAttributeDefinition
  3

  2
SS
 70
     8
280
     0
  0
ATTDEF
  5
7A
330
6E
100
AcDbEntity
  8
AM_6
100
AcDbText
 10
5.021
 20
-1.625
 30
0.0
 40
0.5
  1
124623
100
AcDbAttributeDefinition
  3

  2
PN
 70
     8
280
     0
  0
ATTDEF
  5
7B
330
6E
100
AcDbEntity
  8
AM_6
100
AcDbText
 10
5.021
 20
-2.125
 30
0.0
 40
0.5
  1
LF-SC-014-NL
100
AcDbAttributeDefinition
  3

  2
DESCRIPTION
 70
     8
280
     0
  0
ATTDEF
  5
7C
330
6E
100
AcDbEntity
  8
AM_6
100
AcDbText
 10
5.021
 20
-2.625
 30
0.0
 40
0.5
  1
1.10
100
AcDbAttributeDefinition
  3

  2
W
 70
     8
280
     0
  0
ATTDEF
  5
7D
330
6E
100
AcDbEntity
  8
AM_6
100
AcDbText
 10
5.021
 20
-3.125
 30
0.0
 40
0.5
  1
NO-LUBE
100
AcDbAttributeDefinition
  3

  2
LF
 70
     8
280
     0
  0
ATTDEF
  5
7E
330
6E
100
AcDbEntity
  8
AM_6
100
AcDbText
 10
5.021
 20
-3.625
 30
0.0
 40
0.5
  1
1.06
100
AcDbAttributeDefinition
  3

  2
A
 70
     8
280
     0
  0
ATTDEF
  5
7F
330
6E
100
AcDbEntity
  8
AM_6
100
AcDbText
 10
5.021
 20
-4.125
 30
0.0
 40
0.5
  1
3.75
100
AcDbAttributeDefinition
  3

  2
B
 70
     8
280
     0
  0
ATTDEF
  5
80
330
6E
100
AcDbEntity
  8
AM_6
100
AcDbText
 10
5.021
 20
-4.625
 30
0.0
 40
0.5
  1
1.24
100
AcDbAttributeDefinition
  3

  2
C
 70
     8
280
     0
  0
ATTDEF
  5
81
330
6E
100
AcDbEntity
  8
AM_6
100
AcDbText
 10
5.021
 20
-5.125
 30
0.0
 40
0.5
  1
3.00
100
AcDbAttributeDefinition
  3

  2
D
 70
     8
280
     0
  0
ATTDEF
  5
82
330
6E
100
AcDbEntity
  8
AM_6
100
AcDbText
 10
5.021
 20
-5.625
 30
0.0
 40
0.5
  1
0.34
100
AcDbAttributeDefinition
  3

  2
G
 70
     8
280
     0
  0
ATTDEF
  5
83
330
6E
100
AcDbEntity
  8
AM_6
100
AcDbText
 10
5.021
 20
-6.125
 30
0.0
 40
0.5
  1
0.42
100
AcDbAttributeDefinition
  3

  2
H
 70
     8
280
     0
  0
ATTDEF
  5
84
330
6E
100
AcDbEntity
  8
AM_6
100
AcDbText
 10
5.021
 20
-6.625
 30
0.0
 40
0.5
  1
0.37
100
AcDbAttributeDefinition
  3

  2
J
 70
     8
280
     0
  0
ATTDEF
  5
85
330
6E
100
AcDbEntity
  8
AM_6
100
AcDbText
 10
5.021
 20
-7.125
 30
0.0
 40
0.5
  1
1.32
100
AcDbAttributeDefinition
  3

  2
L
 70
     8
280
     0
  0
ATTDEF
  5
86
330
6E
100
AcDbEntity
  8
AM_6
100
AcDbText
 10
5.021
 20
-7.625
 30
0.0
 40
0.5
  1
1.88
100
AcDbAttributeDefinition
  3

  2
M
 70
     8
280
     0
  0
ATTDEF
  5
87
330
6E
100
AcDbEntity
  8
AM_6
100
AcDbText
 10
5.021
 20
-8.125
 30
0.0
 40
0.5
  1
1.70
100
AcDbAttributeDefinition
  3

  2
N
 70
     8
280
     0
  0
ATTDEF
  5
88
330
6E
100
AcDbEntity
  8
AM_6
100
AcDbText
 10
5.021
 20
-8.625
 30
0.0
 40
0.5
  1
baldor
100
AcDbAttributeDefinition
  3

  2
COMPANY
 70
     8
280
     0
  0
INSERT
  5
8A
330
6E
100
AcDbEntity
  8
0
100
AcDbBlockReference
  2
2_077977_0_in_124623_2
 10
0.0
 20
0.0
 30
0.0
  0
INSERT
  5
E6
330
6E
100
AcDbEntity
  8
0
100
AcDbBlockReference
  2
3_430026_0_in_124623_2
 10
0.0
 20
0.0
 30
0.0
  0
INSERT
  5
108
330
6E
100
AcDbEntity
  8
0
100
AcDbBlockReference
  2
4_124623H_0_in_124623_2
 10
0.0
 20
0.0
 30
0.0
  0
ENDBLK
  5
71
330
6E
100
AcDbEntity
  8
0
100
AcDbBlockEnd
  0
BLOCK
  5
8B
330
89
100
AcDbEntity
  8
0
100
AcDbBlockBegin
  2
2_077977_0_in_124623_2
 70
     2
 10
0.0
 20
0.0
 30
0.0
  3
2_077977_0_in_124623_2
  1

  0
ATTDEF
  5
8D
330
89
100
AcDbEntity
  8
AM_6
100
AcDbText
 10
4.82
 20
1.023071041545318
 30
0.0
 40
0.5
  1
Set Screw Light Duty Insert with Pin Inch Bore
100
AcDbAttributeDefinition
  3

  2
NN
 70
     8
280
     0
  0
ATTDEF
  5
8E
330
89
100
AcDbEntity
  8
AM_6
100
AcDbText
 10
4.82
 20
0.5230710415453179
 30
0.0
 40
0.5
  1
SCP Bearing Inserts
100
AcDbAttributeDefinition
  3

  2
NT
 70
     8
280
     0
  0
ATTDEF
  5
8F
330
89
100
AcDbEntity
  8
AM_6
100
AcDbText
 10
4.82
 20
0.0230710415453179
 30
0.0
 40
0.5
  1
077977
100
AcDbAttributeDefinition
  3

  2
NB
 70
     8
280
     0
  0
ATTDEF
  5
90
330
89
100
AcDbEntity
  8
AM_6
100
AcDbText
 10
4.82
 20
-0.4769289584546821
 30
0.0
 40
0.5
  1
$PN.
100
AcDbAttributeDefinition
  3

  2
NBSYN
 70
     8
280
     0
  0
ATTDEF
  5
91
330
89
100
AcDbEntity
  8
AM_6
100
AcDbText
 10
4.82
 20
-0.9769289584546821
 30
0.0
 40
0.5
  1
077977
100
AcDbAttributeDefinition
  3

  2
LINA
 70
     8
280
     0
  0
ATTDEF
  5
92
330
89
100
AcDbEntity
  8
AM_6
100
AcDbText
 10
4.82
 20
-1.476928958454682
 30
0.0
 40
0.5
  1
205
100
AcDbAttributeDefinition
  3

  2
SERIES
 70
     8
280
     0
  0
ATTDEF
  5
93
330
89
100
AcDbEntity
  8
AM_6
100
AcDbText
 10
4.82
 20
-1.976928958454682
 30
0.0
 40
0.5
  1
7/8
100
AcDbAttributeDefinition
  3

  2
SS
 70
     8
280
     0
  0
ATTDEF
  5
94
330
89
100
AcDbEntity
  8
AM_6
100
AcDbText
 10
4.82
 20
-2.476928958454682
 30
0.0
 40
0.5
  1
077977
100
AcDbAttributeDefinition
  3

  2
PN
 70
     8
280
     0
  0
ATTDEF
  5
95
330
89
100
AcDbEntity
  8
AM_6
100
AcDbText
 10
4.82
 20
-2.976928958454682
 30
0.0
 40
0.5
  1
INS-SCP-014
100
AcDbAttributeDefinition
  3

  2
DESCRIPTION
 70
     8
280
     0
  0
ATTDEF
  5
96
330
89
100
AcDbEntity
  8
AM_6
100
AcDbText
 10
4.82
 20
-3.476928958454682
 30
0.0
 40
0.5
  1
1.06
100
AcDbAttributeDefinition
  3

  2
A
 70
     8
280
     0
  0
ATTDEF
  5
97
330
89
100
AcDbEntity
  8
AM_6
100
AcDbText
 10
4.82
 20
-3.976928958454682
 30
0.0
 40
0.5
  1
0.59
100
AcDbAttributeDefinition
  3

  2
C
 70
     8
280
     0
  0
ATTDEF
  5
98
330
89
100
AcDbEntity
  8
AM_6
100
AcDbText
 10
4.82
 20
-4.476928958454682
 30
0.0
 40
0.5
  1
2.0472
100
AcDbAttributeDefinition
  3

  2
D
 70
     8
280
     0
  0
ATTDEF
  5
99
330
89
100
AcDbEntity
  8
AM_6
100
AcDbText
 10
4.82
 20
-4.976928958454682
 30
0.0
 40
0.5
  1
0.16
100
AcDbAttributeDefinition
  3

  2
J
 70
     8
280
     0
  0
ATTDEF
  5
9A
330
89
100
AcDbEntity
  8
AM_6
100
AcDbText
 10
4.82
 20
-5.476928958454682
 30
0.0
 40
0.5
  1
1.32
100
AcDbAttributeDefinition
  3

  2
L
 70
     8
280
     0
  0
ATTDEF
  5
9B
330
89
100
AcDbEntity
  8
AM_6
100
AcDbText
 10
4.82
 20
-5.976928958454682
 30
0.0
 40
0.5
  1
1/4 - 28
100
AcDbAttributeDefinition
  3

  2
N
 70
     8
280
     0
  0
ATTDEF
  5
9C
330
89
100
AcDbEntity
  8
AM_6
100
AcDbText
 10
4.82
 20
-6.476928958454682
 30
0.0
 40
0.5
  1
0.30
100
AcDbAttributeDefinition
  3

  2
W
 70
     8
280
     0
  0
ATTDEF
  5
9D
330
89
100
AcDbEntity
  8
AM_6
100
AcDbText
 10
4.82
 20
-6.976928958454682
 30
0.0
 40
0.5
  1
0.76
100
AcDbAttributeDefinition
  3

  2
Y
 70
     8
280
     0
  0
ATTDEF
  5
9E
330
89
100
AcDbEntity
  8
AM_6
100
AcDbText
 10
4.82
 20
-7.476928958454682
 30
0.0
 40
0.5
  1
baldor
100
AcDbAttributeDefinition
  3

  2
COMPANY
 70
     8
280
     0
  0
ARC
  5
A1
330
89
100
AcDbEntity
  8
AM_9
100
AcDbCircle
 10
-0.3199999999999908
 20
0.0000000000000002
 30
0.0
 40
0.0833333333333289
100
AcDbArc
 50
356.5956606964524
 51
5.307080710132679
  0
CIRCLE
  5
A2
330
89
100
AcDbEntity
  8
AM_9
100
AcDbCircle
 10
-0.3200000000000001
 20
-0.0000000000000001
 30
0.0
 40
0.0296969696969725
  0
LINE
  5
A3
330
89
100
AcDbEntity
  8
AM_9
100
AcDbLine
 10
-0.3600095081621053
 20
0.0731000899495505
 30
0.0
 11
-0.3587588156064313
 21
0.0737712590188881
 31
0.0
  0
LWPOLYLINE
  5
A4
330
89
100
AcDbEntity
  8
AM_9
100
AcDbPolyline
 90
       14
 70
     0
 43
0.0
 10
-0.3602597502840961
 20
-0.0729623858224752
 10
-0.3701366440181687
 20
-0.0665166738631188
 10
-0.380191033874273
 20
-0.0574775240133589
 10
-0.3887894557308296
 20
-0.0466484990262737
 10
-0.3954975576460627
 20
-0.0345267989910281
 10
-0.4001285722249845
 20
-0.0213524849207606
 10
-0.4025371002086867
 20
-0.0075827243306017
 10
-0.4026215005641848
 20
0.0064722465232469
 10
-0.4003933538337979
 20
0.020345180340497
 10
-0.3958737323512375
 20
0.0336551543013905
 10
-0.3892192279641146
 20
0.0460120648236848
 10
-0.3806145186441206
 20
0.0570120269770679
 10
-0.3703094063613268
 20
0.0663945668006367
 10
-0.3600095081621053
 20
0.0731000899495505
  0
LINE
  5
A5
330
89
100
AcDbEntity
  8
AM_9
100
AcDbLine
 10
-0.90955
 20
0.4375000000000001
 30
0.0
 11
-0.90955
 21
0.6410047816350097
 31
0.0
  0
LINE
  5
A6
330
89
100
AcDbEntity
  8
AM_9
100
AcDbLine
 10
-1.10545
 20
0.6410047816350097
 30
0.0
 11
-1.10545
 21
0.4375
 31
0.0
  0
LINE
  5
A7
330
89
100
AcDbEntity
  8
AM_9
100
AcDbLine
 10
-0.90955
 20
0.6410047816350097
 30
0.0
 11
-0.8905547816350169
 21
0.6599999999999928
 31
0.0
  0
LINE
  5
A8
330
89
100
AcDbEntity
  8
AM_9
100
AcDbLine
 10
-1.124445218364983
 20
0.6599999999999928
 30
0.0
 11
-1.10545
 21
0.6410047816350097
 31
0.0
  0
LINE
  5
A9
330
89
100
AcDbEntity
  8
AM_9
100
AcDbLine
 10
-1.10545
 20
0.6410047816350097
 30
0.0
 11
-0.90955
 21
0.6410047816350097
 31
0.0
  0
LINE
  5
AA
330
89
100
AcDbEntity
  8
AM_9
100
AcDbLine
 10
-0.5655
 20
0.4375000000000001
 30
0.0
 11
-0.9095500000000003
 21
0.4375000000000001
 31
0.0
  0
LINE
  5
AB
330
89
100
AcDbEntity
  8
AM_9
100
AcDbLine
 10
-1.10545
 20
0.4375000000000001
 30
0.0
 11
-1.2136
 21
0.4375000000000001
 31
0.0
  0
LINE
  5
AC
330
89
100
AcDbEntity
  8
AM_9
100
AcDbLine
 10
-1.2136
 20
-0.4375000000000001
 30
0.0
 11
-0.5655
 21
-0.4375000000000001
 31
0.0
  0
LWPOLYLINE
  5
AD
330
89
100
AcDbEntity
  8
AM_9
100
AcDbPolyline
 90
       21
 70
     0
 43
0.0
 10
-1.10544999999948
 20
0.4374999999998836
 10
-1.104920105467638
 20
0.4373816690824225
 10
-1.101992766971642
 20
0.4367389729689315
 10
-1.096399841019361
 20
0.435563117393183
 10
-1.088542062582912
 20
0.4340274915344564
 10
-1.078241867403823
 20
0.4322226964237071
 10
-1.066048819190598
 20
0.4303951808845138
 10
-1.051804435211044
 20
0.4286897835024409
 10
-1.036642843622313
 20
0.4273889947511454
 10
-1.020141996915132
 20
0.4265816071820283
 10
-1.004093807138676
 20
0.426407844263926
 10
-0.987672072509849
 20
0.4268550037290821
 10
-0.9724617021322118
 20
0.4278314268698267
 10
-0.9578115146676405
 20
0.4292796210800416
 10
-0.9446961887108865
 20
0.4309946243428549
 10
-0.9329812645472102
 20
0.4328568925562846
 10
-0.923444769113294
 20
0.4346001948221118
 10
-0.9160658865173739
 20
0.4360874277118681
 10
-0.9115072094489459
 20
0.4370659713793543
 10
-0.9095894124793212
 20
0.4374911777952151
 10
-0.9095500000012668
 20
0.4374999999997165
  0
LINE
  5
AE
330
89
100
AcDbEntity
  8
AM_9
100
AcDbLine
 10
-0.2063999999999999
 20
-0.4375
 30
0.0
 11
-0.2063999999999999
 21
0.4375
 31
0.0
  0
LINE
  5
AF
330
89
100
AcDbEntity
  8
AM_9
100
AcDbLine
 10
-0.2063999999999999
 20
-0.4375
 30
0.0
 11
-0.18
 21
-0.4639000000000049
 31
0.0
  0
LINE
  5
B0
330
89
100
AcDbEntity
  8
AM_9
100
AcDbLine
 10
-0.18
 20
0.4639000000000049
 30
0.0
 11
-0.2063999999999999
 21
0.4375
 31
0.0
  0
LINE
  5
B1
330
89
100
AcDbEntity
  8
AM_9
100
AcDbLine
 10
-1.2136
 20
0.4375000000000001
 30
0.0
 11
-1.24
 21
0.4639000000000049
 31
0.0
  0
LINE
  5
B2
330
89
100
AcDbEntity
  8
AM_9
100
AcDbLine
 10
-1.24
 20
-0.4639000000000049
 30
0.0
 11
-1.2136
 21
-0.4375000000000001
 31
0.0
  0
LWPOLYLINE
  5
B3
330
89
100
AcDbEntity
  8
AM_9
100
AcDbPolyline
 90
        5
 70
     0
 43
0.0
 10
-1.092663676897358
 20
0.2276151281652661
 10
-1.097546932997538
 20
0.219110533601281
 10
-1.102834524334585
 20
0.2050285991845961
 10
-1.105234741047366
 20
0.1907572758692567
 10
-1.105449999791013
 20
0.1849012884769907
  0
LINE
  5
B4
330
89
100
AcDbEntity
  8
AM_9
100
AcDbLine
 10
-0.90955
 20
0.1848778566028025
 30
0.0
 11
-0.9095499999999999
 21
0.2709003265820645
 31
0.0
  0
LINE
  5
B5
330
89
100
AcDbEntity
  8
AM_9
100
AcDbLine
 10
-1.10545
 20
0.2709003265820645
 30
0.0
 11
-1.10545
 21
0.1848636025076076
 31
0.0
  0
LWPOLYLINE
  5
B6
330
89
100
AcDbEntity
  8
AM_9
100
AcDbPolyline
 90
       21
 70
     0
 43
0.0
 10
-1.105449999791013
 20
0.1849012884769907
 10
-1.104920105467638
 20
0.175624024964749
 10
-1.101992766971642
 20
0.1611967548331695
 10
-1.096399841019361
 20
0.1468077179853245
 10
-1.088542062582912
 20
0.1335695926835865
 10
-1.078241867403823
 20
0.1212646700943984
 10
-1.066048819190597
 20
0.1107246827096292
 10
-1.051804435211044
 20
0.1019994175409278
 10
-1.036642843622313
 20
0.0958697872699287
 10
-1.020141996915132
 20
0.0922508230791847
 10
-1.004093807138676
 20
0.0914885863829896
 10
-0.987672072509849
 20
0.0934617426963661
 10
-0.9724617021322118
 20
0.0979105932147598
 10
-0.9578115146676406
 20
0.104918845889921
 10
-0.9446961887108865
 20
0.1140229317066295
 10
-0.9329812645472104
 20
0.1253191298152342
 10
-0.9234447691132941
 20
0.1380932330239888
 10
-0.9160658865173739
 20
0.1524613565248776
 10
-0.9115072094489459
 20
0.1670544810537271
 10
-0.9095894124793212
 20
0.182373700845006
 10
-0.9095500005097619
 20
0.1848864326240827
  0
LWPOLYLINE
  5
B7
330
89
100
AcDbEntity
  8
AM_9
100
AcDbPolyline
 90
        5
 70
     0
 43
0.0
 10
-0.9095500005097619
 20
0.1848864326240827
 10
-0.9104400814078955
 20
0.196752036653578
 10
-0.914006399855144
 20
0.2109550537624326
 10
-0.9199565970632372
 20
0.2237801438847781
 10
-0.9222260952160901
 20
0.2274479616310639
  0
LINE
  5
B8
330
89
100
AcDbEntity
  8
AM_9
100
AcDbLine
 10
-0.775
 20
0.6599999999999928
 30
0.0
 11
-0.87
 21
0.6599999999999928
 31
0.0
  0
LINE
  5
B9
330
89
100
AcDbEntity
  8
AM_9
100
AcDbLine
 10
-0.8699999999999999
 20
-0.6599999999999928
 30
0.0
 11
-0.775
 21
-0.6599999999999928
 31
0.0
  0
LINE
  5
BA
330
89
100
AcDbEntity
  8
AM_9
100
AcDbLine
 10
-0.93339678926458
 20
0.6546964383102301
 30
0.0
 11
-0.9224170986753168
 21
0.6558351139831327
 31
0.0
  0
LINE
  5
BB
330
89
100
AcDbEntity
  8
AM_9
100
AcDbLine
 10
-0.18
 20
-0.6599999999999931
 30
0.0
 11
-0.18
 21
0.6599999999999931
 31
0.0
  0
LINE
  5
BC
330
89
100
AcDbEntity
  8
AM_9
100
AcDbLine
 10
-0.18
 20
0.6599999999999931
 30
0.0
 11
-0.185
 21
0.6599999999999931
 31
0.0
  0
LINE
  5
BD
330
89
100
AcDbEntity
  8
AM_9
100
AcDbLine
 10
-0.185
 20
-0.6599999999999931
 30
0.0
 11
-0.18
 21
-0.6599999999999931
 31
0.0
  0
LINE
  5
BE
330
89
100
AcDbEntity
  8
AM_9
100
AcDbLine
 10
-0.608
 20
0.9702666666666678
 30
0.0
 11
-0.6719999999999999
 21
0.9702666666666678
 31
0.0
  0
LINE
  5
BF
330
89
100
AcDbEntity
  8
AM_9
100
AcDbLine
 10
-0.6719999999999999
 20
-0.9702666666666678
 30
0.0
 11
-0.608
 21
-0.9702666666666678
 31
0.0
  0
LINE
  5
C0
330
89
100
AcDbEntity
  8
AM_9
100
AcDbLine
 10
-0.1849999999999999
 20
-0.9560865860370594
 30
0.0
 11
-0.1849999999999999
 21
0.9560865860370594
 31
0.0
  0
ARC
  5
C1
330
89
100
AcDbEntity
  8
AM_9
100
AcDbCircle
 10
-0.2170000000000005
 20
0.9560865860370593
 30
0.0
 40
0.0320000000000007
100
AcDbArc
 50
0.0
 51
74.61950405088118
  0
ARC
  5
C2
330
89
100
AcDbEntity
  8
AM_9
100
AcDbCircle
 10
-0.2170000000000005
 20
-0.9560865860370593
 30
0.0
 40
0.0320000000000006
100
AcDbArc
 50
285.3804959491188
 51
0.0
  0
LINE
  5
C3
330
89
100
AcDbEntity
  8
AM_9
100
AcDbLine
 10
-0.775
 20
-0.9560865860370599
 30
0.0
 11
-0.775
 21
0.9560865860370599
 31
0.0
  0
ARC
  5
C4
330
89
100
AcDbEntity
  8
AM_9
100
AcDbCircle
 10
-0.7429999999999998
 20
0.9560865860370595
 30
0.0
 40
0.0320000000000002
100
AcDbArc
 50
105.3804930608772
 51
180.0
  0
ARC
  5
C5
330
89
100
AcDbEntity
  8
AM_9
100
AcDbCircle
 10
-0.7429999999999998
 20
-0.9560865860370595
 30
0.0
 40
0.0320000000000003
100
AcDbArc
 50
180.0
 51
254.6195069391228
  0
LINE
  5
C6
330
89
100
AcDbEntity
  8
AM_9
100
AcDbLine
 10
-0.6720000000000002
 20
-1.005431728164772
 30
0.0
 11
-0.6720000000000002
 21
1.005431728164573
 31
0.0
  0
LINE
  5
C7
330
89
100
AcDbEntity
  8
AM_9
100
AcDbLine
 10
-0.7514872917080866
 20
-0.9869405303468901
 30
0.0
 11
-0.7514872917080866
 21
0.9869405303466913
 31
0.0
  0
ARC
  5
C8
330
89
100
AcDbEntity
  8
AM_9
100
AcDbCircle
 10
-0.4800000000000042
 20
0.0000000000000191
 30
0.0
 40
1.02359999999998
100
AcDbArc
 50
100.8111968128525
 51
105.380495858825
  0
ARC
  5
C9
330
89
100
AcDbEntity
  8
AM_9
100
AcDbCircle
 10
-0.480000000055112
 20
-0.0000000002371029
 30
0.0
 40
1.023599999756963
100
AcDbArc
 50
254.6195041406324
 51
259.1888031876902
  0
LINE
  5
CA
330
89
100
AcDbEntity
  8
AM_9
100
AcDbLine
 10
-0.2085127067365871
 20
-0.9869405299188383
 30
0.0
 11
-0.2085127067365871
 21
0.9869405299188527
 31
0.0
  0
LINE
  5
CB
330
89
100
AcDbEntity
  8
AM_9
100
AcDbLine
 10
-0.3587588156064437
 20
-0.0737712590188818
 30
0.0
 11
-0.3602597502840961
 21
-0.0729623858224752
 31
0.0
  0
LWPOLYLINE
  5
CC
330
89
100
AcDbEntity
  8
AM_9
100
AcDbPolyline
 90
       26
 70
     0
 43
0.0
 10
-0.3587588156064437
 20
-0.0737712590188817
 10
-0.3456912379051041
 20
-0.079265443551546
 10
-0.3319023956283841
 20
-0.0824789513921623
 10
-0.3177513952569568
 20
-0.0832946885492672
 10
-0.3036642274338443
 20
-0.0817165037132162
 10
-0.2900064477061085
 20
-0.0777393632872699
 10
-0.2772003695507617
 20
-0.0715026997941607
 10
-0.2656780961780016
 20
-0.0631831807886537
 10
-0.2557062592081374
 20
-0.0530165949437911
 10
-0.2476856685727849
 20
-0.0413957820984692
 10
-0.2417175982706508
 20
-0.0285711397030294
 10
-0.2380494652091175
 20
-0.0150700806971341
 10
-0.2366744223067401
 20
-0.0011369021636591
 10
-0.2376505125935598
 20
0.0127124159469938
 10
-0.2408934841090208
 20
0.0262031217230978
 10
-0.2463322781831957
 20
0.0389378454813712
 10
-0.2537770166012419
 20
0.0505861731524834
 10
-0.2631096835745291
 20
0.0608819047342012
 10
-0.2739903930120201
 20
0.0694806484516146
 10
-0.2862810786024041
 20
0.0761980621300264
 10
-0.2994982704248779
 20
0.0807720467047467
 10
-0.3134417937289132
 20
0.083066651532869
 10
-0.3275689178233958
 20
0.0829888903855685
 10
-0.3415625274907175
 20
0.0804865793967004
 10
-0.3549465499575938
 20
0.0756517223234649
 10
-0.3587588156064313
 20
0.0737712590188881
  0
LINE
  5
CD
330
89
100
AcDbEntity
  8
AM_9
100
AcDbLine
 10
-0.608
 20
-1.015565340093867
 30
0.0
 11
-0.608
 21
1.015565340093881
 31
0.0
  0
ARC
  5
CE
330
89
100
AcDbEntity
  8
AM_9
100
AcDbCircle
 10
-0.4799999999999999
 20
0.0000000000000036
 30
0.0
 40
1.023599999999997
100
AcDbArc
 50
74.61950405088224
 51
97.18357665371073
  0
ARC
  5
CF
330
89
100
AcDbEntity
  8
AM_9
100
AcDbCircle
 10
-0.4799999999996368
 20
-0.0000000000050662
 30
0.0
 40
1.023599999995005
100
AcDbArc
 50
262.8164233462336
 51
285.3804959491735
  0
LINE
  5
D1
330
89
100
AcDbEntity
  8
AM_5
100
AcDbLine
 10
-0.8825
 20
0.4375000000000001
 30
0.0
 11
-0.8825
 21
0.6599999999999929
 31
0.0
  0
LINE
  5
D2
330
89
100
AcDbEntity
  8
AM_5
100
AcDbLine
 10
-1.1325
 20
0.4375000000000001
 30
0.0
 11
-1.1325
 21
0.6599999999999929
 31
0.0
  0
LINE
  5
D5
330
89
100
AcDbEntity
  8
AM_7
100
AcDbLine
 10
-0.3200000000000001
 20
-0.0311818181818212
 30
0.0
 11
-0.3200000000000001
 21
0.0311818181818211
 31
0.0
  0
LINE
  5
D6
330
89
100
AcDbEntity
  8
AM_7
100
AcDbLine
 10
-1.0075
 20
0.6814943834276997
 30
0.0
 11
-1.0075
 21
0.3858231439885204
 31
0.0
  0
LWPOLYLINE
  5
D8
330
89
100
AcDbEntity
  8
AM_4
100
AcDbPolyline
 90
        8
 70
     0
 43
0.0
 10
-1.0075
 20
0.2689748400644918
 10
-1.023479191730239
 20
0.2679120919172858
 10
-1.039458383460478
 20
0.2646222536177129
 10
-1.054086024269056
 20
0.2593638998265836
 10
-1.067805986590095
 20
0.2519479526833525
 10
-1.079692849307076
 20
0.2427638376198474
 10
-1.089862486205457
 20
0.2315811503073286
 10
-1.092663676897358
 20
0.2276151281652661
  0
LWPOLYLINE
  5
D9
330
89
100
AcDbEntity
  8
AM_4
100
AcDbPolyline
 90
        8
 70
     0
 43
0.0
 10
-0.9222260952160901
 20
0.2274479616310639
 10
-0.9284520773706499
 20
0.2356945712146663
 10
-0.9390289616690344
 20
0.2459904407841137
 10
-0.9518426994131473
 20
0.2547796712356147
 10
-0.9660535376309077
 20
0.2614852413946751
 10
-0.9819299883017951
 20
0.2662203531988847
 10
-0.99447978180443
 20
0.2682710453860985
 10
-1.0075
 20
0.2689748400644918
  0
LWPOLYLINE
  5
DA
330
89
100
AcDbEntity
  8
AM_4
100
AcDbPolyline
 90
       16
 70
     0
 43
0.0
 10
-0.9271037725928792
 20
0.6553302734623359
 10
-0.9402077979870508
 20
0.6540675798979584
 10
-0.954877462934364
 20
0.6529162235583775
 10
-0.9732323954938126
 20
0.6518693558898979
 10
-0.9929776721112378
 20
0.6512356012100214
 10
-1.013365897579817
 20
0.6511193828471599
 10
-1.034162835074476
 20
0.651564664545935
 10
-1.053849463316632
 20
0.6525090339588813
 10
-1.072752145769712
 20
0.653890826961194
 10
-1.088865464840267
 20
0.6554323861876741
 10
-1.096286881305526
 20
0.6562538984144389
 10
-1.102996661672844
 20
0.6570564847016914
 10
-1.113137675759941
 20
0.6583768903723246
 10
-1.120420296913159
 20
0.6594041402667483
 10
-1.123835191573719
 20
0.6599084079064973
 10
-1.124445218364824
 20
0.6599999999999688
  0
LWPOLYLINE
  5
DB
330
89
100
AcDbEntity
  8
AM_4
100
AcDbPolyline
 90
       39
 70
     0
 43
0.0
 10
-0.9161852079205076
 20
0.2163852722248419
 10
-0.928105823960352
 20
0.2051022782251554
 10
-0.9416296097810876
 20
0.1955217222802192
 10
-0.9587248789236411
 20
0.1868769987647421
 10
-0.9770343791762455
 20
0.1809009106231849
 10
-0.9971753151555411
 20
0.1776706266584168
 10
-1.017594725844426
 20
0.1776417299740037
 10
-1.038205292762595
 20
0.1809715628656091
 10
-1.0579399383943
 20
0.1875687437451997
 10
-1.076086912908907
 20
0.1972393512233974
 10
-1.092191460034521
 20
0.2097102762217152
 10
-1.105126271258354
 20
0.2240011498424919
 10
-1.115115910902679
 20
0.240110044834612
 10
-1.121251322656702
 20
0.2561069772562919
 10
-1.124206306342539
 20
0.2726717873586227
 10
-1.123924069347829
 20
0.2879960413271144
 10
-1.120807091368136
 20
0.3028800189937971
 10
-1.11507753529551
 20
0.3166576597189752
 10
-1.106959249745153
 20
0.3293132719383436
 10
-1.096163702989883
 20
0.3410904196268948
 10
-1.083392121340318
 20
0.3511847799428452
 10
-1.067776456308797
 20
0.3600226791123689
 10
-1.050713265502481
 20
0.3666431427796818
 10
-1.031360170572237
 20
0.3711663163644339
 10
-1.011379662502821
 20
0.3730346438372122
 10
-0.9906009107289822
 20
0.3721232740351798
 10
-0.9702963876546935
 20
0.3683595155962652
 10
-0.9509914126023976
 20
0.3617215956111879
 10
-0.9333464819397349
 20
0.3523325970359
 10
-0.918383376950456
 20
0.3406599648855433
 10
-0.9061167729003105
 20
0.32671975942517
 10
-0.89763735442164
 20
0.3119389444551593
 10
-0.8923452524030079
 20
0.2958445883228476
 10
-0.8905809963324571
 20
0.2803529666849831
 10
-0.8918000942647345
 20
0.264630531672963
 10
-0.8957639755349945
 20
0.2497957538553005
 10
-0.9022612393715135
 20
0.2355989861265086
 10
-0.9086400425718337
 20
0.2256469325750377
 10
-0.9161852068212045
 20
0.2163852706810452
  0
LINE
  5
DC
330
89
100
AcDbEntity
  8
AM_4
100
AcDbLine
 10
-0.87
 20
0.6599999999999928
 30
0.0
 11
-0.8905547816350169
 21
0.6599999999999928
 31
0.0
  0
LINE
  5
DD
330
89
100
AcDbEntity
  8
AM_4
100
AcDbLine
 10
-1.124445218364983
 20
0.6599999999999928
 30
0.0
 11
-1.2136
 21
0.6599999999999928
 31
0.0
  0
LINE
  5
DE
330
89
100
AcDbEntity
  8
AM_4
100
AcDbLine
 10
-1.2136
 20
-0.6599999999999928
 30
0.0
 11
-0.8699999999999999
 21
-0.6599999999999928
 31
0.0
  0
LWPOLYLINE
  5
DF
330
89
100
AcDbEntity
  8
AM_4
100
AcDbPolyline
 90
        7
 70
     0
 43
0.0
 10
-0.8905547816352904
 20
0.6599999999999517
 10
-0.8912767724702438
 20
0.6598916468253792
 10
-0.8947794225747452
 20
0.6593750933031257
 10
-0.900736178601335
 20
0.6585314383617873
 10
-0.9092586311793882
 20
0.6574011516638559
 10
-0.9175167577600246
 20
0.6563927802432653
 10
-0.9271037725928792
 20
0.6553302734623359
  0
LINE
  5
E0
330
89
100
AcDbEntity
  8
AM_4
100
AcDbLine
 10
-1.2136
 20
-0.6599999999999931
 30
0.0
 11
-1.2136
 21
0.6599999999999931
 31
0.0
  0
LINE
  5
E1
330
89
100
AcDbEntity
  8
AM_4
100
AcDbLine
 10
-1.24
 20
-0.6336000000000167
 30
0.0
 11
-1.24
 21
0.6336000000000167
 31
0.0
  0
LINE
  5
E2
330
89
100
AcDbEntity
  8
AM_4
100
AcDbLine
 10
-1.24
 20
-0.6336000000000167
 30
0.0
 11
-1.2136
 21
-0.6599999999999931
 31
0.0
  0
LINE
  5
E3
330
89
100
AcDbEntity
  8
AM_4
100
AcDbLine
 10
-1.2136
 20
0.6599999999999931
 30
0.0
 11
-1.24
 21
0.6336000000000167
 31
0.0
  0
ELLIPSE
  5
E4
330
89
100
AcDbEntity
  8
AM_4
100
AcDbEllipse
 10
-1.0075
 20
0.2709003265820643
 30
0.0
 11
0.09794999999999998
 21
0.0
 31
0.0
210
0.0
220
0.0
230
1.0
 40
0.90630778703665
 41
0.0
 42
6.283185307179586
  0
ENDBLK
  5
8C
330
89
100
AcDbEntity
  8
0
100
AcDbBlockEnd
  0
BLOCK
  5
E7
330
E5
100
AcDbEntity
  8
0
100
AcDbBlockBegin
  2
3_430026_0_in_124623_2
 70
     2
 10
0.0
 20
0.0
 30
0.0
  3
3_430026_0_in_124623_2
  1

  0
ATTDEF
  5
E9
330
E5
100
AcDbEntity
  8
AM_6
100
AcDbText
 10
4.629381471828122
 20
-1.0645
 30
0.0
 40
0.5
  1
430026 Plug
100
AcDbAttributeDefinition
  3

  2
NN
 70
     8
280
     0
  0
ATTDEF
  5
EA
330
E5
100
AcDbEntity
  8
AM_6
100
AcDbText
 10
4.629381471828122
 20
-1.5645
 30
0.0
 40
0.5
  1
Plug
100
AcDbAttributeDefinition
  3

  2
NT
 70
     8
280
     0
  0
ATTDEF
  5
EB
330
E5
100
AcDbEntity
  8
AM_6
100
AcDbText
 10
4.629381471828122
 20
-2.0645
 30
0.0
 40
0.5
  1
430026
100
AcDbAttributeDefinition
  3

  2
NB
 70
     8
280
     0
  0
ATTDEF
  5
EC
330
E5
100
AcDbEntity
  8
AM_6
100
AcDbText
 10
4.629381471828122
 20
-2.5645
 30
0.0
 40
0.5
  1
$PN.
100
AcDbAttributeDefinition
  3

  2
NBSYN
 70
     8
280
     0
  0
ATTDEF
  5
ED
330
E5
100
AcDbEntity
  8
AM_6
100
AcDbText
 10
4.629381471828122
 20
-3.0645
 30
0.0
 40
0.5
  1
430026
100
AcDbAttributeDefinition
  3

  2
LINA
 70
     8
280
     0
  0
ATTDEF
  5
EE
330
E5
100
AcDbEntity
  8
AM_6
100
AcDbText
 10
4.629381471828122
 20
-3.5645
 30
0.0
 40
0.5
  1
430026
100
AcDbAttributeDefinition
  3

  2
PN
 70
     8
280
     0
  0
ATTDEF
  5
EF
330
E5
100
AcDbEntity
  8
AM_6
100
AcDbText
 10
4.629381471828122
 20
-4.0645
 30
0.0
 40
0.5
  1
baldor
100
AcDbAttributeDefinition
  3

  2
COMPANY
 70
     8
280
     0
  0
LINE
  5
F0
330
E5
100
AcDbEntity
  8
AM_9
100
AcDbLine
 10
-0.6782531754730546
 20
-1.252
 30
0.0
 11
-0.6782531754730546
 21
-1.376253175473055
 31
0.0
  0
LINE
  5
F1
330
E5
100
AcDbEntity
  8
AM_9
100
AcDbLine
 10
-0.4617468245269451
 20
-1.252
 30
0.0
 11
-0.4617468245269451
 21
-1.376253175473055
 31
0.0
  0
LINE
  5
F2
330
E5
100
AcDbEntity
  8
AM_9
100
AcDbLine
 10
-0.4617468245269451
 20
-1.252
 30
0.0
 11
-0.6782531754730546
 21
-1.252
 31
0.0
  0
LINE
  5
F3
330
E5
100
AcDbEntity
  8
AM_9
100
AcDbLine
 10
-0.6410018603583623
 20
-1.1895
 30
0.0
 11
-0.4989981396416376
 21
-1.1895
 31
0.0
  0
LINE
  5
F4
330
E5
100
AcDbEntity
  8
AM_9
100
AcDbLine
 10
-0.6410018603583623
 20
-1.1895
 30
0.0
 11
-0.66375
 21
-1.252
 31
0.0
  0
LINE
  5
F5
330
E5
100
AcDbEntity
  8
AM_9
100
AcDbLine
 10
-0.47625
 20
-1.252
 30
0.0
 11
-0.4989981396416376
 21
-1.1895
 31
0.0
  0
LINE
  5
F6
330
E5
100
AcDbEntity
  8
AM_9
100
AcDbLine
 10
-0.6241265877365273
 20
-1.252
 30
0.0
 11
-0.6241265877365273
 21
-1.376253175473055
 31
0.0
  0
LINE
  5
F7
330
E5
100
AcDbEntity
  8
AM_9
100
AcDbLine
 10
-0.5158734122634725
 20
-1.252
 30
0.0
 11
-0.5158734122634725
 21
-1.376253175473055
 31
0.0
  0
LWPOLYLINE
  5
F8
330
E5
100
AcDbEntity
  8
AM_9
100
AcDbPolyline
 90
        9
 70
     0
 43
0.0
 10
-0.6782531754730546
 20
-1.376253175473055
 10
-0.672718219180609
 20
-1.371164624630303
 10
-0.6669720277830199
 20
-1.366921014208125
 10
-0.6608954308564071
 20
-1.363738462725815
 10
-0.6545890509173602
 20
-1.361996169645694
 10
-0.6459137282381159
 20
-1.362342003780896
 10
-0.637122952725108
 20
-1.365880419147163
 10
-0.6305357311416956
 20
-1.370447246060629
 10
-0.6241265877365273
 20
-1.376253175473055
  0
LWPOLYLINE
  5
F9
330
E5
100
AcDbEntity
  8
AM_9
100
AcDbPolyline
 90
        8
 70
     0
 43
0.0
 10
-0.6241265877365273
 20
-1.376253175473055
 10
-0.6103248640674096
 20
-1.370054677315912
 10
-0.5917872012091695
 20
-1.364248348747024
 10
-0.5819735315707658
 20
-1.362511522886239
 10
-0.5719345702169717
 20
-1.361769958205837
 10
-0.5534848124351938
 20
-1.363193560287977
 10
-0.5349635500057942
 20
-1.36808304216098
 10
-0.5158734122634725
 20
-1.376253175473055
  0
LWPOLYLINE
  5
FA
330
E5
100
AcDbEntity
  8
AM_9
100
AcDbPolyline
 90
        9
 70
     0
 43
0.0
 10
-0.5158734122634725
 20
-1.376253175473055
 10
-0.5103384559710269
 20
-1.371164624630303
 10
-0.5045922645734378
 20
-1.366921014208125
 10
-0.4985156676468249
 20
-1.363738462725815
 10
-0.4922092877077779
 20
-1.361996169645694
 10
-0.4835339650285337
 20
-1.362342003780896
 10
-0.4747431895155259
 20
-1.365880419147163
 10
-0.4681559679321134
 20
-1.370447246060629
 10
-0.4617468245269451
 20
-1.376253175473055
  0
LINE
  5
FB
330
E5
100
AcDbEntity
  8
AM_9
100
AcDbLine
 10
-0.7402494517657396
 20
-1.0645
 30
0.0
 11
-0.3997505482342603
 21
-1.0645
 31
0.0
  0
LINE
  5
FC
330
E5
100
AcDbEntity
  8
AM_9
100
AcDbLine
 10
-0.7402494517657396
 20
-1.0645
 30
0.0
 11
-0.7608735385412942
 21
-1.084490260520978
 31
0.0
  0
LINE
  5
FD
330
E5
100
AcDbEntity
  8
AM_9
100
AcDbLine
 10
-0.3791264614587055
 20
-1.084490260520978
 30
0.0
 11
-0.3997505482342603
 21
-1.0645
 31
0.0
  0
LINE
  5
FE
330
E5
100
AcDbEntity
  8
AM_9
100
AcDbLine
 10
-0.7608735385412942
 20
-1.084490260520978
 30
0.0
 11
-0.3791264614587055
 21
-1.084490260520978
 31
0.0
  0
LINE
  5
FF
330
E5
100
AcDbEntity
  8
AM_9
100
AcDbLine
 10
-0.7608735385412942
 20
-1.084490260520978
 30
0.0
 11
-0.7683821424258437
 21
-1.325
 31
0.0
  0
LINE
  5
100
330
E5
100
AcDbEntity
  8
AM_9
100
AcDbLine
 10
-0.3714617598647493
 20
-1.33
 30
0.0
 11
-0.3791264614587055
 21
-1.084490260520978
 31
0.0
  0
LINE
  5
101
330
E5
100
AcDbEntity
  8
AM_4
100
AcDbLine
 10
-0.7500055586036762
 20
-1.377
 30
0.0
 11
-0.3899944413963236
 21
-1.377
 31
0.0
  0
LINE
  5
102
330
E5
100
AcDbEntity
  8
AM_4
100
AcDbLine
 10
-0.3899944413963236
 20
-1.377
 30
0.0
 11
-0.3706185281718783
 21
-1.357009739479022
 31
0.0
  0
LINE
  5
103
330
E5
100
AcDbEntity
  8
AM_4
100
AcDbLine
 10
-0.7693814718281216
 20
-1.357009739479022
 30
0.0
 11
-0.7500055586036762
 21
-1.377
 31
0.0
  0
LINE
  5
104
330
E5
100
AcDbEntity
  8
AM_4
100
AcDbLine
 10
-0.7693814718281216
 20
-1.357009739479022
 30
0.0
 11
-0.3706185281718783
 21
-1.357009739479022
 31
0.0
  0
LINE
  5
105
330
E5
100
AcDbEntity
  8
AM_4
100
AcDbLine
 10
-0.7683821424258437
 20
-1.325
 30
0.0
 11
-0.7693814718281216
 21
-1.357009739479022
 31
0.0
  0
LINE
  5
106
330
E5
100
AcDbEntity
  8
AM_4
100
AcDbLine
 10
-0.3706185281718783
 20
-1.357009739479022
 30
0.0
 11
-0.3714617598647493
 21
-1.33
 31
0.0
  0
ENDBLK
  5
E8
330
E5
100
AcDbEntity
  8
0
100
AcDbBlockEnd
  0
BLOCK
  5
109
330
107
100
AcDbEntity
  8
0
100
AcDbBlockBegin
  2
4_124623H_0_in_124623_2
 70
     2
 10
0.0
 20
0.0
 30
0.0
  3
4_124623H_0_in_124623_2
  1

  0
ATTDEF
  5
10B
330
107
100
AcDbEntity
  8
AM_6
100
AcDbText
 10
5.021
 20
1.875
 30
0.0
 40
0.5
  1
LF-SC & LF-SC-NL - housing -Inch
100
AcDbAttributeDefinition
  3

  2
NN
 70
     8
280
     0
  0
ATTDEF
  5
10C
330
107
100
AcDbEntity
  8
AM_6
100
AcDbText
 10
5.021
 20
1.375
 30
0.0
 40
0.5
  1
SC 3 Bolt Flange Bearings -(Normal Duty) -Re-Lube and No-Lube
100
AcDbAttributeDefinition
  3

  2
NT
 70
     8
280
     0
  0
ATTDEF
  5
10D
330
107
100
AcDbEntity
  8
AM_6
100
AcDbText
 10
5.021
 20
0.8749999999999996
 30
0.0
 40
0.5
  1
124623H
100
AcDbAttributeDefinition
  3

  2
NB
 70
     8
280
     0
  0
ATTDEF
  5
10E
330
107
100
AcDbEntity
  8
AM_6
100
AcDbText
 10
5.021
 20
0.3749999999999996
 30
0.0
 40
0.5
  1
$PN.H
100
AcDbAttributeDefinition
  3

  2
NBSYN
 70
     8
280
     0
  0
ATTDEF
  5
10F
330
107
100
AcDbEntity
  8
AM_6
100
AcDbText
 10
5.021
 20
-0.1250000000000004
 30
0.0
 40
0.5
  1
124623
100
AcDbAttributeDefinition
  3

  2
LINA
 70
     8
280
     0
  0
ATTDEF
  5
110
330
107
100
AcDbEntity
  8
AM_6
100
AcDbText
 10
5.021
 20
-0.6250000000000004
 30
0.0
 40
0.5
  1
205
100
AcDbAttributeDefinition
  3

  2
SERIES
 70
     8
280
     0
  0
ATTDEF
  5
111
330
107
100
AcDbEntity
  8
AM_6
100
AcDbText
 10
5.021
 20
-1.125
 30
0.0
 40
0.5
  1
7/8
100
AcDbAttributeDefinition
  3

  2
SS
 70
     8
280
     0
  0
ATTDEF
  5
112
330
107
100
AcDbEntity
  8
AM_6
100
AcDbText
 10
5.021
 20
-1.625
 30
0.0
 40
0.5
  1
124623
100
AcDbAttributeDefinition
  3

  2
PN
 70
     8
280
     0
  0
ATTDEF
  5
113
330
107
100
AcDbEntity
  8
AM_6
100
AcDbText
 10
5.021
 20
-2.125
 30
0.0
 40
0.5
  1
LF-SC-014-NL
100
AcDbAttributeDefinition
  3

  2
DESCRIPTION
 70
     8
280
     0
  0
ATTDEF
  5
114
330
107
100
AcDbEntity
  8
AM_6
100
AcDbText
 10
5.021
 20
-2.625
 30
0.0
 40
0.5
  1
1.10
100
AcDbAttributeDefinition
  3

  2
W
 70
     8
280
     0
  0
ATTDEF
  5
115
330
107
100
AcDbEntity
  8
AM_6
100
AcDbText
 10
5.021
 20
-3.125
 30
0.0
 40
0.5
  1
NO-LUBE
100
AcDbAttributeDefinition
  3

  2
LF
 70
     8
280
     0
  0
ATTDEF
  5
116
330
107
100
AcDbEntity
  8
AM_6
100
AcDbText
 10
5.021
 20
-3.625
 30
0.0
 40
0.5
  1
1.06
100
AcDbAttributeDefinition
  3

  2
A
 70
     8
280
     0
  0
ATTDEF
  5
117
330
107
100
AcDbEntity
  8
AM_6
100
AcDbText
 10
5.021
 20
-4.125
 30
0.0
 40
0.5
  1
3.75
100
AcDbAttributeDefinition
  3

  2
B
 70
     8
280
     0
  0
ATTDEF
  5
118
330
107
100
AcDbEntity
  8
AM_6
100
AcDbText
 10
5.021
 20
-4.625
 30
0.0
 40
0.5
  1
1.24
100
AcDbAttributeDefinition
  3

  2
C
 70
     8
280
     0
  0
ATTDEF
  5
119
330
107
100
AcDbEntity
  8
AM_6
100
AcDbText
 10
5.021
 20
-5.125
 30
0.0
 40
0.5
  1
3.00
100
AcDbAttributeDefinition
  3

  2
D
 70
     8
280
     0
  0
ATTDEF
  5
11A
330
107
100
AcDbEntity
  8
AM_6
100
AcDbText
 10
5.021
 20
-5.625
 30
0.0
 40
0.5
  1
0.34
100
AcDbAttributeDefinition
  3

  2
G
 70
     8
280
     0
  0
ATTDEF
  5
11B
330
107
100
AcDbEntity
  8
AM_6
100
AcDbText
 10
5.021
 20
-6.125
 30
0.0
 40
0.5
  1
0.42
100
AcDbAttributeDefinition
  3

  2
H
 70
     8
280
     0
  0
ATTDEF
  5
11C
330
107
100
AcDbEntity
  8
AM_6
100
AcDbText
 10
5.021
 20
-6.625
 30
0.0
 40
0.5
  1
0.37
100
AcDbAttributeDefinition
  3

  2
J
 70
     8
280
     0
  0
ATTDEF
  5
11D
330
107
100
AcDbEntity
  8
AM_6
100
AcDbText
 10
5.021
 20
-7.125
 30
0.0
 40
0.5
  1
1.32
100
AcDbAttributeDefinition
  3

  2
L
 70
     8
280
     0
  0
ATTDEF
  5
11E
330
107
100
AcDbEntity
  8
AM_6
100
AcDbText
 10
5.021
 20
-7.625
 30
0.0
 40
0.5
  1
1.88
100
AcDbAttributeDefinition
  3

  2
M
 70
     8
280
     0
  0
ATTDEF
  5
11F
330
107
100
AcDbEntity
  8
AM_6
100
AcDbText
 10
5.021
 20
-8.125
 30
0.0
 40
0.5
  1
1.70
100
AcDbAttributeDefinition
  3

  2
N
 70
     8
280
     0
  0
ATTDEF
  5
120
330
107
100
AcDbEntity
  8
AM_6
100
AcDbText
 10
5.021
 20
-8.625
 30
0.0
 40
0.5
  1
1565
100
AcDbAttributeDefinition
  3

  2
CAPS
 70
     8
280
     0
  0
ATTDEF
  5
121
330
107
100
AcDbEntity
  8
AM_6
100
AcDbText
 10
5.021
 20
-9.125
 30
0.0
 40
0.5
  1
3146
100
AcDbAttributeDefinition
  3

  2
CAPD
 70
     8
280
     0
  0
ATTDEF
  5
122
330
107
100
AcDbEntity
  8
AM_6
100
AcDbText
 10
5.021
 20
-9.625
 30
0.0
 40
0.5
  1
baldor
100
AcDbAttributeDefinition
  3

  2
COMPANY
 70
     8
280
     0
  0
LINE
  5
123
330
107
100
AcDbEntity
  8
AM_9
100
AcDbLine
 10
-0.1050000000000001
 20
-0.120718163726319
 30
0.0
 11
-0.0000000000000001
 21
-0.1207181637263181
 31
0.0
  0
LINE
  5
124
330
107
100
AcDbEntity
  8
AM_9
100
AcDbLine
 10
-0.42
 20
-1.05
 30
0.0
 11
-0.72
 21
-1.05
 31
0.0
  0
LINE
  5
125
330
107
100
AcDbEntity
  8
AM_9
100
AcDbLine
 10
-0.72
 20
-1.05
 30
0.0
 11
-0.72
 21
-1.325
 31
0.0
  0
LINE
  5
126
330
107
100
AcDbEntity
  8
AM_9
100
AcDbLine
 10
-0.4199999999999999
 20
-1.33
 30
0.0
 11
-0.4199999999999999
 21
-1.251559027772961
 31
0.0
  0
LINE
  5
127
330
107
100
AcDbEntity
  8
AM_9
100
AcDbLine
 10
-0.21
 20
1.33
 30
0.0
 11
-0.21
 21
1.67
 31
0.0
  0
LINE
  5
128
330
107
100
AcDbEntity
  8
AM_9
100
AcDbLine
 10
-0.42
 20
1.33
 30
0.0
 11
0.0
 21
1.33
 31
0.0
  0
LINE
  5
129
330
107
100
AcDbEntity
  8
AM_9
100
AcDbLine
 10
0.0
 20
1.67
 30
0.0
 11
-0.42
 21
1.67
 31
0.0
  0
LINE
  5
12A
330
107
100
AcDbEntity
  8
AM_9
100
AcDbLine
 10
-0.87
 20
1.163461538461538
 30
0.0
 11
-0.42
 21
1.163461538461538
 31
0.0
  0
LINE
  5
12B
330
107
100
AcDbEntity
  8
AM_9
100
AcDbLine
 10
0.0
 20
1.06735
 30
0.0
 11
-0.105
 21
1.06735
 31
0.0
  0
LINE
  5
12C
330
107
100
AcDbEntity
  8
AM_9
100
AcDbLine
 10
-0.105
 20
0.9787802056320488
 30
0.0
 11
0.0
 21
0.9787802056320488
 31
0.0
  0
LINE
  5
12D
330
107
100
AcDbEntity
  8
AM_9
100
AcDbLine
 10
-0.105
 20
-1.011283118712347
 30
0.0
 11
0.0
 21
-1.011283118712347
 31
0.0
  0
LINE
  5
12E
330
107
100
AcDbEntity
  8
AM_9
100
AcDbLine
 10
-0.105
 20
-0.8580620419057293
 30
0.0
 11
0.0
 21
-0.8580620419057293
 31
0.0
  0
LINE
  5
12F
330
107
100
AcDbEntity
  8
AM_9
100
AcDbLine
 10
-0.4199999999999999
 20
-1.026958025535096
 30
0.0
 11
-0.1049999999999999
 21
-1.026958025535096
 31
0.0
  0
LINE
  5
130
330
107
100
AcDbEntity
  8
AM_9
100
AcDbLine
 10
-0.1050000000000001
 20
-0.4375
 30
0.0
 11
-0.1049999999999999
 21
-1.125
 31
0.0
  0
LINE
  5
131
330
107
100
AcDbEntity
  8
AM_9
100
AcDbLine
 10
-0.4199999999999999
 20
-1.33
 30
0.0
 11
-0.3714617598647492
 21
-1.33
 31
0.0
  0
LINE
  5
132
330
107
100
AcDbEntity
  8
AM_9
100
AcDbLine
 10
-0.5655
 20
-0.4375
 30
0.0
 11
-0.1050000000000001
 21
-0.4375
 31
0.0
  0
LINE
  5
133
330
107
100
AcDbEntity
  8
AM_9
100
AcDbLine
 10
-0.5655
 20
0.4374999999999988
 30
0.0
 11
-0.1050000000000001
 21
0.4374999999999988
 31
0.0
  0
LINE
  5
134
330
107
100
AcDbEntity
  8
AM_9
100
AcDbLine
 10
-0.87
 20
-1.0236
 30
0.0
 11
-0.1050000000000001
 21
-1.0236
 31
0.0
  0
LINE
  5
135
330
107
100
AcDbEntity
  8
AM_9
100
AcDbLine
 10
-0.1050000000000001
 20
1.0236
 30
0.0
 11
-0.87
 21
1.0236
 31
0.0
  0
LINE
  5
136
330
107
100
AcDbEntity
  8
AM_9
100
AcDbLine
 10
-0.5655
 20
-0.4375
 30
0.0
 11
-0.5655
 21
0.4374999999999988
 31
0.0
  0
LINE
  5
137
330
107
100
AcDbEntity
  8
AM_9
100
AcDbLine
 10
-0.2099999999999999
 20
-0.517775681356645
 30
0.0
 11
-0.4199999999999999
 21
-0.517775681356645
 31
0.0
  0
LINE
  5
138
330
107
100
AcDbEntity
  8
AM_9
100
AcDbLine
 10
-0.2099999999999999
 20
-0.9822243186433542
 30
0.0
 11
-0.4199999999999999
 21
-0.9822243186433542
 31
0.0
  0
LINE
  5
139
330
107
100
AcDbEntity
  8
AM_9
100
AcDbLine
 10
-0.2099999999999999
 20
-0.8122243186433541
 30
0.0
 11
-0.4199999999999999
 21
-0.8122243186433541
 31
0.0
  0
LINE
  5
13A
330
107
100
AcDbEntity
  8
AM_9
100
AcDbLine
 10
-0.2099999999999999
 20
-0.9822243186433542
 30
0.0
 11
-0.2099999999999999
 21
-0.517775681356645
 31
0.0
  0
LINE
  5
13B
330
107
100
AcDbEntity
  8
AM_9
100
AcDbLine
 10
-0.2099999999999999
 20
-0.9199999999999996
 30
0.0
 11
0.0000000000000001
 21
-0.9199999999999996
 31
0.0
  0
LINE
  5
13C
330
107
100
AcDbEntity
  8
AM_9
100
AcDbLine
 10
0.0000000000000001
 20
-0.5799999999999997
 30
0.0
 11
-0.2099999999999999
 21
-0.5799999999999997
 31
0.0
  0
LINE
  5
13D
330
107
100
AcDbEntity
  8
AM_9
100
AcDbLine
 10
-0.2099999999999999
 20
-0.687775681356645
 30
0.0
 11
-0.4199999999999999
 21
-0.687775681356645
 31
0.0
  0
LINE
  5
13E
330
107
100
AcDbEntity
  8
AM_9
100
AcDbLine
 10
-0.4199999999999999
 20
-1.105677388581791
 30
0.0
 11
0.0000000000000001
 21
-1.105677388581791
 31
0.0
  0
LINE
  5
13F
330
107
100
AcDbEntity
  8
AM_7
100
AcDbLine
 10
0.021
 20
1.5
 30
0.0
 11
-1.3335
 21
1.5
 31
0.0
  0
LINE
  5
140
330
107
100
AcDbEntity
  8
AM_7
100
AcDbLine
 10
-1.293
 20
0.0
 30
0.0
 11
-0.0667500000000003
 21
0.0
 31
0.0
  0
LINE
  5
141
330
107
100
AcDbEntity
  8
AM_7
100
AcDbLine
 10
0.0209999999999999
 20
-0.7499999999999997
 30
0.0
 11
-1.3335
 21
-0.7500000000000004
 31
0.0
  0
LINE
  5
142
330
107
100
AcDbEntity
  8
AM_7
100
AcDbLine
 10
-0.57
 20
-1.0325
 30
0.0
 11
-0.57
 21
-1.4175
 31
0.0
  0
LINE
  5
143
330
107
100
AcDbEntity
  8
AM_4
100
AcDbLine
 10
0.0
 20
1.875
 30
0.0
 11
-0.42
 21
1.875
 31
0.0
  0
LINE
  5
144
330
107
100
AcDbEntity
  8
AM_4
100
AcDbLine
 10
-0.8690000000000001
 20
-1.325
 30
0.0
 11
-0.8690000000000001
 21
-1.118488736059612
 31
0.0
  0
LINE
  5
145
330
107
100
AcDbEntity
  8
AM_4
100
AcDbLine
 10
-0.106
 20
-1.325
 30
0.0
 11
-0.106
 21
-1.251559027772961
 31
0.0
  0
LINE
  5
146
330
107
100
AcDbEntity
  8
AM_4
100
AcDbLine
 10
-0.8690000000000001
 20
-1.325
 30
0.0
 11
-0.106
 21
-1.325
 31
0.0
  0
LINE
  5
147
330
107
100
AcDbEntity
  8
AM_4
100
AcDbLine
 10
-0.8690000000000001
 20
-1.257
 30
0.0
 11
-0.106
 21
-1.257
 31
0.0
  0
LINE
  5
148
330
107
100
AcDbEntity
  8
AM_4
100
AcDbLine
 10
-0.42
 20
1.57493608772173
 30
0.0
 11
0.0
 21
1.57493608772173
 31
0.0
  0
LINE
  5
149
330
107
100
AcDbEntity
  8
AM_4
100
AcDbLine
 10
-0.105
 20
1.095393759825661
 30
0.0
 11
0.0
 21
1.095393759825661
 31
0.0
  0
LINE
  5
14A
330
107
100
AcDbEntity
  8
AM_4
100
AcDbLine
 10
-0.105
 20
0.9717268187193434
 30
0.0
 11
0.0
 21
0.9717268187193434
 31
0.0
  0
LINE
  5
14B
330
107
100
AcDbEntity
  8
AM_4
100
AcDbLine
 10
0.0
 20
0.9717268187193434
 30
0.0
 11
0.0
 21
1.875
 31
0.0
  0
LINE
  5
14C
330
107
100
AcDbEntity
  8
AM_4
100
AcDbLine
 10
-0.42
 20
1.875
 30
0.0
 11
-0.4199999999999999
 21
-1.251559027772961
 31
0.0
  0
LINE
  5
14D
330
107
100
AcDbEntity
  8
AM_4
100
AcDbLine
 10
-0.1049999999999999
 20
-1.125
 30
0.0
 11
-0.105
 21
-1.33
 31
0.0
  0
LINE
  5
14E
330
107
100
AcDbEntity
  8
AM_4
100
AcDbLine
 10
-0.4199999999999999
 20
-1.251559027772961
 30
0.0
 11
-0.106
 21
-1.251559027772961
 31
0.0
  0
LINE
  5
14F
330
107
100
AcDbEntity
  8
AM_4
100
AcDbLine
 10
-0.3714617598647492
 20
-1.33
 30
0.0
 11
-0.105
 21
-1.33
 31
0.0
  0
LINE
  5
150
330
107
100
AcDbEntity
  8
AM_4
100
AcDbLine
 10
-0.802
 20
-1.17904368027652
 30
0.0
 11
-0.4699999999999999
 21
-1.17904368027652
 31
0.0
  0
LINE
  5
151
330
107
100
AcDbEntity
  8
AM_4
100
AcDbLine
 10
-0.802
 20
-0.8098630710696989
 30
0.0
 11
-0.802
 21
-1.17904368027652
 31
0.0
  0
LWPOLYLINE
  5
152
330
107
100
AcDbEntity
  8
AM_4
100
AcDbPolyline
 90
       10
 70
     0
 43
0.0
 10
-0.8690000000000001
 20
-1.118488736059612
 10
-0.8668157588204803
 20
-1.128125893659145
 10
-0.8633495744739959
 20
-1.137556806746022
 10
-0.8571251979473185
 20
-1.148824957329044
 10
-0.8487194668394752
 20
-1.15912337638709
 10
-0.8425077264979767
 20
-1.164708919897031
 10
-0.8355526211286886
 20
-1.169561588978101
 10
-0.8259545399189792
 20
-1.174376833413517
 10
-0.815398859032432
 20
-1.1776166348194
 10
-0.802
 20
-1.17904368027652
  0
ARC
  5
153
330
107
100
AcDbEntity
  8
AM_4
100
AcDbCircle
 10
-0.8019999999999465
 20
-1.193999999999995
 30
0.0
 40
0.0680000000000535
100
AcDbArc
 50
180.0
 51
189.8382269852421
  0
LINE
  5
154
330
107
100
AcDbEntity
  8
AM_4
100
AcDbLine
 10
-0.4699999999999998
 20
-0.8098630710696991
 30
0.0
 11
-0.4699999999999999
 21
-1.17904368027652
 31
0.0
  0
LWPOLYLINE
  5
155
330
107
100
AcDbEntity
  8
AM_4
100
AcDbPolyline
 90
       11
 70
     0
 43
0.0
 10
-0.4199999999999999
 20
-1.232413891515347
 10
-0.420005127029052
 20
-1.231651611006578
 10
-0.4209014649306809
 20
-1.222346997037314
 10
-0.4234140445419263
 20
-1.213064124779049
 10
-0.4273612955778914
 20
-1.204575780286044
 10
-0.4328984657304173
 20
-1.196668487057576
 10
-0.439283716869066
 20
-1.190326346400664
 10
-0.4469502773359471
 20
-1.185067691946067
 10
-0.4546366414893996
 20
-1.181632341959441
 10
-0.463079703385447
 20
-1.179558744971739
 10
-0.4699999999999999
 20
-1.17904368027652
  0
LINE
  5
156
330
107
100
AcDbEntity
  8
AM_4
100
AcDbLine
 10
0.0000000000000001
 20
-0.0453317337049925
 30
0.0
 11
-0.105
 21
-0.0453317337049925
 31
0.0
  0
LWPOLYLINE
  5
157
330
107
100
AcDbEntity
  8
AM_4
100
AcDbPolyline
 90
       13
 70
     0
 43
0.0
 10
-0.802
 20
-0.8098630710696989
 10
-0.8112864465575165
 20
-0.8090376873837123
 10
-0.820288300646783
 20
-0.8066342464583807
 10
-0.8287169269721018
 20
-0.80276110719464
 10
-0.8364245472769504
 20
-0.7976095221158623
 10
-0.8435943938907523
 20
-0.7910353048232878
 10
-0.8497787037558695
 20
-0.7835139179652242
 10
-0.8573871683826889
 20
-0.770559103580764
 10
-0.8628872174682873
 20
-0.7565242085950677
 10
-0.8666707161751612
 20
-0.741404928724136
 10
-0.8688906215536008
 20
-0.7259341326164126
 10
-0.8698724962670714
 20
-0.7104109009215609
 10
-0.87
 20
-0.7018144697606044
  0
LINE
  5
158
330
107
100
AcDbEntity
  8
AM_4
100
AcDbLine
 10
-0.4699999999999998
 20
-0.8098630710696991
 30
0.0
 11
-0.802
 21
-0.8098630710696989
 31
0.0
  0
LWPOLYLINE
  5
159
330
107
100
AcDbEntity
  8
AM_4
100
AcDbPolyline
 90
       11
 70
     0
 43
0.0
 10
-0.4699999999999998
 20
-0.8098630710696991
 10
-0.4628975370215759
 20
-0.8105196465886656
 10
-0.4560228004825237
 20
-0.8124061696485223
 10
-0.4496064422213568
 20
-0.8153850361530062
 10
-0.4437165242851621
 20
-0.8192749997863228
 10
-0.4367086423851881
 20
-0.8256956621479786
 10
-0.4308606715070403
 20
-0.8331172158425612
 10
-0.4261714668571305
 20
-0.8413628737790103
 10
-0.4227562926806842
 20
-0.8501105707377741
 10
-0.4207035674680599
 20
-0.8589914875403605
 10
-0.4199999999999999
 20
-0.8679716152544316
  0
LINE
  5
15A
330
107
100
AcDbEntity
  8
AM_4
100
AcDbLine
 10
-0.8019999999999999
 20
-0.4332655502320771
 30
0.0
 11
-0.4699999999999998
 21
-0.4332655502320764
 31
0.0
  0
LINE
  5
15B
330
107
100
AcDbEntity
  8
AM_4
100
AcDbLine
 10
-0.4699999999999999
 20
1.243128621301775
 30
0.0
 11
-0.802
 21
1.243128621301775
 31
0.0
  0
LINE
  5
15C
330
107
100
AcDbEntity
  8
AM_4
100
AcDbLine
 10
-0.87
 20
1.187459287968442
 30
0.0
 11
-0.87
 21
-1.194
 31
0.0
  0
LWPOLYLINE
  5
15D
330
107
100
AcDbEntity
  8
AM_4
100
AcDbPolyline
 90
       12
 70
     0
 43
0.0
 10
-0.87
 20
-0.4856448182078381
 10
-0.8695923001921911
 20
-0.4765351296643418
 10
-0.8681832492349554
 20
-0.467963342369442
 10
-0.8656973238808727
 20
-0.4605418445475124
 10
-0.861753427640867
 20
-0.4537055677160456
 10
-0.8561433313607906
 20
-0.4476988398417845
 10
-0.8483583591581317
 20
-0.4424536381815487
 10
-0.8412867601937062
 20
-0.439293267215606
 10
-0.8328149281674034
 20
-0.4366948856276597
 10
-0.8234704132431957
 20
-0.4348358349590055
 10
-0.8129099932882329
 20
-0.4336557547979524
 10
-0.8019999999999999
 20
-0.4332655502320771
  0
LINE
  5
15E
330
107
100
AcDbEntity
  8
AM_4
100
AcDbLine
 10
-0.802
 20
1.243128621301775
 30
0.0
 11
-0.8019999999999999
 21
-0.4332655502320771
 31
0.0
  0
LWPOLYLINE
  5
15F
330
107
100
AcDbEntity
  8
AM_4
100
AcDbPolyline
 90
       13
 70
     0
 43
0.0
 10
-0.802
 20
1.243128621301775
 10
-0.8111441503233915
 20
1.242609120293667
 10
-0.820288300646783
 20
1.241022807818888
 10
-0.8286155818186695
 20
1.238574065503807
 10
-0.8364245472769504
 20
1.235285087337177
 10
-0.8435303699996776
 20
1.231285906026516
 10
-0.8497787037558696
 20
1.226754864079884
 10
-0.8573061722912436
 20
1.21947314155943
 10
-0.8628872174682874
 20
1.211866019736224
 10
-0.8658553092334369
 20
1.206250813666686
 10
-0.8679119266813435
 20
1.200863030698031
 10
-0.8698724962670714
 20
1.190778206586566
 10
-0.87
 20
1.187459287968442
  0
LWPOLYLINE
  5
160
330
107
100
AcDbEntity
  8
AM_4
100
AcDbPolyline
 90
       11
 70
     0
 43
0.0
 10
-0.4199999999999999
 20
-0.4180570060473444
 10
-0.4200295159603771
 20
-0.4183837224733331
 10
-0.4210980964722545
 20
-0.4202318240235794
 10
-0.4237191890939958
 20
-0.422361731869593
 10
-0.4281254153003151
 20
-0.4248018691940147
 10
-0.4343259795988793
 20
-0.4273569282579273
 10
-0.4402985416057087
 20
-0.4292570813147376
 10
-0.4474200281893372
 20
-0.4309848216116794
 10
-0.4536836141580174
 20
-0.4320845963665738
 10
-0.4606028037474562
 20
-0.432875928099504
 10
-0.4699999999999998
 20
-0.4332655502320764
  0
LWPOLYLINE
  5
161
330
107
100
AcDbEntity
  8
AM_4
100
AcDbPolyline
 90
       11
 70
     0
 43
0.0
 10
-0.4699999999999999
 20
1.243128621301775
 10
-0.4630114002412618
 20
1.243541639992153
 10
-0.4560228004825238
 20
1.244807022415303
 10
-0.4496770905762806
 20
1.246766473412561
 10
-0.4437165242851621
 20
1.249428220811186
 10
-0.4367956569566138
 20
1.253796981053772
 10
-0.4308606715070402
 20
1.259136497607761
 10
-0.4262141194245596
 20
1.265107399777457
 10
-0.4227562926806842
 20
1.271798196886089
 10
-0.4207162486247228
 20
1.2786764499522
 10
-0.42
 20
1.286028621301775
  0
LINE
  5
162
330
107
100
AcDbEntity
  8
AM_4
100
AcDbLine
 10
-0.4699999999999999
 20
1.243128621301775
 30
0.0
 11
-0.4699999999999998
 21
-0.4332655502320764
 31
0.0
  0
LINE
  5
163
330
107
100
AcDbEntity
  8
AM_4
100
AcDbLine
 10
-0.105
 20
1.245389465173983
 30
0.0
 11
-0.1049999999999999
 21
-0.2184314396388858
 31
0.0
  0
LINE
  5
164
330
107
100
AcDbEntity
  8
AM_4
100
AcDbLine
 10
-0.105
 20
1.245389465173983
 30
0.0
 11
-0.4199999999999999
 21
1.245389465173983
 31
0.0
  0
LINE
  5
165
330
107
100
AcDbEntity
  8
AM_4
100
AcDbLine
 10
-0.105
 20
-0.0841106475584966
 30
0.0
 11
0.0000000000000001
 21
-0.0841106475584965
 31
0.0
  0
LINE
  5
166
330
107
100
AcDbEntity
  8
AM_4
100
AcDbLine
 10
-0.1049999999999999
 20
-0.2184314396388858
 30
0.0
 11
-0.4199999999999998
 21
-0.2184314396388864
 31
0.0
  0
LINE
  5
167
330
107
100
AcDbEntity
  8
AM_4
100
AcDbLine
 10
-0.4199999999999999
 20
-0.4692586991399388
 30
0.0
 11
0.0000000000000001
 21
-0.4692586991399388
 31
0.0
  0
LINE
  5
168
330
107
100
AcDbEntity
  8
AM_4
100
AcDbLine
 10
-0.4199999999999999
 20
-1.125
 30
0.0
 11
0.0000000000000001
 21
-1.125
 31
0.0
  0
LINE
  5
169
330
107
100
AcDbEntity
  8
AM_4
100
AcDbLine
 10
0.0000000000000001
 20
-1.125
 30
0.0
 11
0.0000000000000001
 21
-0.0453317337049925
 31
0.0
  0
ENDBLK
  5
10A
330
107
100
AcDbEntity
  8
0
100
AcDbBlockEnd
  0
ENDSEC
  0
SECTION
  2
ENTITIES
  0
INSERT
  5
6F
330
1F
100
AcDbEntity
  8
0
100
AcDbBlockReference
  2
1_124623_2
 10
0.0
 20
0.0
 30
0.0
  0
POINT
  5
16B
330
1F
100
AcDbEntity
  8
ConnectionPoints
100
AcDbPoint
 10
-0.57
 20
-1.325
 30
0.0
  0
POINT
  5
16C
330
1F
100
AcDbEntity
  8
ConnectionPoints
100
AcDbPoint
 10
-0.57
 20
-1.325
 30
0.0
  0
POINT
  5
16D
330
1F
100
AcDbEntity
  8
ConnectionPoints
100
AcDbPoint
 10
-1.24
 20
0.0
 30
0.0000000000000001
  0
ENDSEC
  0
SECTION
  2
OBJECTS
  0
DICTIONARY
  5
C
330
0
100
AcDbDictionary
281
     1
  3
ACAD_DETAILVIEWSTYLE
350
175
  3
ACAD_GROUP
350
D
  3
ACAD_LAYOUT
350
1A
  3
ACAD_MATERIAL
350
43
  3
ACAD_MLEADERSTYLE
350
6B
  3
ACAD_MLINESTYLE
350
17
  3
ACAD_PLOTSETTINGS
350
19
  3
ACAD_PLOTSTYLENAME
350
E
  3
ACAD_SCALELIST
350
47
  3
ACAD_SECTIONVIEWSTYLE
350
176
  3
ACAD_TABLESTYLE
350
69
  3
ACAD_VISUALSTYLE
350
2A
  3
ACDB_RECOMPOSE_DATA
350
172
  3
AcDbVariableDictionary
350
16E
  0
SUN
  5
6D
330
29
100
AcDbSun
 90
        1
290
     0
 63
     7
421
 16777215
 40
1.0
291
     1
 91
  2455826
 92
 54000000
292
     0
 70
     2
 71
   256
280
     1
  0
DICTIONARY
  5
175
102
{ACAD_REACTORS
330
C
102
}
330
C
100
AcDbDictionary
281
     1
  0
DICTIONARY
  5
D
102
{ACAD_REACTORS
330
C
102
}
330
C
100
AcDbDictionary
281
     1
  0
DICTIONARY
  5
1A
102
{ACAD_REACTORS
330
C
102
}
330
C
100
AcDbDictionary
281
     1
  3
Layout1
350
1E
  3
Layout2
350
26
  3
Model
350
22
  0
DICTIONARY
  5
43
102
{ACAD_REACTORS
330
C
102
}
330
C
100
AcDbDictionary
281
     1
  3
ByBlock
350
45
  3
ByLayer
350
44
  3
Global
350
46
  0
DICTIONARY
  5
6B
102
{ACAD_REACTORS
330
C
102
}
330
C
100
AcDbDictionary
281
     1
  3
Standard
350
6C
  0
DICTIONARY
  5
17
102
{ACAD_REACTORS
330
C
102
}
330
C
100
AcDbDictionary
281
     1
  3
Standard
350
18
  0
DICTIONARY
  5
19
102
{ACAD_REACTORS
330
C
102
}
330
C
100
AcDbDictionary
281
     1
  0
ACDBDICTIONARYWDFLT
  5
E
102
{ACAD_REACTORS
330
C
102
}
330
C
100
AcDbDictionary
281
     1
  3
Normal
350
F
100
AcDbDictionaryWithDefault
340
F
  0
DICTIONARY
  5
47
102
{ACAD_REACTORS
330
C
102
}
330
C
100
AcDbDictionary
281
     1
  3
A0
350
48
  3
A1
350
49
  3
A2
350
4A
  3
A3
350
4B
  3
A4
350
4C
  3
A5
350
4D
  3
A6
350
4E
  3
A7
350
4F
  3
A8
350
50
  3
A9
350
51
  3
B0
350
52
  3
B1
350
53
  3
B2
350
54
  3
B3
350
55
  3
B4
350
56
  3
B5
350
57
  3
B6
350
58
  3
B7
350
59
  3
B8
350
5A
  3
B9
350
5B
  3
C0
350
5C
  3
C1
350
5D
  3
C2
350
5E
  3
C3
350
5F
  3
C4
350
60
  3
C5
350
61
  3
C6
350
62
  3
C7
350
63
  3
C8
350
64
  3
C9
350
65
  3
D0
350
66
  3
D1
350
67
  3
D2
350
68
  0
DICTIONARY
  5
176
102
{ACAD_REACTORS
330
C
102
}
330
C
100
AcDbDictionary
281
     1
  0
DICTIONARY
  5
69
102
{ACAD_REACTORS
330
C
102
}
330
C
100
AcDbDictionary
281
     1
  3
Standard
350
6A
  0
DICTIONARY
  5
2A
102
{ACAD_REACTORS
330
C
102
}
330
C
100
AcDbDictionary
281
     1
  3
2dWireframe
350
2F
  3
Basic
350
32
  3
Brighten
350
36
  3
ColorChange
350
3A
  3
Conceptual
350
34
  3
Dim
350
35
  3
EdgeColorOff
350
3D
  3
Facepattern
350
39
  3
Flat
350
2B
  3
FlatWithEdges
350
2C
  3
Gouraud
350
2D
  3
GouraudWithEdges
350
2E
  3
Hidden
350
31
  3
JitterOff
350
3B
  3
Linepattern
350
38
  3
OverhangOff
350
3C
  3
Realistic
350
33
  3
Shaded
350
42
  3
Shaded with edges
350
41
  3
Shades of Gray
350
3E
  3
Sketchy
350
3F
  3
Thicken
350
37
  3
Wireframe
350
30
  3
X-Ray
350
40
  0
XRECORD
  5
172
102
{ACAD_REACTORS
330
C
102
}
330
C
100
AcDbXrecord
280
     1
 90
        1
330
6A
  0
DICTIONARY
  5
16E
102
{ACAD_REACTORS
330
C
102
}
330
C
100
AcDbDictionary
281
     1
  3
CANNOSCALE
350
16F
  3
CMLEADERSTYLE
350
174
  3
CTABLESTYLE
350
173
  0
LAYOUT
  5
1E
102
{ACAD_REACTORS
330
1A
102
}
330
1A
100
AcDbPlotSettings
  1

  2
none_device
  4

  6

 40
0.0
 41
0.0
 42
0.0
 43
0.0
 44
0.0
 45
0.0
 46
0.0
 47
0.0
 48
0.0
 49
0.0
140
0.0
141
0.0
142
1.0
143
1.0
 70
   688
 72
     0
 73
     0
 74
     5
  7

 75
    16
 76
     0
 77
     2
 78
   300
147
1.0
148
0.0
149
0.0
100
AcDbLayout
  1
Layout1
 70
     1
 71
     1
 10
0.0
 20
0.0
 11
12.0
 21
9.0
 12
0.0
 22
0.0
 32
0.0
 14
1.000000000000000E+20
 24
1.000000000000000E+20
 34
1.000000000000000E+20
 15
-1.000000000000000E+20
 25
-1.000000000000000E+20
 35
-1.000000000000000E+20
146
0.0
 13
0.0
 23
0.0
 33
0.0
 16
1.0
 26
0.0
 36
0.0
 17
0.0
 27
1.0
 37
0.0
 76
     0
330
1B
  0
LAYOUT
  5
26
102
{ACAD_REACTORS
330
1A
102
}
330
1A
100
AcDbPlotSettings
  1

  2
none_device
  4

  6

 40
0.0
 41
0.0
 42
0.0
 43
0.0
 44
0.0
 45
0.0
 46
0.0
 47
0.0
 48
0.0
 49
0.0
140
0.0
141
0.0
142
1.0
143
1.0
 70
   688
 72
     0
 73
     0
 74
     5
  7

 75
    16
 76
     0
 77
     2
 78
   300
147
1.0
148
0.0
149
0.0
100
AcDbLayout
  1
Layout2
 70
     1
 71
     2
 10
0.0
 20
0.0
 11
0.0
 21
0.0
 12
0.0
 22
0.0
 32
0.0
 14
0.0
 24
0.0
 34
0.0
 15
0.0
 25
0.0
 35
0.0
146
0.0
 13
0.0
 23
0.0
 33
0.0
 16
1.0
 26
0.0
 36
0.0
 17
0.0
 27
1.0
 37
0.0
 76
     0
330
23
  0
LAYOUT
  5
22
102
{ACAD_REACTORS
330
1A
102
}
330
1A
100
AcDbPlotSettings
  1

  2
none_device
  4
Letter_(8.50_x_11.00_Inches)
  6

 40
6.35
 41
6.35
 42
6.35000508
 43
6.35000508
 44
215.9
 45
279.4
 46
0.0
 47
0.0
 48
0.0
 49
0.0
140
0.0
141
0.0
142
1.0
143
1.0
 70
  1712
 72
     0
 73
     0
 74
     0
  7

 75
     0
 76
     0
 77
     2
 78
   300
147
1.0
148
0.0
149
0.0
100
AcDbLayout
  1
Model
 70
     1
 71
     0
 10
0.0
 20
0.0
 11
12.0
 21
9.0
 12
0.0
 22
0.0
 32
0.0
 14
1.000000000000000E+20
 24
1.000000000000000E+20
 34
1.000000000000000E+20
 15
-1.000000000000000E+20
 25
-1.000000000000000E+20
 35
-1.000000000000000E+20
146
0.0
 13
0.0
 23
0.0
 33
0.0
 16
1.0
 26
0.0
 36
0.0
 17
0.0
 27
1.0
 37
0.0
 76
     0
330
1F
331
29
  0
MATERIAL
  5
45
102
{ACAD_REACTORS
330
43
102
}
330
43
100
AcDbMaterial
  1
ByBlock
 72
     1
 94
      127
  0
MATERIAL
  5
44
102
{ACAD_REACTORS
330
43
102
}
330
43
100
AcDbMaterial
  1
ByLayer
 72
     1
 94
      127
  0
MATERIAL
  5
46
102
{ACAD_REACTORS
330
43
102
}
330
43
100
AcDbMaterial
  1
Global
 72
     1
 94
      127
  0
MLEADERSTYLE
  5
6C
102
{ACAD_REACTORS
330
6B
102
}
330
6B
100
AcDbMLeaderStyle
179
     2
170
     2
171
     1
172
     0
 90
        2
 40
0.0
 41
0.0
173
     1
 91
-1056964608
340
14
 92
       -2
290
     1
 42
0.09
291
     1
 43
0.36
  3
Standard
341
0
 44
0.18
300

342
11
174
     1
178
     6
175
     1
176
     0
 93
-1056964608
 45
0.18
292
     0
297
     0
 46
0.18
343
0
 94
-1056964608
 47
1.0
 49
1.0
140
1.0
293
     1
141
0.0
294
     1
177
     0
142
1.0
295
     0
296
     0
143
0.125
271
     0
272
     9
273
     9
298
     0
  0
MLINESTYLE
  5
18
102
{ACAD_REACTORS
330
17
102
}
330
17
100
AcDbMlineStyle
  2
Standard
 70
     0
  3

 62
   256
 51
90.0
 52
90.0
 71
     2
 49
0.5
 62
   256
  6
BYLAYER
 49
-0.5
 62
   256
  6
BYLAYER
  0
ACDBPLACEHOLDER
  5
F
102
{ACAD_REACTORS
330
E
102
}
330
E
  0
SCALE
  5
48
102
{ACAD_REACTORS
330
47
102
}
330
47
100
AcDbScale
 70
     0
300
1:1
140
1.0
141
1.0
290
     1
  0
SCALE
  5
49
102
{ACAD_REACTORS
330
47
102
}
330
47
100
AcDbScale
 70
     0
300
1:2
140
1.0
141
2.0
290
     0
  0
SCALE
  5
4A
102
{ACAD_REACTORS
330
47
102
}
330
47
100
AcDbScale
 70
     0
300
1:4
140
1.0
141
4.0
290
     0
  0
SCALE
  5
4B
102
{ACAD_REACTORS
330
47
102
}
330
47
100
AcDbScale
 70
     0
300
1:5
140
1.0
141
5.0
290
     0
  0
SCALE
  5
4C
102
{ACAD_REACTORS
330
47
102
}
330
47
100
AcDbScale
 70
     0
300
1:8
140
1.0
141
8.0
290
     0
  0
SCALE
  5
4D
102
{ACAD_REACTORS
330
47
102
}
330
47
100
AcDbScale
 70
     0
300
1:10
140
1.0
141
10.0
290
     0
  0
SCALE
  5
4E
102
{ACAD_REACTORS
330
47
102
}
330
47
100
AcDbScale
 70
     0
300
1:16
140
1.0
141
16.0
290
     0
  0
SCALE
  5
4F
102
{ACAD_REACTORS
330
47
102
}
330
47
100
AcDbScale
 70
     0
300
1:20
140
1.0
141
20.0
290
     0
  0
SCALE
  5
50
102
{ACAD_REACTORS
330
47
102
}
330
47
100
AcDbScale
 70
     0
300
1:30
140
1.0
141
30.0
290
     0
  0
SCALE
  5
51
102
{ACAD_REACTORS
330
47
102
}
330
47
100
AcDbScale
 70
     0
300
1:40
140
1.0
141
40.0
290
     0
  0
SCALE
  5
52
102
{ACAD_REACTORS
330
47
102
}
330
47
100
AcDbScale
 70
     0
300
1:50
140
1.0
141
50.0
290
     0
  0
SCALE
  5
53
102
{ACAD_REACTORS
330
47
102
}
330
47
100
AcDbScale
 70
     0
300
1:100
140
1.0
141
100.0
290
     0
  0
SCALE
  5
54
102
{ACAD_REACTORS
330
47
102
}
330
47
100
AcDbScale
 70
     0
300
2:1
140
2.0
141
1.0
290
     0
  0
SCALE
  5
55
102
{ACAD_REACTORS
330
47
102
}
330
47
100
AcDbScale
 70
     0
300
4:1
140
4.0
141
1.0
290
     0
  0
SCALE
  5
56
102
{ACAD_REACTORS
330
47
102
}
330
47
100
AcDbScale
 70
     0
300
8:1
140
8.0
141
1.0
290
     0
  0
SCALE
  5
57
102
{ACAD_REACTORS
330
47
102
}
330
47
100
AcDbScale
 70
     0
300
10:1
140
10.0
141
1.0
290
     0
  0
SCALE
  5
58
102
{ACAD_REACTORS
330
47
102
}
330
47
100
AcDbScale
 70
     0
300
100:1
140
100.0
141
1.0
290
     0
  0
SCALE
  5
59
102
{ACAD_REACTORS
330
47
102
}
330
47
100
AcDbScale
 70
     0
300
1/128" = 1'-0"
140
0.0078125
141
12.0
290
     0
  0
SCALE
  5
5A
102
{ACAD_REACTORS
330
47
102
}
330
47
100
AcDbScale
 70
     0
300
1/64" = 1'-0"
140
0.015625
141
12.0
290
     0
  0
SCALE
  5
5B
102
{ACAD_REACTORS
330
47
102
}
330
47
100
AcDbScale
 70
     0
300
1/32" = 1'-0"
140
0.03125
141
12.0
290
     0
  0
SCALE
  5
5C
102
{ACAD_REACTORS
330
47
102
}
330
47
100
AcDbScale
 70
     0
300
1/16" = 1'-0"
140
0.0625
141
12.0
290
     0
  0
SCALE
  5
5D
102
{ACAD_REACTORS
330
47
102
}
330
47
100
AcDbScale
 70
     0
300
3/32" = 1'-0"
140
0.09375
141
12.0
290
     0
  0
SCALE
  5
5E
102
{ACAD_REACTORS
330
47
102
}
330
47
100
AcDbScale
 70
     0
300
1/8" = 1'-0"
140
0.125
141
12.0
290
     0
  0
SCALE
  5
5F
102
{ACAD_REACTORS
330
47
102
}
330
47
100
AcDbScale
 70
     0
300
3/16" = 1'-0"
140
0.1875
141
12.0
290
     0
  0
SCALE
  5
60
102
{ACAD_REACTORS
330
47
102
}
330
47
100
AcDbScale
 70
     0
300
1/4" = 1'-0"
140
0.25
141
12.0
290
     0
  0
SCALE
  5
61
102
{ACAD_REACTORS
330
47
102
}
330
47
100
AcDbScale
 70
     0
300
3/8" = 1'-0"
140
0.375
141
12.0
290
     0
  0
SCALE
  5
62
102
{ACAD_REACTORS
330
47
102
}
330
47
100
AcDbScale
 70
     0
300
1/2" = 1'-0"
140
0.5
141
12.0
290
     0
  0
SCALE
  5
63
102
{ACAD_REACTORS
330
47
102
}
330
47
100
AcDbScale
 70
     0
300
3/4" = 1'-0"
140
0.75
141
12.0
290
     0
  0
SCALE
  5
64
102
{ACAD_REACTORS
330
47
102
}
330
47
100
AcDbScale
 70
     0
300
1" = 1'-0"
140
1.0
141
12.0
290
     0
  0
SCALE
  5
65
102
{ACAD_REACTORS
330
47
102
}
330
47
100
AcDbScale
 70
     0
300
1-1/2" = 1'-0"
140
1.5
141
12.0
290
     0
  0
SCALE
  5
66
102
{ACAD_REACTORS
330
47
102
}
330
47
100
AcDbScale
 70
     0
300
3" = 1'-0"
140
3.0
141
12.0
290
     0
  0
SCALE
  5
67
102
{ACAD_REACTORS
330
47
102
}
330
47
100
AcDbScale
 70
     0
300
6" = 1'-0"
140
6.0
141
12.0
290
     0
  0
SCALE
  5
68
102
{ACAD_REACTORS
330
47
102
}
330
47
100
AcDbScale
 70
     0
300
1'-0" = 1'-0"
140
12.0
141
12.0
290
     0
  0
TABLESTYLE
  5
6A
102
{ACAD_REACTORS
330
69
102
}
102
{ACAD_XDICTIONARY
360
170
102
}
330
69
100
AcDbTableStyle
  3
Standard
 70
     0
 71
     0
 40
0.06
 41
0.06
280
     0
281
     0
  7
Standard
140
0.18
170
     2
 62
     0
 63
   257
283
     0
 90
        4
 91
        0
  1

274
    -2
284
     1
 64
     0
275
    -2
285
     1
 65
     0
276
    -2
286
     1
 66
     0
277
    -2
287
     1
 67
     0
278
    -2
288
     1
 68
     0
279
    -2
289
     1
 69
     0
  7
Standard
140
0.25
170
     5
 62
     0
 63
   257
283
     0
 90
        4
 91
        0
  1

274
    -2
284
     1
 64
     0
275
    -2
285
     1
 65
     0
276
    -2
286
     1
 66
     0
277
    -2
287
     1
 67
     0
278
    -2
288
     1
 68
     0
279
    -2
289
     1
 69
     0
  7
Standard
140
0.18
170
     5
 62
     0
 63
   257
283
     0
 90
        4
 91
        0
  1

274
    -2
284
     1
 64
     0
275
    -2
285
     1
 65
     0
276
    -2
286
     1
 66
     0
277
    -2
287
     1
 67
     0
278
    -2
288
     1
 68
     0
279
    -2
289
     1
 69
     0
  0
VISUALSTYLE
  5
2F
102
{ACAD_REACTORS
330
2A
102
}
330
2A
100
AcDbVisualStyle
  2
2dWireframe
 70
     4
177
     3
291
     0
 70
    58
 90
        0
176
     1
 90
        2
176
     1
 90
        0
176
     1
 90
        0
176
     1
 40
0.6
176
     1
 40
30.0
176
     1
 62
     7
420
 16777215
176
     1
 90
        1
176
     1
 90
        4
176
     1
 62
     7
176
     1
 62
   257
176
     1
 90
        1
176
     1
 90
        1
176
     1
 40
1.0
176
     1
 90
        0
176
     1
 62
   257
176
     1
 40
1.0
176
     1
 90
        1
176
     1
 90
        6
176
     1
 90
        2
176
     1
 62
     7
176
     1
 90
        5
176
     1
 90
        0
176
     1
 90
        0
176
     1
290
     0
176
     1
 90
        1
176
     1
 40
0.0
176
     1
 90
        0
176
     1
290
     1
176
     1
290
     1
176
     1
290
     0
176
     1
290
     0
176
     1
290
     0
176
     1
290
     0
176
     1
290
     0
176
     1
290
     0
176
     1
290
     0
176
     1
 90
       50
176
     1
 40
0.0
176
     1
 40
1.0
176
     1
 90
        0
176
     1
 62
    18
420
        0
176
     1
 90
       50
176
     1
 90
        3
176
     1
 62
     5
420
      255
176
     1
290
     0
176
     1
 90
       50
176
     1
 90
       50
176
     1
 90
       50
176
     1
290
     0
176
     1
 90
       50
176
     1
 62
   256
176
     0
 40
1.0
176
     0
 90
        2
176
     1
  1
strokes_ogs.tif
176
     1
290
     0
176
     1
 40
1.0
176
     1
 40
1.0
176
     1
  0
VISUALSTYLE
  5
32
102
{ACAD_REACTORS
330
2A
102
}
330
2A
100
AcDbVisualStyle
  2
Basic
 70
     7
177
     3
291
     1
 70
    58
 90
        1
176
     1
 90
        0
176
     1
 90
        1
176
     1
 90
        0
176
     1
 40
0.6
176
     1
 40
30.0
176
     1
 62
     7
420
 16777215
176
     1
 90
        0
176
     1
 90
        4
176
     1
 62
     7
176
     1
 62
   257
176
     1
 90
        1
176
     1
 90
        1
176
     1
 40
1.0
176
     1
 90
        8
176
     1
 62
     7
176
     1
 40
1.0
176
     1
 90
        1
176
     1
 90
        6
176
     1
 90
        2
176
     1
 62
     7
176
     1
 90
        5
176
     1
 90
        0
176
     1
 90
        0
176
     1
290
     0
176
     1
 90
        1
176
     1
 40
0.0
176
     1
 90
        0
176
     1
290
     0
176
     1
290
     1
176
     1
290
     1
176
     1
290
     0
176
     1
290
     0
176
     1
290
     0
176
     1
290
     0
176
     1
290
     0
176
     1
290
     0
176
     1
 90
       50
176
     1
 40
0.0
176
     1
 40
1.0
176
     1
 90
        0
176
     1
 62
    18
420
        0
176
     1
 90
       50
176
     1
 90
        3
176
     1
 62
     5
420
      255
176
     1
290
     0
176
     1
 90
       50
176
     1
 90
       50
176
     1
 90
       50
176
     1
290
     0
176
     1
 90
       50
176
     1
 62
   256
176
     0
 40
1.0
176
     0
 90
        2
176
     1
  1
strokes_ogs.tif
176
     1
290
     0
176
     1
 40
1.0
176
     1
 40
1.0
176
     1
  0
VISUALSTYLE
  5
36
102
{ACAD_REACTORS
330
2A
102
}
330
2A
100
AcDbVisualStyle
  2
Brighten
 70
    12
177
     3
291
     1
 70
    58
 90
        2
176
     1
 90
        2
176
     1
 90
        0
176
     1
 90
        0
176
     1
 40
0.6
176
     1
 40
30.0
176
     1
 62
     7
420
 16777215
176
     1
 90
        1
176
     1
 90
        4
176
     1
 62
     7
176
     1
 62
   257
176
     1
 90
        1
176
     1
 90
        1
176
     1
 40
1.0
176
     1
 90
        8
176
     1
 62
     7
176
     1
 40
1.0
176
     1
 90
        1
176
     1
 90
        6
176
     1
 90
        2
176
     1
 62
     7
176
     1
 90
        5
176
     1
 90
        0
176
     1
 90
        0
176
     1
290
     0
176
     1
 90
        1
176
     1
 40
50.0
176
     1
 90
        0
176
     1
290
     0
176
     1
290
     1
176
     1
290
     1
176
     1
290
     0
176
     1
290
     0
176
     1
290
     0
176
     1
290
     0
176
     1
290
     0
176
     1
290
     0
176
     1
 90
       50
176
     1
 40
0.0
176
     1
 40
1.0
176
     1
 90
        0
176
     1
 62
    18
420
        0
176
     1
 90
       50
176
     1
 90
        3
176
     1
 62
     5
420
      255
176
     1
290
     0
176
     1
 90
       50
176
     1
 90
       50
176
     1
 90
       50
176
     1
290
     0
176
     1
 90
       50
176
     1
 62
   256
176
     0
 40
1.0
176
     0
 90
        2
176
     1
  1
strokes_ogs.tif
176
     1
290
     0
176
     1
 40
1.0
176
     1
 40
1.0
176
     1
  0
VISUALSTYLE
  5
3A
102
{ACAD_REACTORS
330
2A
102
}
330
2A
100
AcDbVisualStyle
  2
ColorChange
 70
    16
177
     3
291
     1
 70
    58
 90
        2
176
     1
 90
        2
176
     1
 90
        3
176
     1
 90
        0
176
     1
 40
0.6
176
     1
 40
30.0
176
     1
 62
     8
420
  8421504
176
     1
 90
        1
176
     1
 90
        4
176
     1
 62
     7
176
     1
 62
   257
176
     1
 90
        1
176
     1
 90
        1
176
     1
 40
1.0
176
     1
 90
        8
176
     1
 62
     8
420
  8421504
176
     1
 40
1.0
176
     1
 90
        1
176
     1
 90
        6
176
     1
 90
        2
176
     1
 62
     7
176
     1
 90
        5
176
     1
 90
        0
176
     1
 90
        0
176
     1
290
     0
176
     1
 90
        1
176
     1
 40
0.0
176
     1
 90
        0
176
     1
290
     0
176
     1
290
     1
176
     1
290
     1
176
     1
290
     0
176
     1
290
     0
176
     1
290
     0
176
     1
290
     0
176
     1
290
     0
176
     1
290
     0
176
     1
 90
       50
176
     1
 40
0.0
176
     1
 40
1.0
176
     1
 90
        0
176
     1
 62
    18
420
        0
176
     1
 90
       50
176
     1
 90
        3
176
     1
 62
     5
420
      255
176
     1
290
     0
176
     1
 90
       50
176
     1
 90
       50
176
     1
 90
       50
176
     1
290
     0
176
     1
 90
       50
176
     1
 62
   256
176
     0
 40
1.0
176
     0
 90
        2
176
     1
  1
strokes_ogs.tif
176
     1
290
     0
176
     1
 40
1.0
176
     1
 40
1.0
176
     1
  0
VISUALSTYLE
  5
34
102
{ACAD_REACTORS
330
2A
102
}
330
2A
100
AcDbVisualStyle
  2
Conceptual
 70
     9
177
     3
291
     0
 70
    58
 90
        3
176
     1
 90
        2
176
     1
 90
        0
176
     1
 90
        0
176
     1
 40
0.6
176
     1
 40
30.0
176
     1
 62
     7
420
 16777215
176
     1
 90
        2
176
     1
 90
        2
176
     1
 62
     7
176
     1
 62
   257
176
     1
 90
        1
176
     1
 90
        1
176
     1
 40
179.0
176
     1
 90
        8
176
     1
 62
     7
176
     1
 40
1.0
176
     1
 90
        1
176
     1
 90
        6
176
     1
 90
        2
176
     1
 62
     7
176
     1
 90
        3
176
     1
 90
        0
176
     1
 90
        0
176
     1
290
     0
176
     1
 90
        1
176
     1
 40
0.0
176
     1
 90
        0
176
     1
290
     0
176
     1
290
     1
176
     1
290
     1
176
     1
290
     0
176
     1
290
     0
176
     1
290
     0
176
     1
290
     0
176
     1
290
     0
176
     1
290
     0
176
     1
 90
       50
176
     1
 40
0.0
176
     1
 40
1.0
176
     1
 90
        0
176
     1
 62
    18
420
        0
176
     1
 90
       50
176
     1
 90
        3
176
     1
 62
     5
420
      255
176
     1
290
     0
176
     1
 90
       50
176
     1
 90
       50
176
     1
 90
       50
176
     1
290
     0
176
     1
 90
       50
176
     1
 62
   256
176
     0
 40
1.0
176
     0
 90
        2
176
     1
  1
strokes_ogs.tif
176
     1
290
     0
176
     1
 40
1.0
176
     1
 40
1.0
176
     1
  0
VISUALSTYLE
  5
35
102
{ACAD_REACTORS
330
2A
102
}
330
2A
100
AcDbVisualStyle
  2
Dim
 70
    11
177
     3
291
     1
 70
    58
 90
        2
176
     1
 90
        2
176
     1
 90
        0
176
     1
 90
        0
176
     1
 40
0.6
176
     1
 40
30.0
176
     1
 62
     7
420
 16777215
176
     1
 90
        1
176
     1
 90
        4
176
     1
 62
     7
176
     1
 62
   257
176
     1
 90
        1
176
     1
 90
        1
176
     1
 40
1.0
176
     1
 90
        8
176
     1
 62
     7
176
     1
 40
1.0
176
     1
 90
        1
176
     1
 90
        6
176
     1
 90
        2
176
     1
 62
     7
176
     1
 90
        5
176
     1
 90
        0
176
     1
 90
        0
176
     1
290
     0
176
     1
 90
        1
176
     1
 40
-50.0
176
     1
 90
        0
176
     1
290
     0
176
     1
290
     1
176
     1
290
     1
176
     1
290
     0
176
     1
290
     0
176
     1
290
     0
176
     1
290
     0
176
     1
290
     0
176
     1
290
     0
176
     1
 90
       50
176
     1
 40
0.0
176
     1
 40
1.0
176
     1
 90
        0
176
     1
 62
    18
420
        0
176
     1
 90
       50
176
     1
 90
        3
176
     1
 62
     5
420
      255
176
     1
290
     0
176
     1
 90
       50
176
     1
 90
       50
176
     1
 90
       50
176
     1
290
     0
176
     1
 90
       50
176
     1
 62
   256
176
     0
 40
1.0
176
     0
 90
        2
176
     1
  1
strokes_ogs.tif
176
     1
290
     0
176
     1
 40
1.0
176
     1
 40
1.0
176
     1
  0
VISUALSTYLE
  5
3D
102
{ACAD_REACTORS
330
2A
102
}
330
2A
100
AcDbVisualStyle
  2
EdgeColorOff
 70
    22
177
     3
291
     1
 70
    58
 90
        2
176
     0
 90
        2
176
     0
 90
        0
176
     0
 90
        0
176
     0
 40
0.6
176
     0
 40
30.0
176
     0
 62
     7
420
 16777215
176
     0
 90
        1
176
     0
 90
        4
176
     0
 62
     7
176
     0
 62
   257
176
     0
 90
        1
176
     0
 90
        1
176
     0
 40
1.0
176
     0
 90
        8
176
     2
 62
     7
176
     0
 40
1.0
176
     0
 90
        1
176
     0
 90
        6
176
     0
 90
        2
176
     0
 62
     7
176
     0
 90
        5
176
     0
 90
        0
176
     0
 90
        0
176
     0
290
     0
176
     0
 90
        1
176
     0
 40
0.0
176
     0
 90
        0
176
     0
290
     0
176
     0
290
     1
176
     0
290
     1
176
     0
290
     0
176
     0
290
     0
176
     0
290
     0
176
     0
290
     0
176
     0
290
     0
176
     0
290
     0
176
     0
 90
       50
176
     0
 40
0.0
176
     0
 40
1.0
176
     0
 90
        0
176
     0
 62
    18
420
        0
176
     0
 90
       50
176
     0
 90
        3
176
     0
 62
     5
420
      255
176
     0
290
     0
176
     0
 90
       50
176
     0
 90
       50
176
     0
 90
       50
176
     0
290
     0
176
     0
 90
       50
176
     0
 62
   256
176
     0
 40
1.0
176
     0
 90
        2
176
     0
  1
strokes_ogs.tif
176
     0
290
     0
176
     0
 40
1.0
176
     0
 40
1.0
176
     0
  0
VISUALSTYLE
  5
39
102
{ACAD_REACTORS
330
2A
102
}
330
2A
100
AcDbVisualStyle
  2
Facepattern
 70
    15
177
     3
291
     1
 70
    58
 90
        2
176
     1
 90
        2
176
     1
 90
        0
176
     1
 90
        0
176
     1
 40
0.6
176
     1
 40
30.0
176
     1
 62
     7
420
 16777215
176
     1
 90
        1
176
     1
 90
        4
176
     1
 62
     7
176
     1
 62
   257
176
     1
 90
        1
176
     1
 90
        1
176
     1
 40
1.0
176
     1
 90
        8
176
     1
 62
     7
176
     1
 40
1.0
176
     1
 90
        1
176
     1
 90
        6
176
     1
 90
        2
176
     1
 62
     7
176
     1
 90
        5
176
     1
 90
        0
176
     1
 90
        0
176
     1
290
     0
176
     1
 90
        1
176
     1
 40
0.0
176
     1
 90
        0
176
     1
290
     0
176
     1
290
     1
176
     1
290
     1
176
     1
290
     0
176
     1
290
     0
176
     1
290
     0
176
     1
290
     0
176
     1
290
     0
176
     1
290
     0
176
     1
 90
       50
176
     1
 40
0.0
176
     1
 40
1.0
176
     1
 90
        0
176
     1
 62
    18
420
        0
176
     1
 90
       50
176
     1
 90
        3
176
     1
 62
     5
420
      255
176
     1
290
     0
176
     1
 90
       50
176
     1
 90
       50
176
     1
 90
       50
176
     1
290
     0
176
     1
 90
       50
176
     1
 62
   256
176
     0
 40
1.0
176
     0
 90
        2
176
     1
  1
strokes_ogs.tif
176
     1
290
     0
176
     1
 40
1.0
176
     1
 40
1.0
176
     1
  0
VISUALSTYLE
  5
2B
102
{ACAD_REACTORS
330
2A
102
}
330
2A
100
AcDbVisualStyle
  2
Flat
 70
     0
177
     3
291
     1
 70
    58
 90
        2
176
     1
 90
        1
176
     1
 90
        1
176
     1
 90
        2
176
     1
 40
0.6
176
     1
 40
30.0
176
     1
 62
     7
420
 16777215
176
     1
 90
        0
176
     1
 90
        0
176
     1
 62
     7
176
     1
 62
   257
176
     1
 90
        1
176
     1
 90
        1
176
     1
 40
1.0
176
     1
 90
        8
176
     1
 62
     7
176
     1
 40
1.0
176
     1
 90
        1
176
     1
 90
        6
176
     1
 90
        2
176
     1
 62
     7
176
     1
 90
        5
176
     1
 90
        0
176
     1
 90
        0
176
     1
290
     0
176
     1
 90
       13
176
     1
 40
0.0
176
     1
 90
        0
176
     1
290
     0
176
     1
290
     1
176
     1
290
     1
176
     1
290
     0
176
     1
290
     0
176
     1
290
     0
176
     1
290
     0
176
     1
290
     0
176
     1
290
     0
176
     1
 90
       50
176
     1
 40
0.0
176
     1
 40
1.0
176
     1
 90
        0
176
     1
 62
    18
420
        0
176
     1
 90
       50
176
     1
 90
        3
176
     1
 62
     5
420
      255
176
     1
290
     0
176
     1
 90
       50
176
     1
 90
       50
176
     1
 90
       50
176
     1
290
     0
176
     1
 90
       50
176
     1
 62
   256
176
     0
 40
1.0
176
     0
 90
        2
176
     1
  1
strokes_ogs.tif
176
     1
290
     0
176
     1
 40
1.0
176
     1
 40
1.0
176
     1
  0
VISUALSTYLE
  5
2C
102
{ACAD_REACTORS
330
2A
102
}
330
2A
100
AcDbVisualStyle
  2
FlatWithEdges
 70
     1
177
     3
291
     1
 70
    58
 90
        2
176
     1
 90
        1
176
     1
 90
        1
176
     1
 90
        2
176
     1
 40
0.6
176
     1
 40
30.0
176
     1
 62
     7
420
 16777215
176
     1
 90
        1
176
     1
 90
        0
176
     1
 62
     7
176
     1
 62
   257
176
     1
 90
        1
176
     1
 90
        1
176
     1
 40
1.0
176
     1
 90
        0
176
     1
 62
   257
176
     1
 40
1.0
176
     1
 90
        1
176
     1
 90
        6
176
     1
 90
        2
176
     1
 62
     7
176
     1
 90
        5
176
     1
 90
        0
176
     1
 90
        0
176
     1
290
     0
176
     1
 90
       13
176
     1
 40
0.0
176
     1
 90
        0
176
     1
290
     0
176
     1
290
     1
176
     1
290
     1
176
     1
290
     0
176
     1
290
     0
176
     1
290
     0
176
     1
290
     0
176
     1
290
     0
176
     1
290
     0
176
     1
 90
       50
176
     1
 40
0.0
176
     1
 40
1.0
176
     1
 90
        0
176
     1
 62
    18
420
        0
176
     1
 90
       50
176
     1
 90
        3
176
     1
 62
     5
420
      255
176
     1
290
     0
176
     1
 90
       50
176
     1
 90
       50
176
     1
 90
       50
176
     1
290
     0
176
     1
 90
       50
176
     1
 62
   256
176
     0
 40
1.0
176
     0
 90
        2
176
     1
  1
strokes_ogs.tif
176
     1
290
     0
176
     1
 40
1.0
176
     1
 40
1.0
176
     1
  0
VISUALSTYLE
  5
2D
102
{ACAD_REACTORS
330
2A
102
}
330
2A
100
AcDbVisualStyle
  2
Gouraud
 70
     2
177
     3
291
     1
 70
    58
 90
        2
176
     1
 90
        2
176
     1
 90
        1
176
     1
 90
        2
176
     1
 40
0.6
176
     1
 40
30.0
176
     1
 62
     7
420
 16777215
176
     1
 90
        0
176
     1
 90
        0
176
     1
 62
     7
176
     1
 62
   257
176
     1
 90
        1
176
     1
 90
        1
176
     1
 40
1.0
176
     1
 90
        0
176
     1
 62
     7
176
     1
 40
1.0
176
     1
 90
        1
176
     1
 90
        6
176
     1
 90
        2
176
     1
 62
     7
176
     1
 90
        5
176
     1
 90
        0
176
     1
 90
        0
176
     1
290
     0
176
     1
 90
       13
176
     1
 40
0.0
176
     1
 90
        0
176
     1
290
     0
176
     1
290
     1
176
     1
290
     1
176
     1
290
     0
176
     1
290
     0
176
     1
290
     0
176
     1
290
     0
176
     1
290
     0
176
     1
290
     0
176
     1
 90
       50
176
     1
 40
0.0
176
     1
 40
1.0
176
     1
 90
        0
176
     1
 62
    18
420
        0
176
     1
 90
       50
176
     1
 90
        3
176
     1
 62
     5
420
      255
176
     1
290
     0
176
     1
 90
       50
176
     1
 90
       50
176
     1
 90
       50
176
     1
290
     0
176
     1
 90
       50
176
     1
 62
   256
176
     0
 40
1.0
176
     0
 90
        2
176
     1
  1
strokes_ogs.tif
176
     1
290
     0
176
     1
 40
1.0
176
     1
 40
1.0
176
     1
  0
VISUALSTYLE
  5
2E
102
{ACAD_REACTORS
330
2A
102
}
330
2A
100
AcDbVisualStyle
  2
GouraudWithEdges
 70
     3
177
     3
291
     1
 70
    58
 90
        2
176
     1
 90
        2
176
     1
 90
        1
176
     1
 90
        2
176
     1
 40
0.6
176
     1
 40
30.0
176
     1
 62
     7
420
 16777215
176
     1
 90
        1
176
     1
 90
        0
176
     1
 62
     7
176
     1
 62
   257
176
     1
 90
        1
176
     1
 90
        1
176
     1
 40
1.0
176
     1
 90
        0
176
     1
 62
   257
176
     1
 40
1.0
176
     1
 90
        1
176
     1
 90
        6
176
     1
 90
        2
176
     1
 62
     7
176
     1
 90
        5
176
     1
 90
        0
176
     1
 90
        0
176
     1
290
     0
176
     1
 90
       13
176
     1
 40
0.0
176
     1
 90
        0
176
     1
290
     0
176
     1
290
     1
176
     1
290
     1
176
     1
290
     0
176
     1
290
     0
176
     1
290
     0
176
     1
290
     0
176
     1
290
     0
176
     1
290
     0
176
     1
 90
       50
176
     1
 40
0.0
176
     1
 40
1.0
176
     1
 90
        0
176
     1
 62
    18
420
        0
176
     1
 90
       50
176
     1
 90
        3
176
     1
 62
     5
420
      255
176
     1
290
     0
176
     1
 90
       50
176
     1
 90
       50
176
     1
 90
       50
176
     1
290
     0
176
     1
 90
       50
176
     1
 62
   256
176
     0
 40
1.0
176
     0
 90
        2
176
     1
  1
strokes_ogs.tif
176
     1
290
     0
176
     1
 40
1.0
176
     1
 40
1.0
176
     1
  0
VISUALSTYLE
  5
31
102
{ACAD_REACTORS
330
2A
102
}
330
2A
100
AcDbVisualStyle
  2
Hidden
 70
     6
177
     3
291
     0
 70
    58
 90
        1
176
     1
 90
        2
176
     1
 90
        2
176
     1
 90
        0
176
     1
 40
0.6
176
     1
 40
30.0
176
     1
 62
     7
420
 16777215
176
     1
 90
        2
176
     1
 90
        2
176
     1
 62
     7
176
     1
 62
   257
176
     1
 90
        2
176
     1
 90
        1
176
     1
 40
40.0
176
     1
 90
        0
176
     1
 62
   257
176
     1
 40
1.0
176
     1
 90
        1
176
     1
 90
        6
176
     1
 90
        2
176
     1
 62
     7
176
     1
 90
        3
176
     1
 90
        0
176
     1
 90
        0
176
     1
290
     0
176
     1
 90
        1
176
     1
 40
0.0
176
     1
 90
        0
176
     1
290
     0
176
     1
290
     1
176
     1
290
     1
176
     1
290
     0
176
     1
290
     0
176
     1
290
     0
176
     1
290
     0
176
     1
290
     0
176
     1
290
     0
176
     1
 90
       50
176
     1
 40
0.0
176
     1
 40
1.0
176
     1
 90
        0
176
     1
 62
    18
420
        0
176
     1
 90
       50
176
     1
 90
        3
176
     1
 62
     5
420
      255
176
     1
290
     0
176
     1
 90
       50
176
     1
 90
       50
176
     1
 90
       50
176
     1
290
     0
176
     1
 90
       50
176
     1
 62
   256
176
     0
 40
1.0
176
     0
 90
        2
176
     1
  1
strokes_ogs.tif
176
     1
290
     0
176
     1
 40
1.0
176
     1
 40
1.0
176
     1
  0
VISUALSTYLE
  5
3B
102
{ACAD_REACTORS
330
2A
102
}
330
2A
100
AcDbVisualStyle
  2
JitterOff
 70
    20
177
     3
291
     1
 70
    58
 90
        2
176
     0
 90
        2
176
     0
 90
        0
176
     0
 90
        0
176
     0
 40
0.6
176
     0
 40
30.0
176
     0
 62
     7
420
 16777215
176
     0
 90
        1
176
     0
 90
        4
176
     0
 62
     7
176
     0
 62
   257
176
     0
 90
        1
176
     0
 90
        1
176
     0
 40
1.0
176
     0
 90
       10
176
     2
 62
     7
176
     0
 40
1.0
176
     0
 90
        1
176
     0
 90
        6
176
     0
 90
        2
176
     0
 62
     7
176
     0
 90
        5
176
     0
 90
        0
176
     0
 90
        0
176
     0
290
     0
176
     0
 90
        1
176
     0
 40
0.0
176
     0
 90
        0
176
     0
290
     0
176
     0
290
     1
176
     0
290
     1
176
     0
290
     0
176
     0
290
     0
176
     0
290
     0
176
     0
290
     0
176
     0
290
     0
176
     0
290
     0
176
     0
 90
       50
176
     0
 40
0.0
176
     0
 40
1.0
176
     0
 90
        0
176
     0
 62
    18
420
        0
176
     0
 90
       50
176
     0
 90
        3
176
     0
 62
     5
420
      255
176
     0
290
     0
176
     0
 90
       50
176
     0
 90
       50
176
     0
 90
       50
176
     0
290
     0
176
     0
 90
       50
176
     0
 62
   256
176
     0
 40
1.0
176
     0
 90
        2
176
     0
  1
strokes_ogs.tif
176
     0
290
     0
176
     0
 40
1.0
176
     0
 40
1.0
176
     0
  0
VISUALSTYLE
  5
38
102
{ACAD_REACTORS
330
2A
102
}
330
2A
100
AcDbVisualStyle
  2
Linepattern
 70
    14
177
     3
291
     1
 70
    58
 90
        2
176
     1
 90
        2
176
     1
 90
        0
176
     1
 90
        0
176
     1
 40
0.6
176
     1
 40
30.0
176
     1
 62
     7
420
 16777215
176
     1
 90
        1
176
     1
 90
        4
176
     1
 62
     7
176
     1
 62
   257
176
     1
 90
        7
176
     1
 90
        7
176
     1
 40
1.0
176
     1
 90
        8
176
     1
 62
     7
176
     1
 40
1.0
176
     1
 90
        1
176
     1
 90
        6
176
     1
 90
        2
176
     1
 62
     7
176
     1
 90
        5
176
     1
 90
        0
176
     1
 90
        0
176
     1
290
     0
176
     1
 90
        1
176
     1
 40
0.0
176
     1
 90
        0
176
     1
290
     0
176
     1
290
     1
176
     1
290
     1
176
     1
290
     0
176
     1
290
     0
176
     1
290
     0
176
     1
290
     0
176
     1
290
     0
176
     1
290
     0
176
     1
 90
       50
176
     1
 40
0.0
176
     1
 40
1.0
176
     1
 90
        0
176
     1
 62
    18
420
        0
176
     1
 90
       50
176
     1
 90
        3
176
     1
 62
     5
420
      255
176
     1
290
     0
176
     1
 90
       50
176
     1
 90
       50
176
     1
 90
       50
176
     1
290
     0
176
     1
 90
       50
176
     1
 62
   256
176
     0
 40
1.0
176
     0
 90
        2
176
     1
  1
strokes_ogs.tif
176
     1
290
     0
176
     1
 40
1.0
176
     1
 40
1.0
176
     1
  0
VISUALSTYLE
  5
3C
102
{ACAD_REACTORS
330
2A
102
}
330
2A
100
AcDbVisualStyle
  2
OverhangOff
 70
    21
177
     3
291
     1
 70
    58
 90
        2
176
     0
 90
        2
176
     0
 90
        0
176
     0
 90
        0
176
     0
 40
0.6
176
     0
 40
30.0
176
     0
 62
     7
420
 16777215
176
     0
 90
        1
176
     0
 90
        4
176
     0
 62
     7
176
     0
 62
   257
176
     0
 90
        1
176
     0
 90
        1
176
     0
 40
1.0
176
     0
 90
        9
176
     2
 62
     7
176
     0
 40
1.0
176
     0
 90
        1
176
     0
 90
        6
176
     0
 90
        2
176
     0
 62
     7
176
     0
 90
        5
176
     0
 90
        0
176
     0
 90
        0
176
     0
290
     0
176
     0
 90
        1
176
     0
 40
0.0
176
     0
 90
        0
176
     0
290
     0
176
     0
290
     1
176
     0
290
     1
176
     0
290
     0
176
     0
290
     0
176
     0
290
     0
176
     0
290
     0
176
     0
290
     0
176
     0
290
     0
176
     0
 90
       50
176
     0
 40
0.0
176
     0
 40
1.0
176
     0
 90
        0
176
     0
 62
    18
420
        0
176
     0
 90
       50
176
     0
 90
        3
176
     0
 62
     5
420
      255
176
     0
290
     0
176
     0
 90
       50
176
     0
 90
       50
176
     0
 90
       50
176
     0
290
     0
176
     0
 90
       50
176
     0
 62
   256
176
     0
 40
1.0
176
     0
 90
        2
176
     0
  1
strokes_ogs.tif
176
     0
290
     0
176
     0
 40
1.0
176
     0
 40
1.0
176
     0
  0
VISUALSTYLE
  5
33
102
{ACAD_REACTORS
330
2A
102
}
330
2A
100
AcDbVisualStyle
  2
Realistic
 70
     8
177
     3
291
     0
 70
    58
 90
        2
176
     1
 90
        3
176
     1
 90
        0
176
     1
 90
        2
176
     1
 40
0.6
176
     1
 40
30.0
176
     1
 62
     7
420
 16777215
176
     1
 90
        0
176
     1
 90
        0
176
     1
 62
     7
176
     1
 62
   257
176
     1
 90
        1
176
     1
 90
        1
176
     1
 40
1.0
176
     1
 90
        8
176
     1
 62
   257
176
     1
 40
1.0
176
     1
 90
        1
176
     1
 90
        6
176
     1
 90
        2
176
     1
 62
     7
176
     1
 90
        3
176
     1
 90
        0
176
     1
 90
        0
176
     1
290
     0
176
     1
 90
       13
176
     1
 40
0.0
176
     1
 90
        0
176
     1
290
     0
176
     1
290
     1
176
     1
290
     1
176
     1
290
     0
176
     1
290
     0
176
     1
290
     0
176
     1
290
     0
176
     1
290
     0
176
     1
290
     0
176
     1
 90
       50
176
     1
 40
0.0
176
     1
 40
1.0
176
     1
 90
        0
176
     1
 62
    18
420
        0
176
     1
 90
       50
176
     1
 90
        3
176
     1
 62
     5
420
      255
176
     1
290
     0
176
     1
 90
       50
176
     1
 90
       50
176
     1
 90
       50
176
     1
290
     0
176
     1
 90
       50
176
     1
 62
   256
176
     0
 40
1.0
176
     0
 90
        2
176
     1
  1
strokes_ogs.tif
176
     1
290
     0
176
     1
 40
1.0
176
     1
 40
1.0
176
     1
  0
VISUALSTYLE
  5
42
102
{ACAD_REACTORS
330
2A
102
}
330
2A
100
AcDbVisualStyle
  2
Shaded
 70
    27
177
     3
291
     0
 70
    58
 90
        2
176
     1
 90
        2
176
     1
 90
        1
176
     1
 90
        2
176
     1
 40
0.6
176
     1
 40
30.0
176
     1
 62
     7
420
 16777215
176
     1
 90
        0
176
     1
 90
        4
176
     1
 62
     7
176
     1
 62
   257
176
     1
 90
        1
176
     1
 90
        1
176
     1
 40
1.0
176
     1
 90
        8
176
     1
 62
   257
176
     1
 40
1.0
176
     1
 90
        1
176
     1
 90
        6
176
     1
 90
        2
176
     1
 62
     8
420
  7895160
176
     1
 90
        3
176
     1
 90
        0
176
     1
 90
        0
176
     1
290
     0
176
     1
 90
        5
176
     1
 40
0.0
176
     1
 90
        0
176
     1
290
     0
176
     1
290
     1
176
     1
290
     1
176
     1
290
     0
176
     1
290
     0
176
     1
290
     0
176
     1
290
     0
176
     1
290
     0
176
     1
290
     0
176
     1
 90
       50
176
     1
 40
0.0
176
     1
 40
1.0
176
     1
 90
        0
176
     1
 62
    18
420
        0
176
     1
 90
       50
176
     1
 90
        3
176
     1
 62
     5
420
      255
176
     1
290
     0
176
     1
 90
       50
176
     1
 90
       50
176
     1
 90
       50
176
     1
290
     0
176
     1
 90
       50
176
     1
 62
   256
176
     0
 40
1.0
176
     0
 90
        2
176
     1
  1
strokes_ogs.tif
176
     1
290
     0
176
     1
 40
1.0
176
     1
 40
1.0
176
     1
  0
VISUALSTYLE
  5
41
102
{ACAD_REACTORS
330
2A
102
}
330
2A
100
AcDbVisualStyle
  2
Shaded with edges
 70
    26
177
     3
291
     0
 70
    58
 90
        2
176
     1
 90
        2
176
     1
 90
        1
176
     1
 90
        2
176
     1
 40
0.6
176
     1
 40
30.0
176
     1
 62
     7
420
 16777215
176
     1
 90
        1
176
     1
 90
       10
176
     1
 62
     7
176
     1
 62
   257
176
     1
 90
        2
176
     1
 90
        1
176
     1
 40
1.0
176
     1
 90
        8
176
     1
 62
   257
176
     1
 40
1.0
176
     1
 90
        1
176
     1
 90
        6
176
     1
 90
        2
176
     1
 62
     7
176
     1
 90
        3
176
     1
 90
        0
176
     1
 90
        0
176
     1
290
     0
176
     1
 90
        5
176
     1
 40
0.0
176
     1
 90
        0
176
     1
290
     0
176
     1
290
     1
176
     1
290
     1
176
     1
290
     0
176
     1
290
     0
176
     1
290
     0
176
     1
290
     0
176
     1
290
     0
176
     1
290
     0
176
     1
 90
       50
176
     1
 40
0.0
176
     1
 40
1.0
176
     1
 90
        0
176
     1
 62
    18
420
        0
176
     1
 90
       50
176
     1
 90
        3
176
     1
 62
     5
420
      255
176
     1
290
     0
176
     1
 90
       50
176
     1
 90
       50
176
     1
 90
       50
176
     1
290
     0
176
     1
 90
       50
176
     1
 62
   256
176
     0
 40
1.0
176
     0
 90
        2
176
     1
  1
strokes_ogs.tif
176
     1
290
     0
176
     1
 40
1.0
176
     1
 40
1.0
176
     1
  0
VISUALSTYLE
  5
3E
102
{ACAD_REACTORS
330
2A
102
}
330
2A
100
AcDbVisualStyle
  2
Shades of Gray
 70
    23
177
     3
291
     0
 70
    58
 90
        2
176
     1
 90
        2
176
     1
 90
        3
176
     1
 90
        0
176
     1
 40
0.6
176
     1
 40
30.0
176
     1
 62
     7
420
 16777215
176
     1
 90
        2
176
     1
 90
        2
176
     1
 62
     7
176
     1
 62
     7
176
     1
 90
        1
176
     1
 90
        1
176
     1
 40
40.0
176
     1
 90
        8
176
     1
 62
     7
176
     1
 40
1.0
176
     1
 90
        1
176
     1
 90
        6
176
     1
 90
        2
176
     1
 62
     7
176
     1
 90
        3
176
     1
 90
        0
176
     1
 90
        0
176
     1
290
     0
176
     1
 90
        1
176
     1
 40
0.0
176
     1
 90
        0
176
     1
290
     0
176
     1
290
     1
176
     1
290
     1
176
     1
290
     0
176
     1
290
     0
176
     1
290
     0
176
     1
290
     0
176
     1
290
     0
176
     1
290
     0
176
     1
 90
       50
176
     1
 40
0.0
176
     1
 40
1.0
176
     1
 90
        0
176
     1
 62
    18
420
        0
176
     1
 90
       50
176
     1
 90
        3
176
     1
 62
     5
420
      255
176
     1
290
     0
176
     1
 90
       50
176
     1
 90
       50
176
     1
 90
       50
176
     1
290
     0
176
     1
 90
       50
176
     1
 62
   256
176
     0
 40
1.0
176
     0
 90
        2
176
     1
  1
strokes_ogs.tif
176
     1
290
     0
176
     1
 40
1.0
176
     1
 40
1.0
176
     1
  0
VISUALSTYLE
  5
3F
102
{ACAD_REACTORS
330
2A
102
}
330
2A
100
AcDbVisualStyle
  2
Sketchy
 70
    24
177
     3
291
     0
 70
    58
 90
        1
176
     1
 90
        2
176
     1
 90
        2
176
     1
 90
        0
176
     1
 40
0.6
176
     1
 40
30.0
176
     1
 62
     7
420
 16777215
176
     1
 90
        2
176
     1
 90
        2
176
     1
 62
     7
176
     1
 62
     7
176
     1
 90
        1
176
     1
 90
        1
176
     1
 40
40.0
176
     1
 90
       11
176
     1
 62
     7
176
     1
 40
1.0
176
     1
 90
        1
176
     1
 90
        6
176
     1
 90
        2
176
     1
 62
     7
176
     1
 90
        6
176
     1
 90
        0
176
     1
 90
        0
176
     1
290
     0
176
     1
 90
        1
176
     1
 40
0.0
176
     1
 90
        0
176
     1
290
     0
176
     1
290
     1
176
     1
290
     1
176
     1
290
     0
176
     1
290
     0
176
     1
290
     0
176
     1
290
     0
176
     1
290
     0
176
     1
290
     0
176
     1
 90
       50
176
     1
 40
0.0
176
     1
 40
1.0
176
     1
 90
        0
176
     1
 62
    18
420
        0
176
     1
 90
       50
176
     1
 90
        3
176
     1
 62
     5
420
      255
176
     1
290
     0
176
     1
 90
       50
176
     1
 90
       50
176
     1
 90
       50
176
     1
290
     0
176
     1
 90
       50
176
     1
 62
   256
176
     0
 40
1.0
176
     0
 90
        2
176
     1
  1
strokes_ogs.tif
176
     1
290
     0
176
     1
 40
1.0
176
     1
 40
1.0
176
     1
  0
VISUALSTYLE
  5
37
102
{ACAD_REACTORS
330
2A
102
}
330
2A
100
AcDbVisualStyle
  2
Thicken
 70
    13
177
     3
291
     1
 70
    58
 90
        2
176
     1
 90
        2
176
     1
 90
        0
176
     1
 90
        0
176
     1
 40
0.6
176
     1
 40
30.0
176
     1
 62
     7
420
 16777215
176
     1
 90
        1
176
     1
 90
        4
176
     1
 62
     7
176
     1
 62
   257
176
     1
 90
        1
176
     1
 90
        1
176
     1
 40
1.0
176
     1
 90
       12
176
     1
 62
     7
176
     1
 40
1.0
176
     1
 90
        1
176
     1
 90
        6
176
     1
 90
        2
176
     1
 62
     7
176
     1
 90
        5
176
     1
 90
        0
176
     1
 90
        0
176
     1
290
     0
176
     1
 90
        1
176
     1
 40
0.0
176
     1
 90
        0
176
     1
290
     0
176
     1
290
     1
176
     1
290
     1
176
     1
290
     0
176
     1
290
     0
176
     1
290
     0
176
     1
290
     0
176
     1
290
     0
176
     1
290
     0
176
     1
 90
       50
176
     1
 40
0.0
176
     1
 40
1.0
176
     1
 90
        0
176
     1
 62
    18
420
        0
176
     1
 90
       50
176
     1
 90
        3
176
     1
 62
     5
420
      255
176
     1
290
     0
176
     1
 90
       50
176
     1
 90
       50
176
     1
 90
       50
176
     1
290
     0
176
     1
 90
       50
176
     1
 62
   256
176
     0
 40
1.0
176
     0
 90
        2
176
     1
  1
strokes_ogs.tif
176
     1
290
     0
176
     1
 40
1.0
176
     1
 40
1.0
176
     1
  0
VISUALSTYLE
  5
30
102
{ACAD_REACTORS
330
2A
102
}
330
2A
100
AcDbVisualStyle
  2
Wireframe
 70
     5
177
     3
291
     0
 70
    58
 90
        0
176
     1
 90
        2
176
     1
 90
        0
176
     1
 90
        0
176
     1
 40
0.6
176
     1
 40
30.0
176
     1
 62
     7
420
 16777215
176
     1
 90
        1
176
     1
 90
        4
176
     1
 62
     7
176
     1
 62
   257
176
     1
 90
        1
176
     1
 90
        1
176
     1
 40
1.0
176
     1
 90
        0
176
     1
 62
   257
176
     1
 40
1.0
176
     1
 90
        1
176
     1
 90
        6
176
     1
 90
        2
176
     1
 62
     7
176
     1
 90
        3
176
     1
 90
        0
176
     1
 90
        0
176
     1
290
     0
176
     1
 90
        1
176
     1
 40
0.0
176
     1
 90
        0
176
     1
290
     0
176
     1
290
     1
176
     1
290
     1
176
     1
290
     0
176
     1
290
     0
176
     1
290
     0
176
     1
290
     0
176
     1
290
     0
176
     1
290
     0
176
     1
 90
       50
176
     1
 40
0.0
176
     1
 40
1.0
176
     1
 90
        0
176
     1
 62
    18
420
        0
176
     1
 90
       50
176
     1
 90
        3
176
     1
 62
     5
420
      255
176
     1
290
     0
176
     1
 90
       50
176
     1
 90
       50
176
     1
 90
       50
176
     1
290
     0
176
     1
 90
       50
176
     1
 62
   256
176
     0
 40
1.0
176
     0
 90
        2
176
     1
  1
strokes_ogs.tif
176
     1
290
     0
176
     1
 40
1.0
176
     1
 40
1.0
176
     1
  0
VISUALSTYLE
  5
40
102
{ACAD_REACTORS
330
2A
102
}
330
2A
100
AcDbVisualStyle
  2
X-Ray
 70
    25
177
     3
291
     0
 70
    58
 90
        2
176
     1
 90
        2
176
     1
 90
        1
176
     1
 90
        1
176
     1
 40
0.5
176
     1
 40
30.0
176
     1
 62
     7
420
 16777215
176
     1
 90
        1
176
     1
 90
        0
176
     1
 62
     7
176
     1
 62
   257
176
     1
 90
        1
176
     1
 90
        1
176
     1
 40
1.0
176
     1
 90
        8
176
     1
 62
     7
176
     1
 40
1.0
176
     1
 90
        1
176
     1
 90
        6
176
     1
 90
        2
176
     1
 62
     7
176
     1
 90
        3
176
     1
 90
        0
176
     1
 90
        0
176
     1
290
     0
176
     1
 90
       13
176
     1
 40
0.0
176
     1
 90
        0
176
     1
290
     0
176
     1
290
     1
176
     1
290
     1
176
     1
290
     0
176
     1
290
     0
176
     1
290
     0
176
     1
290
     0
176
     1
290
     0
176
     1
290
     0
176
     1
 90
       50
176
     1
 40
0.0
176
     1
 40
1.0
176
     1
 90
        0
176
     1
 62
    18
420
        0
176
     1
 90
       50
176
     1
 90
        3
176
     1
 62
     5
420
      255
176
     1
290
     0
176
     1
 90
       50
176
     1
 90
       50
176
     1
 90
       50
176
     1
290
     0
176
     1
 90
       50
176
     1
 62
   256
176
     0
 40
1.0
176
     0
 90
        2
176
     1
  1
strokes_ogs.tif
176
     1
290
     0
176
     1
 40
1.0
176
     1
 40
1.0
176
     1
  0
DICTIONARYVAR
  5
16F
102
{ACAD_REACTORS
330
16E
102
}
330
16E
100
DictionaryVariables
280
     0
  1
1:1
  0
DICTIONARYVAR
  5
174
102
{ACAD_REACTORS
330
16E
102
}
330
16E
100
DictionaryVariables
280
     0
  1
Standard
  0
DICTIONARYVAR
  5
173
102
{ACAD_REACTORS
330
16E
102
}
330
16E
100
DictionaryVariables
280
     0
  1
Standard
  0
DICTIONARY
  5
170
330
6A
100
AcDbDictionary
280
     1
281
     1
  3
ACAD_ROUNDTRIP_2008_TABLESTYLE_CELLSTYLEMAP
360
171
  0
CELLSTYLEMAP
  5
171
102
{ACAD_REACTORS
330
170
102
}
330
170
100
AcDbCellStyleMap
 90
        3
300
CELLSTYLE
  1
TABLEFORMAT_BEGIN
 90
        5
170
     1
 91
        0
 92
    32768
 62
   257
 93
        1
300
CONTENTFORMAT
  1
CONTENTFORMAT_BEGIN
 90
        0
 91
        0
 92
        4
 93
        0
300

 40
0.0
140
1.0
 94
        5
 62
     0
340
11
144
0.25
309
CONTENTFORMAT_END
171
     1
301
MARGIN
  1
CELLMARGIN_BEGIN
 40
0.06
 40
0.06
 40
0.06
 40
0.06
 40
0.06
 40
0.06
309
CELLMARGIN_END
 94
        6
 95
        1
302
GRIDFORMAT
  1
GRIDFORMAT_BEGIN
 90
        0
 91
        1
 62
     0
 92
       -2
340
14
 93
        0
 40
0.045
309
GRIDFORMAT_END
 95
        2
302
GRIDFORMAT
  1
GRIDFORMAT_BEGIN
 90
        0
 91
        1
 62
     0
 92
       -2
340
14
 93
        0
 40
0.045
309
GRIDFORMAT_END
 95
        4
302
GRIDFORMAT
  1
GRIDFORMAT_BEGIN
 90
        0
 91
        1
 62
     0
 92
       -2
340
14
 93
        0
 40
0.045
309
GRIDFORMAT_END
 95
        8
302
GRIDFORMAT
  1
GRIDFORMAT_BEGIN
 90
        0
 91
        1
 62
     0
 92
       -2
340
14
 93
        0
 40
0.045
309
GRIDFORMAT_END
 95
       16
302
GRIDFORMAT
  1
GRIDFORMAT_BEGIN
 90
        0
 91
        1
 62
     0
 92
       -2
340
14
 93
        0
 40
0.045
309
GRIDFORMAT_END
 95
       32
302
GRIDFORMAT
  1
GRIDFORMAT_BEGIN
 90
        0
 91
        1
 62
     0
 92
       -2
340
14
 93
        0
 40
0.045
309
GRIDFORMAT_END
309
TABLEFORMAT_END
  1
CELLSTYLE_BEGIN
 90
        1
 91
        1
300
_TITLE
309
CELLSTYLE_END
300
CELLSTYLE
  1
TABLEFORMAT_BEGIN
 90
        5
170
     1
 91
        0
 92
        0
 62
   257
 93
        1
300
CONTENTFORMAT
  1
CONTENTFORMAT_BEGIN
 90
        0
 91
        0
 92
        4
 93
        0
300

 40
0.0
140
1.0
 94
        5
 62
     0
340
11
144
0.18
309
CONTENTFORMAT_END
171
     1
301
MARGIN
  1
CELLMARGIN_BEGIN
 40
0.06
 40
0.06
 40
0.06
 40
0.06
 40
0.06
 40
0.06
309
CELLMARGIN_END
 94
        6
 95
        1
302
GRIDFORMAT
  1
GRIDFORMAT_BEGIN
 90
        0
 91
        1
 62
     0
 92
       -2
340
14
 93
        0
 40
0.045
309
GRIDFORMAT_END
 95
        2
302
GRIDFORMAT
  1
GRIDFORMAT_BEGIN
 90
        0
 91
        1
 62
     0
 92
       -2
340
14
 93
        0
 40
0.045
309
GRIDFORMAT_END
 95
        4
302
GRIDFORMAT
  1
GRIDFORMAT_BEGIN
 90
        0
 91
        1
 62
     0
 92
       -2
340
14
 93
        0
 40
0.045
309
GRIDFORMAT_END
 95
        8
302
GRIDFORMAT
  1
GRIDFORMAT_BEGIN
 90
        0
 91
        1
 62
     0
 92
       -2
340
14
 93
        0
 40
0.045
309
GRIDFORMAT_END
 95
       16
302
GRIDFORMAT
  1
GRIDFORMAT_BEGIN
 90
        0
 91
        1
 62
     0
 92
       -2
340
14
 93
        0
 40
0.045
309
GRIDFORMAT_END
 95
       32
302
GRIDFORMAT
  1
GRIDFORMAT_BEGIN
 90
        0
 91
        1
 62
     0
 92
       -2
340
14
 93
        0
 40
0.045
309
GRIDFORMAT_END
309
TABLEFORMAT_END
  1
CELLSTYLE_BEGIN
 90
        2
 91
        1
300
_HEADER
309
CELLSTYLE_END
300
CELLSTYLE
  1
TABLEFORMAT_BEGIN
 90
        5
170
     1
 91
        0
 92
        0
 62
   257
 93
        1
300
CONTENTFORMAT
  1
CONTENTFORMAT_BEGIN
 90
        0
 91
        0
 92
        4
 93
        0
300

 40
0.0
140
1.0
 94
        2
 62
     0
340
11
144
0.18
309
CONTENTFORMAT_END
171
     1
301
MARGIN
  1
CELLMARGIN_BEGIN
 40
0.06
 40
0.06
 40
0.06
 40
0.06
 40
0.06
 40
0.06
309
CELLMARGIN_END
 94
        6
 95
        1
302
GRIDFORMAT
  1
GRIDFORMAT_BEGIN
 90
        0
 91
        1
 62
     0
 92
       -2
340
14
 93
        0
 40
0.045
309
GRIDFORMAT_END
 95
        2
302
GRIDFORMAT
  1
GRIDFORMAT_BEGIN
 90
        0
 91
        1
 62
     0
 92
       -2
340
14
 93
        0
 40
0.045
309
GRIDFORMAT_END
 95
        4
302
GRIDFORMAT
  1
GRIDFORMAT_BEGIN
 90
        0
 91
        1
 62
     0
 92
       -2
340
14
 93
        0
 40
0.045
309
GRIDFORMAT_END
 95
        8
302
GRIDFORMAT
  1
GRIDFORMAT_BEGIN
 90
        0
 91
        1
 62
     0
 92
       -2
340
14
 93
        0
 40
0.045
309
GRIDFORMAT_END
 95
       16
302
GRIDFORMAT
  1
GRIDFORMAT_BEGIN
 90
        0
 91
        1
 62
     0
 92
       -2
340
14
 93
        0
 40
0.045
309
GRIDFORMAT_END
 95
       32
302
GRIDFORMAT
  1
GRIDFORMAT_BEGIN
 90
        0
 91
        1
 62
     0
 92
       -2
340
14
 93
        0
 40
0.045
309
GRIDFORMAT_END
309
TABLEFORMAT_END
  1
CELLSTYLE_BEGIN
 90
        3
 91
        2
300
_DATA
309
CELLSTYLE_END
  0
ENDSEC
  0
EOF