0
SECTION
  2
HEADER
  9
$ACADVER
  1
AC1027
  9
$ACADMAINTVER
 70
     8
  9
$DWGCODEPAGE
  3
ANSI_1252
  9
$REQUIREDVERSIONS
160
                 0
  9
$COMMENTS
  1
File was created by Cadenas
  9
$CUSTOMPROPERTYTAG
  1
NN
  9
$CUSTOMPROPERTY
  1
Set Screw LF  Normal Duty 3-Bolt Flange Inch Bore
  9
$CUSTOMPROPERTYTAG
  1
NT
  9
$CUSTOMPROPERTY
  1
SC 3 Bolt Flange Bearings -(Normal Duty) -Re-Lube and No-Lube
  9
$CUSTOMPROPERTYTAG
  1
NB
  9
$CUSTOMPROPERTY
  1
124620
  9
$CUSTOMPROPERTYTAG
  1
NBSYN
  9
$CUSTOMPROPERTY
  1
$PN.
  9
$CUSTOMPROPERTYTAG
  1
LINA
  9
$CUSTOMPROPERTY
  1
124620
  9
$CUSTOMPROPERTYTAG
  1
SERIES
  9
$CUSTOMPROPERTY
  1
203
  9
$CUSTOMPROPERTYTAG
  1
SS
  9
$CUSTOMPROPERTY
  1
1/2
  9
$CUSTOMPROPERTYTAG
  1
PN
  9
$CUSTOMPROPERTY
  1
124620
  9
$CUSTOMPROPERTYTAG
  1
DESCRIPTION
  9
$CUSTOMPROPERTY
  1
LF-SC-008-NL
  9
$CUSTOMPROPERTYTAG
  1
W
  9
$CUSTOMPROPERTY
  1
0.65
  9
$CUSTOMPROPERTYTAG
  1
LF
  9
$CUSTOMPROPERTY
  1
NO-LUBE
  9
$CUSTOMPROPERTYTAG
  1
A
  9
$CUSTOMPROPERTY
  1
1
  9
$CUSTOMPROPERTYTAG
  1
B
  9
$CUSTOMPROPERTY
  1
3.19
  9
$CUSTOMPROPERTYTAG
  1
C
  9
$CUSTOMPROPERTY
  1
1.05
  9
$CUSTOMPROPERTYTAG
  1
D
  9
$CUSTOMPROPERTY
  1
2.50
  9
$CUSTOMPROPERTYTAG
  1
G
  9
$CUSTOMPROPERTY
  1
0.28
  9
$CUSTOMPROPERTYTAG
  1
H
  9
$CUSTOMPROPERTY
  1
0.38
  9
$CUSTOMPROPERTYTAG
  1
J
  9
$CUSTOMPROPERTY
  1
0.33
  9
$CUSTOMPROPERTYTAG
  1
L
  9
$CUSTOMPROPERTY
  1
0.96
  9
$CUSTOMPROPERTYTAG
  1
M
  9
$CUSTOMPROPERTY
  1
1.59
  9
$CUSTOMPROPERTYTAG
  1
N
  9
$CUSTOMPROPERTY
  1
1.84
  9
$CUSTOMPROPERTYTAG
  1
COMPANY
  9
$CUSTOMPROPERTY
  1
baldor
  9
$INSBASE
 10
0.0
 20
0.0
 30
0.0
  9
$EXTMIN
 10
1.000000000000000E+20
 20
1.000000000000000E+20
 30
1.000000000000000E+20
  9
$EXTMAX
 10
-1.000000000000000E+20
 20
-1.000000000000000E+20
 30
-1.000000000000000E+20
  9
$LIMMIN
 10
0.0
 20
0.0
  9
$LIMMAX
 10
12.0
 20
9.0
  9
$ORTHOMODE
 70
     0
  9
$REGENMODE
 70
     1
  9
$FILLMODE
 70
     1
  9
$QTEXTMODE
 70
     0
  9
$MIRRTEXT
 70
     1
  9
$LTSCALE
 40
1.0
  9
$ATTMODE
 70
     1
  9
$TEXTSIZE
 40
0.2
  9
$TRACEWID
 40
0.05
  9
$TEXTSTYLE
  7
Standard
  9
$CLAYER
  8
0
  9
$CELTYPE
  6
ByLayer
  9
$CECOLOR
 62
   256
  9
$CELTSCALE
 40
1.0
  9
$DISPSILH
 70
     0
  9
$DIMSCALE
 40
1.0
  9
$DIMASZ
 40
0.18
  9
$DIMEXO
 40
0.0625
  9
$DIMDLI
 40
0.38
  9
$DIMRND
 40
0.0
  9
$DIMDLE
 40
0.0
  9
$DIMEXE
 40
0.18
  9
$DIMTP
 40
0.0
  9
$DIMTM
 40
0.0
  9
$DIMTXT
 40
0.18
  9
$DIMCEN
 40
0.09
  9
$DIMTSZ
 40
0.0
  9
$DIMTOL
 70
     0
  9
$DIMLIM
 70
     0
  9
$DIMTIH
 70
     1
  9
$DIMTOH
 70
     1
  9
$DIMSE1
 70
     0
  9
$DIMSE2
 70
     0
  9
$DIMTAD
 70
     0
  9
$DIMZIN
 70
     0
  9
$DIMBLK
  1

  9
$DIMASO
 70
     1
  9
$DIMSHO
 70
     1
  9
$DIMPOST
  1

  9
$DIMAPOST
  1

  9
$DIMALT
 70
     0
  9
$DIMALTD
 70
     2
  9
$DIMALTF
 40
25.4
  9
$DIMLFAC
 40
1.0
  9
$DIMTOFL
 70
     0
  9
$DIMTVP
 40
0.0
  9
$DIMTIX
 70
     0
  9
$DIMSOXD
 70
     0
  9
$DIMSAH
 70
     0
  9
$DIMBLK1
  1

  9
$DIMBLK2
  1

  9
$DIMSTYLE
  2
Standard
  9
$DIMCLRD
 70
     0
  9
$DIMCLRE
 70
     0
  9
$DIMCLRT
 70
     0
  9
$DIMTFAC
 40
1.0
  9
$DIMGAP
 40
0.09
  9
$DIMJUST
 70
     0
  9
$DIMSD1
 70
     0
  9
$DIMSD2
 70
     0
  9
$DIMTOLJ
 70
     1
  9
$DIMTZIN
 70
     0
  9
$DIMALTZ
 70
     0
  9
$DIMALTTZ
 70
     0
  9
$DIMUPT
 70
     0
  9
$DIMDEC
 70
     4
  9
$DIMTDEC
 70
     4
  9
$DIMALTU
 70
     2
  9
$DIMALTTD
 70
     2
  9
$DIMTXSTY
  7
Standard
  9
$DIMAUNIT
 70
     0
  9
$DIMADEC
 70
     0
  9
$DIMALTRND
 40
0.0
  9
$DIMAZIN
 70
     0
  9
$DIMDSEP
 70
    46
  9
$DIMATFIT
 70
     3
  9
$DIMFRAC
 70
     0
  9
$DIMLDRBLK
  1

  9
$DIMLUNIT
 70
     2
  9
$DIMLWD
 70
    -2
  9
$DIMLWE
 70
    -2
  9
$DIMTMOVE
 70
     0
  9
$DIMFXL
 40
1.0
  9
$DIMFXLON
 70
     0
  9
$DIMJOGANG
 40
0.7853981633974483
  9
$DIMTFILL
 70
     0
  9
$DIMTFILLCLR
 70
     0
  9
$DIMARCSYM
 70
     0
  9
$DIMLTYPE
  6

  9
$DIMLTEX1
  6

  9
$DIMLTEX2
  6

  9
$DIMTXTDIRECTION
 70
     0
  9
$LUNITS
 70
     2
  9
$LUPREC
 70
     4
  9
$SKETCHINC
 40
0.1
  9
$FILLETRAD
 40
0.5
  9
$AUNITS
 70
     0
  9
$AUPREC
 70
     0
  9
$MENU
  1
.
  9
$ELEVATION
 40
0.0
  9
$PELEVATION
 40
0.0
  9
$THICKNESS
 40
0.0
  9
$LIMCHECK
 70
     0
  9
$CHAMFERA
 40
0.0
  9
$CHAMFERB
 40
0.0
  9
$CHAMFERC
 40
0.0
  9
$CHAMFERD
 40
0.0
  9
$SKPOLY
 70
     0
  9
$TDCREATE
 40
2458169.004807199
  9
$TDUCREATE
 40
2458168.963140532
  9
$TDUPDATE
 40
2458169.004807384
  9
$TDUUPDATE
 40
2458168.963140718
  9
$TDINDWG
 40
0.0000000116
  9
$TDUSRTIMER
 40
0.0000000116
  9
$USRTIMER
 70
     1
  9
$ANGBASE
 50
0.0
  9
$ANGDIR
 70
     0
  9
$PDMODE
 70
     0
  9
$PDSIZE
 40
0.0
  9
$PLINEWID
 40
0.0
  9
$SPLFRAME
 70
     0
  9
$SPLINETYPE
 70
     6
  9
$SPLINESEGS
 70
     8
  9
$HANDSEED
  5
195
  9
$SURFTAB1
 70
     6
  9
$SURFTAB2
 70
     6
  9
$SURFTYPE
 70
     6
  9
$SURFU
 70
     6
  9
$SURFV
 70
     6
  9
$UCSBASE
  2

  9
$UCSNAME
  2

  9
$UCSORG
 10
0.0
 20
0.0
 30
0.0
  9
$UCSXDIR
 10
1.0
 20
0.0
 30
0.0
  9
$UCSYDIR
 10
0.0
 20
1.0
 30
0.0
  9
$UCSORTHOREF
  2

  9
$UCSORTHOVIEW
 70
     0
  9
$UCSORGTOP
 10
0.0
 20
0.0
 30
0.0
  9
$UCSORGBOTTOM
 10
0.0
 20
0.0
 30
0.0
  9
$UCSORGLEFT
 10
0.0
 20
0.0
 30
0.0
  9
$UCSORGRIGHT
 10
0.0
 20
0.0
 30
0.0
  9
$UCSORGFRONT
 10
0.0
 20
0.0
 30
0.0
  9
$UCSORGBACK
 10
0.0
 20
0.0
 30
0.0
  9
$PUCSBASE
  2

  9
$PUCSNAME
  2

  9
$PUCSORG
 10
0.0
 20
0.0
 30
0.0
  9
$PUCSXDIR
 10
1.0
 20
0.0
 30
0.0
  9
$PUCSYDIR
 10
0.0
 20
1.0
 30
0.0
  9
$PUCSORTHOREF
  2

  9
$PUCSORTHOVIEW
 70
     0
  9
$PUCSORGTOP
 10
0.0
 20
0.0
 30
0.0
  9
$PUCSORGBOTTOM
 10
0.0
 20
0.0
 30
0.0
  9
$PUCSORGLEFT
 10
0.0
 20
0.0
 30
0.0
  9
$PUCSORGRIGHT
 10
0.0
 20
0.0
 30
0.0
  9
$PUCSORGFRONT
 10
0.0
 20
0.0
 30
0.0
  9
$PUCSORGBACK
 10
0.0
 20
0.0
 30
0.0
  9
$USERI1
 70
     0
  9
$USERI2
 70
     0
  9
$USERI3
 70
     0
  9
$USERI4
 70
     0
  9
$USERI5
 70
     0
  9
$USERR1
 40
0.0
  9
$USERR2
 40
0.0
  9
$USERR3
 40
0.0
  9
$USERR4
 40
0.0
  9
$USERR5
 40
0.0
  9
$WORLDVIEW
 70
     1
  9
$SHADEDGE
 70
     3
  9
$SHADEDIF
 70
    70
  9
$TILEMODE
 70
     1
  9
$MAXACTVP
 70
    64
  9
$PINSBASE
 10
0.0
 20
0.0
 30
0.0
  9
$PLIMCHECK
 70
     0
  9
$PEXTMIN
 10
1.000000000000000E+20
 20
1.000000000000000E+20
 30
1.000000000000000E+20
  9
$PEXTMAX
 10
-1.000000000000000E+20
 20
-1.000000000000000E+20
 30
-1.000000000000000E+20
  9
$PLIMMIN
 10
0.0
 20
0.0
  9
$PLIMMAX
 10
12.0
 20
9.0
  9
$UNITMODE
 70
     0
  9
$VISRETAIN
 70
     1
  9
$PLINEGEN
 70
     0
  9
$PSLTSCALE
 70
     1
  9
$TREEDEPTH
 70
  3020
  9
$CMLSTYLE
  2
Standard
  9
$CMLJUST
 70
     0
  9
$CMLSCALE
 40
1.0
  9
$PROXYGRAPHICS
 70
     1
  9
$MEASUREMENT
 70
     0
  9
$CELWEIGHT
370
    -1
  9
$ENDCAPS
280
     0
  9
$JOINSTYLE
280
     0
  9
$LWDISPLAY
290
     0
  9
$INSUNITS
 70
     1
  9
$HYPERLINKBASE
  1

  9
$STYLESHEET
  1

  9
$XEDIT
290
     1
  9
$CEPSNTYPE
380
     0
  9
$PSTYLEMODE
290
     1
  9
$FINGERPRINTGUID
  2
{85ED8E83-D587-4C59-B518-ED4C193739C7}
  9
$VERSIONGUID
  2
{FAEB1C32-E019-11D5-929B-00C0DF256EC4}
  9
$EXTNAMES
290
     1
  9
$PSVPSCALE
 40
0.0
  9
$OLESTARTUP
290
     0
  9
$SORTENTS
280
   127
  9
$INDEXCTL
280
     0
  9
$HIDETEXT
280
     1
  9
$XCLIPFRAME
280
     2
  9
$HALOGAP
280
     0
  9
$OBSCOLOR
 70
   257
  9
$OBSLTYPE
280
     0
  9
$INTERSECTIONDISPLAY
280
     0
  9
$INTERSECTIONCOLOR
 70
   257
  9
$DIMASSOC
280
     2
  9
$PROJECTNAME
  1

  9
$CAMERADISPLAY
290
     0
  9
$LENSLENGTH
 40
50.0
  9
$CAMERAHEIGHT
 40
0.0
  9
$STEPSPERSEC
 40
2.0
  9
$STEPSIZE
 40
6.0
  9
$3DDWFPREC
 40
2.0
  9
$PSOLWIDTH
 40
0.25
  9
$PSOLHEIGHT
 40
4.0
  9
$LOFTANG1
 40
1.570796326794897
  9
$LOFTANG2
 40
1.570796326794897
  9
$LOFTMAG1
 40
0.0
  9
$LOFTMAG2
 40
0.0
  9
$LOFTPARAM
 70
     7
  9
$LOFTNORMALS
280
     1
  9
$LATITUDE
 40
37.795
  9
$LONGITUDE
 40
-122.394
  9
$NORTHDIRECTION
 40
0.0
  9
$TIMEZONE
 70
 -8000
  9
$LIGHTGLYPHDISPLAY
280
     1
  9
$TILEMODELIGHTSYNCH
280
     1
  9
$CMATERIAL
347
44
  9
$SOLIDHIST
280
     0
  9
$SHOWHIST
280
     1
  9
$DWFFRAME
280
     2
  9
$DGNFRAME
280
     2
  9
$REALWORLDSCALE
290
     1
  9
$INTERFERECOLOR
 62
   256
  9
$CSHADOW
280
     0
  9
$SHADOWPLANELOCATION
 40
0.0
  0
ENDSEC
  0
SECTION
  2
CLASSES
  0
CLASS
  1
ACDBDICTIONARYWDFLT
  2
AcDbDictionaryWithDefault
  3
ObjectDBX Classes
 90
        0
 91
        4
280
     0
281
     0
  0
CLASS
  1
VISUALSTYLE
  2
AcDbVisualStyle
  3
ObjectDBX Classes
 90
     4095
 91
        4
280
     0
281
     0
  0
CLASS
  1
MATERIAL
  2
AcDbMaterial
  3
ObjectDBX Classes
 90
     1153
 91
        4
280
     0
281
     0
  0
CLASS
  1
SCALE
  2
AcDbScale
  3
ObjectDBX Classes
 90
     1153
 91
        4
280
     0
281
     0
  0
CLASS
  1
TABLESTYLE
  2
AcDbTableStyle
  3
ObjectDBX Classes
 90
     4095
 91
        4
280
     0
281
     0
  0
CLASS
  1
MLEADERSTYLE
  2
AcDbMLeaderStyle
  3
ACDB_MLEADERSTYLE_CLASS
 90
     4095
 91
        4
280
     0
281
     0
  0
CLASS
  1
SUN
  2
AcDbSun
  3
SCENEOE
 90
     1153
 91
        4
280
     0
281
     0
  0
CLASS
  1
DICTIONARYVAR
  2
AcDbDictionaryVar
  3
ObjectDBX Classes
 90
        0
 91
        4
280
     0
281
     0
  0
CLASS
  1
CELLSTYLEMAP
  2
AcDbCellStyleMap
  3
ObjectDBX Classes
 90
     1152
 91
        4
280
     0
281
     0
  0
ENDSEC
  0
SECTION
  2
TABLES
  0
TABLE
  2
VPORT
  5
8
330
0
100
AcDbSymbolTable
 70
     1
  0
VPORT
  5
29
330
8
100
AcDbSymbolTableRecord
100
AcDbViewportTableRecord
  2
*Active
 70
     0
 10
0.0
 20
0.0
 11
1.0
 21
1.0
 12
0.0
 22
-0.5585000000000004
 13
0.0
 23
0.0
 14
0.5
 24
0.5
 15
0.5
 25
0.5
 16
0.0
 26
0.0
 36
1.0
 17
0.0
 27
0.0
 37
0.0
 40
1.178100000000001
 41
2.471916458407873
 42
50.0
 43
0.0
 44
0.0
 50
0.0
 51
0.0
 71
     0
 72
   100
 73
     1
 74
     3
 75
     0
 76
     0
 77
     0
 78
     0
281
     0
 65
     1
110
0.0
120
0.0
130
0.0
111
1.0
121
0.0
131
0.0
112
0.0
122
1.0
132
0.0
 79
     0
146
0.0
348
2F
 60
     3
 61
     5
292
     1
282
     1
141
0.0
142
0.0
 63
   250
361
6D
  0
ENDTAB
  0
TABLE
  2
LTYPE
  5
5
330
0
100
AcDbSymbolTable
 70
     3
  0
LTYPE
  5
14
330
5
100
AcDbSymbolTableRecord
100
AcDbLinetypeTableRecord
  2
ByBlock
 70
     0
  3

 72
    65
 73
     0
 40
0.0
  0
LTYPE
  5
15
330
5
100
AcDbSymbolTableRecord
100
AcDbLinetypeTableRecord
  2
ByLayer
 70
     0
  3

 72
    65
 73
     0
 40
0.0
  0
LTYPE
  5
16
330
5
100
AcDbSymbolTableRecord
100
AcDbLinetypeTableRecord
  2
Continuous
 70
     0
  3
Solid line
 72
    65
 73
     0
 40
0.0
  0
LTYPE
  5
9F
330
5
100
AcDbSymbolTableRecord
100
AcDbLinetypeTableRecord
  2
Dashed
 70
     0
  3

 72
    65
 73
     2
 40
2.0
 49
1.0
 74
     0
 49
-1.0
 74
     0
  0
LTYPE
  5
CE
330
5
100
AcDbSymbolTableRecord
100
AcDbLinetypeTableRecord
  2
Center
 70
     0
  3

 72
    65
 73
     4
 40
1.5
 49
0.45
 74
     0
 49
-0.5
 74
     0
 49
0.05
 74
     0
 49
-0.5
 74
     0
  0
ENDTAB
  0
TABLE
  2
LAYER
  5
2
330
0
100
AcDbSymbolTable
 70
     7
  0
LAYER
  5
10
330
2
100
AcDbSymbolTableRecord
100
AcDbLayerTableRecord
  2
0
 70
     0
 62
     7
  6
Continuous
370
    -3
390
F
347
46
348
0
  0
LAYER
  5
72
330
2
100
AcDbSymbolTableRecord
100
AcDbLayerTableRecord
  2
AM_6
 70
     0
 62
    -2
  6
Continuous
370
    35
390
F
347
46
348
0
  0
LAYER
  5
A0
330
2
100
AcDbSymbolTableRecord
100
AcDbLayerTableRecord
  2
AM_9
 70
     0
 62
     6
  6
Dashed
370
    25
390
F
347
46
348
0
  0
LAYER
  5
CF
330
2
100
AcDbSymbolTableRecord
100
AcDbLayerTableRecord
  2
AM_7
 70
     0
 62
     7
  6
Center
370
    25
390
F
347
46
348
0
  0
LAYER
  5
D2
330
2
100
AcDbSymbolTableRecord
100
AcDbLayerTableRecord
  2
AM_4
 70
     0
 62
     7
  6
Continuous
370
    50
390
F
347
46
348
0
  0
LAYER
  5
E5
330
2
100
AcDbSymbolTableRecord
100
AcDbLayerTableRecord
  2
AM_5
 70
     0
 62
     3
  6
Continuous
370
    25
390
F
347
46
348
0
  0
LAYER
  5
188
330
2
100
AcDbSymbolTableRecord
100
AcDbLayerTableRecord
  2
ConnectionPoints
 70
     0
 62
     7
  6
Continuous
370
    50
390
F
347
46
348
0
  0
ENDTAB
  0
TABLE
  2
STYLE
  5
3
330
0
100
AcDbSymbolTable
 70
     1
  0
STYLE
  5
11
330
3
100
AcDbSymbolTableRecord
100
AcDbTextStyleTableRecord
  2
Standard
 70
     0
 40
0.0
 41
1.0
 50
0.0
 71
     0
 42
0.2
  3
txt
  4

  0
ENDTAB
  0
TABLE
  2
VIEW
  5
6
330
0
100
AcDbSymbolTable
 70
     0
  0
ENDTAB
  0
TABLE
  2
UCS
  5
7
330
0
100
AcDbSymbolTable
 70
     0
  0
ENDTAB
  0
TABLE
  2
APPID
  5
9
330
0
100
AcDbSymbolTable
 70
     1
  0
APPID
  5
12
330
9
100
AcDbSymbolTableRecord
100
AcDbRegAppTableRecord
  2
ACAD
 70
     0
  0
ENDTAB
  0
TABLE
  2
DIMSTYLE
  5
A
330
0
100
AcDbSymbolTable
 70
     1
100
AcDbDimStyleTable
  0
DIMSTYLE
105
27
330
A
100
AcDbSymbolTableRecord
100
AcDbDimStyleTableRecord
  2
Standard
 70
     0
178
     0
340
11
  0
ENDTAB
  0
TABLE
  2
BLOCK_RECORD
  5
1
330
0
100
AcDbSymbolTable
 70
     5
  0
BLOCK_RECORD
  5
1F
330
1
100
AcDbSymbolTableRecord
100
AcDbBlockTableRecord
  2
*Model_Space
340
22
 70
     0
280
     1
281
     0
  0
BLOCK_RECORD
  5
1B
330
1
100
AcDbSymbolTableRecord
100
AcDbBlockTableRecord
  2
*Paper_Space
340
1E
 70
     0
280
     1
281
     0
  0
BLOCK_RECORD
  5
23
330
1
100
AcDbSymbolTableRecord
100
AcDbBlockTableRecord
  2
*Paper_Space0
340
26
 70
     0
280
     1
281
     0
  0
BLOCK_RECORD
  5
6E
330
1
100
AcDbSymbolTableRecord
100
AcDbBlockTableRecord
  2
1_124620_4
340
0
102
{BLKREFS
331
6F
102
}
 70
     0
280
     1
281
     0
  0
BLOCK_RECORD
  5
89
330
1
100
AcDbSymbolTableRecord
100
AcDbBlockTableRecord
  2
2_123328_0_in_124620_4
340
0
102
{BLKREFS
331
8A
102
}
 70
     0
280
     1
281
     0
  0
BLOCK_RECORD
  5
E8
330
1
100
AcDbSymbolTableRecord
100
AcDbBlockTableRecord
  2
3_400036_0_in_124620_4
340
0
102
{BLKREFS
331
E9
102
}
 70
     0
280
     1
281
     0
  0
BLOCK_RECORD
  5
FF
330
1
100
AcDbSymbolTableRecord
100
AcDbBlockTableRecord
  2
4_124620H_0_in_124620_4
340
0
102
{BLKREFS
331
100
102
}
 70
     0
280
     1
281
     0
  0
ENDTAB
  0
ENDSEC
  0
SECTION
  2
BLOCKS
  0
BLOCK
  5
20
330
1F
100
AcDbEntity
  8
0
100
AcDbBlockBegin
  2
*Model_Space
 70
     0
 10
0.0
 20
0.0
 30
0.0
  3
*Model_Space
  1

  0
ENDBLK
  5
21
330
1F
100
AcDbEntity
  8
0
100
AcDbBlockEnd
  0
BLOCK
  5
1C
330
1B
100
AcDbEntity
 67
     1
  8
0
100
AcDbBlockBegin
  2
*Paper_Space
 70
     0
 10
0.0
 20
0.0
 30
0.0
  3
*Paper_Space
  1

  0
ENDBLK
  5
1D
330
1B
100
AcDbEntity
 67
     1
  8
0
100
AcDbBlockEnd
  0
BLOCK
  5
24
330
23
100
AcDbEntity
  8
0
100
AcDbBlockBegin
  2
*Paper_Space0
 70
     0
 10
0.0
 20
0.0
 30
0.0
  3
*Paper_Space0
  1

  0
ENDBLK
  5
25
330
23
100
AcDbEntity
  8
0
100
AcDbBlockEnd
  0
BLOCK
  5
70
330
6E
100
AcDbEntity
  8
0
100
AcDbBlockBegin
  2
1_124620_4
 70
     2
 10
0.0
 20
0.0
 30
0.0
  3
1_124620_4
  1

  0
ATTDEF
  5
73
330
6E
100
AcDbEntity
  8
AM_6
100
AcDbText
 10
6.427531754730548
 20
0.0190000000000001
 30
0.0
 40
0.5
  1
Set Screw LF  Normal Duty 3-Bolt Flange Inch Bore
100
AcDbAttributeDefinition
  3

  2
NN
 70
     8
280
     0
  0
ATTDEF
  5
74
330
6E
100
AcDbEntity
  8
AM_6
100
AcDbText
 10
6.427531754730548
 20
-0.4809999999999999
 30
0.0
 40
0.5
  1
SC 3 Bolt Flange Bearings -(Normal Duty) -Re-Lube and No-Lube
100
AcDbAttributeDefinition
  3

  2
NT
 70
     8
280
     0
  0
ATTDEF
  5
75
330
6E
100
AcDbEntity
  8
AM_6
100
AcDbText
 10
6.427531754730548
 20
-0.9809999999999999
 30
0.0
 40
0.5
  1
124620
100
AcDbAttributeDefinition
  3

  2
NB
 70
     8
280
     0
  0
ATTDEF
  5
76
330
6E
100
AcDbEntity
  8
AM_6
100
AcDbText
 10
6.427531754730548
 20
-1.481
 30
0.0
 40
0.5
  1
$PN.
100
AcDbAttributeDefinition
  3

  2
NBSYN
 70
     8
280
     0
  0
ATTDEF
  5
77
330
6E
100
AcDbEntity
  8
AM_6
100
AcDbText
 10
6.427531754730548
 20
-1.981
 30
0.0
 40
0.5
  1
124620
100
AcDbAttributeDefinition
  3

  2
LINA
 70
     8
280
     0
  0
ATTDEF
  5
78
330
6E
100
AcDbEntity
  8
AM_6
100
AcDbText
 10
6.427531754730548
 20
-2.481
 30
0.0
 40
0.5
  1
203
100
AcDbAttributeDefinition
  3

  2
SERIES
 70
     8
280
     0
  0
ATTDEF
  5
79
330
6E
100
AcDbEntity
  8
AM_6
100
AcDbText
 10
6.427531754730548
 20
-2.981
 30
0.0
 40
0.5
  1
1/2
100
AcDbAttributeDefinition
  3

  2
SS
 70
     8
280
     0
  0
ATTDEF
  5
7A
330
6E
100
AcDbEntity
  8
AM_6
100
AcDbText
 10
6.427531754730548
 20
-3.481
 30
0.0
 40
0.5
  1
124620
100
AcDbAttributeDefinition
  3

  2
PN
 70
     8
280
     0
  0
ATTDEF
  5
7B
330
6E
100
AcDbEntity
  8
AM_6
100
AcDbText
 10
6.427531754730548
 20
-3.981
 30
0.0
 40
0.5
  1
LF-SC-008-NL
100
AcDbAttributeDefinition
  3

  2
DESCRIPTION
 70
     8
280
     0
  0
ATTDEF
  5
7C
330
6E
100
AcDbEntity
  8
AM_6
100
AcDbText
 10
6.427531754730548
 20
-4.481
 30
0.0
 40
0.5
  1
0.65
100
AcDbAttributeDefinition
  3

  2
W
 70
     8
280
     0
  0
ATTDEF
  5
7D
330
6E
100
AcDbEntity
  8
AM_6
100
AcDbText
 10
6.427531754730548
 20
-4.981
 30
0.0
 40
0.5
  1
NO-LUBE
100
AcDbAttributeDefinition
  3

  2
LF
 70
     8
280
     0
  0
ATTDEF
  5
7E
330
6E
100
AcDbEntity
  8
AM_6
100
AcDbText
 10
6.427531754730548
 20
-5.481
 30
0.0
 40
0.5
  1
1
100
AcDbAttributeDefinition
  3

  2
A
 70
     8
280
     0
  0
ATTDEF
  5
7F
330
6E
100
AcDbEntity
  8
AM_6
100
AcDbText
 10
6.427531754730548
 20
-5.981
 30
0.0
 40
0.5
  1
3.19
100
AcDbAttributeDefinition
  3

  2
B
 70
     8
280
     0
  0
ATTDEF
  5
80
330
6E
100
AcDbEntity
  8
AM_6
100
AcDbText
 10
6.427531754730548
 20
-6.481
 30
0.0
 40
0.5
  1
1.05
100
AcDbAttributeDefinition
  3

  2
C
 70
     8
280
     0
  0
ATTDEF
  5
81
330
6E
100
AcDbEntity
  8
AM_6
100
AcDbText
 10
6.427531754730548
 20
-6.981
 30
0.0
 40
0.5
  1
2.50
100
AcDbAttributeDefinition
  3

  2
D
 70
     8
280
     0
  0
ATTDEF
  5
82
330
6E
100
AcDbEntity
  8
AM_6
100
AcDbText
 10
6.427531754730548
 20
-7.481
 30
0.0
 40
0.5
  1
0.28
100
AcDbAttributeDefinition
  3

  2
G
 70
     8
280
     0
  0
ATTDEF
  5
83
330
6E
100
AcDbEntity
  8
AM_6
100
AcDbText
 10
6.427531754730548
 20
-7.981
 30
0.0
 40
0.5
  1
0.38
100
AcDbAttributeDefinition
  3

  2
H
 70
     8
280
     0
  0
ATTDEF
  5
84
330
6E
100
AcDbEntity
  8
AM_6
100
AcDbText
 10
6.427531754730548
 20
-8.481
 30
0.0
 40
0.5
  1
0.33
100
AcDbAttributeDefinition
  3

  2
J
 70
     8
280
     0
  0
ATTDEF
  5
85
330
6E
100
AcDbEntity
  8
AM_6
100
AcDbText
 10
6.427531754730548
 20
-8.981
 30
0.0
 40
0.5
  1
0.96
100
AcDbAttributeDefinition
  3

  2
L
 70
     8
280
     0
  0
ATTDEF
  5
86
330
6E
100
AcDbEntity
  8
AM_6
100
AcDbText
 10
6.427531754730548
 20
-9.481
 30
0.0
 40
0.5
  1
1.59
100
AcDbAttributeDefinition
  3

  2
M
 70
     8
280
     0
  0
ATTDEF
  5
87
330
6E
100
AcDbEntity
  8
AM_6
100
AcDbText
 10
6.427531754730548
 20
-9.981
 30
0.0
 40
0.5
  1
1.84
100
AcDbAttributeDefinition
  3

  2
N
 70
     8
280
     0
  0
ATTDEF
  5
88
330
6E
100
AcDbEntity
  8
AM_6
100
AcDbText
 10
6.427531754730548
 20
-10.481
 30
0.0
 40
0.5
  1
baldor
100
AcDbAttributeDefinition
  3

  2
COMPANY
 70
     8
280
     0
  0
INSERT
  5
8A
330
6E
100
AcDbEntity
  8
0
100
AcDbBlockReference
  2
2_123328_0_in_124620_4
 10
0.0
 20
0.0
 30
0.0
  0
INSERT
  5
E9
330
6E
100
AcDbEntity
  8
0
100
AcDbBlockReference
  2
3_400036_0_in_124620_4
 10
0.0
 20
0.0
 30
0.0
  0
INSERT
  5
100
330
6E
100
AcDbEntity
  8
0
100
AcDbBlockReference
  2
4_124620H_0_in_124620_4
 10
0.0
 20
0.0
 30
0.0
  0
ENDBLK
  5
71
330
6E
100
AcDbEntity
  8
0
100
AcDbBlockEnd
  0
BLOCK
  5
8B
330
89
100
AcDbEntity
  8
0
100
AcDbBlockBegin
  2
2_123328_0_in_124620_4
 70
     2
 10
0.0
 20
0.0
 30
0.0
  3
2_123328_0_in_124620_4
  1

  0
ATTDEF
  5
8D
330
89
100
AcDbEntity
  8
AM_6
100
AcDbText
 10
5.787399164056818
 20
-0.05
 30
0.0
 40
0.5
  1
Set Screw Insert Inch Bore
100
AcDbAttributeDefinition
  3

  2
NN
 70
     8
280
     0
  0
ATTDEF
  5
8E
330
89
100
AcDbEntity
  8
AM_6
100
AcDbText
 10
5.787399164056818
 20
-0.55
 30
0.0
 40
0.5
  1
SC Normal Duty Bearing Inserts
100
AcDbAttributeDefinition
  3

  2
NT
 70
     8
280
     0
  0
ATTDEF
  5
8F
330
89
100
AcDbEntity
  8
AM_6
100
AcDbText
 10
5.787399164056818
 20
-1.05
 30
0.0
 40
0.5
  1
123328
100
AcDbAttributeDefinition
  3

  2
NB
 70
     8
280
     0
  0
ATTDEF
  5
90
330
89
100
AcDbEntity
  8
AM_6
100
AcDbText
 10
5.787399164056818
 20
-1.55
 30
0.0
 40
0.5
  1
$PN.
100
AcDbAttributeDefinition
  3

  2
NBSYN
 70
     8
280
     0
  0
ATTDEF
  5
91
330
89
100
AcDbEntity
  8
AM_6
100
AcDbText
 10
5.787399164056818
 20
-2.05
 30
0.0
 40
0.5
  1
123328
100
AcDbAttributeDefinition
  3

  2
LINA
 70
     8
280
     0
  0
ATTDEF
  5
92
330
89
100
AcDbEntity
  8
AM_6
100
AcDbText
 10
5.787399164056818
 20
-2.55
 30
0.0
 40
0.5
  1
203
100
AcDbAttributeDefinition
  3

  2
SERIES
 70
     8
280
     0
  0
ATTDEF
  5
93
330
89
100
AcDbEntity
  8
AM_6
100
AcDbText
 10
5.787399164056818
 20
-3.05
 30
0.0
 40
0.5
  1
1/2
100
AcDbAttributeDefinition
  3

  2
SS
 70
     8
280
     0
  0
ATTDEF
  5
94
330
89
100
AcDbEntity
  8
AM_6
100
AcDbText
 10
5.787399164056818
 20
-3.55
 30
0.0
 40
0.5
  1
123328
100
AcDbAttributeDefinition
  3

  2
PN
 70
     8
280
     0
  0
ATTDEF
  5
95
330
89
100
AcDbEntity
  8
AM_6
100
AcDbText
 10
5.787399164056818
 20
-4.05
 30
0.0
 40
0.5
  1
INS-SC-008
100
AcDbAttributeDefinition
  3

  2
DESCRIPTION
 70
     8
280
     0
  0
ATTDEF
  5
96
330
89
100
AcDbEntity
  8
AM_6
100
AcDbText
 10
5.787399164056818
 20
-4.55
 30
0.0
 40
0.5
  1
1
100
AcDbAttributeDefinition
  3

  2
A
 70
     8
280
     0
  0
ATTDEF
  5
97
330
89
100
AcDbEntity
  8
AM_6
100
AcDbText
 10
5.787399164056818
 20
-5.05
 30
0.0
 40
0.5
  1
0.51
100
AcDbAttributeDefinition
  3

  2
C
 70
     8
280
     0
  0
ATTDEF
  5
98
330
89
100
AcDbEntity
  8
AM_6
100
AcDbText
 10
5.787399164056818
 20
-5.55
 30
0.0
 40
0.5
  1
1.5748
100
AcDbAttributeDefinition
  3

  2
D
 70
     8
280
     0
  0
ATTDEF
  5
99
330
89
100
AcDbEntity
  8
AM_6
100
AcDbText
 10
5.787399164056818
 20
-6.05
 30
0.0
 40
0.5
  1
0.15
100
AcDbAttributeDefinition
  3

  2
J
 70
     8
280
     0
  0
ATTDEF
  5
9A
330
89
100
AcDbEntity
  8
AM_6
100
AcDbText
 10
5.787399164056818
 20
-6.55
 30
0.0
 40
0.5
  1
0.96
100
AcDbAttributeDefinition
  3

  2
L
 70
     8
280
     0
  0
ATTDEF
  5
9B
330
89
100
AcDbEntity
  8
AM_6
100
AcDbText
 10
5.787399164056818
 20
-7.05
 30
0.0
 40
0.5
  1
10 - 32
100
AcDbAttributeDefinition
  3

  2
N
 70
     8
280
     0
  0
ATTDEF
  5
9C
330
89
100
AcDbEntity
  8
AM_6
100
AcDbText
 10
5.787399164056818
 20
-7.55
 30
0.0
 40
0.5
  1
0.36
100
AcDbAttributeDefinition
  3

  2
W
 70
     8
280
     0
  0
ATTDEF
  5
9D
330
89
100
AcDbEntity
  8
AM_6
100
AcDbText
 10
5.787399164056818
 20
-8.05
 30
0.0
 40
0.5
  1
0.64
100
AcDbAttributeDefinition
  3

  2
Y
 70
     8
280
     0
  0
ATTDEF
  5
9E
330
89
100
AcDbEntity
  8
AM_6
100
AcDbText
 10
5.787399164056818
 20
-8.55
 30
0.0
 40
0.5
  1
baldor
100
AcDbAttributeDefinition
  3

  2
COMPANY
 70
     8
280
     0
  0
LINE
  5
A1
330
89
100
AcDbEntity
  8
AM_9
100
AcDbLine
 10
-0.7579752212329147
 20
-0.1966666666666682
 30
0.0
 11
-0.7660363636363635
 21
-0.1966666666666682
 31
0.0
  0
LINE
  5
A2
330
89
100
AcDbEntity
  8
AM_9
100
AcDbLine
 10
-0.8124
 20
-0.2430303030302913
 30
0.0
 11
-0.8124
 21
-0.2769696969697087
 31
0.0
  0
ARC
  5
A3
330
89
100
AcDbEntity
  8
AM_9
100
AcDbCircle
 10
-0.7660363636363641
 20
-0.2769696969696958
 30
0.0
 40
0.0463636363636359
100
AcDbArc
 50
180.0
 51
249.4549804492012
  0
ARC
  5
A4
330
89
100
AcDbEntity
  8
AM_9
100
AcDbCircle
 10
-0.7660363636363635
 20
-0.2430303030303045
 30
0.0
 40
0.0463636363636364
100
AcDbArc
 50
90.0
 51
180.0
  0
LINE
  5
A5
330
89
100
AcDbEntity
  8
AM_9
100
AcDbLine
 10
-0.7660363636363635
 20
-0.1966666666666681
 30
0.0
 11
-0.7660363636363635
 21
-0.2377468717477821
 31
0.0
  0
LINE
  5
A6
330
89
100
AcDbEntity
  8
AM_9
100
AcDbLine
 10
0.25
 20
-1.0308
 30
0.0
 11
0.25
 21
-0.0692
 31
0.0
  0
LINE
  5
A7
330
89
100
AcDbEntity
  8
AM_9
100
AcDbLine
 10
-0.25
 20
-0.0692
 30
0.0
 11
-0.25
 21
-1.0308
 31
0.0
  0
LWPOLYLINE
  5
A8
330
89
100
AcDbEntity
  8
AM_9
100
AcDbPolyline
 90
       11
 70
     0
 43
0.0
 10
0.1862352086024951
 20
-0.8575
 10
0.1868964223144532
 20
-0.869201944092236
 10
0.1889116606845623
 20
-0.8809038881844721
 10
0.1920335300391776
 20
-0.8916102862961522
 10
0.1962416566593316
 20
-0.9016577791020912
 10
0.2012230779947281
 20
-0.9104826892757585
 10
0.2068853037552071
 20
-0.9180600145324664
 10
0.2127588454151191
 20
-0.923865816874216
 10
0.2188058500639603
 20
-0.9278962139816497
 10
0.2242646920428533
 20
-0.9297523044825623
 10
0.226575732492336
 20
-0.9299499999430292
  0
LINE
  5
A9
330
89
100
AcDbEntity
  8
AM_9
100
AcDbLine
 10
0.22650951502419
 20
-0.92995
 30
0.0
 11
0.4264223886561056
 21
-0.92995
 31
0.0
  0
LINE
  5
AA
330
89
100
AcDbEntity
  8
AM_9
100
AcDbLine
 10
0.4264223886561056
 20
-0.78505
 30
0.0
 11
0.2265215524939353
 21
-0.78505
 31
0.0
  0
LWPOLYLINE
  5
AB
330
89
100
AcDbEntity
  8
AM_9
100
AcDbPolyline
 90
       21
 70
     0
 43
0.0
 10
0.226575732492336
 20
-0.9299499999430292
 10
0.229428623089277
 20
-0.9296153816018884
 10
0.2337229787900932
 20
-0.9275860703932366
 10
0.2374797224227675
 20
-0.9236459205128646
 10
0.2405005473299485
 20
-0.9180553875853429
 10
0.2429323831906506
 20
-0.9107067978200898
 10
0.2447601101196513
 20
-0.9018439998674292
 10
0.2460757817175574
 20
-0.8914399960988386
 10
0.2469017648289118
 20
-0.8802524019731526
 10
0.2473579371068166
 20
-0.8680042598300081
 10
0.2474709237785556
 20
-0.8562219446924436
 10
0.247284763869231
 20
-0.8441219986817644
 10
0.2468034125009821
 20
-0.8330136393652462
 10
0.245947804110603
 20
-0.8222793352278932
 10
0.2446558291288589
 20
-0.8125223463258894
 10
0.2427863928564958
 20
-0.8037418528417016
 10
0.2402647575971072
 20
-0.7963962444842179
 10
0.2369309883516263
 20
-0.790609431115123
 10
0.2329905822825924
 20
-0.7869119109998577
 10
0.228213829275751
 20
-0.7851572000696634
 10
0.2265793179277128
 20
-0.7850500002172545
  0
LWPOLYLINE
  5
AC
330
89
100
AcDbEntity
  8
AM_9
100
AcDbPolyline
 90
       11
 70
     0
 43
0.0
 10
0.2265793179277128
 20
-0.7850500002172545
 10
0.223187836123549
 20
-0.7854668784406795
 10
0.2176072723780574
 20
-0.7877452925901165
 10
0.2120372937163462
 20
-0.791745713104221
 10
0.2063431093228895
 20
-0.7975749305190161
 10
0.2009070131528278
 20
-0.8050082930762568
 10
0.1958750144901254
 20
-0.8141003269419083
 10
0.1916767223914524
 20
-0.8244173106351012
 10
0.1884759906724758
 20
-0.8360574193383692
 10
0.186817610160436
 20
-0.8465150896481911
 10
0.1862352086024951
 20
-0.8575
  0
LINE
  5
AD
330
89
100
AcDbEntity
  8
AM_9
100
AcDbLine
 10
0.25
 20
-0.0692
 30
0.0
 11
0.2692
 21
-0.05
 31
0.0
  0
LINE
  5
AE
330
89
100
AcDbEntity
  8
AM_9
100
AcDbLine
 10
-0.2692
 20
-0.05
 30
0.0
 11
-0.25
 21
-0.0692
 31
0.0
  0
LINE
  5
AF
330
89
100
AcDbEntity
  8
AM_9
100
AcDbLine
 10
-0.25
 20
-1.0308
 30
0.0
 11
-0.2692
 21
-1.05
 31
0.0
  0
LINE
  5
B0
330
89
100
AcDbEntity
  8
AM_9
100
AcDbLine
 10
0.2692
 20
-1.05
 30
0.0
 11
0.25
 21
-1.0308
 31
0.0
  0
ELLIPSE
  5
B1
330
89
100
AcDbEntity
  8
AM_9
100
AcDbEllipse
 10
0.4264223886561053
 20
-0.8575000000000003
 30
0.0
 11
-1.330884908973376E-17
 21
-0.07244999999999946
 31
0.0
210
0.0
220
0.0
230
1.0
 40
0.4226182617406985
 41
3.545518580262909
 42
5.873064910076381
  0
LINE
  5
B2
330
89
100
AcDbEntity
  8
AM_9
100
AcDbLine
 10
0.4121446575980784
 20
-0.9215909083329412
 30
0.0
 11
0.4177493936078671
 21
-0.9285816203743253
 31
0.0
  0
LINE
  5
B3
330
89
100
AcDbEntity
  8
AM_9
100
AcDbLine
 10
0.4177303657340639
 20
-0.7864421128374239
 30
0.0
 11
0.4121446575980784
 21
-0.7934090916670586
 31
0.0
  0
LINE
  5
B4
330
89
100
AcDbEntity
  8
AM_9
100
AcDbLine
 10
0.4799999999999996
 20
-0.155
 30
0.0
 11
0.4799999999999996
 21
-0.095
 31
0.0
  0
LINE
  5
B5
330
89
100
AcDbEntity
  8
AM_9
100
AcDbLine
 10
-0.4799999999999996
 20
-0.095
 30
0.0
 11
-0.4799999999999996
 21
-0.155
 31
0.0
  0
LINE
  5
B6
330
89
100
AcDbEntity
  8
AM_9
100
AcDbLine
 10
-0.4678836160429959
 20
-0.0692
 30
0.0
 11
0.4678836160429956
 21
-0.0692
 31
0.0
  0
LINE
  5
B7
330
89
100
AcDbEntity
  8
AM_9
100
AcDbLine
 10
-0.4607999999999999
 20
-0.05
 30
0.0
 11
0.4607999999999999
 21
-0.05
 31
0.0
  0
LINE
  5
B8
330
89
100
AcDbEntity
  8
AM_9
100
AcDbLine
 10
-0.4607999999999999
 20
-0.05
 30
0.0
 11
-0.4678836160429959
 21
-0.057083616042996
 31
0.0
  0
LINE
  5
B9
330
89
100
AcDbEntity
  8
AM_9
100
AcDbLine
 10
0.4678836160429956
 20
-0.0570836160429956
 30
0.0
 11
0.4607999999999999
 21
-0.05
 31
0.0
  0
LINE
  5
BA
330
89
100
AcDbEntity
  8
AM_9
100
AcDbLine
 10
0.4799999999999999
 20
-0.72
 30
0.0
 11
0.4799999999999999
 21
-0.665
 31
0.0
  0
LINE
  5
BB
330
89
100
AcDbEntity
  8
AM_9
100
AcDbLine
 10
-0.4799999999999999
 20
-0.665
 30
0.0
 11
-0.4799999999999999
 21
-0.72
 31
0.0
  0
LINE
  5
BC
330
89
100
AcDbEntity
  8
AM_9
100
AcDbLine
 10
0.7373999999999999
 20
-0.59
 30
0.0
 11
0.7373999999999999
 21
-0.53
 31
0.0
  0
LINE
  5
BD
330
89
100
AcDbEntity
  8
AM_9
100
AcDbLine
 10
-0.7373999999999999
 20
-0.53
 30
0.0
 11
-0.7373999999999999
 21
-0.59
 31
0.0
  0
LINE
  5
BE
330
89
100
AcDbEntity
  8
AM_9
100
AcDbLine
 10
-0.7232079645579133
 20
-0.155
 30
0.0
 11
0.7232079645568062
 21
-0.155
 31
0.0
  0
ARC
  5
BF
330
89
100
AcDbEntity
  8
AM_9
100
AcDbCircle
 10
0.723207964557913
 20
-0.1850000000000002
 30
0.0
 40
0.0300000000000001
100
AcDbArc
 50
17.28164042390491
 51
90.0
  0
ARC
  5
C0
330
89
100
AcDbEntity
  8
AM_9
100
AcDbCircle
 10
-0.723207964557913
 20
-0.1850000000000002
 30
0.0
 40
0.0300000000000002
100
AcDbArc
 50
90.0
 51
162.7183595760951
  0
LINE
  5
C1
330
89
100
AcDbEntity
  8
AM_9
100
AcDbLine
 10
-0.7232079645579129
 20
-0.6650000000000001
 30
0.0
 11
0.723207964556806
 21
-0.6650000000000001
 31
0.0
  0
ARC
  5
C2
330
89
100
AcDbEntity
  8
AM_9
100
AcDbCircle
 10
0.7232079645579128
 20
-0.6349999999999997
 30
0.0
 40
0.0300000000000005
100
AcDbArc
 50
270.0
 51
342.7183595760949
  0
ARC
  5
C3
330
89
100
AcDbEntity
  8
AM_9
100
AcDbCircle
 10
-0.7232079645579128
 20
-0.6349999999999997
 30
0.0
 40
0.0300000000000005
100
AcDbArc
 50
197.281640423905
 51
270.0
  0
LINE
  5
C4
330
89
100
AcDbEntity
  8
AM_9
100
AcDbLine
 10
-0.7665499070510675
 20
-0.59
 30
0.0
 11
0.7665499070510088
 21
-0.59
 31
0.0
  0
LINE
  5
C5
330
89
100
AcDbEntity
  8
AM_9
100
AcDbLine
 10
-0.7518536457524437
 20
-0.6439120675996831
 30
0.0
 11
0.751853645752385
 21
-0.6439120675996831
 31
0.0
  0
ARC
  5
C6
330
89
100
AcDbEntity
  8
AM_9
100
AcDbCircle
 10
-0.0000000000869721
 20
-0.4099999999763044
 30
0.0
 40
0.787400000090029
100
AcDbArc
 50
342.7183595763276
 51
346.7853111882465
  0
ARC
  5
C7
330
89
100
AcDbEntity
  8
AM_9
100
AcDbCircle
 10
0.0000000000868383
 20
-0.4099999999763408
 30
0.0
 40
0.7874000000898903
100
AcDbArc
 50
193.2146888117531
 51
197.2816404236727
  0
LINE
  5
C8
330
89
100
AcDbEntity
  8
AM_9
100
AcDbLine
 10
-0.7782022616261148
 20
-0.5299999999999999
 30
0.0
 11
0.7782022616261148
 21
-0.5299999999999999
 31
0.0
  0
LINE
  5
C9
330
89
100
AcDbEntity
  8
AM_9
100
AcDbLine
 10
-0.7518536457524436
 20
-0.1760879324003169
 30
0.0
 11
0.7518536457524434
 21
-0.1760879324003169
 31
0.0
  0
ARC
  5
CA
330
89
100
AcDbEntity
  8
AM_9
100
AcDbCircle
 10
-0.0000000000000092
 20
-0.4100000000000016
 30
0.0
 40
0.787400000000009
100
AcDbArc
 50
351.233946552125
 51
17.28164042390468
  0
ARC
  5
CB
330
89
100
AcDbEntity
  8
AM_9
100
AcDbCircle
 10
0.0000000000007242
 20
-0.4100000000002189
 30
0.0
 40
0.787400000000756
100
AcDbArc
 50
162.7183595760957
 51
164.289793018533
  0
ARC
  5
CC
330
89
100
AcDbEntity
  8
AM_9
100
AcDbCircle
 10
-0.0000000000000024
 20
-0.4100000000000011
 30
0.0
 40
0.7873999999999974
100
AcDbArc
 50
173.4547138933177
 51
188.7660534478751
  0
LINE
  5
CD
330
89
100
AcDbEntity
  8
AM_9
100
AcDbLine
 10
-0.7822846899303202
 20
-0.3203929472777161
 30
0.0
 11
-0.7579496347974237
 21
-0.1966666666688645
 31
0.0
  0
LINE
  5
D0
330
89
100
AcDbEntity
  8
AM_7
100
AcDbLine
 10
-0.0760725
 20
-0.8575
 30
0.0
 11
0.0760725
 21
-0.8575
 31
0.0
  0
LINE
  5
D1
330
89
100
AcDbEntity
  8
AM_7
100
AcDbLine
 10
-0.82902
 20
-0.26
 30
0.0
 11
-0.46338
 21
-0.26
 31
0.0
  0
ELLIPSE
  5
D3
330
89
100
AcDbEntity
  8
AM_4
100
AcDbEllipse
 10
0.4264223886561055
 20
-0.8575
 30
0.0
 11
-1.330884908973388E-17
 21
-0.07245000000000013
 31
0.0
210
0.0
220
0.0
230
1.0
 40
0.4226182617406992
 41
5.873064910076375
 42
9.828703887442503
  0
LWPOLYLINE
  5
D4
330
89
100
AcDbEntity
  8
AM_4
100
AcDbPolyline
 90
       14
 70
     0
 43
0.0
 10
0.417830412122349
 20
-0.9286826720403428
 10
0.4150410303786222
 20
-0.9248827948330262
 10
0.4102800774223697
 20
-0.9167101953990693
 10
0.4060959405579138
 20
-0.9071963413995313
 10
0.4023989628703377
 20
-0.8957273624034227
 10
0.3996651244418176
 20
-0.8833222181195446
 10
0.3979439352962242
 20
-0.8694720438590803
 10
0.3974905445602963
 20
-0.85530258928984
 10
0.3983873813208927
 20
-0.8407930606333708
 10
0.4006054943919363
 20
-0.8267563336265387
 10
0.4040647563632015
 20
-0.8136272121431892
 10
0.408595897939115
 20
-0.8017948713948412
 10
0.4138180901621628
 20
-0.7920084949206764
 10
0.4178303694366671
 20
-0.7863173812227532
  0
LWPOLYLINE
  5
D5
330
89
100
AcDbEntity
  8
AM_4
100
AcDbPolyline
 90
       10
 70
     0
 43
0.0
 10
0.4178303694366671
 20
-0.7863173812227532
 10
0.4196292553496245
 20
-0.7841983264655156
 10
0.4253268655591587
 20
-0.7790593767928141
 10
0.4310804629817566
 20
-0.7761556447752792
 10
0.4362357956696156
 20
-0.77562354118919
 10
0.4410879044019616
 20
-0.7771413831947844
 10
0.4453794274866246
 20
-0.7805436406724683
 10
0.4491917596622216
 20
-0.7856852005666944
 10
0.4517625712796732
 20
-0.7907152296432365
 10
0.4540203231887182
 20
-0.7965749498385497
  0
CIRCLE
  5
D6
330
89
100
AcDbEntity
  8
AM_4
100
AcDbCircle
 10
0.0
 20
-0.8575
 30
0.0
 40
0.07245
  0
LINE
  5
D7
330
89
100
AcDbEntity
  8
AM_4
100
AcDbLine
 10
0.4799999999999996
 20
-0.095
 30
0.0
 11
0.4799999999999996
 21
-0.0692
 31
0.0
  0
LINE
  5
D8
330
89
100
AcDbEntity
  8
AM_4
100
AcDbLine
 10
-0.4799999999999996
 20
-0.0692
 30
0.0
 11
-0.4799999999999996
 21
-0.095
 31
0.0
  0
LINE
  5
D9
330
89
100
AcDbEntity
  8
AM_4
100
AcDbLine
 10
0.4678836160429956
 20
-0.0692
 30
0.0
 11
0.4799999999999999
 21
-0.0692
 31
0.0
  0
LINE
  5
DA
330
89
100
AcDbEntity
  8
AM_4
100
AcDbLine
 10
-0.4799999999999999
 20
-0.0692
 30
0.0
 11
-0.4678836160429959
 21
-0.0692
 31
0.0
  0
LINE
  5
DB
330
89
100
AcDbEntity
  8
AM_4
100
AcDbLine
 10
-0.4678836160429959
 20
-0.057083616042996
 30
0.0
 11
-0.4799999999999999
 21
-0.0692
 31
0.0
  0
LINE
  5
DC
330
89
100
AcDbEntity
  8
AM_4
100
AcDbLine
 10
0.4799999999999999
 20
-0.0692
 30
0.0
 11
0.4678836160429956
 21
-0.0570836160429956
 31
0.0
  0
LINE
  5
DD
330
89
100
AcDbEntity
  8
AM_4
100
AcDbLine
 10
-0.4608
 20
-1.05
 30
0.0
 11
0.4608
 21
-1.05
 31
0.0
  0
LINE
  5
DE
330
89
100
AcDbEntity
  8
AM_4
100
AcDbLine
 10
0.4608
 20
-1.05
 30
0.0
 11
0.48
 21
-1.0308
 31
0.0
  0
LINE
  5
DF
330
89
100
AcDbEntity
  8
AM_4
100
AcDbLine
 10
-0.48
 20
-1.0308
 30
0.0
 11
-0.4608
 21
-1.05
 31
0.0
  0
LINE
  5
E0
330
89
100
AcDbEntity
  8
AM_4
100
AcDbLine
 10
-0.48
 20
-1.0308
 30
0.0
 11
0.4799999999999999
 21
-1.0308
 31
0.0
  0
LWPOLYLINE
  5
E1
330
89
100
AcDbEntity
  8
AM_4
100
AcDbPolyline
 90
       39
 70
     0
 43
0.0
 10
-0.0543690683724858
 20
-0.8003838947955867
 10
-0.0460314973390504
 20
-0.7923970078986343
 10
-0.0363616844919547
 20
-0.7856065982830078
 10
-0.0247776614011108
 20
-0.7800624602121756
 10
-0.011955134005908
 20
-0.7765823359969984
 10
-0.0000536524478845
 20
-0.7755550683570572
 10
0.0122186731024835
 20
-0.7766284247977268
 10
0.0233701938410758
 20
-0.77955234287694
 10
0.0341812947928327
 20
-0.7843673484023369
 10
0.0441123598908861
 20
-0.7908644605890939
 10
0.0531229145164474
 20
-0.7990332061025129
 10
0.0610977400085969
 20
-0.8089469211462599
 10
0.0675875975165407
 20
-0.8202709741045043
 10
0.0724319423735711
 20
-0.8330462401772893
 10
0.0752523600422615
 20
-0.8467991470645543
 10
0.0758334231476517
 20
-0.861056565977811
 10
0.0740190782690765
 20
-0.875614922352465
 10
0.0698863453027059
 20
-0.8894180547761125
 10
0.0632766215114392
 20
-0.9026890581180882
 10
0.054889755863428
 20
-0.9140327886772177
 10
0.0442790338608439
 20
-0.9240063874190786
 10
0.0330940726296744
 20
-0.9312147569270904
 10
0.0203452497354523
 20
-0.9364337373106463
 10
0.0083576274679853
 20
-0.9389444900473036
 10
-0.0042888152160591
 20
-0.9393134547159376
 10
-0.015751812099919
 20
-0.9376533055662455
 10
-0.0270916862294359
 20
-0.9340258170031932
 10
-0.0374912357701111
 20
-0.9287123918909477
 10
-0.0471596348592979
 20
-0.9216539778785267
 10
-0.0559057877294027
 20
-0.9128605848412408
 10
-0.0633576676105125
 20
-0.9025567493857025
 10
-0.0693982536139923
 20
-0.8906322957285079
 10
-0.0735861473800121
 20
-0.8775580394351552
 10
-0.0756938382186239
 20
-0.8635982191308078
 10
-0.075502190755407
 20
-0.8490852673760101
 10
-0.0729493843736988
 20
-0.8349025374018428
 10
-0.0679120810723228
 20
-0.8209637767891779
 10
-0.0619875491663212
 20
-0.8102777867137697
 10
-0.0543690683955764
 20
-0.8003838947798314
  0
LWPOLYLINE
  5
E2
330
89
100
AcDbEntity
  8
AM_4
100
AcDbPolyline
 90
       19
 70
     0
 43
0.0
 10
0.4540203231887182
 20
-0.7965749498385497
 10
0.4565035449397428
 20
-0.805342901342205
 10
0.458472489431628
 20
-0.8151426368978824
 10
0.4601454288769709
 20
-0.8275879740888881
 10
0.461185994980759
 20
-0.8407923682114397
 10
0.4616230325312849
 20
-0.8550836123702966
 10
0.4614064203234446
 20
-0.8694407920008635
 10
0.4605043871213552
 20
-0.8837153657614839
 10
0.4588917655297849
 20
-0.8972364583786246
 10
0.456551437345618
 20
-0.9094471087065114
 10
0.4534345821257742
 20
-0.9201040763388556
 10
0.4497047261110367
 20
-0.928411683507617
 10
0.4452536041198526
 20
-0.9345970528594827
 10
0.4405577321738722
 20
-0.9381223611900191
 10
0.4354024381180701
 20
-0.9394393143738513
 10
0.4303004349497805
 20
-0.9385811123872575
 10
0.4250830238753822
 20
-0.9357771925675639
 10
0.4199521712734917
 20
-0.9311500965623308
 10
0.417830412122349
 20
-0.9286826720403428
  0
LINE
  5
E3
330
89
100
AcDbEntity
  8
AM_4
100
AcDbLine
 10
0.4799999999999999
 20
-1.0308
 30
0.0
 11
0.4799999999999999
 21
-0.72
 31
0.0
  0
LINE
  5
E4
330
89
100
AcDbEntity
  8
AM_4
100
AcDbLine
 10
-0.4799999999999999
 20
-0.72
 30
0.0
 11
-0.4799999999999999
 21
-1.0308
 31
0.0
  0
ARC
  5
E6
330
89
100
AcDbEntity
  8
AM_5
100
AcDbCircle
 10
0.0
 20
-0.8575000000000002
 30
0.0
 40
0.0950000000000001
100
AcDbArc
 50
75.00000000000003
 51
15.00000000000009
  0
ARC
  5
E7
330
89
100
AcDbEntity
  8
AM_5
100
AcDbCircle
 10
0.0
 20
-0.86
 30
0.0
 40
0.095
100
AcDbArc
 50
75.0
 51
14.99999999999997
  0
ENDBLK
  5
8C
330
89
100
AcDbEntity
  8
0
100
AcDbBlockEnd
  0
BLOCK
  5
EA
330
E8
100
AcDbEntity
  8
0
100
AcDbBlockBegin
  2
3_400036_0_in_124620_4
 70
     2
 10
0.0
 20
0.0
 30
0.0
  3
3_400036_0_in_124620_4
  1

  0
ATTDEF
  5
EC
330
E8
100
AcDbEntity
  8
AM_6
100
AcDbText
 10
5.125
 20
-0.3683333333333335
 30
0.0
 40
0.5
  1
400036 Plug
100
AcDbAttributeDefinition
  3

  2
NN
 70
     8
280
     0
  0
ATTDEF
  5
ED
330
E8
100
AcDbEntity
  8
AM_6
100
AcDbText
 10
5.125
 20
-0.8683333333333334
 30
0.0
 40
0.5
  1
Plug
100
AcDbAttributeDefinition
  3

  2
NT
 70
     8
280
     0
  0
ATTDEF
  5
EE
330
E8
100
AcDbEntity
  8
AM_6
100
AcDbText
 10
5.125
 20
-1.368333333333333
 30
0.0
 40
0.5
  1
400036
100
AcDbAttributeDefinition
  3

  2
NB
 70
     8
280
     0
  0
ATTDEF
  5
EF
330
E8
100
AcDbEntity
  8
AM_6
100
AcDbText
 10
5.125
 20
-1.868333333333333
 30
0.0
 40
0.5
  1
$PN.
100
AcDbAttributeDefinition
  3

  2
NBSYN
 70
     8
280
     0
  0
ATTDEF
  5
F0
330
E8
100
AcDbEntity
  8
AM_6
100
AcDbText
 10
5.125
 20
-2.368333333333333
 30
0.0
 40
0.5
  1
400036
100
AcDbAttributeDefinition
  3

  2
LINA
 70
     8
280
     0
  0
ATTDEF
  5
F1
330
E8
100
AcDbEntity
  8
AM_6
100
AcDbText
 10
5.125
 20
-2.868333333333333
 30
0.0
 40
0.5
  1
400036
100
AcDbAttributeDefinition
  3

  2
PN
 70
     8
280
     0
  0
ATTDEF
  5
F2
330
E8
100
AcDbEntity
  8
AM_6
100
AcDbText
 10
5.125
 20
-3.368333333333333
 30
0.0
 40
0.5
  1
baldor
100
AcDbAttributeDefinition
  3

  2
COMPANY
 70
     8
280
     0
  0
LINE
  5
F3
330
E8
100
AcDbEntity
  8
AM_9
100
AcDbLine
 10
0.0625
 20
-0.529417725157685
 30
0.0
 11
0.0
 21
-0.5655021169820366
 31
0.0
  0
LINE
  5
F4
330
E8
100
AcDbEntity
  8
AM_9
100
AcDbLine
 10
0.0
 20
-0.5655021169820366
 30
0.0
 11
-0.0625
 21
-0.529417725157685
 31
0.0
  0
LINE
  5
F5
330
E8
100
AcDbEntity
  8
AM_9
100
AcDbLine
 10
-0.0625
 20
-0.4572489415089818
 30
0.0
 11
0.0
 21
-0.4211645496846302
 31
0.0
  0
LINE
  5
F6
330
E8
100
AcDbEntity
  8
AM_9
100
AcDbLine
 10
-0.0625
 20
-0.529417725157685
 30
0.0
 11
-0.0625
 21
-0.4572489415089818
 31
0.0
  0
LINE
  5
F7
330
E8
100
AcDbEntity
  8
AM_9
100
AcDbLine
 10
0.0
 20
-0.4211645496846302
 30
0.0
 11
0.0625
 21
-0.4572489415089818
 31
0.0
  0
LINE
  5
F8
330
E8
100
AcDbEntity
  8
AM_9
100
AcDbLine
 10
0.0625
 20
-0.4572489415089818
 30
0.0
 11
0.0625
 21
-0.529417725157685
 31
0.0
  0
ARC
  5
F9
330
E8
100
AcDbEntity
  8
AM_5
100
AcDbCircle
 10
0.0
 20
-0.4933333333333333
 30
0.0
 40
0.1037
100
AcDbArc
 50
75.00000000000001
 51
14.99999999999994
  0
CIRCLE
  5
FA
330
E8
100
AcDbEntity
  8
AM_9
100
AcDbCircle
 10
-0.0000000000000002
 20
-0.4933333333333337
 30
0.0
 40
0.0721689999999996
  0
CIRCLE
  5
FB
330
E8
100
AcDbEntity
  8
AM_9
100
AcDbCircle
 10
-0.0000000000000013
 20
-0.4933333333333342
 30
0.0
 40
0.0625000000000013
  0
CIRCLE
  5
FC
330
E8
100
AcDbEntity
  8
AM_9
100
AcDbCircle
 10
-0.0000000000000001
 20
-0.4933333333333334
 30
0.0
 40
0.075
  0
CIRCLE
  5
FD
330
E8
100
AcDbEntity
  8
AM_9
100
AcDbCircle
 10
0.0000000000000001
 20
-0.4933333333333333
 30
0.0
 40
0.1249999999999999
  0
ARC
  5
FE
330
E8
100
AcDbEntity
  8
AM_5
100
AcDbCircle
 10
0.0
 20
-0.4933333333333336
 30
0.0
 40
0.1036999999999999
100
AcDbArc
 50
254.9999999999999
 51
194.9999999999999
  0
ENDBLK
  5
EB
330
E8
100
AcDbEntity
  8
0
100
AcDbBlockEnd
  0
BLOCK
  5
101
330
FF
100
AcDbEntity
  8
0
100
AcDbBlockBegin
  2
4_124620H_0_in_124620_4
 70
     2
 10
0.0
 20
0.0
 30
0.0
  3
4_124620H_0_in_124620_4
  1

  0
ATTDEF
  5
103
330
FF
100
AcDbEntity
  8
AM_6
100
AcDbText
 10
6.427531754730548
 20
0.0190000000000001
 30
0.0
 40
0.5
  1
LF-SC & LF-SC-NL - housing -Inch
100
AcDbAttributeDefinition
  3

  2
NN
 70
     8
280
     0
  0
ATTDEF
  5
104
330
FF
100
AcDbEntity
  8
AM_6
100
AcDbText
 10
6.427531754730548
 20
-0.4809999999999999
 30
0.0
 40
0.5
  1
SC 3 Bolt Flange Bearings -(Normal Duty) -Re-Lube and No-Lube
100
AcDbAttributeDefinition
  3

  2
NT
 70
     8
280
     0
  0
ATTDEF
  5
105
330
FF
100
AcDbEntity
  8
AM_6
100
AcDbText
 10
6.427531754730548
 20
-0.9809999999999999
 30
0.0
 40
0.5
  1
124620H
100
AcDbAttributeDefinition
  3

  2
NB
 70
     8
280
     0
  0
ATTDEF
  5
106
330
FF
100
AcDbEntity
  8
AM_6
100
AcDbText
 10
6.427531754730548
 20
-1.481
 30
0.0
 40
0.5
  1
$PN.H
100
AcDbAttributeDefinition
  3

  2
NBSYN
 70
     8
280
     0
  0
ATTDEF
  5
107
330
FF
100
AcDbEntity
  8
AM_6
100
AcDbText
 10
6.427531754730548
 20
-1.981
 30
0.0
 40
0.5
  1
124620
100
AcDbAttributeDefinition
  3

  2
LINA
 70
     8
280
     0
  0
ATTDEF
  5
108
330
FF
100
AcDbEntity
  8
AM_6
100
AcDbText
 10
6.427531754730548
 20
-2.481
 30
0.0
 40
0.5
  1
203
100
AcDbAttributeDefinition
  3

  2
SERIES
 70
     8
280
     0
  0
ATTDEF
  5
109
330
FF
100
AcDbEntity
  8
AM_6
100
AcDbText
 10
6.427531754730548
 20
-2.981
 30
0.0
 40
0.5
  1
1/2
100
AcDbAttributeDefinition
  3

  2
SS
 70
     8
280
     0
  0
ATTDEF
  5
10A
330
FF
100
AcDbEntity
  8
AM_6
100
AcDbText
 10
6.427531754730548
 20
-3.481
 30
0.0
 40
0.5
  1
124620
100
AcDbAttributeDefinition
  3

  2
PN
 70
     8
280
     0
  0
ATTDEF
  5
10B
330
FF
100
AcDbEntity
  8
AM_6
100
AcDbText
 10
6.427531754730548
 20
-3.981
 30
0.0
 40
0.5
  1
LF-SC-008-NL
100
AcDbAttributeDefinition
  3

  2
DESCRIPTION
 70
     8
280
     0
  0
ATTDEF
  5
10C
330
FF
100
AcDbEntity
  8
AM_6
100
AcDbText
 10
6.427531754730548
 20
-4.481
 30
0.0
 40
0.5
  1
0.65
100
AcDbAttributeDefinition
  3

  2
W
 70
     8
280
     0
  0
ATTDEF
  5
10D
330
FF
100
AcDbEntity
  8
AM_6
100
AcDbText
 10
6.427531754730548
 20
-4.981
 30
0.0
 40
0.5
  1
NO-LUBE
100
AcDbAttributeDefinition
  3

  2
LF
 70
     8
280
     0
  0
ATTDEF
  5
10E
330
FF
100
AcDbEntity
  8
AM_6
100
AcDbText
 10
6.427531754730548
 20
-5.481
 30
0.0
 40
0.5
  1
1
100
AcDbAttributeDefinition
  3

  2
A
 70
     8
280
     0
  0
ATTDEF
  5
10F
330
FF
100
AcDbEntity
  8
AM_6
100
AcDbText
 10
6.427531754730548
 20
-5.981
 30
0.0
 40
0.5
  1
3.19
100
AcDbAttributeDefinition
  3

  2
B
 70
     8
280
     0
  0
ATTDEF
  5
110
330
FF
100
AcDbEntity
  8
AM_6
100
AcDbText
 10
6.427531754730548
 20
-6.481
 30
0.0
 40
0.5
  1
1.05
100
AcDbAttributeDefinition
  3

  2
C
 70
     8
280
     0
  0
ATTDEF
  5
111
330
FF
100
AcDbEntity
  8
AM_6
100
AcDbText
 10
6.427531754730548
 20
-6.981
 30
0.0
 40
0.5
  1
2.50
100
AcDbAttributeDefinition
  3

  2
D
 70
     8
280
     0
  0
ATTDEF
  5
112
330
FF
100
AcDbEntity
  8
AM_6
100
AcDbText
 10
6.427531754730548
 20
-7.481
 30
0.0
 40
0.5
  1
0.28
100
AcDbAttributeDefinition
  3

  2
G
 70
     8
280
     0
  0
ATTDEF
  5
113
330
FF
100
AcDbEntity
  8
AM_6
100
AcDbText
 10
6.427531754730548
 20
-7.981
 30
0.0
 40
0.5
  1
0.38
100
AcDbAttributeDefinition
  3

  2
H
 70
     8
280
     0
  0
ATTDEF
  5
114
330
FF
100
AcDbEntity
  8
AM_6
100
AcDbText
 10
6.427531754730548
 20
-8.481
 30
0.0
 40
0.5
  1
0.33
100
AcDbAttributeDefinition
  3

  2
J
 70
     8
280
     0
  0
ATTDEF
  5
115
330
FF
100
AcDbEntity
  8
AM_6
100
AcDbText
 10
6.427531754730548
 20
-8.981
 30
0.0
 40
0.5
  1
0.96
100
AcDbAttributeDefinition
  3

  2
L
 70
     8
280
     0
  0
ATTDEF
  5
116
330
FF
100
AcDbEntity
  8
AM_6
100
AcDbText
 10
6.427531754730548
 20
-9.481
 30
0.0
 40
0.5
  1
1.59
100
AcDbAttributeDefinition
  3

  2
M
 70
     8
280
     0
  0
ATTDEF
  5
117
330
FF
100
AcDbEntity
  8
AM_6
100
AcDbText
 10
6.427531754730548
 20
-9.981
 30
0.0
 40
0.5
  1
1.84
100
AcDbAttributeDefinition
  3

  2
N
 70
     8
280
     0
  0
ATTDEF
  5
118
330
FF
100
AcDbEntity
  8
AM_6
100
AcDbText
 10
6.427531754730548
 20
-10.481
 30
0.0
 40
0.5
  1
1000
100
AcDbAttributeDefinition
  3

  2
CAPS
 70
     8
280
     0
  0
ATTDEF
  5
119
330
FF
100
AcDbEntity
  8
AM_6
100
AcDbText
 10
6.427531754730548
 20
-10.981
 30
0.0
 40
0.5
  1
2158
100
AcDbAttributeDefinition
  3

  2
CAPD
 70
     8
280
     0
  0
ATTDEF
  5
11A
330
FF
100
AcDbEntity
  8
AM_6
100
AcDbText
 10
6.427531754730548
 20
-11.481
 30
0.0
 40
0.5
  1
baldor
100
AcDbAttributeDefinition
  3

  2
COMPANY
 70
     8
280
     0
  0
LINE
  5
11B
330
FF
100
AcDbEntity
  8
AM_9
100
AcDbLine
 10
0.394
 20
-0.7190000000000002
 30
0.0
 11
0.394
 21
-0.0960000000000001
 31
0.0
  0
LINE
  5
11C
330
FF
100
AcDbEntity
  8
AM_9
100
AcDbLine
 10
-0.3939999999999998
 20
-0.7190000000000002
 30
0.0
 11
-0.3939999999999998
 21
-0.0960000000000001
 31
0.0
  0
CIRCLE
  5
11D
330
FF
100
AcDbEntity
  8
AM_9
100
AcDbCircle
 10
0.0
 20
-0.4933333333333334
 30
0.0
 40
0.15
  0
LINE
  5
11E
330
FF
100
AcDbEntity
  8
AM_9
100
AcDbLine
 10
0.45
 20
-0.0960000000000001
 30
0.0
 11
-0.45
 21
-0.0960000000000001
 31
0.0
  0
LINE
  5
11F
330
FF
100
AcDbEntity
  8
AM_9
100
AcDbLine
 10
-0.45
 20
-0.0960000000000001
 30
0.0
 11
-0.45
 21
-0.7190000000000001
 31
0.0
  0
LINE
  5
120
330
FF
100
AcDbEntity
  8
AM_9
100
AcDbLine
 10
0.45
 20
-0.7190000000000001
 30
0.0
 11
0.45
 21
-0.0960000000000001
 31
0.0
  0
LINE
  5
121
330
FF
100
AcDbEntity
  8
AM_9
100
AcDbLine
 10
0.7083433535924408
 20
-0.3800000000000001
 30
0.0
 11
0.7083433535924403
 21
-0.095
 31
0.0
  0
LINE
  5
122
330
FF
100
AcDbEntity
  8
AM_9
100
AcDbLine
 10
-0.7083433535924402
 20
-0.095
 30
0.0
 11
-0.7083433535924404
 21
-0.3799999999999999
 31
0.0
  0
LINE
  5
123
330
FF
100
AcDbEntity
  8
AM_9
100
AcDbLine
 10
0.4745980183595552
 20
-0.095
 30
0.0
 11
0.4745980183595552
 21
0.0
 31
0.0
  0
LINE
  5
124
330
FF
100
AcDbEntity
  8
AM_9
100
AcDbLine
 10
0.4131423444578078
 20
0.0
 30
0.0
 11
0.4131423444578078
 21
-0.095
 31
0.0
  0
LINE
  5
125
330
FF
100
AcDbEntity
  8
AM_9
100
AcDbLine
 10
-0.4745980183595547
 20
-0.095
 30
0.0
 11
-0.4745980183595547
 21
0.0
 31
0.0
  0
LINE
  5
126
330
FF
100
AcDbEntity
  8
AM_9
100
AcDbLine
 10
-0.4131423444578078
 20
-0.095
 30
0.0
 11
-0.4131423444578078
 21
0.0
 31
0.0
  0
LINE
  5
127
330
FF
100
AcDbEntity
  8
AM_9
100
AcDbLine
 10
0.891288198200727
 20
-0.19
 30
0.0
 11
0.891288198200727
 21
-0.3800000000000001
 31
0.0
  0
LINE
  5
128
330
FF
100
AcDbEntity
  8
AM_9
100
AcDbLine
 10
-0.891288198200727
 20
-0.19
 30
0.0
 11
-0.891288198200727
 21
-0.3800000000000001
 31
0.0
  0
LINE
  5
129
330
FF
100
AcDbEntity
  8
AM_9
100
AcDbLine
 10
0.45
 20
-0.7190000000000001
 30
0.0
 11
-0.45
 21
-0.7190000000000001
 31
0.0
  0
LINE
  5
12A
330
FF
100
AcDbEntity
  8
AM_9
100
AcDbLine
 10
1.27377531126037
 20
-0.19
 30
0.0
 11
1.27377531126037
 21
-0.3800000000000001
 31
0.0
  0
LINE
  5
12B
330
FF
100
AcDbEntity
  8
AM_9
100
AcDbLine
 10
1.13377531126037
 20
-0.19
 30
0.0
 11
1.13377531126037
 21
-0.3800000000000001
 31
0.0
  0
LINE
  5
12C
330
FF
100
AcDbEntity
  8
AM_9
100
AcDbLine
 10
-1.27377531126037
 20
-0.19
 30
0.0
 11
-1.27377531126037
 21
-0.3800000000000001
 31
0.0
  0
LINE
  5
12D
330
FF
100
AcDbEntity
  8
AM_9
100
AcDbLine
 10
-1.13377531126037
 20
-0.19
 30
0.0
 11
-1.13377531126037
 21
-0.3800000000000001
 31
0.0
  0
LINE
  5
12E
330
FF
100
AcDbEntity
  8
AM_9
100
AcDbLine
 10
1.27377531126037
 20
-0.19
 30
0.0
 11
0.891288198200727
 21
-0.19
 31
0.0
  0
LINE
  5
12F
330
FF
100
AcDbEntity
  8
AM_9
100
AcDbLine
 10
-0.9425317547305484
 20
-0.19
 30
0.0
 11
-0.9425317547305484
 21
0.0
 31
0.0
  0
LINE
  5
130
330
FF
100
AcDbEntity
  8
AM_9
100
AcDbLine
 10
-1.222531754730548
 20
0.0
 30
0.0
 11
-1.222531754730548
 21
-0.19
 31
0.0
  0
LINE
  5
131
330
FF
100
AcDbEntity
  8
AM_9
100
AcDbLine
 10
1.222531754730548
 20
-0.19
 30
0.0
 11
1.222531754730548
 21
0.0
 31
0.0
  0
LINE
  5
132
330
FF
100
AcDbEntity
  8
AM_9
100
AcDbLine
 10
0.9425317547305484
 20
0.0
 30
0.0
 11
0.9425317547305484
 21
-0.19
 31
0.0
  0
LINE
  5
133
330
FF
100
AcDbEntity
  8
AM_9
100
AcDbLine
 10
1.031288198200727
 20
-0.19
 30
0.0
 11
1.031288198200727
 21
-0.3799999999999999
 31
0.0
  0
LINE
  5
134
330
FF
100
AcDbEntity
  8
AM_9
100
AcDbLine
 10
-1.031288198200727
 20
-0.19
 30
0.0
 11
-1.031288198200727
 21
-0.3799999999999999
 31
0.0
  0
LINE
  5
135
330
FF
100
AcDbEntity
  8
AM_9
100
AcDbLine
 10
-0.891288198200727
 20
-0.19
 30
0.0
 11
-1.27377531126037
 21
-0.19
 31
0.0
  0
LINE
  5
136
330
FF
100
AcDbEntity
  8
AM_9
100
AcDbLine
 10
-0.9395373670261848
 20
-0.3800000000000001
 30
0.0
 11
-0.9395373670261848
 21
-0.0000000000000001
 31
0.0
  0
LINE
  5
137
330
FF
100
AcDbEntity
  8
AM_9
100
AcDbLine
 10
0.9395373670261845
 20
-0.3800000000000001
 30
0.0
 11
0.9395373670261845
 21
-0.0000000000000001
 31
0.0
  0
LWPOLYLINE
  5
138
330
FF
100
AcDbEntity
  8
AM_9
100
AcDbPolyline
 90
        6
 70
     0
 43
0.0
 10
0.7867658468089634
 20
-0.3920785630183767
 10
0.7872775619330702
 20
-0.3909409868826928
 10
0.7900133226976588
 20
-0.3862070823552504
 10
0.7931765937990466
 20
-0.3827500905028868
 10
0.7966263372914055
 20
-0.3807014316971528
 10
0.8003868506161768
 20
-0.3800000000000001
  0
LWPOLYLINE
  5
139
330
FF
100
AcDbEntity
  8
AM_9
100
AcDbPolyline
 90
        7
 70
     0
 43
0.0
 10
0.7807930654816899
 20
-0.4300000000000004
 10
0.7809740455638473
 20
-0.422470564562922
 10
0.7815086818850818
 20
-0.4151701748086595
 10
0.7823880040181709
 20
-0.4083297342229571
 10
0.7835986787363775
 20
-0.4020563387889052
 10
0.785259109589393
 20
-0.3960721491843808
 10
0.7867658468089634
 20
-0.3920785630183767
  0
LWPOLYLINE
  5
13A
330
FF
100
AcDbEntity
  8
AM_9
100
AcDbPolyline
 90
       12
 70
     0
 43
0.0
 10
0.7807930654816897
 20
-0.6639999999999998
 10
0.780601506989236
 20
-0.672203868510136
 10
0.780053818455697
 20
-0.6801657043750822
 10
0.7791944298957865
 20
-0.687642012308963
 10
0.7781022993388116
 20
-0.6944786121549862
 10
0.7768109093136716
 20
-0.7007524448777968
 10
0.7754569320488499
 20
-0.7061158278714669
 10
0.7739600686197439
 20
-0.7110464669349452
 10
0.7725963612755207
 20
-0.7148080356358095
 10
0.7709015515736694
 20
-0.7185356955305112
 10
0.7698732827743388
 20
-0.7199576418718815
 10
0.7697495771513511
 20
-0.72
  0
LINE
  5
13B
330
FF
100
AcDbEntity
  8
AM_9
100
AcDbLine
 10
0.7807930654816899
 20
-0.4300000000000004
 30
0.0
 11
0.7807930654816897
 21
-0.6639999999999998
 31
0.0
  0
LINE
  5
13C
330
FF
100
AcDbEntity
  8
AM_9
100
AcDbLine
 10
0.7695830367818302
 20
-0.3800000000000001
 30
0.0
 11
0.7695830367818302
 21
-0.72
 31
0.0
  0
LWPOLYLINE
  5
13D
330
FF
100
AcDbEntity
  8
AM_9
100
AcDbPolyline
 90
        7
 70
     0
 43
0.0
 10
-0.7868483952730481
 20
-0.3918885201437413
 10
-0.7858235894002525
 20
-0.394447305706689
 10
-0.7837441021422851
 20
-0.401438093856559
 10
-0.7821524680238239
 20
-0.4098744632732897
 10
-0.7812646248105481
 20
-0.4178901757062532
 10
-0.7808268433738007
 20
-0.4267240206704335
 10
-0.7807930654816897
 20
-0.4300000000000004
  0
LWPOLYLINE
  5
13E
330
FF
100
AcDbEntity
  8
AM_9
100
AcDbPolyline
 90
        6
 70
     0
 43
0.0
 10
-0.8003868506161771
 20
-0.3800000000000001
 10
-0.7987323675863721
 20
-0.3801305974503058
 10
-0.7950300366446046
 20
-0.3814582913645666
 10
-0.7916026007651765
 20
-0.3842466169335201
 10
-0.7885016603725714
 20
-0.3885701219519721
 10
-0.7868483952730481
 20
-0.3918885201437413
  0
LINE
  5
13F
330
FF
100
AcDbEntity
  8
AM_9
100
AcDbLine
 10
-0.7807930654816903
 20
-0.6639999999992252
 30
0.0
 11
-0.7807930654816897
 21
-0.4300000000000004
 31
0.0
  0
LWPOLYLINE
  5
140
330
FF
100
AcDbEntity
  8
AM_9
100
AcDbPolyline
 90
       11
 70
     0
 43
0.0
 10
-0.7697495771513512
 20
-0.72
 10
-0.7704060840698678
 20
-0.7193530538602273
 10
-0.7715620685574489
 20
-0.7172194144235274
 10
-0.7730685596149021
 20
-0.7135792071784458
 10
-0.7749131934550763
 20
-0.7080126911847763
 10
-0.7764318007576676
 20
-0.7023598373178453
 10
-0.7779428824648097
 20
-0.695336014110913
 10
-0.7792295062724409
 20
-0.6873970736198101
 10
-0.7802205997680125
 20
-0.6782392216871634
 10
-0.7806439224952398
 20
-0.6712851821445162
 10
-0.7807930654816903
 20
-0.6639999999992252
  0
LINE
  5
141
330
FF
100
AcDbEntity
  8
AM_9
100
AcDbLine
 10
-0.7695830367818305
 20
-0.72
 30
0.0
 11
-0.7695830367818305
 21
-0.3800000000000001
 31
0.0
  0
LINE
  5
142
330
FF
100
AcDbEntity
  8
AM_9
100
AcDbLine
 10
0.8123999999999999
 20
-0.468
 30
0.0
 11
0.7466583957875247
 21
-0.468
 31
0.0
  0
LINE
  5
143
330
FF
100
AcDbEntity
  8
AM_9
100
AcDbLine
 10
0.7729772053560182
 20
-0.468
 30
0.0
 11
0.7729772053560182
 21
-0.095
 31
0.0
  0
LINE
  5
144
330
FF
100
AcDbEntity
  8
AM_9
100
AcDbLine
 10
0.4448150959174108
 20
-0.095
 30
0.0
 11
0.4448150959174108
 21
0.0
 31
0.0
  0
LINE
  5
145
330
FF
100
AcDbEntity
  8
AM_9
100
AcDbLine
 10
0.8123999999999999
 20
-0.468
 30
0.0
 11
0.8123999999999999
 21
-0.095
 31
0.0
  0
LINE
  5
146
330
FF
100
AcDbEntity
  8
AM_9
100
AcDbLine
 10
-0.7466583957875247
 20
-0.468
 30
0.0
 11
-0.8124000000000002
 21
-0.468
 31
0.0
  0
LINE
  5
147
330
FF
100
AcDbEntity
  8
AM_9
100
AcDbLine
 10
-0.7729772053560183
 20
-0.468
 30
0.0
 11
-0.7729772053560183
 21
-0.095
 31
0.0
  0
LINE
  5
148
330
FF
100
AcDbEntity
  8
AM_9
100
AcDbLine
 10
-0.4448150970195304
 20
-0.095
 30
0.0
 11
-0.4448150970195304
 21
0.0
 31
0.0
  0
LINE
  5
149
330
FF
100
AcDbEntity
  8
AM_9
100
AcDbLine
 10
-0.8124
 20
-0.2769696969697087
 30
0.0
 11
-0.8124000000000002
 21
-0.468
 31
0.0
  0
LINE
  5
14A
330
FF
100
AcDbEntity
  8
AM_9
100
AcDbLine
 10
-0.8124000000000002
 20
-0.095
 30
0.0
 11
-0.8124
 21
-0.2430303030302913
 31
0.0
  0
LINE
  5
14B
330
FF
100
AcDbEntity
  8
AM_9
100
AcDbLine
 10
-0.7466583957875247
 20
-0.468
 30
0.0
 11
-0.7466583957875247
 21
-0.0949999999999999
 31
0.0
  0
LINE
  5
14C
330
FF
100
AcDbEntity
  8
AM_9
100
AcDbLine
 10
0.7466583957875247
 20
-0.0949999999999999
 30
0.0
 11
0.7466583957875247
 21
-0.468
 31
0.0
  0
LINE
  5
14D
330
FF
100
AcDbEntity
  8
AM_9
100
AcDbLine
 10
0.7873999999999999
 20
-0.72
 30
0.0
 11
0.7873999999999999
 21
-0.468
 31
0.0
  0
LINE
  5
14E
330
FF
100
AcDbEntity
  8
AM_9
100
AcDbLine
 10
-0.7873999999999999
 20
-0.468
 30
0.0
 11
-0.7873999999999999
 21
-0.72
 31
0.0
  0
LINE
  5
14F
330
FF
100
AcDbEntity
  8
AM_9
100
AcDbLine
 10
-0.3663198647279992
 20
-0.0949999999999999
 30
0.0
 11
-0.3663198647279992
 21
0.0
 31
0.0
  0
LINE
  5
150
330
FF
100
AcDbEntity
  8
AM_9
100
AcDbLine
 10
0.3663198659035919
 20
-0.0949999999999999
 30
0.0
 11
0.3663198659035919
 21
0.0
 31
0.0
  0
LINE
  5
151
330
FF
100
AcDbEntity
  8
AM_9
100
AcDbLine
 10
0.3859379570189739
 20
-0.0949999999999999
 30
0.0
 11
-0.3859379570189738
 21
-0.0949999999999999
 31
0.0
  0
LINE
  5
152
330
FF
100
AcDbEntity
  8
AM_9
100
AcDbLine
 10
1.003551196485466
 20
-0.6639999999992253
 30
0.0
 11
1.003551196485466
 21
-0.4300000000000003
 31
0.0
  0
LINE
  5
153
330
FF
100
AcDbEntity
  8
AM_9
100
AcDbLine
 10
-1.003551196485466
 20
-0.4300000000000003
 30
0.0
 11
-1.003551196485466
 21
-0.6639999999999998
 31
0.0
  0
LWPOLYLINE
  5
154
330
FF
100
AcDbEntity
  8
AM_9
100
AcDbPolyline
 90
       12
 70
     0
 43
0.0
 10
-1.003551196485466
 20
-0.6639999999999998
 10
-1.002878684672419
 20
-0.672082852187541
 10
-1.000812557877916
 20
-0.6801657043750823
 10
-0.9975708844808866
 20
-0.6875498582510706
 10
-0.9931239141309829
 20
-0.6944786121549863
 10
-0.9876484745989603
 20
-0.7006910099843675
 10
-0.9812577627723075
 20
-0.7061158278714669
 10
-0.9734879870348314
 20
-0.711007268960528
 10
-0.9650835724217697
 20
-0.7148080356358096
 10
-0.9516992554269277
 20
-0.7185059537537422
 10
-0.9378723510055574
 20
-0.7199576418718815
 10
-0.9349813158560626
 20
-0.72
  0
LWPOLYLINE
  5
155
330
FF
100
AcDbEntity
  8
AM_9
100
AcDbPolyline
 90
       11
 70
     0
 43
0.0
 10
0.9349813158560623
 20
-0.72
 10
0.9461119674140711
 20
-0.7193530538602271
 10
0.9574782402440266
 20
-0.7172194144235264
 10
0.9681371526101821
 20
-0.7135792071784444
 10
0.9785300098521352
 20
-0.7080126911847747
 10
0.9858713927690397
 20
-0.7023598373178438
 10
0.9924618251704427
 20
-0.6953360141109108
 10
0.997652515374561
 20
-0.6873970736198077
 10
1.001437930283464
 20
-0.6782392216871612
 10
1.003005466762457
 20
-0.6712851821445149
 10
1.003551196485466
 20
-0.6639999999992253
  0
LINE
  5
156
330
FF
100
AcDbEntity
  8
AM_9
100
AcDbLine
 10
1.094281310611415
 20
-0.095
 30
0.0
 11
1.094281310611415
 21
-0.3799999999999999
 31
0.0
  0
LINE
  5
157
330
FF
100
AcDbEntity
  8
AM_9
100
AcDbLine
 10
-1.094281310611415
 20
-0.3799999999999999
 30
0.0
 11
-1.094281310611415
 21
-0.095
 31
0.0
  0
LWPOLYLINE
  5
158
330
FF
100
AcDbEntity
  8
AM_9
100
AcDbPolyline
 90
       10
 70
     0
 43
0.0
 10
1.058712724205652
 20
-0.3799999999999999
 10
1.051550437884227
 20
-0.3804491578926257
 10
1.044400734084023
 20
-0.3818034909295754
 10
1.035464343162875
 20
-0.3848606560064791
 10
1.026938959828824
 20
-0.3894405386761087
 10
1.019264809572846
 20
-0.3954342145908254
 10
1.012586761139225
 20
-0.402967585165278
 10
1.007920411313881
 20
-0.4108208084278746
 10
1.004751853678091
 20
-0.4198144339510621
 10
1.003551196485466
 20
-0.4300000000000003
  0
LWPOLYLINE
  5
159
330
FF
100
AcDbEntity
  8
AM_9
100
AcDbPolyline
 90
       11
 70
     0
 43
0.0
 10
-1.003551196485466
 20
-0.4300000000000003
 10
-1.004184604462713
 20
-0.4225850874043299
 10
-1.006124923018883
 20
-0.4151701748086594
 10
-1.009145923987207
 20
-0.408408863206732
 10
-1.013264575252139
 20
-0.4020563387889051
 10
-1.01853187281307
 20
-0.3961310975942374
 10
-1.024745608215156
 20
-0.3909409868826927
 10
-1.032486321908791
 20
-0.3862553822679734
 10
-1.041091125890843
 20
-0.3827500905028867
 10
-1.049678395471755
 20
-0.3807150440232589
 10
-1.058712724205652
 20
-0.3799999999999999
  0
LINE
  5
15A
330
FF
100
AcDbEntity
  8
AM_9
100
AcDbLine
 10
-0.14
 20
0.0000000000000001
 30
0.0
 11
-0.14
 21
-0.3799999999999999
 31
0.0
  0
LINE
  5
15B
330
FF
100
AcDbEntity
  8
AM_9
100
AcDbLine
 10
0.14
 20
-0.1899999999999999
 30
0.0
 11
-0.14
 21
-0.1899999999999999
 31
0.0
  0
LINE
  5
15C
330
FF
100
AcDbEntity
  8
AM_9
100
AcDbLine
 10
0.14
 20
0.0000000000000001
 30
0.0
 11
0.14
 21
-0.3799999999999999
 31
0.0
  0
LINE
  5
15D
330
FF
100
AcDbEntity
  8
AM_7
100
AcDbLine
 10
-0.1575
 20
-0.4933333333333334
 30
0.0
 11
0.1575
 21
-0.4933333333333334
 31
0.0
  0
LINE
  5
15E
330
FF
100
AcDbEntity
  8
AM_7
100
AcDbLine
 10
-1.082531754730548
 20
0.019
 30
0.0
 11
-1.082531754730548
 21
-1.136
 31
0.0
  0
LINE
  5
15F
330
FF
100
AcDbEntity
  8
AM_7
100
AcDbLine
 10
1.082531754730548
 20
0.019
 30
0.0
 11
1.082531754730548
 21
-1.136
 31
0.0
  0
LINE
  5
160
330
FF
100
AcDbEntity
  8
AM_7
100
AcDbLine
 10
0.0
 20
0.0190000000000001
 30
0.0
 11
0.0
 21
-1.136
 31
0.0
  0
LINE
  5
161
330
FF
100
AcDbEntity
  8
AM_4
100
AcDbLine
 10
-1.427531754730549
 20
0.0
 30
0.0
 11
-1.427531754730549
 21
-0.3800000000000001
 31
0.0
  0
LINE
  5
162
330
FF
100
AcDbEntity
  8
AM_4
100
AcDbLine
 10
1.427531754730548
 20
-0.3800000000000001
 30
0.0
 11
1.427531754730548
 21
0.0
 31
0.0
  0
LINE
  5
163
330
FF
100
AcDbEntity
  8
AM_4
100
AcDbLine
 10
1.282941169503075
 20
-0.3799999999999999
 30
0.0
 11
1.282941169503075
 21
0.0
 31
0.0
  0
LINE
  5
164
330
FF
100
AcDbEntity
  8
AM_4
100
AcDbLine
 10
-1.282941169503075
 20
-0.3799999999999999
 30
0.0
 11
-1.282941169503075
 21
0.0
 31
0.0
  0
LINE
  5
165
330
FF
100
AcDbEntity
  8
AM_4
100
AcDbLine
 10
-0.9369222764805261
 20
-0.095
 30
0.0
 11
-0.9369222764805261
 21
0.0
 31
0.0
  0
LINE
  5
166
330
FF
100
AcDbEntity
  8
AM_4
100
AcDbLine
 10
0.936922294420626
 20
-0.095
 30
0.0
 11
0.9369222944206261
 21
0.0
 31
0.0
  0
LINE
  5
167
330
FF
100
AcDbEntity
  8
AM_4
100
AcDbLine
 10
0.8111349618210031
 20
-0.095
 30
0.0
 11
0.8111349617475294
 21
0.0
 31
0.0
  0
LINE
  5
168
330
FF
100
AcDbEntity
  8
AM_4
100
AcDbLine
 10
-0.8111349618210026
 20
-0.095
 30
0.0
 11
-0.8111349618210026
 21
0.0
 31
0.0
  0
LINE
  5
169
330
FF
100
AcDbEntity
  8
AM_4
100
AcDbLine
 10
-0.4678836160429959
 20
0.0
 30
0.0
 11
-0.4678836160429959
 21
-0.0949999999999999
 31
0.0
  0
LINE
  5
16A
330
FF
100
AcDbEntity
  8
AM_4
100
AcDbLine
 10
0.4678836160429956
 20
-0.0949999999999999
 30
0.0
 11
0.4678836160429956
 21
0.0
 31
0.0
  0
LINE
  5
16B
330
FF
100
AcDbEntity
  8
AM_4
100
AcDbLine
 10
1.054
 20
-0.6639999999999999
 30
0.0
 11
1.054
 21
-0.4300000000000003
 31
0.0
  0
LINE
  5
16C
330
FF
100
AcDbEntity
  8
AM_4
100
AcDbLine
 10
-1.054
 20
-0.4300000000000003
 30
0.0
 11
-1.054
 21
-0.6639999999999999
 31
0.0
  0
ARC
  5
16D
330
FF
100
AcDbEntity
  8
AM_4
100
AcDbCircle
 10
-0.9980000000000001
 20
-0.664
 30
0.0
 40
0.0559999999999999
100
AcDbArc
 50
179.9999991462263
 51
270.0
  0
LINE
  5
16E
330
FF
100
AcDbEntity
  8
AM_4
100
AcDbLine
 10
-1.054
 20
-0.6639999999999999
 30
0.0
 11
-0.2227581310037757
 21
-0.6639999999992253
 31
0.0
  0
LINE
  5
16F
330
FF
100
AcDbEntity
  8
AM_4
100
AcDbLine
 10
-0.998
 20
-0.72
 30
0.0
 11
0.998
 21
-0.72
 31
0.0
  0
LINE
  5
170
330
FF
100
AcDbEntity
  8
AM_4
100
AcDbLine
 10
0.2227581310037757
 20
-0.6639999999999998
 30
0.0
 11
1.054
 21
-0.6639999999999999
 31
0.0
  0
ARC
  5
171
330
FF
100
AcDbEntity
  8
AM_4
100
AcDbCircle
 10
0.9980000000000001
 20
-0.664
 30
0.0
 40
0.0559999999999999
100
AcDbArc
 50
270.0
 51
0.0000008537736463
  0
LINE
  5
172
330
FF
100
AcDbEntity
  8
AM_4
100
AcDbLine
 10
0.3859379570189739
 20
-0.0949999999999999
 30
0.0
 11
1.11
 21
-0.095
 31
0.0
  0
LINE
  5
173
330
FF
100
AcDbEntity
  8
AM_4
100
AcDbLine
 10
1.11
 20
-0.3799999999999999
 30
0.0
 11
1.11
 21
-0.095
 31
0.0
  0
LINE
  5
174
330
FF
100
AcDbEntity
  8
AM_4
100
AcDbLine
 10
-1.11
 20
-0.095
 30
0.0
 11
-1.11
 21
-0.3799999999999999
 31
0.0
  0
LINE
  5
175
330
FF
100
AcDbEntity
  8
AM_4
100
AcDbLine
 10
-1.11
 20
-0.095
 30
0.0
 11
-0.3859379570189738
 21
-0.0949999999999999
 31
0.0
  0
LINE
  5
176
330
FF
100
AcDbEntity
  8
AM_4
100
AcDbLine
 10
0.2227581310037757
 20
-0.4300000000000003
 30
0.0
 11
1.054
 21
-0.4300000000000003
 31
0.0
  0
ARC
  5
177
330
FF
100
AcDbEntity
  8
AM_4
100
AcDbCircle
 10
1.104
 20
-0.4300000000000002
 30
0.0
 40
0.0500000000000003
100
AcDbArc
 50
90.0
 51
180.0
  0
ARC
  5
178
330
FF
100
AcDbEntity
  8
AM_4
100
AcDbCircle
 10
-1.104
 20
-0.4300000000000002
 30
0.0
 40
0.0500000000000003
100
AcDbArc
 50
0.0
 51
90.0
  0
LINE
  5
179
330
FF
100
AcDbEntity
  8
AM_4
100
AcDbLine
 10
-1.054
 20
-0.4300000000000003
 30
0.0
 11
-0.2227581310037758
 21
-0.4300000000000003
 31
0.0
  0
LWPOLYLINE
  5
17A
330
FF
100
AcDbEntity
  8
AM_4
100
AcDbPolyline
 90
        9
 70
     0
 43
0.0
 10
-0.2583258735894752
 20
-0.3799999999999999
 10
-0.2505477664669202
 20
-0.3815557633433108
 10
-0.2449522252773444
 20
-0.3844945512579062
 10
-0.2395240633457718
 20
-0.3888479601517144
 10
-0.2342627274323877
 20
-0.3948021799636885
 10
-0.2296534042996177
 20
-0.4020799107741593
 10
-0.2261720783212975
 20
-0.4100554070579659
 10
-0.223798990577359
 20
-0.4188626489858517
 10
-0.2227581310037758
 20
-0.4300000000000003
  0
LINE
  5
17B
330
FF
100
AcDbEntity
  8
AM_4
100
AcDbLine
 10
-0.2227581310037757
 20
-0.6639999999992253
 30
0.0
 11
-0.2227581310037758
 21
-0.4300000000000003
 31
0.0
  0
LWPOLYLINE
  5
17C
330
FF
100
AcDbEntity
  8
AM_4
100
AcDbPolyline
 90
       11
 70
     0
 43
0.0
 10
-0.1652317387047114
 20
-0.72
 10
-0.1757844852595283
 20
-0.7193418664583224
 10
-0.1859161716865659
 20
-0.7172194144235299
 10
-0.1951840726409621
 20
-0.7135130992371661
 10
-0.2036168163970517
 20
-0.7080126911847806
 10
-0.2095107539392106
 20
-0.7022688299223997
 10
-0.2145189427056285
 20
-0.6953360141109182
 10
-0.2184800796794464
 20
-0.6872311861434233
 10
-0.2212173305154495
 20
-0.6782392216871687
 10
-0.2223682816845181
 20
-0.6712018590056312
 10
-0.2227581310037757
 20
-0.6639999999992253
  0
LWPOLYLINE
  5
17D
330
FF
100
AcDbEntity
  8
AM_4
100
AcDbPolyline
 90
       12
 70
     0
 43
0.0
 10
0.2227581310037757
 20
-0.6639999999999998
 10
0.222269280221858
 20
-0.6720828521875409
 10
0.220758739422219
 20
-0.6801657043750822
 10
0.2183622625765324
 20
-0.6875498582510706
 10
0.2150216147921709
 20
-0.6944786121549862
 10
0.2108228511305619
 20
-0.7006910099843674
 10
0.2058008307234572
 20
-0.7061158278714668
 10
0.1995150575491587
 20
-0.7110072689605278
 10
0.1924872111462489
 20
-0.7148080356358094
 10
0.1807845177998486
 20
-0.7185059537537422
 10
0.1679990682312187
 20
-0.7199576418718815
 10
0.1652317387047114
 20
-0.72
  0
LINE
  5
17E
330
FF
100
AcDbEntity
  8
AM_4
100
AcDbLine
 10
0.2227581310037757
 20
-0.4300000000000003
 30
0.0
 11
0.2227581310037757
 21
-0.6639999999999998
 31
0.0
  0
LWPOLYLINE
  5
17F
330
FF
100
AcDbEntity
  8
AM_4
100
AcDbPolyline
 90
       11
 70
     0
 43
0.0
 10
0.2227581310037757
 20
-0.4300000000000003
 10
0.2232172937677867
 20
-0.4225850874043298
 10
0.2246162411338002
 20
-0.4151701748086593
 10
0.2267716267092172
 20
-0.408408863206732
 10
0.2296658965157616
 20
-0.402056338788905
 10
0.2332936443109036
 20
-0.3961310975942374
 10
0.2374680462820854
 20
-0.3909409868826926
 10
0.2425109563100928
 20
-0.3862553822679733
 10
0.2479145320917955
 20
-0.3827500905028867
 10
0.2530972852389806
 20
-0.3807150440232588
 10
0.2583258735894752
 20
-0.3799999999999999
  0
LINE
  5
180
330
FF
100
AcDbEntity
  8
AM_4
100
AcDbLine
 10
-0.385937957018974
 20
-0.3799999999999998
 30
0.0
 11
-0.3859379570189738
 21
-0.0949999999999999
 31
0.0
  0
LINE
  5
181
330
FF
100
AcDbEntity
  8
AM_4
100
AcDbLine
 10
-0.4623242581209712
 20
-0.0949999999999999
 30
0.0
 11
-0.4623242581209712
 21
0.0
 31
0.0
  0
LINE
  5
182
330
FF
100
AcDbEntity
  8
AM_4
100
AcDbLine
 10
-1.427531754730549
 20
0.0
 30
0.0
 11
1.427531754730548
 21
0.0
 31
0.0
  0
LINE
  5
183
330
FF
100
AcDbEntity
  8
AM_4
100
AcDbLine
 10
-1.427531754730549
 20
-0.3800000000000001
 30
0.0
 11
1.427531754730548
 21
-0.3800000000000001
 31
0.0
  0
LINE
  5
184
330
FF
100
AcDbEntity
  8
AM_4
100
AcDbLine
 10
0.462324258120971
 20
-0.0949999999999999
 30
0.0
 11
0.462324258120971
 21
0.0
 31
0.0
  0
LINE
  5
185
330
FF
100
AcDbEntity
  8
AM_4
100
AcDbLine
 10
0.3859379570189739
 20
-0.0949999999999999
 30
0.0
 11
0.385937957018974
 21
-0.3799999999999998
 31
0.0
  0
LINE
  5
186
330
FF
100
AcDbEntity
  8
AM_4
100
AcDbLine
 10
-0.3434038024768907
 20
-0.3799999999999999
 30
0.0
 11
-0.3434038024768907
 21
0.0000000000000001
 31
0.0
  0
LINE
  5
187
330
FF
100
AcDbEntity
  8
AM_4
100
AcDbLine
 10
0.3434038024768903
 20
-0.3799999999999999
 30
0.0
 11
0.3434038024768903
 21
0.0000000000000001
 31
0.0
  0
ENDBLK
  5
102
330
FF
100
AcDbEntity
  8
0
100
AcDbBlockEnd
  0
ENDSEC
  0
SECTION
  2
ENTITIES
  0
INSERT
  5
6F
330
1F
100
AcDbEntity
  8
0
100
AcDbBlockReference
  2
1_124620_4
 10
0.0
 20
0.0
 30
0.0
  0
POINT
  5
189
330
1F
100
AcDbEntity
  8
ConnectionPoints
100
AcDbPoint
 10
0.0
 20
-0.4933333333333335
 30
-1.495
  0
POINT
  5
18A
330
1F
100
AcDbEntity
  8
ConnectionPoints
100
AcDbPoint
 10
0.0
 20
-0.4933333333333335
 30
-1.495
  0
POINT
  5
18B
330
1F
100
AcDbEntity
  8
ConnectionPoints
100
AcDbPoint
 10
0.0
 20
-1.05
 30
0.0000000000000001
  0
ENDSEC
  0
SECTION
  2
OBJECTS
  0
DICTIONARY
  5
C
330
0
100
AcDbDictionary
281
     1
  3
ACAD_DETAILVIEWSTYLE
350
193
  3
ACAD_GROUP
350
D
  3
ACAD_LAYOUT
350
1A
  3
ACAD_MATERIAL
350
43
  3
ACAD_MLEADERSTYLE
350
6B
  3
ACAD_MLINESTYLE
350
17
  3
ACAD_PLOTSETTINGS
350
19
  3
ACAD_PLOTSTYLENAME
350
E
  3
ACAD_SCALELIST
350
47
  3
ACAD_SECTIONVIEWSTYLE
350
194
  3
ACAD_TABLESTYLE
350
69
  3
ACAD_VISUALSTYLE
350
2A
  3
ACDB_RECOMPOSE_DATA
350
190
  3
AcDbVariableDictionary
350
18C
  0
SUN
  5
6D
330
29
100
AcDbSun
 90
        1
290
     0
 63
     7
421
 16777215
 40
1.0
291
     1
 91
  2455826
 92
 54000000
292
     0
 70
     2
 71
   256
280
     1
  0
DICTIONARY
  5
193
102
{ACAD_REACTORS
330
C
102
}
330
C
100
AcDbDictionary
281
     1
  0
DICTIONARY
  5
D
102
{ACAD_REACTORS
330
C
102
}
330
C
100
AcDbDictionary
281
     1
  0
DICTIONARY
  5
1A
102
{ACAD_REACTORS
330
C
102
}
330
C
100
AcDbDictionary
281
     1
  3
Layout1
350
1E
  3
Layout2
350
26
  3
Model
350
22
  0
DICTIONARY
  5
43
102
{ACAD_REACTORS
330
C
102
}
330
C
100
AcDbDictionary
281
     1
  3
ByBlock
350
45
  3
ByLayer
350
44
  3
Global
350
46
  0
DICTIONARY
  5
6B
102
{ACAD_REACTORS
330
C
102
}
330
C
100
AcDbDictionary
281
     1
  3
Standard
350
6C
  0
DICTIONARY
  5
17
102
{ACAD_REACTORS
330
C
102
}
330
C
100
AcDbDictionary
281
     1
  3
Standard
350
18
  0
DICTIONARY
  5
19
102
{ACAD_REACTORS
330
C
102
}
330
C
100
AcDbDictionary
281
     1
  0
ACDBDICTIONARYWDFLT
  5
E
102
{ACAD_REACTORS
330
C
102
}
330
C
100
AcDbDictionary
281
     1
  3
Normal
350
F
100
AcDbDictionaryWithDefault
340
F
  0
DICTIONARY
  5
47
102
{ACAD_REACTORS
330
C
102
}
330
C
100
AcDbDictionary
281
     1
  3
A0
350
48
  3
A1
350
49
  3
A2
350
4A
  3
A3
350
4B
  3
A4
350
4C
  3
A5
350
4D
  3
A6
350
4E
  3
A7
350
4F
  3
A8
350
50
  3
A9
350
51
  3
B0
350
52
  3
B1
350
53
  3
B2
350
54
  3
B3
350
55
  3
B4
350
56
  3
B5
350
57
  3
B6
350
58
  3
B7
350
59
  3
B8
350
5A
  3
B9
350
5B
  3
C0
350
5C
  3
C1
350
5D
  3
C2
350
5E
  3
C3
350
5F
  3
C4
350
60
  3
C5
350
61
  3
C6
350
62
  3
C7
350
63
  3
C8
350
64
  3
C9
350
65
  3
D0
350
66
  3
D1
350
67
  3
D2
350
68
  0
DICTIONARY
  5
194
102
{ACAD_REACTORS
330
C
102
}
330
C
100
AcDbDictionary
281
     1
  0
DICTIONARY
  5
69
102
{ACAD_REACTORS
330
C
102
}
330
C
100
AcDbDictionary
281
     1
  3
Standard
350
6A
  0
DICTIONARY
  5
2A
102
{ACAD_REACTORS
330
C
102
}
330
C
100
AcDbDictionary
281
     1
  3
2dWireframe
350
2F
  3
Basic
350
32
  3
Brighten
350
36
  3
ColorChange
350
3A
  3
Conceptual
350
34
  3
Dim
350
35
  3
EdgeColorOff
350
3D
  3
Facepattern
350
39
  3
Flat
350
2B
  3
FlatWithEdges
350
2C
  3
Gouraud
350
2D
  3
GouraudWithEdges
350
2E
  3
Hidden
350
31
  3
JitterOff
350
3B
  3
Linepattern
350
38
  3
OverhangOff
350
3C
  3
Realistic
350
33
  3
Shaded
350
42
  3
Shaded with edges
350
41
  3
Shades of Gray
350
3E
  3
Sketchy
350
3F
  3
Thicken
350
37
  3
Wireframe
350
30
  3
X-Ray
350
40
  0
XRECORD
  5
190
102
{ACAD_REACTORS
330
C
102
}
330
C
100
AcDbXrecord
280
     1
 90
        1
330
6A
  0
DICTIONARY
  5
18C
102
{ACAD_REACTORS
330
C
102
}
330
C
100
AcDbDictionary
281
     1
  3
CANNOSCALE
350
18D
  3
CMLEADERSTYLE
350
192
  3
CTABLESTYLE
350
191
  0
LAYOUT
  5
1E
102
{ACAD_REACTORS
330
1A
102
}
330
1A
100
AcDbPlotSettings
  1

  2
none_device
  4

  6

 40
0.0
 41
0.0
 42
0.0
 43
0.0
 44
0.0
 45
0.0
 46
0.0
 47
0.0
 48
0.0
 49
0.0
140
0.0
141
0.0
142
1.0
143
1.0
 70
   688
 72
     0
 73
     0
 74
     5
  7

 75
    16
 76
     0
 77
     2
 78
   300
147
1.0
148
0.0
149
0.0
100
AcDbLayout
  1
Layout1
 70
     1
 71
     1
 10
0.0
 20
0.0
 11
12.0
 21
9.0
 12
0.0
 22
0.0
 32
0.0
 14
1.000000000000000E+20
 24
1.000000000000000E+20
 34
1.000000000000000E+20
 15
-1.000000000000000E+20
 25
-1.000000000000000E+20
 35
-1.000000000000000E+20
146
0.0
 13
0.0
 23
0.0
 33
0.0
 16
1.0
 26
0.0
 36
0.0
 17
0.0
 27
1.0
 37
0.0
 76
     0
330
1B
  0
LAYOUT
  5
26
102
{ACAD_REACTORS
330
1A
102
}
330
1A
100
AcDbPlotSettings
  1

  2
none_device
  4

  6

 40
0.0
 41
0.0
 42
0.0
 43
0.0
 44
0.0
 45
0.0
 46
0.0
 47
0.0
 48
0.0
 49
0.0
140
0.0
141
0.0
142
1.0
143
1.0
 70
   688
 72
     0
 73
     0
 74
     5
  7

 75
    16
 76
     0
 77
     2
 78
   300
147
1.0
148
0.0
149
0.0
100
AcDbLayout
  1
Layout2
 70
     1
 71
     2
 10
0.0
 20
0.0
 11
0.0
 21
0.0
 12
0.0
 22
0.0
 32
0.0
 14
0.0
 24
0.0
 34
0.0
 15
0.0
 25
0.0
 35
0.0
146
0.0
 13
0.0
 23
0.0
 33
0.0
 16
1.0
 26
0.0
 36
0.0
 17
0.0
 27
1.0
 37
0.0
 76
     0
330
23
  0
LAYOUT
  5
22
102
{ACAD_REACTORS
330
1A
102
}
330
1A
100
AcDbPlotSettings
  1

  2
none_device
  4
Letter_(8.50_x_11.00_Inches)
  6

 40
6.35
 41
6.35
 42
6.35000508
 43
6.35000508
 44
215.9
 45
279.4
 46
0.0
 47
0.0
 48
0.0
 49
0.0
140
0.0
141
0.0
142
1.0
143
1.0
 70
  1712
 72
     0
 73
     0
 74
     0
  7

 75
     0
 76
     0
 77
     2
 78
   300
147
1.0
148
0.0
149
0.0
100
AcDbLayout
  1
Model
 70
     1
 71
     0
 10
0.0
 20
0.0
 11
12.0
 21
9.0
 12
0.0
 22
0.0
 32
0.0
 14
1.000000000000000E+20
 24
1.000000000000000E+20
 34
1.000000000000000E+20
 15
-1.000000000000000E+20
 25
-1.000000000000000E+20
 35
-1.000000000000000E+20
146
0.0
 13
0.0
 23
0.0
 33
0.0
 16
1.0
 26
0.0
 36
0.0
 17
0.0
 27
1.0
 37
0.0
 76
     0
330
1F
331
29
  0
MATERIAL
  5
45
102
{ACAD_REACTORS
330
43
102
}
330
43
100
AcDbMaterial
  1
ByBlock
 72
     1
 94
      127
  0
MATERIAL
  5
44
102
{ACAD_REACTORS
330
43
102
}
330
43
100
AcDbMaterial
  1
ByLayer
 72
     1
 94
      127
  0
MATERIAL
  5
46
102
{ACAD_REACTORS
330
43
102
}
330
43
100
AcDbMaterial
  1
Global
 72
     1
 94
      127
  0
MLEADERSTYLE
  5
6C
102
{ACAD_REACTORS
330
6B
102
}
330
6B
100
AcDbMLeaderStyle
179
     2
170
     2
171
     1
172
     0
 90
        2
 40
0.0
 41
0.0
173
     1
 91
-1056964608
340
14
 92
       -2
290
     1
 42
0.09
291
     1
 43
0.36
  3
Standard
341
0
 44
0.18
300

342
11
174
     1
178
     6
175
     1
176
     0
 93
-1056964608
 45
0.18
292
     0
297
     0
 46
0.18
343
0
 94
-1056964608
 47
1.0
 49
1.0
140
1.0
293
     1
141
0.0
294
     1
177
     0
142
1.0
295
     0
296
     0
143
0.125
271
     0
272
     9
273
     9
298
     0
  0
MLINESTYLE
  5
18
102
{ACAD_REACTORS
330
17
102
}
330
17
100
AcDbMlineStyle
  2
Standard
 70
     0
  3

 62
   256
 51
90.0
 52
90.0
 71
     2
 49
0.5
 62
   256
  6
BYLAYER
 49
-0.5
 62
   256
  6
BYLAYER
  0
ACDBPLACEHOLDER
  5
F
102
{ACAD_REACTORS
330
E
102
}
330
E
  0
SCALE
  5
48
102
{ACAD_REACTORS
330
47
102
}
330
47
100
AcDbScale
 70
     0
300
1:1
140
1.0
141
1.0
290
     1
  0
SCALE
  5
49
102
{ACAD_REACTORS
330
47
102
}
330
47
100
AcDbScale
 70
     0
300
1:2
140
1.0
141
2.0
290
     0
  0
SCALE
  5
4A
102
{ACAD_REACTORS
330
47
102
}
330
47
100
AcDbScale
 70
     0
300
1:4
140
1.0
141
4.0
290
     0
  0
SCALE
  5
4B
102
{ACAD_REACTORS
330
47
102
}
330
47
100
AcDbScale
 70
     0
300
1:5
140
1.0
141
5.0
290
     0
  0
SCALE
  5
4C
102
{ACAD_REACTORS
330
47
102
}
330
47
100
AcDbScale
 70
     0
300
1:8
140
1.0
141
8.0
290
     0
  0
SCALE
  5
4D
102
{ACAD_REACTORS
330
47
102
}
330
47
100
AcDbScale
 70
     0
300
1:10
140
1.0
141
10.0
290
     0
  0
SCALE
  5
4E
102
{ACAD_REACTORS
330
47
102
}
330
47
100
AcDbScale
 70
     0
300
1:16
140
1.0
141
16.0
290
     0
  0
SCALE
  5
4F
102
{ACAD_REACTORS
330
47
102
}
330
47
100
AcDbScale
 70
     0
300
1:20
140
1.0
141
20.0
290
     0
  0
SCALE
  5
50
102
{ACAD_REACTORS
330
47
102
}
330
47
100
AcDbScale
 70
     0
300
1:30
140
1.0
141
30.0
290
     0
  0
SCALE
  5
51
102
{ACAD_REACTORS
330
47
102
}
330
47
100
AcDbScale
 70
     0
300
1:40
140
1.0
141
40.0
290
     0
  0
SCALE
  5
52
102
{ACAD_REACTORS
330
47
102
}
330
47
100
AcDbScale
 70
     0
300
1:50
140
1.0
141
50.0
290
     0
  0
SCALE
  5
53
102
{ACAD_REACTORS
330
47
102
}
330
47
100
AcDbScale
 70
     0
300
1:100
140
1.0
141
100.0
290
     0
  0
SCALE
  5
54
102
{ACAD_REACTORS
330
47
102
}
330
47
100
AcDbScale
 70
     0
300
2:1
140
2.0
141
1.0
290
     0
  0
SCALE
  5
55
102
{ACAD_REACTORS
330
47
102
}
330
47
100
AcDbScale
 70
     0
300
4:1
140
4.0
141
1.0
290
     0
  0
SCALE
  5
56
102
{ACAD_REACTORS
330
47
102
}
330
47
100
AcDbScale
 70
     0
300
8:1
140
8.0
141
1.0
290
     0
  0
SCALE
  5
57
102
{ACAD_REACTORS
330
47
102
}
330
47
100
AcDbScale
 70
     0
300
10:1
140
10.0
141
1.0
290
     0
  0
SCALE
  5
58
102
{ACAD_REACTORS
330
47
102
}
330
47
100
AcDbScale
 70
     0
300
100:1
140
100.0
141
1.0
290
     0
  0
SCALE
  5
59
102
{ACAD_REACTORS
330
47
102
}
330
47
100
AcDbScale
 70
     0
300
1/128" = 1'-0"
140
0.0078125
141
12.0
290
     0
  0
SCALE
  5
5A
102
{ACAD_REACTORS
330
47
102
}
330
47
100
AcDbScale
 70
     0
300
1/64" = 1'-0"
140
0.015625
141
12.0
290
     0
  0
SCALE
  5
5B
102
{ACAD_REACTORS
330
47
102
}
330
47
100
AcDbScale
 70
     0
300
1/32" = 1'-0"
140
0.03125
141
12.0
290
     0
  0
SCALE
  5
5C
102
{ACAD_REACTORS
330
47
102
}
330
47
100
AcDbScale
 70
     0
300
1/16" = 1'-0"
140
0.0625
141
12.0
290
     0
  0
SCALE
  5
5D
102
{ACAD_REACTORS
330
47
102
}
330
47
100
AcDbScale
 70
     0
300
3/32" = 1'-0"
140
0.09375
141
12.0
290
     0
  0
SCALE
  5
5E
102
{ACAD_REACTORS
330
47
102
}
330
47
100
AcDbScale
 70
     0
300
1/8" = 1'-0"
140
0.125
141
12.0
290
     0
  0
SCALE
  5
5F
102
{ACAD_REACTORS
330
47
102
}
330
47
100
AcDbScale
 70
     0
300
3/16" = 1'-0"
140
0.1875
141
12.0
290
     0
  0
SCALE
  5
60
102
{ACAD_REACTORS
330
47
102
}
330
47
100
AcDbScale
 70
     0
300
1/4" = 1'-0"
140
0.25
141
12.0
290
     0
  0
SCALE
  5
61
102
{ACAD_REACTORS
330
47
102
}
330
47
100
AcDbScale
 70
     0
300
3/8" = 1'-0"
140
0.375
141
12.0
290
     0
  0
SCALE
  5
62
102
{ACAD_REACTORS
330
47
102
}
330
47
100
AcDbScale
 70
     0
300
1/2" = 1'-0"
140
0.5
141
12.0
290
     0
  0
SCALE
  5
63
102
{ACAD_REACTORS
330
47
102
}
330
47
100
AcDbScale
 70
     0
300
3/4" = 1'-0"
140
0.75
141
12.0
290
     0
  0
SCALE
  5
64
102
{ACAD_REACTORS
330
47
102
}
330
47
100
AcDbScale
 70
     0
300
1" = 1'-0"
140
1.0
141
12.0
290
     0
  0
SCALE
  5
65
102
{ACAD_REACTORS
330
47
102
}
330
47
100
AcDbScale
 70
     0
300
1-1/2" = 1'-0"
140
1.5
141
12.0
290
     0
  0
SCALE
  5
66
102
{ACAD_REACTORS
330
47
102
}
330
47
100
AcDbScale
 70
     0
300
3" = 1'-0"
140
3.0
141
12.0
290
     0
  0
SCALE
  5
67
102
{ACAD_REACTORS
330
47
102
}
330
47
100
AcDbScale
 70
     0
300
6" = 1'-0"
140
6.0
141
12.0
290
     0
  0
SCALE
  5
68
102
{ACAD_REACTORS
330
47
102
}
330
47
100
AcDbScale
 70
     0
300
1'-0" = 1'-0"
140
12.0
141
12.0
290
     0
  0
TABLESTYLE
  5
6A
102
{ACAD_REACTORS
330
69
102
}
102
{ACAD_XDICTIONARY
360
18E
102
}
330
69
100
AcDbTableStyle
  3
Standard
 70
     0
 71
     0
 40
0.06
 41
0.06
280
     0
281
     0
  7
Standard
140
0.18
170
     2
 62
     0
 63
   257
283
     0
 90
        4
 91
        0
  1

274
    -2
284
     1
 64
     0
275
    -2
285
     1
 65
     0
276
    -2
286
     1
 66
     0
277
    -2
287
     1
 67
     0
278
    -2
288
     1
 68
     0
279
    -2
289
     1
 69
     0
  7
Standard
140
0.25
170
     5
 62
     0
 63
   257
283
     0
 90
        4
 91
        0
  1

274
    -2
284
     1
 64
     0
275
    -2
285
     1
 65
     0
276
    -2
286
     1
 66
     0
277
    -2
287
     1
 67
     0
278
    -2
288
     1
 68
     0
279
    -2
289
     1
 69
     0
  7
Standard
140
0.18
170
     5
 62
     0
 63
   257
283
     0
 90
        4
 91
        0
  1

274
    -2
284
     1
 64
     0
275
    -2
285
     1
 65
     0
276
    -2
286
     1
 66
     0
277
    -2
287
     1
 67
     0
278
    -2
288
     1
 68
     0
279
    -2
289
     1
 69
     0
  0
VISUALSTYLE
  5
2F
102
{ACAD_REACTORS
330
2A
102
}
330
2A
100
AcDbVisualStyle
  2
2dWireframe
 70
     4
177
     3
291
     0
 70
    58
 90
        0
176
     1
 90
        2
176
     1
 90
        0
176
     1
 90
        0
176
     1
 40
0.6
176
     1
 40
30.0
176
     1
 62
     7
420
 16777215
176
     1
 90
        1
176
     1
 90
        4
176
     1
 62
     7
176
     1
 62
   257
176
     1
 90
        1
176
     1
 90
        1
176
     1
 40
1.0
176
     1
 90
        0
176
     1
 62
   257
176
     1
 40
1.0
176
     1
 90
        1
176
     1
 90
        6
176
     1
 90
        2
176
     1
 62
     7
176
     1
 90
        5
176
     1
 90
        0
176
     1
 90
        0
176
     1
290
     0
176
     1
 90
        1
176
     1
 40
0.0
176
     1
 90
        0
176
     1
290
     1
176
     1
290
     1
176
     1
290
     0
176
     1
290
     0
176
     1
290
     0
176
     1
290
     0
176
     1
290
     0
176
     1
290
     0
176
     1
290
     0
176
     1
 90
       50
176
     1
 40
0.0
176
     1
 40
1.0
176
     1
 90
        0
176
     1
 62
    18
420
        0
176
     1
 90
       50
176
     1
 90
        3
176
     1
 62
     5
420
      255
176
     1
290
     0
176
     1
 90
       50
176
     1
 90
       50
176
     1
 90
       50
176
     1
290
     0
176
     1
 90
       50
176
     1
 62
   256
176
     0
 40
1.0
176
     0
 90
        2
176
     1
  1
strokes_ogs.tif
176
     1
290
     0
176
     1
 40
1.0
176
     1
 40
1.0
176
     1
  0
VISUALSTYLE
  5
32
102
{ACAD_REACTORS
330
2A
102
}
330
2A
100
AcDbVisualStyle
  2
Basic
 70
     7
177
     3
291
     1
 70
    58
 90
        1
176
     1
 90
        0
176
     1
 90
        1
176
     1
 90
        0
176
     1
 40
0.6
176
     1
 40
30.0
176
     1
 62
     7
420
 16777215
176
     1
 90
        0
176
     1
 90
        4
176
     1
 62
     7
176
     1
 62
   257
176
     1
 90
        1
176
     1
 90
        1
176
     1
 40
1.0
176
     1
 90
        8
176
     1
 62
     7
176
     1
 40
1.0
176
     1
 90
        1
176
     1
 90
        6
176
     1
 90
        2
176
     1
 62
     7
176
     1
 90
        5
176
     1
 90
        0
176
     1
 90
        0
176
     1
290
     0
176
     1
 90
        1
176
     1
 40
0.0
176
     1
 90
        0
176
     1
290
     0
176
     1
290
     1
176
     1
290
     1
176
     1
290
     0
176
     1
290
     0
176
     1
290
     0
176
     1
290
     0
176
     1
290
     0
176
     1
290
     0
176
     1
 90
       50
176
     1
 40
0.0
176
     1
 40
1.0
176
     1
 90
        0
176
     1
 62
    18
420
        0
176
     1
 90
       50
176
     1
 90
        3
176
     1
 62
     5
420
      255
176
     1
290
     0
176
     1
 90
       50
176
     1
 90
       50
176
     1
 90
       50
176
     1
290
     0
176
     1
 90
       50
176
     1
 62
   256
176
     0
 40
1.0
176
     0
 90
        2
176
     1
  1
strokes_ogs.tif
176
     1
290
     0
176
     1
 40
1.0
176
     1
 40
1.0
176
     1
  0
VISUALSTYLE
  5
36
102
{ACAD_REACTORS
330
2A
102
}
330
2A
100
AcDbVisualStyle
  2
Brighten
 70
    12
177
     3
291
     1
 70
    58
 90
        2
176
     1
 90
        2
176
     1
 90
        0
176
     1
 90
        0
176
     1
 40
0.6
176
     1
 40
30.0
176
     1
 62
     7
420
 16777215
176
     1
 90
        1
176
     1
 90
        4
176
     1
 62
     7
176
     1
 62
   257
176
     1
 90
        1
176
     1
 90
        1
176
     1
 40
1.0
176
     1
 90
        8
176
     1
 62
     7
176
     1
 40
1.0
176
     1
 90
        1
176
     1
 90
        6
176
     1
 90
        2
176
     1
 62
     7
176
     1
 90
        5
176
     1
 90
        0
176
     1
 90
        0
176
     1
290
     0
176
     1
 90
        1
176
     1
 40
50.0
176
     1
 90
        0
176
     1
290
     0
176
     1
290
     1
176
     1
290
     1
176
     1
290
     0
176
     1
290
     0
176
     1
290
     0
176
     1
290
     0
176
     1
290
     0
176
     1
290
     0
176
     1
 90
       50
176
     1
 40
0.0
176
     1
 40
1.0
176
     1
 90
        0
176
     1
 62
    18
420
        0
176
     1
 90
       50
176
     1
 90
        3
176
     1
 62
     5
420
      255
176
     1
290
     0
176
     1
 90
       50
176
     1
 90
       50
176
     1
 90
       50
176
     1
290
     0
176
     1
 90
       50
176
     1
 62
   256
176
     0
 40
1.0
176
     0
 90
        2
176
     1
  1
strokes_ogs.tif
176
     1
290
     0
176
     1
 40
1.0
176
     1
 40
1.0
176
     1
  0
VISUALSTYLE
  5
3A
102
{ACAD_REACTORS
330
2A
102
}
330
2A
100
AcDbVisualStyle
  2
ColorChange
 70
    16
177
     3
291
     1
 70
    58
 90
        2
176
     1
 90
        2
176
     1
 90
        3
176
     1
 90
        0
176
     1
 40
0.6
176
     1
 40
30.0
176
     1
 62
     8
420
  8421504
176
     1
 90
        1
176
     1
 90
        4
176
     1
 62
     7
176
     1
 62
   257
176
     1
 90
        1
176
     1
 90
        1
176
     1
 40
1.0
176
     1
 90
        8
176
     1
 62
     8
420
  8421504
176
     1
 40
1.0
176
     1
 90
        1
176
     1
 90
        6
176
     1
 90
        2
176
     1
 62
     7
176
     1
 90
        5
176
     1
 90
        0
176
     1
 90
        0
176
     1
290
     0
176
     1
 90
        1
176
     1
 40
0.0
176
     1
 90
        0
176
     1
290
     0
176
     1
290
     1
176
     1
290
     1
176
     1
290
     0
176
     1
290
     0
176
     1
290
     0
176
     1
290
     0
176
     1
290
     0
176
     1
290
     0
176
     1
 90
       50
176
     1
 40
0.0
176
     1
 40
1.0
176
     1
 90
        0
176
     1
 62
    18
420
        0
176
     1
 90
       50
176
     1
 90
        3
176
     1
 62
     5
420
      255
176
     1
290
     0
176
     1
 90
       50
176
     1
 90
       50
176
     1
 90
       50
176
     1
290
     0
176
     1
 90
       50
176
     1
 62
   256
176
     0
 40
1.0
176
     0
 90
        2
176
     1
  1
strokes_ogs.tif
176
     1
290
     0
176
     1
 40
1.0
176
     1
 40
1.0
176
     1
  0
VISUALSTYLE
  5
34
102
{ACAD_REACTORS
330
2A
102
}
330
2A
100
AcDbVisualStyle
  2
Conceptual
 70
     9
177
     3
291
     0
 70
    58
 90
        3
176
     1
 90
        2
176
     1
 90
        0
176
     1
 90
        0
176
     1
 40
0.6
176
     1
 40
30.0
176
     1
 62
     7
420
 16777215
176
     1
 90
        2
176
     1
 90
        2
176
     1
 62
     7
176
     1
 62
   257
176
     1
 90
        1
176
     1
 90
        1
176
     1
 40
179.0
176
     1
 90
        8
176
     1
 62
     7
176
     1
 40
1.0
176
     1
 90
        1
176
     1
 90
        6
176
     1
 90
        2
176
     1
 62
     7
176
     1
 90
        3
176
     1
 90
        0
176
     1
 90
        0
176
     1
290
     0
176
     1
 90
        1
176
     1
 40
0.0
176
     1
 90
        0
176
     1
290
     0
176
     1
290
     1
176
     1
290
     1
176
     1
290
     0
176
     1
290
     0
176
     1
290
     0
176
     1
290
     0
176
     1
290
     0
176
     1
290
     0
176
     1
 90
       50
176
     1
 40
0.0
176
     1
 40
1.0
176
     1
 90
        0
176
     1
 62
    18
420
        0
176
     1
 90
       50
176
     1
 90
        3
176
     1
 62
     5
420
      255
176
     1
290
     0
176
     1
 90
       50
176
     1
 90
       50
176
     1
 90
       50
176
     1
290
     0
176
     1
 90
       50
176
     1
 62
   256
176
     0
 40
1.0
176
     0
 90
        2
176
     1
  1
strokes_ogs.tif
176
     1
290
     0
176
     1
 40
1.0
176
     1
 40
1.0
176
     1
  0
VISUALSTYLE
  5
35
102
{ACAD_REACTORS
330
2A
102
}
330
2A
100
AcDbVisualStyle
  2
Dim
 70
    11
177
     3
291
     1
 70
    58
 90
        2
176
     1
 90
        2
176
     1
 90
        0
176
     1
 90
        0
176
     1
 40
0.6
176
     1
 40
30.0
176
     1
 62
     7
420
 16777215
176
     1
 90
        1
176
     1
 90
        4
176
     1
 62
     7
176
     1
 62
   257
176
     1
 90
        1
176
     1
 90
        1
176
     1
 40
1.0
176
     1
 90
        8
176
     1
 62
     7
176
     1
 40
1.0
176
     1
 90
        1
176
     1
 90
        6
176
     1
 90
        2
176
     1
 62
     7
176
     1
 90
        5
176
     1
 90
        0
176
     1
 90
        0
176
     1
290
     0
176
     1
 90
        1
176
     1
 40
-50.0
176
     1
 90
        0
176
     1
290
     0
176
     1
290
     1
176
     1
290
     1
176
     1
290
     0
176
     1
290
     0
176
     1
290
     0
176
     1
290
     0
176
     1
290
     0
176
     1
290
     0
176
     1
 90
       50
176
     1
 40
0.0
176
     1
 40
1.0
176
     1
 90
        0
176
     1
 62
    18
420
        0
176
     1
 90
       50
176
     1
 90
        3
176
     1
 62
     5
420
      255
176
     1
290
     0
176
     1
 90
       50
176
     1
 90
       50
176
     1
 90
       50
176
     1
290
     0
176
     1
 90
       50
176
     1
 62
   256
176
     0
 40
1.0
176
     0
 90
        2
176
     1
  1
strokes_ogs.tif
176
     1
290
     0
176
     1
 40
1.0
176
     1
 40
1.0
176
     1
  0
VISUALSTYLE
  5
3D
102
{ACAD_REACTORS
330
2A
102
}
330
2A
100
AcDbVisualStyle
  2
EdgeColorOff
 70
    22
177
     3
291
     1
 70
    58
 90
        2
176
     0
 90
        2
176
     0
 90
        0
176
     0
 90
        0
176
     0
 40
0.6
176
     0
 40
30.0
176
     0
 62
     7
420
 16777215
176
     0
 90
        1
176
     0
 90
        4
176
     0
 62
     7
176
     0
 62
   257
176
     0
 90
        1
176
     0
 90
        1
176
     0
 40
1.0
176
     0
 90
        8
176
     2
 62
     7
176
     0
 40
1.0
176
     0
 90
        1
176
     0
 90
        6
176
     0
 90
        2
176
     0
 62
     7
176
     0
 90
        5
176
     0
 90
        0
176
     0
 90
        0
176
     0
290
     0
176
     0
 90
        1
176
     0
 40
0.0
176
     0
 90
        0
176
     0
290
     0
176
     0
290
     1
176
     0
290
     1
176
     0
290
     0
176
     0
290
     0
176
     0
290
     0
176
     0
290
     0
176
     0
290
     0
176
     0
290
     0
176
     0
 90
       50
176
     0
 40
0.0
176
     0
 40
1.0
176
     0
 90
        0
176
     0
 62
    18
420
        0
176
     0
 90
       50
176
     0
 90
        3
176
     0
 62
     5
420
      255
176
     0
290
     0
176
     0
 90
       50
176
     0
 90
       50
176
     0
 90
       50
176
     0
290
     0
176
     0
 90
       50
176
     0
 62
   256
176
     0
 40
1.0
176
     0
 90
        2
176
     0
  1
strokes_ogs.tif
176
     0
290
     0
176
     0
 40
1.0
176
     0
 40
1.0
176
     0
  0
VISUALSTYLE
  5
39
102
{ACAD_REACTORS
330
2A
102
}
330
2A
100
AcDbVisualStyle
  2
Facepattern
 70
    15
177
     3
291
     1
 70
    58
 90
        2
176
     1
 90
        2
176
     1
 90
        0
176
     1
 90
        0
176
     1
 40
0.6
176
     1
 40
30.0
176
     1
 62
     7
420
 16777215
176
     1
 90
        1
176
     1
 90
        4
176
     1
 62
     7
176
     1
 62
   257
176
     1
 90
        1
176
     1
 90
        1
176
     1
 40
1.0
176
     1
 90
        8
176
     1
 62
     7
176
     1
 40
1.0
176
     1
 90
        1
176
     1
 90
        6
176
     1
 90
        2
176
     1
 62
     7
176
     1
 90
        5
176
     1
 90
        0
176
     1
 90
        0
176
     1
290
     0
176
     1
 90
        1
176
     1
 40
0.0
176
     1
 90
        0
176
     1
290
     0
176
     1
290
     1
176
     1
290
     1
176
     1
290
     0
176
     1
290
     0
176
     1
290
     0
176
     1
290
     0
176
     1
290
     0
176
     1
290
     0
176
     1
 90
       50
176
     1
 40
0.0
176
     1
 40
1.0
176
     1
 90
        0
176
     1
 62
    18
420
        0
176
     1
 90
       50
176
     1
 90
        3
176
     1
 62
     5
420
      255
176
     1
290
     0
176
     1
 90
       50
176
     1
 90
       50
176
     1
 90
       50
176
     1
290
     0
176
     1
 90
       50
176
     1
 62
   256
176
     0
 40
1.0
176
     0
 90
        2
176
     1
  1
strokes_ogs.tif
176
     1
290
     0
176
     1
 40
1.0
176
     1
 40
1.0
176
     1
  0
VISUALSTYLE
  5
2B
102
{ACAD_REACTORS
330
2A
102
}
330
2A
100
AcDbVisualStyle
  2
Flat
 70
     0
177
     3
291
     1
 70
    58
 90
        2
176
     1
 90
        1
176
     1
 90
        1
176
     1
 90
        2
176
     1
 40
0.6
176
     1
 40
30.0
176
     1
 62
     7
420
 16777215
176
     1
 90
        0
176
     1
 90
        0
176
     1
 62
     7
176
     1
 62
   257
176
     1
 90
        1
176
     1
 90
        1
176
     1
 40
1.0
176
     1
 90
        8
176
     1
 62
     7
176
     1
 40
1.0
176
     1
 90
        1
176
     1
 90
        6
176
     1
 90
        2
176
     1
 62
     7
176
     1
 90
        5
176
     1
 90
        0
176
     1
 90
        0
176
     1
290
     0
176
     1
 90
       13
176
     1
 40
0.0
176
     1
 90
        0
176
     1
290
     0
176
     1
290
     1
176
     1
290
     1
176
     1
290
     0
176
     1
290
     0
176
     1
290
     0
176
     1
290
     0
176
     1
290
     0
176
     1
290
     0
176
     1
 90
       50
176
     1
 40
0.0
176
     1
 40
1.0
176
     1
 90
        0
176
     1
 62
    18
420
        0
176
     1
 90
       50
176
     1
 90
        3
176
     1
 62
     5
420
      255
176
     1
290
     0
176
     1
 90
       50
176
     1
 90
       50
176
     1
 90
       50
176
     1
290
     0
176
     1
 90
       50
176
     1
 62
   256
176
     0
 40
1.0
176
     0
 90
        2
176
     1
  1
strokes_ogs.tif
176
     1
290
     0
176
     1
 40
1.0
176
     1
 40
1.0
176
     1
  0
VISUALSTYLE
  5
2C
102
{ACAD_REACTORS
330
2A
102
}
330
2A
100
AcDbVisualStyle
  2
FlatWithEdges
 70
     1
177
     3
291
     1
 70
    58
 90
        2
176
     1
 90
        1
176
     1
 90
        1
176
     1
 90
        2
176
     1
 40
0.6
176
     1
 40
30.0
176
     1
 62
     7
420
 16777215
176
     1
 90
        1
176
     1
 90
        0
176
     1
 62
     7
176
     1
 62
   257
176
     1
 90
        1
176
     1
 90
        1
176
     1
 40
1.0
176
     1
 90
        0
176
     1
 62
   257
176
     1
 40
1.0
176
     1
 90
        1
176
     1
 90
        6
176
     1
 90
        2
176
     1
 62
     7
176
     1
 90
        5
176
     1
 90
        0
176
     1
 90
        0
176
     1
290
     0
176
     1
 90
       13
176
     1
 40
0.0
176
     1
 90
        0
176
     1
290
     0
176
     1
290
     1
176
     1
290
     1
176
     1
290
     0
176
     1
290
     0
176
     1
290
     0
176
     1
290
     0
176
     1
290
     0
176
     1
290
     0
176
     1
 90
       50
176
     1
 40
0.0
176
     1
 40
1.0
176
     1
 90
        0
176
     1
 62
    18
420
        0
176
     1
 90
       50
176
     1
 90
        3
176
     1
 62
     5
420
      255
176
     1
290
     0
176
     1
 90
       50
176
     1
 90
       50
176
     1
 90
       50
176
     1
290
     0
176
     1
 90
       50
176
     1
 62
   256
176
     0
 40
1.0
176
     0
 90
        2
176
     1
  1
strokes_ogs.tif
176
     1
290
     0
176
     1
 40
1.0
176
     1
 40
1.0
176
     1
  0
VISUALSTYLE
  5
2D
102
{ACAD_REACTORS
330
2A
102
}
330
2A
100
AcDbVisualStyle
  2
Gouraud
 70
     2
177
     3
291
     1
 70
    58
 90
        2
176
     1
 90
        2
176
     1
 90
        1
176
     1
 90
        2
176
     1
 40
0.6
176
     1
 40
30.0
176
     1
 62
     7
420
 16777215
176
     1
 90
        0
176
     1
 90
        0
176
     1
 62
     7
176
     1
 62
   257
176
     1
 90
        1
176
     1
 90
        1
176
     1
 40
1.0
176
     1
 90
        0
176
     1
 62
     7
176
     1
 40
1.0
176
     1
 90
        1
176
     1
 90
        6
176
     1
 90
        2
176
     1
 62
     7
176
     1
 90
        5
176
     1
 90
        0
176
     1
 90
        0
176
     1
290
     0
176
     1
 90
       13
176
     1
 40
0.0
176
     1
 90
        0
176
     1
290
     0
176
     1
290
     1
176
     1
290
     1
176
     1
290
     0
176
     1
290
     0
176
     1
290
     0
176
     1
290
     0
176
     1
290
     0
176
     1
290
     0
176
     1
 90
       50
176
     1
 40
0.0
176
     1
 40
1.0
176
     1
 90
        0
176
     1
 62
    18
420
        0
176
     1
 90
       50
176
     1
 90
        3
176
     1
 62
     5
420
      255
176
     1
290
     0
176
     1
 90
       50
176
     1
 90
       50
176
     1
 90
       50
176
     1
290
     0
176
     1
 90
       50
176
     1
 62
   256
176
     0
 40
1.0
176
     0
 90
        2
176
     1
  1
strokes_ogs.tif
176
     1
290
     0
176
     1
 40
1.0
176
     1
 40
1.0
176
     1
  0
VISUALSTYLE
  5
2E
102
{ACAD_REACTORS
330
2A
102
}
330
2A
100
AcDbVisualStyle
  2
GouraudWithEdges
 70
     3
177
     3
291
     1
 70
    58
 90
        2
176
     1
 90
        2
176
     1
 90
        1
176
     1
 90
        2
176
     1
 40
0.6
176
     1
 40
30.0
176
     1
 62
     7
420
 16777215
176
     1
 90
        1
176
     1
 90
        0
176
     1
 62
     7
176
     1
 62
   257
176
     1
 90
        1
176
     1
 90
        1
176
     1
 40
1.0
176
     1
 90
        0
176
     1
 62
   257
176
     1
 40
1.0
176
     1
 90
        1
176
     1
 90
        6
176
     1
 90
        2
176
     1
 62
     7
176
     1
 90
        5
176
     1
 90
        0
176
     1
 90
        0
176
     1
290
     0
176
     1
 90
       13
176
     1
 40
0.0
176
     1
 90
        0
176
     1
290
     0
176
     1
290
     1
176
     1
290
     1
176
     1
290
     0
176
     1
290
     0
176
     1
290
     0
176
     1
290
     0
176
     1
290
     0
176
     1
290
     0
176
     1
 90
       50
176
     1
 40
0.0
176
     1
 40
1.0
176
     1
 90
        0
176
     1
 62
    18
420
        0
176
     1
 90
       50
176
     1
 90
        3
176
     1
 62
     5
420
      255
176
     1
290
     0
176
     1
 90
       50
176
     1
 90
       50
176
     1
 90
       50
176
     1
290
     0
176
     1
 90
       50
176
     1
 62
   256
176
     0
 40
1.0
176
     0
 90
        2
176
     1
  1
strokes_ogs.tif
176
     1
290
     0
176
     1
 40
1.0
176
     1
 40
1.0
176
     1
  0
VISUALSTYLE
  5
31
102
{ACAD_REACTORS
330
2A
102
}
330
2A
100
AcDbVisualStyle
  2
Hidden
 70
     6
177
     3
291
     0
 70
    58
 90
        1
176
     1
 90
        2
176
     1
 90
        2
176
     1
 90
        0
176
     1
 40
0.6
176
     1
 40
30.0
176
     1
 62
     7
420
 16777215
176
     1
 90
        2
176
     1
 90
        2
176
     1
 62
     7
176
     1
 62
   257
176
     1
 90
        2
176
     1
 90
        1
176
     1
 40
40.0
176
     1
 90
        0
176
     1
 62
   257
176
     1
 40
1.0
176
     1
 90
        1
176
     1
 90
        6
176
     1
 90
        2
176
     1
 62
     7
176
     1
 90
        3
176
     1
 90
        0
176
     1
 90
        0
176
     1
290
     0
176
     1
 90
        1
176
     1
 40
0.0
176
     1
 90
        0
176
     1
290
     0
176
     1
290
     1
176
     1
290
     1
176
     1
290
     0
176
     1
290
     0
176
     1
290
     0
176
     1
290
     0
176
     1
290
     0
176
     1
290
     0
176
     1
 90
       50
176
     1
 40
0.0
176
     1
 40
1.0
176
     1
 90
        0
176
     1
 62
    18
420
        0
176
     1
 90
       50
176
     1
 90
        3
176
     1
 62
     5
420
      255
176
     1
290
     0
176
     1
 90
       50
176
     1
 90
       50
176
     1
 90
       50
176
     1
290
     0
176
     1
 90
       50
176
     1
 62
   256
176
     0
 40
1.0
176
     0
 90
        2
176
     1
  1
strokes_ogs.tif
176
     1
290
     0
176
     1
 40
1.0
176
     1
 40
1.0
176
     1
  0
VISUALSTYLE
  5
3B
102
{ACAD_REACTORS
330
2A
102
}
330
2A
100
AcDbVisualStyle
  2
JitterOff
 70
    20
177
     3
291
     1
 70
    58
 90
        2
176
     0
 90
        2
176
     0
 90
        0
176
     0
 90
        0
176
     0
 40
0.6
176
     0
 40
30.0
176
     0
 62
     7
420
 16777215
176
     0
 90
        1
176
     0
 90
        4
176
     0
 62
     7
176
     0
 62
   257
176
     0
 90
        1
176
     0
 90
        1
176
     0
 40
1.0
176
     0
 90
       10
176
     2
 62
     7
176
     0
 40
1.0
176
     0
 90
        1
176
     0
 90
        6
176
     0
 90
        2
176
     0
 62
     7
176
     0
 90
        5
176
     0
 90
        0
176
     0
 90
        0
176
     0
290
     0
176
     0
 90
        1
176
     0
 40
0.0
176
     0
 90
        0
176
     0
290
     0
176
     0
290
     1
176
     0
290
     1
176
     0
290
     0
176
     0
290
     0
176
     0
290
     0
176
     0
290
     0
176
     0
290
     0
176
     0
290
     0
176
     0
 90
       50
176
     0
 40
0.0
176
     0
 40
1.0
176
     0
 90
        0
176
     0
 62
    18
420
        0
176
     0
 90
       50
176
     0
 90
        3
176
     0
 62
     5
420
      255
176
     0
290
     0
176
     0
 90
       50
176
     0
 90
       50
176
     0
 90
       50
176
     0
290
     0
176
     0
 90
       50
176
     0
 62
   256
176
     0
 40
1.0
176
     0
 90
        2
176
     0
  1
strokes_ogs.tif
176
     0
290
     0
176
     0
 40
1.0
176
     0
 40
1.0
176
     0
  0
VISUALSTYLE
  5
38
102
{ACAD_REACTORS
330
2A
102
}
330
2A
100
AcDbVisualStyle
  2
Linepattern
 70
    14
177
     3
291
     1
 70
    58
 90
        2
176
     1
 90
        2
176
     1
 90
        0
176
     1
 90
        0
176
     1
 40
0.6
176
     1
 40
30.0
176
     1
 62
     7
420
 16777215
176
     1
 90
        1
176
     1
 90
        4
176
     1
 62
     7
176
     1
 62
   257
176
     1
 90
        7
176
     1
 90
        7
176
     1
 40
1.0
176
     1
 90
        8
176
     1
 62
     7
176
     1
 40
1.0
176
     1
 90
        1
176
     1
 90
        6
176
     1
 90
        2
176
     1
 62
     7
176
     1
 90
        5
176
     1
 90
        0
176
     1
 90
        0
176
     1
290
     0
176
     1
 90
        1
176
     1
 40
0.0
176
     1
 90
        0
176
     1
290
     0
176
     1
290
     1
176
     1
290
     1
176
     1
290
     0
176
     1
290
     0
176
     1
290
     0
176
     1
290
     0
176
     1
290
     0
176
     1
290
     0
176
     1
 90
       50
176
     1
 40
0.0
176
     1
 40
1.0
176
     1
 90
        0
176
     1
 62
    18
420
        0
176
     1
 90
       50
176
     1
 90
        3
176
     1
 62
     5
420
      255
176
     1
290
     0
176
     1
 90
       50
176
     1
 90
       50
176
     1
 90
       50
176
     1
290
     0
176
     1
 90
       50
176
     1
 62
   256
176
     0
 40
1.0
176
     0
 90
        2
176
     1
  1
strokes_ogs.tif
176
     1
290
     0
176
     1
 40
1.0
176
     1
 40
1.0
176
     1
  0
VISUALSTYLE
  5
3C
102
{ACAD_REACTORS
330
2A
102
}
330
2A
100
AcDbVisualStyle
  2
OverhangOff
 70
    21
177
     3
291
     1
 70
    58
 90
        2
176
     0
 90
        2
176
     0
 90
        0
176
     0
 90
        0
176
     0
 40
0.6
176
     0
 40
30.0
176
     0
 62
     7
420
 16777215
176
     0
 90
        1
176
     0
 90
        4
176
     0
 62
     7
176
     0
 62
   257
176
     0
 90
        1
176
     0
 90
        1
176
     0
 40
1.0
176
     0
 90
        9
176
     2
 62
     7
176
     0
 40
1.0
176
     0
 90
        1
176
     0
 90
        6
176
     0
 90
        2
176
     0
 62
     7
176
     0
 90
        5
176
     0
 90
        0
176
     0
 90
        0
176
     0
290
     0
176
     0
 90
        1
176
     0
 40
0.0
176
     0
 90
        0
176
     0
290
     0
176
     0
290
     1
176
     0
290
     1
176
     0
290
     0
176
     0
290
     0
176
     0
290
     0
176
     0
290
     0
176
     0
290
     0
176
     0
290
     0
176
     0
 90
       50
176
     0
 40
0.0
176
     0
 40
1.0
176
     0
 90
        0
176
     0
 62
    18
420
        0
176
     0
 90
       50
176
     0
 90
        3
176
     0
 62
     5
420
      255
176
     0
290
     0
176
     0
 90
       50
176
     0
 90
       50
176
     0
 90
       50
176
     0
290
     0
176
     0
 90
       50
176
     0
 62
   256
176
     0
 40
1.0
176
     0
 90
        2
176
     0
  1
strokes_ogs.tif
176
     0
290
     0
176
     0
 40
1.0
176
     0
 40
1.0
176
     0
  0
VISUALSTYLE
  5
33
102
{ACAD_REACTORS
330
2A
102
}
330
2A
100
AcDbVisualStyle
  2
Realistic
 70
     8
177
     3
291
     0
 70
    58
 90
        2
176
     1
 90
        3
176
     1
 90
        0
176
     1
 90
        2
176
     1
 40
0.6
176
     1
 40
30.0
176
     1
 62
     7
420
 16777215
176
     1
 90
        0
176
     1
 90
        0
176
     1
 62
     7
176
     1
 62
   257
176
     1
 90
        1
176
     1
 90
        1
176
     1
 40
1.0
176
     1
 90
        8
176
     1
 62
   257
176
     1
 40
1.0
176
     1
 90
        1
176
     1
 90
        6
176
     1
 90
        2
176
     1
 62
     7
176
     1
 90
        3
176
     1
 90
        0
176
     1
 90
        0
176
     1
290
     0
176
     1
 90
       13
176
     1
 40
0.0
176
     1
 90
        0
176
     1
290
     0
176
     1
290
     1
176
     1
290
     1
176
     1
290
     0
176
     1
290
     0
176
     1
290
     0
176
     1
290
     0
176
     1
290
     0
176
     1
290
     0
176
     1
 90
       50
176
     1
 40
0.0
176
     1
 40
1.0
176
     1
 90
        0
176
     1
 62
    18
420
        0
176
     1
 90
       50
176
     1
 90
        3
176
     1
 62
     5
420
      255
176
     1
290
     0
176
     1
 90
       50
176
     1
 90
       50
176
     1
 90
       50
176
     1
290
     0
176
     1
 90
       50
176
     1
 62
   256
176
     0
 40
1.0
176
     0
 90
        2
176
     1
  1
strokes_ogs.tif
176
     1
290
     0
176
     1
 40
1.0
176
     1
 40
1.0
176
     1
  0
VISUALSTYLE
  5
42
102
{ACAD_REACTORS
330
2A
102
}
330
2A
100
AcDbVisualStyle
  2
Shaded
 70
    27
177
     3
291
     0
 70
    58
 90
        2
176
     1
 90
        2
176
     1
 90
        1
176
     1
 90
        2
176
     1
 40
0.6
176
     1
 40
30.0
176
     1
 62
     7
420
 16777215
176
     1
 90
        0
176
     1
 90
        4
176
     1
 62
     7
176
     1
 62
   257
176
     1
 90
        1
176
     1
 90
        1
176
     1
 40
1.0
176
     1
 90
        8
176
     1
 62
   257
176
     1
 40
1.0
176
     1
 90
        1
176
     1
 90
        6
176
     1
 90
        2
176
     1
 62
     8
420
  7895160
176
     1
 90
        3
176
     1
 90
        0
176
     1
 90
        0
176
     1
290
     0
176
     1
 90
        5
176
     1
 40
0.0
176
     1
 90
        0
176
     1
290
     0
176
     1
290
     1
176
     1
290
     1
176
     1
290
     0
176
     1
290
     0
176
     1
290
     0
176
     1
290
     0
176
     1
290
     0
176
     1
290
     0
176
     1
 90
       50
176
     1
 40
0.0
176
     1
 40
1.0
176
     1
 90
        0
176
     1
 62
    18
420
        0
176
     1
 90
       50
176
     1
 90
        3
176
     1
 62
     5
420
      255
176
     1
290
     0
176
     1
 90
       50
176
     1
 90
       50
176
     1
 90
       50
176
     1
290
     0
176
     1
 90
       50
176
     1
 62
   256
176
     0
 40
1.0
176
     0
 90
        2
176
     1
  1
strokes_ogs.tif
176
     1
290
     0
176
     1
 40
1.0
176
     1
 40
1.0
176
     1
  0
VISUALSTYLE
  5
41
102
{ACAD_REACTORS
330
2A
102
}
330
2A
100
AcDbVisualStyle
  2
Shaded with edges
 70
    26
177
     3
291
     0
 70
    58
 90
        2
176
     1
 90
        2
176
     1
 90
        1
176
     1
 90
        2
176
     1
 40
0.6
176
     1
 40
30.0
176
     1
 62
     7
420
 16777215
176
     1
 90
        1
176
     1
 90
       10
176
     1
 62
     7
176
     1
 62
   257
176
     1
 90
        2
176
     1
 90
        1
176
     1
 40
1.0
176
     1
 90
        8
176
     1
 62
   257
176
     1
 40
1.0
176
     1
 90
        1
176
     1
 90
        6
176
     1
 90
        2
176
     1
 62
     7
176
     1
 90
        3
176
     1
 90
        0
176
     1
 90
        0
176
     1
290
     0
176
     1
 90
        5
176
     1
 40
0.0
176
     1
 90
        0
176
     1
290
     0
176
     1
290
     1
176
     1
290
     1
176
     1
290
     0
176
     1
290
     0
176
     1
290
     0
176
     1
290
     0
176
     1
290
     0
176
     1
290
     0
176
     1
 90
       50
176
     1
 40
0.0
176
     1
 40
1.0
176
     1
 90
        0
176
     1
 62
    18
420
        0
176
     1
 90
       50
176
     1
 90
        3
176
     1
 62
     5
420
      255
176
     1
290
     0
176
     1
 90
       50
176
     1
 90
       50
176
     1
 90
       50
176
     1
290
     0
176
     1
 90
       50
176
     1
 62
   256
176
     0
 40
1.0
176
     0
 90
        2
176
     1
  1
strokes_ogs.tif
176
     1
290
     0
176
     1
 40
1.0
176
     1
 40
1.0
176
     1
  0
VISUALSTYLE
  5
3E
102
{ACAD_REACTORS
330
2A
102
}
330
2A
100
AcDbVisualStyle
  2
Shades of Gray
 70
    23
177
     3
291
     0
 70
    58
 90
        2
176
     1
 90
        2
176
     1
 90
        3
176
     1
 90
        0
176
     1
 40
0.6
176
     1
 40
30.0
176
     1
 62
     7
420
 16777215
176
     1
 90
        2
176
     1
 90
        2
176
     1
 62
     7
176
     1
 62
     7
176
     1
 90
        1
176
     1
 90
        1
176
     1
 40
40.0
176
     1
 90
        8
176
     1
 62
     7
176
     1
 40
1.0
176
     1
 90
        1
176
     1
 90
        6
176
     1
 90
        2
176
     1
 62
     7
176
     1
 90
        3
176
     1
 90
        0
176
     1
 90
        0
176
     1
290
     0
176
     1
 90
        1
176
     1
 40
0.0
176
     1
 90
        0
176
     1
290
     0
176
     1
290
     1
176
     1
290
     1
176
     1
290
     0
176
     1
290
     0
176
     1
290
     0
176
     1
290
     0
176
     1
290
     0
176
     1
290
     0
176
     1
 90
       50
176
     1
 40
0.0
176
     1
 40
1.0
176
     1
 90
        0
176
     1
 62
    18
420
        0
176
     1
 90
       50
176
     1
 90
        3
176
     1
 62
     5
420
      255
176
     1
290
     0
176
     1
 90
       50
176
     1
 90
       50
176
     1
 90
       50
176
     1
290
     0
176
     1
 90
       50
176
     1
 62
   256
176
     0
 40
1.0
176
     0
 90
        2
176
     1
  1
strokes_ogs.tif
176
     1
290
     0
176
     1
 40
1.0
176
     1
 40
1.0
176
     1
  0
VISUALSTYLE
  5
3F
102
{ACAD_REACTORS
330
2A
102
}
330
2A
100
AcDbVisualStyle
  2
Sketchy
 70
    24
177
     3
291
     0
 70
    58
 90
        1
176
     1
 90
        2
176
     1
 90
        2
176
     1
 90
        0
176
     1
 40
0.6
176
     1
 40
30.0
176
     1
 62
     7
420
 16777215
176
     1
 90
        2
176
     1
 90
        2
176
     1
 62
     7
176
     1
 62
     7
176
     1
 90
        1
176
     1
 90
        1
176
     1
 40
40.0
176
     1
 90
       11
176
     1
 62
     7
176
     1
 40
1.0
176
     1
 90
        1
176
     1
 90
        6
176
     1
 90
        2
176
     1
 62
     7
176
     1
 90
        6
176
     1
 90
        0
176
     1
 90
        0
176
     1
290
     0
176
     1
 90
        1
176
     1
 40
0.0
176
     1
 90
        0
176
     1
290
     0
176
     1
290
     1
176
     1
290
     1
176
     1
290
     0
176
     1
290
     0
176
     1
290
     0
176
     1
290
     0
176
     1
290
     0
176
     1
290
     0
176
     1
 90
       50
176
     1
 40
0.0
176
     1
 40
1.0
176
     1
 90
        0
176
     1
 62
    18
420
        0
176
     1
 90
       50
176
     1
 90
        3
176
     1
 62
     5
420
      255
176
     1
290
     0
176
     1
 90
       50
176
     1
 90
       50
176
     1
 90
       50
176
     1
290
     0
176
     1
 90
       50
176
     1
 62
   256
176
     0
 40
1.0
176
     0
 90
        2
176
     1
  1
strokes_ogs.tif
176
     1
290
     0
176
     1
 40
1.0
176
     1
 40
1.0
176
     1
  0
VISUALSTYLE
  5
37
102
{ACAD_REACTORS
330
2A
102
}
330
2A
100
AcDbVisualStyle
  2
Thicken
 70
    13
177
     3
291
     1
 70
    58
 90
        2
176
     1
 90
        2
176
     1
 90
        0
176
     1
 90
        0
176
     1
 40
0.6
176
     1
 40
30.0
176
     1
 62
     7
420
 16777215
176
     1
 90
        1
176
     1
 90
        4
176
     1
 62
     7
176
     1
 62
   257
176
     1
 90
        1
176
     1
 90
        1
176
     1
 40
1.0
176
     1
 90
       12
176
     1
 62
     7
176
     1
 40
1.0
176
     1
 90
        1
176
     1
 90
        6
176
     1
 90
        2
176
     1
 62
     7
176
     1
 90
        5
176
     1
 90
        0
176
     1
 90
        0
176
     1
290
     0
176
     1
 90
        1
176
     1
 40
0.0
176
     1
 90
        0
176
     1
290
     0
176
     1
290
     1
176
     1
290
     1
176
     1
290
     0
176
     1
290
     0
176
     1
290
     0
176
     1
290
     0
176
     1
290
     0
176
     1
290
     0
176
     1
 90
       50
176
     1
 40
0.0
176
     1
 40
1.0
176
     1
 90
        0
176
     1
 62
    18
420
        0
176
     1
 90
       50
176
     1
 90
        3
176
     1
 62
     5
420
      255
176
     1
290
     0
176
     1
 90
       50
176
     1
 90
       50
176
     1
 90
       50
176
     1
290
     0
176
     1
 90
       50
176
     1
 62
   256
176
     0
 40
1.0
176
     0
 90
        2
176
     1
  1
strokes_ogs.tif
176
     1
290
     0
176
     1
 40
1.0
176
     1
 40
1.0
176
     1
  0
VISUALSTYLE
  5
30
102
{ACAD_REACTORS
330
2A
102
}
330
2A
100
AcDbVisualStyle
  2
Wireframe
 70
     5
177
     3
291
     0
 70
    58
 90
        0
176
     1
 90
        2
176
     1
 90
        0
176
     1
 90
        0
176
     1
 40
0.6
176
     1
 40
30.0
176
     1
 62
     7
420
 16777215
176
     1
 90
        1
176
     1
 90
        4
176
     1
 62
     7
176
     1
 62
   257
176
     1
 90
        1
176
     1
 90
        1
176
     1
 40
1.0
176
     1
 90
        0
176
     1
 62
   257
176
     1
 40
1.0
176
     1
 90
        1
176
     1
 90
        6
176
     1
 90
        2
176
     1
 62
     7
176
     1
 90
        3
176
     1
 90
        0
176
     1
 90
        0
176
     1
290
     0
176
     1
 90
        1
176
     1
 40
0.0
176
     1
 90
        0
176
     1
290
     0
176
     1
290
     1
176
     1
290
     1
176
     1
290
     0
176
     1
290
     0
176
     1
290
     0
176
     1
290
     0
176
     1
290
     0
176
     1
290
     0
176
     1
 90
       50
176
     1
 40
0.0
176
     1
 40
1.0
176
     1
 90
        0
176
     1
 62
    18
420
        0
176
     1
 90
       50
176
     1
 90
        3
176
     1
 62
     5
420
      255
176
     1
290
     0
176
     1
 90
       50
176
     1
 90
       50
176
     1
 90
       50
176
     1
290
     0
176
     1
 90
       50
176
     1
 62
   256
176
     0
 40
1.0
176
     0
 90
        2
176
     1
  1
strokes_ogs.tif
176
     1
290
     0
176
     1
 40
1.0
176
     1
 40
1.0
176
     1
  0
VISUALSTYLE
  5
40
102
{ACAD_REACTORS
330
2A
102
}
330
2A
100
AcDbVisualStyle
  2
X-Ray
 70
    25
177
     3
291
     0
 70
    58
 90
        2
176
     1
 90
        2
176
     1
 90
        1
176
     1
 90
        1
176
     1
 40
0.5
176
     1
 40
30.0
176
     1
 62
     7
420
 16777215
176
     1
 90
        1
176
     1
 90
        0
176
     1
 62
     7
176
     1
 62
   257
176
     1
 90
        1
176
     1
 90
        1
176
     1
 40
1.0
176
     1
 90
        8
176
     1
 62
     7
176
     1
 40
1.0
176
     1
 90
        1
176
     1
 90
        6
176
     1
 90
        2
176
     1
 62
     7
176
     1
 90
        3
176
     1
 90
        0
176
     1
 90
        0
176
     1
290
     0
176
     1
 90
       13
176
     1
 40
0.0
176
     1
 90
        0
176
     1
290
     0
176
     1
290
     1
176
     1
290
     1
176
     1
290
     0
176
     1
290
     0
176
     1
290
     0
176
     1
290
     0
176
     1
290
     0
176
     1
290
     0
176
     1
 90
       50
176
     1
 40
0.0
176
     1
 40
1.0
176
     1
 90
        0
176
     1
 62
    18
420
        0
176
     1
 90
       50
176
     1
 90
        3
176
     1
 62
     5
420
      255
176
     1
290
     0
176
     1
 90
       50
176
     1
 90
       50
176
     1
 90
       50
176
     1
290
     0
176
     1
 90
       50
176
     1
 62
   256
176
     0
 40
1.0
176
     0
 90
        2
176
     1
  1
strokes_ogs.tif
176
     1
290
     0
176
     1
 40
1.0
176
     1
 40
1.0
176
     1
  0
DICTIONARYVAR
  5
18D
102
{ACAD_REACTORS
330
18C
102
}
330
18C
100
DictionaryVariables
280
     0
  1
1:1
  0
DICTIONARYVAR
  5
192
102
{ACAD_REACTORS
330
18C
102
}
330
18C
100
DictionaryVariables
280
     0
  1
Standard
  0
DICTIONARYVAR
  5
191
102
{ACAD_REACTORS
330
18C
102
}
330
18C
100
DictionaryVariables
280
     0
  1
Standard
  0
DICTIONARY
  5
18E
330
6A
100
AcDbDictionary
280
     1
281
     1
  3
ACAD_ROUNDTRIP_2008_TABLESTYLE_CELLSTYLEMAP
360
18F
  0
CELLSTYLEMAP
  5
18F
102
{ACAD_REACTORS
330
18E
102
}
330
18E
100
AcDbCellStyleMap
 90
        3
300
CELLSTYLE
  1
TABLEFORMAT_BEGIN
 90
        5
170
     1
 91
        0
 92
    32768
 62
   257
 93
        1
300
CONTENTFORMAT
  1
CONTENTFORMAT_BEGIN
 90
        0
 91
        0
 92
        4
 93
        0
300

 40
0.0
140
1.0
 94
        5
 62
     0
340
11
144
0.25
309
CONTENTFORMAT_END
171
     1
301
MARGIN
  1
CELLMARGIN_BEGIN
 40
0.06
 40
0.06
 40
0.06
 40
0.06
 40
0.06
 40
0.06
309
CELLMARGIN_END
 94
        6
 95
        1
302
GRIDFORMAT
  1
GRIDFORMAT_BEGIN
 90
        0
 91
        1
 62
     0
 92
       -2
340
14
 93
        0
 40
0.045
309
GRIDFORMAT_END
 95
        2
302
GRIDFORMAT
  1
GRIDFORMAT_BEGIN
 90
        0
 91
        1
 62
     0
 92
       -2
340
14
 93
        0
 40
0.045
309
GRIDFORMAT_END
 95
        4
302
GRIDFORMAT
  1
GRIDFORMAT_BEGIN
 90
        0
 91
        1
 62
     0
 92
       -2
340
14
 93
        0
 40
0.045
309
GRIDFORMAT_END
 95
        8
302
GRIDFORMAT
  1
GRIDFORMAT_BEGIN
 90
        0
 91
        1
 62
     0
 92
       -2
340
14
 93
        0
 40
0.045
309
GRIDFORMAT_END
 95
       16
302
GRIDFORMAT
  1
GRIDFORMAT_BEGIN
 90
        0
 91
        1
 62
     0
 92
       -2
340
14
 93
        0
 40
0.045
309
GRIDFORMAT_END
 95
       32
302
GRIDFORMAT
  1
GRIDFORMAT_BEGIN
 90
        0
 91
        1
 62
     0
 92
       -2
340
14
 93
        0
 40
0.045
309
GRIDFORMAT_END
309
TABLEFORMAT_END
  1
CELLSTYLE_BEGIN
 90
        1
 91
        1
300
_TITLE
309
CELLSTYLE_END
300
CELLSTYLE
  1
TABLEFORMAT_BEGIN
 90
        5
170
     1
 91
        0
 92
        0
 62
   257
 93
        1
300
CONTENTFORMAT
  1
CONTENTFORMAT_BEGIN
 90
        0
 91
        0
 92
        4
 93
        0
300

 40
0.0
140
1.0
 94
        5
 62
     0
340
11
144
0.18
309
CONTENTFORMAT_END
171
     1
301
MARGIN
  1
CELLMARGIN_BEGIN
 40
0.06
 40
0.06
 40
0.06
 40
0.06
 40
0.06
 40
0.06
309
CELLMARGIN_END
 94
        6
 95
        1
302
GRIDFORMAT
  1
GRIDFORMAT_BEGIN
 90
        0
 91
        1
 62
     0
 92
       -2
340
14
 93
        0
 40
0.045
309
GRIDFORMAT_END
 95
        2
302
GRIDFORMAT
  1
GRIDFORMAT_BEGIN
 90
        0
 91
        1
 62
     0
 92
       -2
340
14
 93
        0
 40
0.045
309
GRIDFORMAT_END
 95
        4
302
GRIDFORMAT
  1
GRIDFORMAT_BEGIN
 90
        0
 91
        1
 62
     0
 92
       -2
340
14
 93
        0
 40
0.045
309
GRIDFORMAT_END
 95
        8
302
GRIDFORMAT
  1
GRIDFORMAT_BEGIN
 90
        0
 91
        1
 62
     0
 92
       -2
340
14
 93
        0
 40
0.045
309
GRIDFORMAT_END
 95
       16
302
GRIDFORMAT
  1
GRIDFORMAT_BEGIN
 90
        0
 91
        1
 62
     0
 92
       -2
340
14
 93
        0
 40
0.045
309
GRIDFORMAT_END
 95
       32
302
GRIDFORMAT
  1
GRIDFORMAT_BEGIN
 90
        0
 91
        1
 62
     0
 92
       -2
340
14
 93
        0
 40
0.045
309
GRIDFORMAT_END
309
TABLEFORMAT_END
  1
CELLSTYLE_BEGIN
 90
        2
 91
        1
300
_HEADER
309
CELLSTYLE_END
300
CELLSTYLE
  1
TABLEFORMAT_BEGIN
 90
        5
170
     1
 91
        0
 92
        0
 62
   257
 93
        1
300
CONTENTFORMAT
  1
CONTENTFORMAT_BEGIN
 90
        0
 91
        0
 92
        4
 93
        0
300

 40
0.0
140
1.0
 94
        2
 62
     0
340
11
144
0.18
309
CONTENTFORMAT_END
171
     1
301
MARGIN
  1
CELLMARGIN_BEGIN
 40
0.06
 40
0.06
 40
0.06
 40
0.06
 40
0.06
 40
0.06
309
CELLMARGIN_END
 94
        6
 95
        1
302
GRIDFORMAT
  1
GRIDFORMAT_BEGIN
 90
        0
 91
        1
 62
     0
 92
       -2
340
14
 93
        0
 40
0.045
309
GRIDFORMAT_END
 95
        2
302
GRIDFORMAT
  1
GRIDFORMAT_BEGIN
 90
        0
 91
        1
 62
     0
 92
       -2
340
14
 93
        0
 40
0.045
309
GRIDFORMAT_END
 95
        4
302
GRIDFORMAT
  1
GRIDFORMAT_BEGIN
 90
        0
 91
        1
 62
     0
 92
       -2
340
14
 93
        0
 40
0.045
309
GRIDFORMAT_END
 95
        8
302
GRIDFORMAT
  1
GRIDFORMAT_BEGIN
 90
        0
 91
        1
 62
     0
 92
       -2
340
14
 93
        0
 40
0.045
309
GRIDFORMAT_END
 95
       16
302
GRIDFORMAT
  1
GRIDFORMAT_BEGIN
 90
        0
 91
        1
 62
     0
 92
       -2
340
14
 93
        0
 40
0.045
309
GRIDFORMAT_END
 95
       32
302
GRIDFORMAT
  1
GRIDFORMAT_BEGIN
 90
        0
 91
        1
 62
     0
 92
       -2
340
14
 93
        0
 40
0.045
309
GRIDFORMAT_END
309
TABLEFORMAT_END
  1
CELLSTYLE_BEGIN
 90
        3
 91
        2
300
_DATA
309
CELLSTYLE_END
  0
ENDSEC
  0
EOF