0
SECTION
  2
HEADER
  9
$ACADVER
  1
AC1027
  9
$ACADMAINTVER
 70
     8
  9
$DWGCODEPAGE
  3
ANSI_1252
  9
$REQUIREDVERSIONS
160
                 0
  9
$COMMENTS
  1
File was created by Cadenas
  9
$CUSTOMPROPERTYTAG
  1
NN
  9
$CUSTOMPROPERTY
  1
Set Screw LF  Normal Duty 3-Bolt Flange Inch Bore
  9
$CUSTOMPROPERTYTAG
  1
NT
  9
$CUSTOMPROPERTY
  1
SC 3 Bolt Flange Bearings -(Normal Duty) -Re-Lube and No-Lube
  9
$CUSTOMPROPERTYTAG
  1
NB
  9
$CUSTOMPROPERTY
  1
124611
  9
$CUSTOMPROPERTYTAG
  1
NBSYN
  9
$CUSTOMPROPERTY
  1
$PN.
  9
$CUSTOMPROPERTYTAG
  1
LINA
  9
$CUSTOMPROPERTY
  1
124611
  9
$CUSTOMPROPERTYTAG
  1
SERIES
  9
$CUSTOMPROPERTY
  1
207
  9
$CUSTOMPROPERTYTAG
  1
SS
  9
$CUSTOMPROPERTY
  1
1-5/16
  9
$CUSTOMPROPERTYTAG
  1
PN
  9
$CUSTOMPROPERTY
  1
124611
  9
$CUSTOMPROPERTYTAG
  1
DESCRIPTION
  9
$CUSTOMPROPERTY
  1
LF-SC-105
  9
$CUSTOMPROPERTYTAG
  1
W
  9
$CUSTOMPROPERTY
  1
2.05
  9
$CUSTOMPROPERTYTAG
  1
LF
  9
$CUSTOMPROPERTY
  1
RE-LUBE
  9
$CUSTOMPROPERTYTAG
  1
A
  9
$CUSTOMPROPERTY
  1
1.40
  9
$CUSTOMPROPERTYTAG
  1
B
  9
$CUSTOMPROPERTY
  1
4.81
  9
$CUSTOMPROPERTYTAG
  1
C
  9
$CUSTOMPROPERTY
  1
1.59
  9
$CUSTOMPROPERTYTAG
  1
D
  9
$CUSTOMPROPERTY
  1
3.94
  9
$CUSTOMPROPERTYTAG
  1
G
  9
$CUSTOMPROPERTY
  1
0.41
  9
$CUSTOMPROPERTYTAG
  1
H
  9
$CUSTOMPROPERTY
  1
0.50
  9
$CUSTOMPROPERTYTAG
  1
J
  9
$CUSTOMPROPERTY
  1
0.52
  9
$CUSTOMPROPERTYTAG
  1
L
  9
$CUSTOMPROPERTY
  1
1.84
  9
$CUSTOMPROPERTYTAG
  1
M
  9
$CUSTOMPROPERTY
  1
2.41
  9
$CUSTOMPROPERTYTAG
  1
N
  9
$CUSTOMPROPERTY
  1
2.14
  9
$CUSTOMPROPERTYTAG
  1
COMPANY
  9
$CUSTOMPROPERTY
  1
baldor
  9
$INSBASE
 10
0.0
 20
0.0
 30
0.0
  9
$EXTMIN
 10
1.000000000000000E+20
 20
1.000000000000000E+20
 30
1.000000000000000E+20
  9
$EXTMAX
 10
-1.000000000000000E+20
 20
-1.000000000000000E+20
 30
-1.000000000000000E+20
  9
$LIMMIN
 10
0.0
 20
0.0
  9
$LIMMAX
 10
12.0
 20
9.0
  9
$ORTHOMODE
 70
     0
  9
$REGENMODE
 70
     1
  9
$FILLMODE
 70
     1
  9
$QTEXTMODE
 70
     0
  9
$MIRRTEXT
 70
     1
  9
$LTSCALE
 40
1.0
  9
$ATTMODE
 70
     1
  9
$TEXTSIZE
 40
0.2
  9
$TRACEWID
 40
0.05
  9
$TEXTSTYLE
  7
Standard
  9
$CLAYER
  8
0
  9
$CELTYPE
  6
ByLayer
  9
$CECOLOR
 62
   256
  9
$CELTSCALE
 40
1.0
  9
$DISPSILH
 70
     0
  9
$DIMSCALE
 40
1.0
  9
$DIMASZ
 40
0.18
  9
$DIMEXO
 40
0.0625
  9
$DIMDLI
 40
0.38
  9
$DIMRND
 40
0.0
  9
$DIMDLE
 40
0.0
  9
$DIMEXE
 40
0.18
  9
$DIMTP
 40
0.0
  9
$DIMTM
 40
0.0
  9
$DIMTXT
 40
0.18
  9
$DIMCEN
 40
0.09
  9
$DIMTSZ
 40
0.0
  9
$DIMTOL
 70
     0
  9
$DIMLIM
 70
     0
  9
$DIMTIH
 70
     1
  9
$DIMTOH
 70
     1
  9
$DIMSE1
 70
     0
  9
$DIMSE2
 70
     0
  9
$DIMTAD
 70
     0
  9
$DIMZIN
 70
     0
  9
$DIMBLK
  1

  9
$DIMASO
 70
     1
  9
$DIMSHO
 70
     1
  9
$DIMPOST
  1

  9
$DIMAPOST
  1

  9
$DIMALT
 70
     0
  9
$DIMALTD
 70
     2
  9
$DIMALTF
 40
25.4
  9
$DIMLFAC
 40
1.0
  9
$DIMTOFL
 70
     0
  9
$DIMTVP
 40
0.0
  9
$DIMTIX
 70
     0
  9
$DIMSOXD
 70
     0
  9
$DIMSAH
 70
     0
  9
$DIMBLK1
  1

  9
$DIMBLK2
  1

  9
$DIMSTYLE
  2
Standard
  9
$DIMCLRD
 70
     0
  9
$DIMCLRE
 70
     0
  9
$DIMCLRT
 70
     0
  9
$DIMTFAC
 40
1.0
  9
$DIMGAP
 40
0.09
  9
$DIMJUST
 70
     0
  9
$DIMSD1
 70
     0
  9
$DIMSD2
 70
     0
  9
$DIMTOLJ
 70
     1
  9
$DIMTZIN
 70
     0
  9
$DIMALTZ
 70
     0
  9
$DIMALTTZ
 70
     0
  9
$DIMUPT
 70
     0
  9
$DIMDEC
 70
     4
  9
$DIMTDEC
 70
     4
  9
$DIMALTU
 70
     2
  9
$DIMALTTD
 70
     2
  9
$DIMTXSTY
  7
Standard
  9
$DIMAUNIT
 70
     0
  9
$DIMADEC
 70
     0
  9
$DIMALTRND
 40
0.0
  9
$DIMAZIN
 70
     0
  9
$DIMDSEP
 70
    46
  9
$DIMATFIT
 70
     3
  9
$DIMFRAC
 70
     0
  9
$DIMLDRBLK
  1

  9
$DIMLUNIT
 70
     2
  9
$DIMLWD
 70
    -2
  9
$DIMLWE
 70
    -2
  9
$DIMTMOVE
 70
     0
  9
$DIMFXL
 40
1.0
  9
$DIMFXLON
 70
     0
  9
$DIMJOGANG
 40
0.7853981633974483
  9
$DIMTFILL
 70
     0
  9
$DIMTFILLCLR
 70
     0
  9
$DIMARCSYM
 70
     0
  9
$DIMLTYPE
  6

  9
$DIMLTEX1
  6

  9
$DIMLTEX2
  6

  9
$DIMTXTDIRECTION
 70
     0
  9
$LUNITS
 70
     2
  9
$LUPREC
 70
     4
  9
$SKETCHINC
 40
0.1
  9
$FILLETRAD
 40
0.5
  9
$AUNITS
 70
     0
  9
$AUPREC
 70
     0
  9
$MENU
  1
.
  9
$ELEVATION
 40
0.0
  9
$PELEVATION
 40
0.0
  9
$THICKNESS
 40
0.0
  9
$LIMCHECK
 70
     0
  9
$CHAMFERA
 40
0.0
  9
$CHAMFERB
 40
0.0
  9
$CHAMFERC
 40
0.0
  9
$CHAMFERD
 40
0.0
  9
$SKPOLY
 70
     0
  9
$TDCREATE
 40
2458169.004689294
  9
$TDUCREATE
 40
2458168.963022627
  9
$TDUPDATE
 40
2458169.004689468
  9
$TDUUPDATE
 40
2458168.963022801
  9
$TDINDWG
 40
0.0000000116
  9
$TDUSRTIMER
 40
0.0000000116
  9
$USRTIMER
 70
     1
  9
$ANGBASE
 50
0.0
  9
$ANGDIR
 70
     0
  9
$PDMODE
 70
     0
  9
$PDSIZE
 40
0.0
  9
$PLINEWID
 40
0.0
  9
$SPLFRAME
 70
     0
  9
$SPLINETYPE
 70
     6
  9
$SPLINESEGS
 70
     8
  9
$HANDSEED
  5
197
  9
$SURFTAB1
 70
     6
  9
$SURFTAB2
 70
     6
  9
$SURFTYPE
 70
     6
  9
$SURFU
 70
     6
  9
$SURFV
 70
     6
  9
$UCSBASE
  2

  9
$UCSNAME
  2

  9
$UCSORG
 10
0.0
 20
0.0
 30
0.0
  9
$UCSXDIR
 10
1.0
 20
0.0
 30
0.0
  9
$UCSYDIR
 10
0.0
 20
1.0
 30
0.0
  9
$UCSORTHOREF
  2

  9
$UCSORTHOVIEW
 70
     0
  9
$UCSORGTOP
 10
0.0
 20
0.0
 30
0.0
  9
$UCSORGBOTTOM
 10
0.0
 20
0.0
 30
0.0
  9
$UCSORGLEFT
 10
0.0
 20
0.0
 30
0.0
  9
$UCSORGRIGHT
 10
0.0
 20
0.0
 30
0.0
  9
$UCSORGFRONT
 10
0.0
 20
0.0
 30
0.0
  9
$UCSORGBACK
 10
0.0
 20
0.0
 30
0.0
  9
$PUCSBASE
  2

  9
$PUCSNAME
  2

  9
$PUCSORG
 10
0.0
 20
0.0
 30
0.0
  9
$PUCSXDIR
 10
1.0
 20
0.0
 30
0.0
  9
$PUCSYDIR
 10
0.0
 20
1.0
 30
0.0
  9
$PUCSORTHOREF
  2

  9
$PUCSORTHOVIEW
 70
     0
  9
$PUCSORGTOP
 10
0.0
 20
0.0
 30
0.0
  9
$PUCSORGBOTTOM
 10
0.0
 20
0.0
 30
0.0
  9
$PUCSORGLEFT
 10
0.0
 20
0.0
 30
0.0
  9
$PUCSORGRIGHT
 10
0.0
 20
0.0
 30
0.0
  9
$PUCSORGFRONT
 10
0.0
 20
0.0
 30
0.0
  9
$PUCSORGBACK
 10
0.0
 20
0.0
 30
0.0
  9
$USERI1
 70
     0
  9
$USERI2
 70
     0
  9
$USERI3
 70
     0
  9
$USERI4
 70
     0
  9
$USERI5
 70
     0
  9
$USERR1
 40
0.0
  9
$USERR2
 40
0.0
  9
$USERR3
 40
0.0
  9
$USERR4
 40
0.0
  9
$USERR5
 40
0.0
  9
$WORLDVIEW
 70
     1
  9
$SHADEDGE
 70
     3
  9
$SHADEDIF
 70
    70
  9
$TILEMODE
 70
     1
  9
$MAXACTVP
 70
    64
  9
$PINSBASE
 10
0.0
 20
0.0
 30
0.0
  9
$PLIMCHECK
 70
     0
  9
$PEXTMIN
 10
1.000000000000000E+20
 20
1.000000000000000E+20
 30
1.000000000000000E+20
  9
$PEXTMAX
 10
-1.000000000000000E+20
 20
-1.000000000000000E+20
 30
-1.000000000000000E+20
  9
$PLIMMIN
 10
0.0
 20
0.0
  9
$PLIMMAX
 10
12.0
 20
9.0
  9
$UNITMODE
 70
     0
  9
$VISRETAIN
 70
     1
  9
$PLINEGEN
 70
     0
  9
$PSLTSCALE
 70
     1
  9
$TREEDEPTH
 70
  3020
  9
$CMLSTYLE
  2
Standard
  9
$CMLJUST
 70
     0
  9
$CMLSCALE
 40
1.0
  9
$PROXYGRAPHICS
 70
     1
  9
$MEASUREMENT
 70
     0
  9
$CELWEIGHT
370
    -1
  9
$ENDCAPS
280
     0
  9
$JOINSTYLE
280
     0
  9
$LWDISPLAY
290
     0
  9
$INSUNITS
 70
     1
  9
$HYPERLINKBASE
  1

  9
$STYLESHEET
  1

  9
$XEDIT
290
     1
  9
$CEPSNTYPE
380
     0
  9
$PSTYLEMODE
290
     1
  9
$FINGERPRINTGUID
  2
{80681AFA-395C-4BEB-93BA-7E3DD877E775}
  9
$VERSIONGUID
  2
{FAEB1C32-E019-11D5-929B-00C0DF256EC4}
  9
$EXTNAMES
290
     1
  9
$PSVPSCALE
 40
0.0
  9
$OLESTARTUP
290
     0
  9
$SORTENTS
280
   127
  9
$INDEXCTL
280
     0
  9
$HIDETEXT
280
     1
  9
$XCLIPFRAME
280
     2
  9
$HALOGAP
280
     0
  9
$OBSCOLOR
 70
   257
  9
$OBSLTYPE
280
     0
  9
$INTERSECTIONDISPLAY
280
     0
  9
$INTERSECTIONCOLOR
 70
   257
  9
$DIMASSOC
280
     2
  9
$PROJECTNAME
  1

  9
$CAMERADISPLAY
290
     0
  9
$LENSLENGTH
 40
50.0
  9
$CAMERAHEIGHT
 40
0.0
  9
$STEPSPERSEC
 40
2.0
  9
$STEPSIZE
 40
6.0
  9
$3DDWFPREC
 40
2.0
  9
$PSOLWIDTH
 40
0.25
  9
$PSOLHEIGHT
 40
4.0
  9
$LOFTANG1
 40
1.570796326794897
  9
$LOFTANG2
 40
1.570796326794897
  9
$LOFTMAG1
 40
0.0
  9
$LOFTMAG2
 40
0.0
  9
$LOFTPARAM
 70
     7
  9
$LOFTNORMALS
280
     1
  9
$LATITUDE
 40
37.795
  9
$LONGITUDE
 40
-122.394
  9
$NORTHDIRECTION
 40
0.0
  9
$TIMEZONE
 70
 -8000
  9
$LIGHTGLYPHDISPLAY
280
     1
  9
$TILEMODELIGHTSYNCH
280
     1
  9
$CMATERIAL
347
44
  9
$SOLIDHIST
280
     0
  9
$SHOWHIST
280
     1
  9
$DWFFRAME
280
     2
  9
$DGNFRAME
280
     2
  9
$REALWORLDSCALE
290
     1
  9
$INTERFERECOLOR
 62
   256
  9
$CSHADOW
280
     0
  9
$SHADOWPLANELOCATION
 40
0.0
  0
ENDSEC
  0
SECTION
  2
CLASSES
  0
CLASS
  1
ACDBDICTIONARYWDFLT
  2
AcDbDictionaryWithDefault
  3
ObjectDBX Classes
 90
        0
 91
        4
280
     0
281
     0
  0
CLASS
  1
VISUALSTYLE
  2
AcDbVisualStyle
  3
ObjectDBX Classes
 90
     4095
 91
        4
280
     0
281
     0
  0
CLASS
  1
MATERIAL
  2
AcDbMaterial
  3
ObjectDBX Classes
 90
     1153
 91
        4
280
     0
281
     0
  0
CLASS
  1
SCALE
  2
AcDbScale
  3
ObjectDBX Classes
 90
     1153
 91
        4
280
     0
281
     0
  0
CLASS
  1
TABLESTYLE
  2
AcDbTableStyle
  3
ObjectDBX Classes
 90
     4095
 91
        4
280
     0
281
     0
  0
CLASS
  1
MLEADERSTYLE
  2
AcDbMLeaderStyle
  3
ACDB_MLEADERSTYLE_CLASS
 90
     4095
 91
        4
280
     0
281
     0
  0
CLASS
  1
SUN
  2
AcDbSun
  3
SCENEOE
 90
     1153
 91
        4
280
     0
281
     0
  0
CLASS
  1
DICTIONARYVAR
  2
AcDbDictionaryVar
  3
ObjectDBX Classes
 90
        0
 91
        4
280
     0
281
     0
  0
CLASS
  1
CELLSTYLEMAP
  2
AcDbCellStyleMap
  3
ObjectDBX Classes
 90
     1152
 91
        4
280
     0
281
     0
  0
ENDSEC
  0
SECTION
  2
TABLES
  0
TABLE
  2
VPORT
  5
8
330
0
100
AcDbSymbolTable
 70
     1
  0
VPORT
  5
29
330
8
100
AcDbSymbolTableRecord
100
AcDbViewportTableRecord
  2
*Active
 70
     0
 10
0.0
 20
0.0
 11
1.0
 21
1.0
 12
-0.8176249999999996
 22
0.1165000000000012
 13
0.0
 23
0.0
 14
0.5
 24
0.5
 15
0.5
 25
0.5
 16
0.0
 26
0.0
 36
1.0
 17
0.0
 27
0.0
 37
0.0
 40
4.668540000000004
 41
0.3681996941227876
 42
50.0
 43
0.0
 44
0.0
 50
0.0
 51
0.0
 71
     0
 72
   100
 73
     1
 74
     3
 75
     0
 76
     0
 77
     0
 78
     0
281
     0
 65
     1
110
0.0
120
0.0
130
0.0
111
1.0
121
0.0
131
0.0
112
0.0
122
1.0
132
0.0
 79
     0
146
0.0
348
2F
 60
     3
 61
     5
292
     1
282
     1
141
0.0
142
0.0
 63
   250
361
6D
  0
ENDTAB
  0
TABLE
  2
LTYPE
  5
5
330
0
100
AcDbSymbolTable
 70
     3
  0
LTYPE
  5
14
330
5
100
AcDbSymbolTableRecord
100
AcDbLinetypeTableRecord
  2
ByBlock
 70
     0
  3

 72
    65
 73
     0
 40
0.0
  0
LTYPE
  5
15
330
5
100
AcDbSymbolTableRecord
100
AcDbLinetypeTableRecord
  2
ByLayer
 70
     0
  3

 72
    65
 73
     0
 40
0.0
  0
LTYPE
  5
16
330
5
100
AcDbSymbolTableRecord
100
AcDbLinetypeTableRecord
  2
Continuous
 70
     0
  3
Solid line
 72
    65
 73
     0
 40
0.0
  0
LTYPE
  5
9F
330
5
100
AcDbSymbolTableRecord
100
AcDbLinetypeTableRecord
  2
Dashed
 70
     0
  3

 72
    65
 73
     2
 40
2.0
 49
1.0
 74
     0
 49
-1.0
 74
     0
  0
LTYPE
  5
D7
330
5
100
AcDbSymbolTableRecord
100
AcDbLinetypeTableRecord
  2
Center
 70
     0
  3

 72
    65
 73
     4
 40
1.5
 49
0.45
 74
     0
 49
-0.5
 74
     0
 49
0.05
 74
     0
 49
-0.5
 74
     0
  0
ENDTAB
  0
TABLE
  2
LAYER
  5
2
330
0
100
AcDbSymbolTable
 70
     7
  0
LAYER
  5
10
330
2
100
AcDbSymbolTableRecord
100
AcDbLayerTableRecord
  2
0
 70
     0
 62
     7
  6
Continuous
370
    -3
390
F
347
46
348
0
  0
LAYER
  5
72
330
2
100
AcDbSymbolTableRecord
100
AcDbLayerTableRecord
  2
AM_6
 70
     0
 62
    -2
  6
Continuous
370
    35
390
F
347
46
348
0
  0
LAYER
  5
A0
330
2
100
AcDbSymbolTableRecord
100
AcDbLayerTableRecord
  2
AM_9
 70
     0
 62
     6
  6
Dashed
370
    25
390
F
347
46
348
0
  0
LAYER
  5
D4
330
2
100
AcDbSymbolTableRecord
100
AcDbLayerTableRecord
  2
AM_5
 70
     0
 62
     3
  6
Continuous
370
    25
390
F
347
46
348
0
  0
LAYER
  5
D8
330
2
100
AcDbSymbolTableRecord
100
AcDbLayerTableRecord
  2
AM_7
 70
     0
 62
     7
  6
Center
370
    25
390
F
347
46
348
0
  0
LAYER
  5
DB
330
2
100
AcDbSymbolTableRecord
100
AcDbLayerTableRecord
  2
AM_4
 70
     0
 62
     7
  6
Continuous
370
    50
390
F
347
46
348
0
  0
LAYER
  5
18A
330
2
100
AcDbSymbolTableRecord
100
AcDbLayerTableRecord
  2
ConnectionPoints
 70
     0
 62
     7
  6
Continuous
370
    50
390
F
347
46
348
0
  0
ENDTAB
  0
TABLE
  2
STYLE
  5
3
330
0
100
AcDbSymbolTable
 70
     1
  0
STYLE
  5
11
330
3
100
AcDbSymbolTableRecord
100
AcDbTextStyleTableRecord
  2
Standard
 70
     0
 40
0.0
 41
1.0
 50
0.0
 71
     0
 42
0.2
  3
txt
  4

  0
ENDTAB
  0
TABLE
  2
VIEW
  5
6
330
0
100
AcDbSymbolTable
 70
     0
  0
ENDTAB
  0
TABLE
  2
UCS
  5
7
330
0
100
AcDbSymbolTable
 70
     0
  0
ENDTAB
  0
TABLE
  2
APPID
  5
9
330
0
100
AcDbSymbolTable
 70
     1
  0
APPID
  5
12
330
9
100
AcDbSymbolTableRecord
100
AcDbRegAppTableRecord
  2
ACAD
 70
     0
  0
ENDTAB
  0
TABLE
  2
DIMSTYLE
  5
A
330
0
100
AcDbSymbolTable
 70
     1
100
AcDbDimStyleTable
  0
DIMSTYLE
105
27
330
A
100
AcDbSymbolTableRecord
100
AcDbDimStyleTableRecord
  2
Standard
 70
     0
178
     0
340
11
  0
ENDTAB
  0
TABLE
  2
BLOCK_RECORD
  5
1
330
0
100
AcDbSymbolTable
 70
     5
  0
BLOCK_RECORD
  5
1F
330
1
100
AcDbSymbolTableRecord
100
AcDbBlockTableRecord
  2
*Model_Space
340
22
 70
     0
280
     1
281
     0
  0
BLOCK_RECORD
  5
1B
330
1
100
AcDbSymbolTableRecord
100
AcDbBlockTableRecord
  2
*Paper_Space
340
1E
 70
     0
280
     1
281
     0
  0
BLOCK_RECORD
  5
23
330
1
100
AcDbSymbolTableRecord
100
AcDbBlockTableRecord
  2
*Paper_Space0
340
26
 70
     0
280
     1
281
     0
  0
BLOCK_RECORD
  5
6E
330
1
100
AcDbSymbolTableRecord
100
AcDbBlockTableRecord
  2
1_124611_2
340
0
102
{BLKREFS
331
6F
102
}
 70
     0
280
     1
281
     0
  0
BLOCK_RECORD
  5
89
330
1
100
AcDbSymbolTableRecord
100
AcDbBlockTableRecord
  2
2_077921_0_in_124611_2
340
0
102
{BLKREFS
331
8A
102
}
 70
     0
280
     1
281
     0
  0
BLOCK_RECORD
  5
EA
330
1
100
AcDbSymbolTableRecord
100
AcDbBlockTableRecord
  2
3_405015E_Inch_0_in_124611_2
340
0
102
{BLKREFS
331
EB
102
}
 70
     0
280
     1
281
     0
  0
BLOCK_RECORD
  5
129
330
1
100
AcDbSymbolTableRecord
100
AcDbBlockTableRecord
  2
4_124611H_0_in_124611_2
340
0
102
{BLKREFS
331
12A
102
}
 70
     0
280
     1
281
     0
  0
ENDTAB
  0
ENDSEC
  0
SECTION
  2
BLOCKS
  0
BLOCK
  5
20
330
1F
100
AcDbEntity
  8
0
100
AcDbBlockBegin
  2
*Model_Space
 70
     0
 10
0.0
 20
0.0
 30
0.0
  3
*Model_Space
  1

  0
ENDBLK
  5
21
330
1F
100
AcDbEntity
  8
0
100
AcDbBlockEnd
  0
BLOCK
  5
1C
330
1B
100
AcDbEntity
 67
     1
  8
0
100
AcDbBlockBegin
  2
*Paper_Space
 70
     0
 10
0.0
 20
0.0
 30
0.0
  3
*Paper_Space
  1

  0
ENDBLK
  5
1D
330
1B
100
AcDbEntity
 67
     1
  8
0
100
AcDbBlockEnd
  0
BLOCK
  5
24
330
23
100
AcDbEntity
  8
0
100
AcDbBlockBegin
  2
*Paper_Space0
 70
     0
 10
0.0
 20
0.0
 30
0.0
  3
*Paper_Space0
  1

  0
ENDBLK
  5
25
330
23
100
AcDbEntity
  8
0
100
AcDbBlockEnd
  0
BLOCK
  5
70
330
6E
100
AcDbEntity
  8
0
100
AcDbBlockBegin
  2
1_124611_2
 70
     2
 10
0.0
 20
0.0
 30
0.0
  3
1_124611_2
  1

  0
ATTDEF
  5
73
330
6E
100
AcDbEntity
  8
AM_6
100
AcDbText
 10
5.025
 20
2.405000000000003
 30
0.0
 40
0.5
  1
Set Screw LF  Normal Duty 3-Bolt Flange Inch Bore
100
AcDbAttributeDefinition
  3

  2
NN
 70
     8
280
     0
  0
ATTDEF
  5
74
330
6E
100
AcDbEntity
  8
AM_6
100
AcDbText
 10
5.025
 20
1.905000000000003
 30
0.0
 40
0.5
  1
SC 3 Bolt Flange Bearings -(Normal Duty) -Re-Lube and No-Lube
100
AcDbAttributeDefinition
  3

  2
NT
 70
     8
280
     0
  0
ATTDEF
  5
75
330
6E
100
AcDbEntity
  8
AM_6
100
AcDbText
 10
5.025
 20
1.405000000000003
 30
0.0
 40
0.5
  1
124611
100
AcDbAttributeDefinition
  3

  2
NB
 70
     8
280
     0
  0
ATTDEF
  5
76
330
6E
100
AcDbEntity
  8
AM_6
100
AcDbText
 10
5.025
 20
0.9050000000000034
 30
0.0
 40
0.5
  1
$PN.
100
AcDbAttributeDefinition
  3

  2
NBSYN
 70
     8
280
     0
  0
ATTDEF
  5
77
330
6E
100
AcDbEntity
  8
AM_6
100
AcDbText
 10
5.025
 20
0.4050000000000034
 30
0.0
 40
0.5
  1
124611
100
AcDbAttributeDefinition
  3

  2
LINA
 70
     8
280
     0
  0
ATTDEF
  5
78
330
6E
100
AcDbEntity
  8
AM_6
100
AcDbText
 10
5.025
 20
-0.0949999999999966
 30
0.0
 40
0.5
  1
207
100
AcDbAttributeDefinition
  3

  2
SERIES
 70
     8
280
     0
  0
ATTDEF
  5
79
330
6E
100
AcDbEntity
  8
AM_6
100
AcDbText
 10
5.025
 20
-0.5949999999999966
 30
0.0
 40
0.5
  1
1-5/16
100
AcDbAttributeDefinition
  3

  2
SS
 70
     8
280
     0
  0
ATTDEF
  5
7A
330
6E
100
AcDbEntity
  8
AM_6
100
AcDbText
 10
5.025
 20
-1.094999999999997
 30
0.0
 40
0.5
  1
124611
100
AcDbAttributeDefinition
  3

  2
PN
 70
     8
280
     0
  0
ATTDEF
  5
7B
330
6E
100
AcDbEntity
  8
AM_6
100
AcDbText
 10
5.025
 20
-1.594999999999997
 30
0.0
 40
0.5
  1
LF-SC-105
100
AcDbAttributeDefinition
  3

  2
DESCRIPTION
 70
     8
280
     0
  0
ATTDEF
  5
7C
330
6E
100
AcDbEntity
  8
AM_6
100
AcDbText
 10
5.025
 20
-2.094999999999997
 30
0.0
 40
0.5
  1
2.05
100
AcDbAttributeDefinition
  3

  2
W
 70
     8
280
     0
  0
ATTDEF
  5
7D
330
6E
100
AcDbEntity
  8
AM_6
100
AcDbText
 10
5.025
 20
-2.594999999999997
 30
0.0
 40
0.5
  1
RE-LUBE
100
AcDbAttributeDefinition
  3

  2
LF
 70
     8
280
     0
  0
ATTDEF
  5
7E
330
6E
100
AcDbEntity
  8
AM_6
100
AcDbText
 10
5.025
 20
-3.094999999999997
 30
0.0
 40
0.5
  1
1.40
100
AcDbAttributeDefinition
  3

  2
A
 70
     8
280
     0
  0
ATTDEF
  5
7F
330
6E
100
AcDbEntity
  8
AM_6
100
AcDbText
 10
5.025
 20
-3.594999999999997
 30
0.0
 40
0.5
  1
4.81
100
AcDbAttributeDefinition
  3

  2
B
 70
     8
280
     0
  0
ATTDEF
  5
80
330
6E
100
AcDbEntity
  8
AM_6
100
AcDbText
 10
5.025
 20
-4.094999999999997
 30
0.0
 40
0.5
  1
1.59
100
AcDbAttributeDefinition
  3

  2
C
 70
     8
280
     0
  0
ATTDEF
  5
81
330
6E
100
AcDbEntity
  8
AM_6
100
AcDbText
 10
5.025
 20
-4.594999999999997
 30
0.0
 40
0.5
  1
3.94
100
AcDbAttributeDefinition
  3

  2
D
 70
     8
280
     0
  0
ATTDEF
  5
82
330
6E
100
AcDbEntity
  8
AM_6
100
AcDbText
 10
5.025
 20
-5.094999999999997
 30
0.0
 40
0.5
  1
0.41
100
AcDbAttributeDefinition
  3

  2
G
 70
     8
280
     0
  0
ATTDEF
  5
83
330
6E
100
AcDbEntity
  8
AM_6
100
AcDbText
 10
5.025
 20
-5.594999999999997
 30
0.0
 40
0.5
  1
0.50
100
AcDbAttributeDefinition
  3

  2
H
 70
     8
280
     0
  0
ATTDEF
  5
84
330
6E
100
AcDbEntity
  8
AM_6
100
AcDbText
 10
5.025
 20
-6.094999999999997
 30
0.0
 40
0.5
  1
0.52
100
AcDbAttributeDefinition
  3

  2
J
 70
     8
280
     0
  0
ATTDEF
  5
85
330
6E
100
AcDbEntity
  8
AM_6
100
AcDbText
 10
5.025
 20
-6.594999999999997
 30
0.0
 40
0.5
  1
1.84
100
AcDbAttributeDefinition
  3

  2
L
 70
     8
280
     0
  0
ATTDEF
  5
86
330
6E
100
AcDbEntity
  8
AM_6
100
AcDbText
 10
5.025
 20
-7.094999999999997
 30
0.0
 40
0.5
  1
2.41
100
AcDbAttributeDefinition
  3

  2
M
 70
     8
280
     0
  0
ATTDEF
  5
87
330
6E
100
AcDbEntity
  8
AM_6
100
AcDbText
 10
5.025
 20
-7.594999999999997
 30
0.0
 40
0.5
  1
2.14
100
AcDbAttributeDefinition
  3

  2
N
 70
     8
280
     0
  0
ATTDEF
  5
88
330
6E
100
AcDbEntity
  8
AM_6
100
AcDbText
 10
5.025
 20
-8.094999999999997
 30
0.0
 40
0.5
  1
baldor
100
AcDbAttributeDefinition
  3

  2
COMPANY
 70
     8
280
     0
  0
INSERT
  5
8A
330
6E
100
AcDbEntity
  8
0
100
AcDbBlockReference
  2
2_077921_0_in_124611_2
 10
0.0
 20
0.0
 30
0.0
  0
INSERT
  5
EB
330
6E
100
AcDbEntity
  8
0
100
AcDbBlockReference
  2
3_405015E_Inch_0_in_124611_2
 10
0.0
 20
0.0
 30
0.0
  0
INSERT
  5
12A
330
6E
100
AcDbEntity
  8
0
100
AcDbBlockReference
  2
4_124611H_0_in_124611_2
 10
0.0
 20
0.0
 30
0.0
  0
ENDBLK
  5
71
330
6E
100
AcDbEntity
  8
0
100
AcDbBlockEnd
  0
BLOCK
  5
8B
330
89
100
AcDbEntity
  8
0
100
AcDbBlockBegin
  2
2_077921_0_in_124611_2
 70
     2
 10
0.0
 20
0.0
 30
0.0
  3
2_077921_0_in_124611_2
  1

  0
ATTDEF
  5
8D
330
89
100
AcDbEntity
  8
AM_6
100
AcDbText
 10
4.815
 20
1.416645210866031
 30
0.0
 40
0.5
  1
Set Screw Light Duty Insert with Pin Inch Bore
100
AcDbAttributeDefinition
  3

  2
NN
 70
     8
280
     0
  0
ATTDEF
  5
8E
330
89
100
AcDbEntity
  8
AM_6
100
AcDbText
 10
4.815
 20
0.916645210866031
 30
0.0
 40
0.5
  1
SCP Bearing Inserts
100
AcDbAttributeDefinition
  3

  2
NT
 70
     8
280
     0
  0
ATTDEF
  5
8F
330
89
100
AcDbEntity
  8
AM_6
100
AcDbText
 10
4.815
 20
0.416645210866031
 30
0.0
 40
0.5
  1
077921
100
AcDbAttributeDefinition
  3

  2
NB
 70
     8
280
     0
  0
ATTDEF
  5
90
330
89
100
AcDbEntity
  8
AM_6
100
AcDbText
 10
4.815
 20
-0.083354789133969
 30
0.0
 40
0.5
  1
$PN.
100
AcDbAttributeDefinition
  3

  2
NBSYN
 70
     8
280
     0
  0
ATTDEF
  5
91
330
89
100
AcDbEntity
  8
AM_6
100
AcDbText
 10
4.815
 20
-0.583354789133969
 30
0.0
 40
0.5
  1
077921
100
AcDbAttributeDefinition
  3

  2
LINA
 70
     8
280
     0
  0
ATTDEF
  5
92
330
89
100
AcDbEntity
  8
AM_6
100
AcDbText
 10
4.815
 20
-1.083354789133969
 30
0.0
 40
0.5
  1
207
100
AcDbAttributeDefinition
  3

  2
SERIES
 70
     8
280
     0
  0
ATTDEF
  5
93
330
89
100
AcDbEntity
  8
AM_6
100
AcDbText
 10
4.815
 20
-1.583354789133969
 30
0.0
 40
0.5
  1
1-5/16
100
AcDbAttributeDefinition
  3

  2
SS
 70
     8
280
     0
  0
ATTDEF
  5
94
330
89
100
AcDbEntity
  8
AM_6
100
AcDbText
 10
4.815
 20
-2.083354789133969
 30
0.0
 40
0.5
  1
077921
100
AcDbAttributeDefinition
  3

  2
PN
 70
     8
280
     0
  0
ATTDEF
  5
95
330
89
100
AcDbEntity
  8
AM_6
100
AcDbText
 10
4.815
 20
-2.583354789133969
 30
0.0
 40
0.5
  1
INS-SCP-105
100
AcDbAttributeDefinition
  3

  2
DESCRIPTION
 70
     8
280
     0
  0
ATTDEF
  5
96
330
89
100
AcDbEntity
  8
AM_6
100
AcDbText
 10
4.815
 20
-3.083354789133969
 30
0.0
 40
0.5
  1
1.40
100
AcDbAttributeDefinition
  3

  2
A
 70
     8
280
     0
  0
ATTDEF
  5
97
330
89
100
AcDbEntity
  8
AM_6
100
AcDbText
 10
4.815
 20
-3.583354789133969
 30
0.0
 40
0.5
  1
0.75
100
AcDbAttributeDefinition
  3

  2
C
 70
     8
280
     0
  0
ATTDEF
  5
98
330
89
100
AcDbEntity
  8
AM_6
100
AcDbText
 10
4.815
 20
-4.083354789133969
 30
0.0
 40
0.5
  1
2.8346
100
AcDbAttributeDefinition
  3

  2
D
 70
     8
280
     0
  0
ATTDEF
  5
99
330
89
100
AcDbEntity
  8
AM_6
100
AcDbText
 10
4.815
 20
-4.583354789133969
 30
0.0
 40
0.5
  1
0.20
100
AcDbAttributeDefinition
  3

  2
J
 70
     8
280
     0
  0
ATTDEF
  5
9A
330
89
100
AcDbEntity
  8
AM_6
100
AcDbText
 10
4.815
 20
-5.083354789133969
 30
0.0
 40
0.5
  1
1.84
100
AcDbAttributeDefinition
  3

  2
L
 70
     8
280
     0
  0
ATTDEF
  5
9B
330
89
100
AcDbEntity
  8
AM_6
100
AcDbText
 10
4.815
 20
-5.583354789133969
 30
0.0
 40
0.5
  1
5/16 - 24
100
AcDbAttributeDefinition
  3

  2
N
 70
     8
280
     0
  0
ATTDEF
  5
9C
330
89
100
AcDbEntity
  8
AM_6
100
AcDbText
 10
4.815
 20
-6.083354789133969
 30
0.0
 40
0.5
  1
0.37
100
AcDbAttributeDefinition
  3

  2
W
 70
     8
280
     0
  0
ATTDEF
  5
9D
330
89
100
AcDbEntity
  8
AM_6
100
AcDbText
 10
4.815
 20
-6.583354789133969
 30
0.0
 40
0.5
  1
1.03
100
AcDbAttributeDefinition
  3

  2
Y
 70
     8
280
     0
  0
ATTDEF
  5
9E
330
89
100
AcDbEntity
  8
AM_6
100
AcDbText
 10
4.815
 20
-7.083354789133969
 30
0.0
 40
0.5
  1
baldor
100
AcDbAttributeDefinition
  3

  2
COMPANY
 70
     8
280
     0
  0
CIRCLE
  5
A1
330
89
100
AcDbEntity
  8
AM_9
100
AcDbCircle
 10
-0.3600000000000001
 20
-0.0000000000000001
 30
0.0
 40
0.0359848484848541
  0
LINE
  5
A2
330
89
100
AcDbEntity
  8
AM_9
100
AcDbLine
 10
-1.296104896785825
 20
0.6448774391990978
 30
0.0
 11
-1.228895103214175
 21
0.6448774391990978
 31
0.0
  0
LINE
  5
A3
330
89
100
AcDbEntity
  8
AM_9
100
AcDbLine
 10
-1.1363
 20
0.6562500000000001
 30
0.0
 11
-1.1363
 21
0.8991344012334843
 31
0.0
  0
LINE
  5
A4
330
89
100
AcDbEntity
  8
AM_9
100
AcDbLine
 10
-1.3887
 20
0.8991344012334843
 30
0.0
 11
-1.3887
 21
0.6562500000000001
 31
0.0
  0
LINE
  5
A5
330
89
100
AcDbEntity
  8
AM_9
100
AcDbLine
 10
-1.1363
 20
0.8991344012334843
 30
0.0
 11
-1.115434401233481
 21
0.9200000000000033
 31
0.0
  0
LINE
  5
A6
330
89
100
AcDbEntity
  8
AM_9
100
AcDbLine
 10
-1.409565598766519
 20
0.9200000000000033
 30
0.0
 11
-1.3887
 21
0.8991344012334843
 31
0.0
  0
LINE
  5
A7
330
89
100
AcDbEntity
  8
AM_9
100
AcDbLine
 10
-1.3887
 20
0.8991344012334843
 30
0.0
 11
-1.1363
 21
0.8991344012334843
 31
0.0
  0
LWPOLYLINE
  5
A8
330
89
100
AcDbEntity
  8
AM_9
100
AcDbPolyline
 90
        6
 70
     0
 43
0.0
 10
-1.296104896785825
 20
0.6448774391990978
 10
-1.295815385033102
 20
0.6448587619786377
 10
-1.277925401417849
 20
0.644016762078966
 10
-1.258881862323706
 20
0.6437991935394508
 10
-1.243677308706523
 20
0.6441316847575984
 10
-1.228895103214175
 20
0.6448774391990978
  0
LWPOLYLINE
  5
A9
330
89
100
AcDbEntity
  8
AM_9
100
AcDbPolyline
 90
        9
 70
     0
 43
0.0
 10
-1.228895103214175
 20
0.6448774391990978
 10
-1.209229360516126
 20
0.6462007300607303
 10
-1.190551917025706
 20
0.6480078310820603
 10
-1.174426490487109
 20
0.6499958196618785
 10
-1.160364157616217
 20
0.6520501152514624
 10
-1.149457630408033
 20
0.6538472297279901
 10
-1.141512021843939
 20
0.6552676654301596
 10
-1.137244552356385
 20
0.6560690128823359
 10
-1.136300000001034
 20
0.6562499999998013
  0
LWPOLYLINE
  5
AA
330
89
100
AcDbEntity
  8
AM_9
100
AcDbPolyline
 90
        5
 70
     0
 43
0.0
 10
-1.296104896785828
 20
0.1622904945165377
 10
-1.278396934805637
 20
0.1579410874735631
 10
-1.260812674623225
 20
0.1567249889516314
 10
-1.242715238633665
 20
0.158620661830821
 10
-1.228895103214172
 20
0.1622904945165377
  0
LWPOLYLINE
  5
AB
330
89
100
AcDbEntity
  8
AM_9
100
AcDbPolyline
 90
        6
 70
     0
 43
0.0
 10
-1.228895103214173
 20
0.3827834702636952
 10
-1.243883012353722
 20
0.3860346617008367
 10
-1.259678640541896
 20
0.3874086206961279
 10
-1.276735398883742
 20
0.3866210267007181
 10
-1.29387696834165
 20
0.383393101492795
 10
-1.296104896785827
 20
0.3827834702636952
  0
LINE
  5
AC
330
89
100
AcDbEntity
  8
AM_9
100
AcDbLine
 10
-0.6954999999999999
 20
0.6562500000000001
 30
0.0
 11
-1.1363
 21
0.6562500000000001
 31
0.0
  0
LINE
  5
AD
330
89
100
AcDbEntity
  8
AM_9
100
AcDbLine
 10
-1.3887
 20
0.65625
 30
0.0
 11
-1.5532
 21
0.6562500000000001
 31
0.0
  0
LINE
  5
AE
330
89
100
AcDbEntity
  8
AM_9
100
AcDbLine
 10
-1.5532
 20
-0.6562500000000001
 30
0.0
 11
-0.6955
 21
-0.6562500000000001
 31
0.0
  0
LWPOLYLINE
  5
AF
330
89
100
AcDbEntity
  8
AM_9
100
AcDbPolyline
 90
       10
 70
     0
 43
0.0
 10
-1.388699999998966
 20
0.6562499999998013
 10
-1.388550725809892
 20
0.6562213102126452
 10
-1.385867623353816
 20
0.6557112115801964
 10
-1.379677117512335
 20
0.6545747469682127
 10
-1.370477740116799
 20
0.6529906698113926
 10
-1.358031526472869
 20
0.6510483046980743
 10
-1.343095782308761
 20
0.6490248859835509
 10
-1.325414407246656
 20
0.6470671102282964
 10
-1.311273761454532
 20
0.6458455715621373
 10
-1.296104896785825
 20
0.6448774391990978
  0
LINE
  5
B0
330
89
100
AcDbEntity
  8
AM_9
100
AcDbLine
 10
-0.2268
 20
-0.6562500000000001
 30
0.0
 11
-0.2268
 21
0.6562500000000001
 31
0.0
  0
LINE
  5
B1
330
89
100
AcDbEntity
  8
AM_9
100
AcDbLine
 10
-0.2268
 20
-0.6562500000000001
 30
0.0
 11
-0.19
 21
-0.6930499999999991
 31
0.0
  0
LINE
  5
B2
330
89
100
AcDbEntity
  8
AM_9
100
AcDbLine
 10
-0.19
 20
0.6930499999999991
 30
0.0
 11
-0.2268
 21
0.6562500000000001
 31
0.0
  0
LINE
  5
B3
330
89
100
AcDbEntity
  8
AM_9
100
AcDbLine
 10
-1.5532
 20
0.65625
 30
0.0
 11
-1.59
 21
0.6930499999999991
 31
0.0
  0
LINE
  5
B4
330
89
100
AcDbEntity
  8
AM_9
100
AcDbLine
 10
-1.59
 20
-0.6930499999999991
 30
0.0
 11
-1.5532
 21
-0.65625
 31
0.0
  0
ELLIPSE
  5
B5
330
89
100
AcDbEntity
  8
AM_9
100
AcDbEllipse
 10
-1.2625
 20
0.272536982390116
 30
0.0
 11
0.1261999999999985
 21
0.0
 31
0.0
210
0.0
220
0.0
230
1.0
 40
0.9063077870366587
 41
4.442854390760793
 42
4.981923570008587
  0
LWPOLYLINE
  5
B6
330
89
100
AcDbEntity
  8
AM_9
100
AcDbPolyline
 90
        5
 70
     0
 43
0.0
 10
-1.374830558557565
 20
0.3284046674542643
 10
-1.375542369591968
 20
0.3271769183212732
 10
-1.383487978156061
 20
0.3094587135108108
 10
-1.387755447643615
 20
0.291234264259115
 10
-1.388699999235381
 20
0.277330643703173
  0
LWPOLYLINE
  5
B7
330
89
100
AcDbEntity
  8
AM_9
100
AcDbPolyline
 90
        9
 70
     0
 43
0.0
 10
-1.228895103214172
 20
0.1622904945165377
 10
-1.209229360516123
 20
0.1694093939537172
 10
-1.190551917025703
 20
0.1798923304824954
 10
-1.174426490487107
 20
0.1927832299657731
 10
-1.160364157616214
 20
0.2083870351152117
 10
-1.149457630408031
 20
0.225478641021958
 10
-1.141512021843938
 20
0.2443974499671509
 10
-1.137244552356384
 20
0.2632992273534246
 10
-1.136300000764619
 20
0.2773558247072116
  0
LINE
  5
B8
330
89
100
AcDbEntity
  8
AM_9
100
AcDbLine
 10
-1.1363
 20
0.2773128214768508
 30
0.0
 11
-1.1363
 21
0.3799906177205598
 31
0.0
  0
LINE
  5
B9
330
89
100
AcDbEntity
  8
AM_9
100
AcDbLine
 10
-1.3887
 20
0.3799906177205598
 30
0.0
 11
-1.3887
 21
0.2773128214768508
 31
0.0
  0
LWPOLYLINE
  5
BA
330
89
100
AcDbEntity
  8
AM_9
100
AcDbPolyline
 90
       10
 70
     0
 43
0.0
 10
-1.388699999235381
 20
0.277330643703173
 10
-1.388550725809892
 20
0.2717697074800761
 10
-1.385867623353815
 20
0.2530195113029459
 10
-1.379677117512334
 20
0.2341646576656242
 10
-1.370477740116798
 20
0.2167619747128602
 10
-1.358031526472868
 20
0.2004079279545805
 10
-1.343095782308759
 20
0.1862763171263715
 10
-1.325414407246653
 20
0.1743128962906628
 10
-1.311273761454532
 20
0.1674573560871685
 10
-1.296104896785828
 20
0.1622904945165377
  0
LWPOLYLINE
  5
BB
330
89
100
AcDbEntity
  8
AM_9
100
AcDbPolyline
 90
        5
 70
     0
 43
0.0
 10
-1.136300000764619
 20
0.2773558247072116
 10
-1.136449274190108
 20
0.2828925113984697
 10
-1.139132376646185
 20
0.301211553580876
 10
-1.145322882487666
 20
0.3191058258205049
 10
-1.15001509946425
 20
0.3281417902605764
  0
LINE
  5
BC
330
89
100
AcDbEntity
  8
AM_9
100
AcDbLine
 10
-0.19
 20
-0.9200000000000035
 30
0.0
 11
-0.19
 21
0.9200000000000035
 31
0.0
  0
LINE
  5
BD
330
89
100
AcDbEntity
  8
AM_9
100
AcDbLine
 10
-0.1849999999999999
 20
0.9200000000000035
 30
0.0
 11
-0.19
 21
0.9200000000000035
 31
0.0
  0
LINE
  5
BE
330
89
100
AcDbEntity
  8
AM_9
100
AcDbLine
 10
-0.19
 20
-0.9200000000000035
 30
0.0
 11
-0.1849999999999999
 21
-0.9200000000000035
 31
0.0
  0
LINE
  5
BF
330
89
100
AcDbEntity
  8
AM_9
100
AcDbLine
 10
-0.9350000000000002
 20
0.9200000000000033
 30
0.0
 11
-1.07
 21
0.9200000000000033
 31
0.0
  0
LINE
  5
C0
330
89
100
AcDbEntity
  8
AM_9
100
AcDbLine
 10
-1.07
 20
-0.9200000000000033
 30
0.0
 11
-0.9350000000000002
 21
-0.9200000000000033
 31
0.0
  0
LINE
  5
C1
330
89
100
AcDbEntity
  8
AM_9
100
AcDbLine
 10
-1.119417673332221
 20
0.9194581751648994
 30
0.0
 11
-1.115434401233663
 21
0.9199999999999782
 31
0.0
  0
LINE
  5
C2
330
89
100
AcDbEntity
  8
AM_9
100
AcDbLine
 10
-1.169788577699067
 20
0.9138577643927666
 30
0.0
 11
-1.155954270308016
 21
0.9151628589167367
 31
0.0
  0
LINE
  5
C3
330
89
100
AcDbEntity
  8
AM_9
100
AcDbLine
 10
-0.7200000000000001
 20
1.350633333333336
 30
0.0
 11
-0.8
 21
1.350633333333336
 31
0.0
  0
LINE
  5
C4
330
89
100
AcDbEntity
  8
AM_9
100
AcDbLine
 10
-0.8
 20
-1.350633333333336
 30
0.0
 11
-0.7200000000000001
 21
-1.350633333333336
 31
0.0
  0
LINE
  5
C5
330
89
100
AcDbEntity
  8
AM_9
100
AcDbLine
 10
-0.935
 20
-1.335937981344939
 30
0.0
 11
-0.935
 21
1.335937981344939
 31
0.0
  0
ARC
  5
C6
330
89
100
AcDbEntity
  8
AM_9
100
AcDbCircle
 10
-0.8949999999999994
 20
1.335937981344942
 30
0.0
 40
0.0400000000000008
100
AcDbArc
 50
104.0772272067153
 51
180.0
  0
ARC
  5
C7
330
89
100
AcDbEntity
  8
AM_9
100
AcDbCircle
 10
-0.8949999999999994
 20
-1.335937981344942
 30
0.0
 40
0.0400000000000007
100
AcDbArc
 50
180.0
 51
255.9227727932847
  0
LINE
  5
C8
330
89
100
AcDbEntity
  8
AM_9
100
AcDbLine
 10
-0.1849999999999999
 20
-1.335937981344939
 30
0.0
 11
-0.1849999999999999
 21
1.335937981344939
 31
0.0
  0
ARC
  5
C9
330
89
100
AcDbEntity
  8
AM_9
100
AcDbCircle
 10
-0.2249999999999997
 20
1.335937981344943
 30
0.0
 40
0.0399999999999997
100
AcDbArc
 50
0.0
 51
75.92277279328535
  0
ARC
  5
CA
330
89
100
AcDbEntity
  8
AM_9
100
AcDbCircle
 10
-0.2249999999999997
 20
-1.335937981344943
 30
0.0
 40
0.0399999999999998
100
AcDbArc
 50
284.0772272067147
 51
0.0
  0
LINE
  5
CB
330
89
100
AcDbEntity
  8
AM_9
100
AcDbLine
 10
-0.8
 20
-1.396831876068249
 30
0.0
 11
-0.8
 21
1.396831876068125
 31
0.0
  0
LINE
  5
CC
330
89
100
AcDbEntity
  8
AM_9
100
AcDbLine
 10
-0.9047291802802594
 20
-1.374736731983124
 30
0.0
 11
-0.9047291802802594
 21
1.374736731983
 31
0.0
  0
ARC
  5
CD
330
89
100
AcDbEntity
  8
AM_9
100
AcDbCircle
 10
-0.5599999999999634
 20
-0.0000000000001938
 30
0.0
 40
1.417300000000197
100
AcDbArc
 50
99.74921852491417
 51
104.0772272067128
  0
ARC
  5
CE
330
89
100
AcDbEntity
  8
AM_9
100
AcDbCircle
 10
-0.5600000000348979
 20
-0.0000000001655061
 30
0.0
 40
1.417299999831096
100
AcDbArc
 50
255.9227727930289
 51
260.2507814753442
  0
LINE
  5
CF
330
89
100
AcDbEntity
  8
AM_9
100
AcDbLine
 10
-0.2152708197197403
 20
-1.374736731983004
 30
0.0
 11
-0.2152708197197403
 21
1.374736731983001
 31
0.0
  0
LINE
  5
D0
330
89
100
AcDbEntity
  8
AM_9
100
AcDbLine
 10
-0.7200000000000001
 20
-1.408239784269713
 30
0.0
 11
-0.7200000000000001
 21
1.40823978426971
 31
0.0
  0
LWPOLYLINE
  5
D1
330
89
100
AcDbEntity
  8
AM_9
100
AcDbPolyline
 90
       38
 70
     0
 43
0.0
 10
-0.2859967922072937
 20
-0.0733090695673681
 10
-0.2748131249909112
 20
-0.0599310171066383
 10
-0.2659882035026102
 20
-0.0448606349016239
 10
-0.2598167033068386
 20
-0.0284914851313755
 10
-0.2564490457897958
 20
-0.0113090373860745
 10
-0.2560228347120186
 20
0.0061022576709196
 10
-0.2584820206779199
 20
0.0233408294369576
 10
-0.2637767644038609
 20
0.0398702619586302
 10
-0.2717136794229901
 20
0.0552830900313727
 10
-0.2821438908022223
 20
0.0691882686459152
 10
-0.2947052559429562
 20
0.0811621269002271
 10
-0.3092023188279917
 20
0.0909295979488138
 10
-0.3250976704722779
 20
0.0981454117011168
 10
-0.342130115065747
 20
0.1026120461848803
 10
-0.3596605952223363
 20
0.1041661137262993
 10
-0.3773109223883113
 20
0.1027075493915762
 10
-0.3944737599936934
 20
0.098296766560964
 10
-0.4106506733218261
 20
0.0910107746588352
 10
-0.4253879334765543
 20
0.0810870680201791
 10
-0.4381574669305717
 20
0.068846426662978
 10
-0.4487042786824498
 20
0.0546099385448265
 10
-0.4566130417148702
 20
0.0389146328695838
 10
-0.4617953028680221
 20
0.0221000171595211
 10
-0.4640456554544972
 20
0.0047930649003384
 10
-0.4633956986328266
 20
-0.0126500572596788
 10
-0.4598447158730419
 20
-0.0296574113433189
 10
-0.453542204951865
 20
-0.0458317612271964
 10
-0.4446160078597195
 20
-0.060734730368683
 10
-0.4333713885389722
 20
-0.0739414213300411
 10
-0.4199962378094196
 20
-0.0851413307776411
 10
-0.4049737691013006
 20
-0.0939577273951769
 10
-0.3885445682806709
 20
-0.100168785341194
 10
-0.3713246867639609
 20
-0.1035492439090776
 10
-0.3536503237091709
 20
-0.1039625547173264
 10
-0.3361547823716715
 20
-0.1014006905336503
 10
-0.3192973983619223
 20
-0.0958737209546706
 10
-0.3035950133838656
 20
-0.0875738084662141
 10
-0.2859967922072943
 20
-0.0733090695673671
  0
ARC
  5
D2
330
89
100
AcDbEntity
  8
AM_9
100
AcDbCircle
 10
-0.5599999999999975
 20
0.0000000000000078
 30
0.0
 40
1.417299999999992
100
AcDbArc
 50
75.92277279328674
 51
96.48197920051814
  0
ARC
  5
D3
330
89
100
AcDbEntity
  8
AM_9
100
AcDbCircle
 10
-0.5600000000000954
 20
0.0000000000014515
 30
0.0
 40
1.417300000001435
100
AcDbArc
 50
263.5180207994925
 51
284.0772272067027
  0
LINE
  5
D5
330
89
100
AcDbEntity
  8
AM_5
100
AcDbLine
 10
-1.10625
 20
0.6562500000000001
 30
0.0
 11
-1.10625
 21
0.9200000000000033
 31
0.0
  0
LINE
  5
D6
330
89
100
AcDbEntity
  8
AM_5
100
AcDbLine
 10
-1.41875
 20
0.6562500000000001
 30
0.0
 11
-1.41875
 21
0.9200000000000033
 31
0.0
  0
LINE
  5
D9
330
89
100
AcDbEntity
  8
AM_7
100
AcDbLine
 10
-0.3600000000000001
 20
-0.0377840909090969
 30
0.0
 11
-0.3600000000000001
 21
0.0377840909090967
 31
0.0
  0
LINE
  5
DA
330
89
100
AcDbEntity
  8
AM_7
100
AcDbLine
 10
-1.2625
 20
0.9449022493352044
 30
0.0
 11
-1.2625
 21
0.5991095910973782
 31
0.0
  0
LWPOLYLINE
  5
DC
330
89
100
AcDbEntity
  8
AM_4
100
AcDbPolyline
 90
        6
 70
     0
 43
0.0
 10
-1.296104896785827
 20
0.3827834702636952
 10
-1.315770639483876
 20
0.3767830645939569
 10
-1.334448082974296
 20
0.3678275558500276
 10
-1.350573509512893
 20
0.3566169769226764
 10
-1.364635842383785
 20
0.3427495374355808
 10
-1.374830558557565
 20
0.3284046674542643
  0
ELLIPSE
  5
DD
330
89
100
AcDbEntity
  8
AM_4
100
AcDbEllipse
 10
-1.2625
 20
0.2725369823901175
 30
0.0
 11
0.1261999999999994
 21
0.0
 31
0.0
210
0.0
220
0.0
230
1.0
 40
0.9063077870366449
 41
1.301261737171011
 42
1.840330916418783
  0
LWPOLYLINE
  5
DE
330
89
100
AcDbEntity
  8
AM_4
100
AcDbPolyline
 90
        7
 70
     0
 43
0.0
 10
-1.15001509946425
 20
0.3281417902605764
 10
-1.154522259883203
 20
0.3351695889043119
 10
-1.166968473527133
 20
0.3498818777268788
 10
-1.181904217691242
 20
0.3623032211552767
 10
-1.199585592753347
 20
0.3726118584178578
 10
-1.213726238545469
 20
0.3784349095258697
 10
-1.228895103214173
 20
0.3827834702636953
  0
LINE
  5
DF
330
89
100
AcDbEntity
  8
AM_4
100
AcDbLine
 10
-1.59
 20
-0.8832000000000186
 30
0.0
 11
-1.59
 21
0.8832000000000186
 31
0.0
  0
LINE
  5
E0
330
89
100
AcDbEntity
  8
AM_4
100
AcDbLine
 10
-1.59
 20
-0.8832000000000186
 30
0.0
 11
-1.5532
 21
-0.9200000000000033
 31
0.0
  0
LINE
  5
E1
330
89
100
AcDbEntity
  8
AM_4
100
AcDbLine
 10
-1.5532
 20
0.9200000000000033
 30
0.0
 11
-1.59
 21
0.8832000000000186
 31
0.0
  0
LWPOLYLINE
  5
E2
330
89
100
AcDbEntity
  8
AM_4
100
AcDbPolyline
 90
       15
 70
     0
 43
0.0
 10
-1.161181436945873
 20
0.9146488251145454
 10
-1.177665520411491
 20
0.9131944045002973
 10
-1.196148849922973
 20
0.9118664206444597
 10
-1.219161533917058
 20
0.91066393293074
 10
-1.243934510606998
 20
0.9099320433193467
 10
-1.269472836219388
 20
0.9097906312692718
 10
-1.295533746749209
 20
0.9102884650377346
 10
-1.320212878870608
 20
0.9113562279751243
 10
-1.343921619890414
 20
0.9129250269810686
 10
-1.364171519129669
 20
0.9146827359321371
 10
-1.381958485962769
 20
0.9165410330040054
 10
-1.394840127737692
 20
0.9180686091478671
 10
-1.404160962320536
 20
0.9192683051297227
 10
-1.408670857433108
 20
0.9198770455097914
 10
-1.409565598766269
 20
0.9199999999999687
  0
LINE
  5
E3
330
89
100
AcDbEntity
  8
AM_4
100
AcDbLine
 10
-1.5532
 20
-0.9200000000000033
 30
0.0
 11
-1.5532
 21
0.9200000000000033
 31
0.0
  0
LWPOLYLINE
  5
E4
330
89
100
AcDbEntity
  8
AM_4
100
AcDbPolyline
 90
       39
 70
     0
 43
0.0
 10
-1.148181045506501
 20
0.3091885037541539
 10
-1.1632430278298
 20
0.2950510486911139
 10
-1.180321311136059
 20
0.2830645507915479
 10
-1.201893936589426
 20
0.2722834068569497
 10
-1.224990016206058
 20
0.2648730527552926
 10
-1.250271436111227
 20
0.2609462250451966
 10
-1.275883513758397
 20
0.2610243602428606
 10
-1.301682551788673
 20
0.265296248308088
 10
-1.326363488785777
 20
0.2736399016458386
 10
-1.349029612987298
 20
0.2858052004659363
 10
-1.369126402177821
 20
0.3014495149645889
 10
-1.385288382379949
 20
0.3193815819164507
 10
-1.397772507269628
 20
0.3395741914747157
 10
-1.405509271021249
 20
0.3597751441048882
 10
-1.409251428214753
 20
0.3807051674267996
 10
-1.408915272804937
 20
0.4002563442136361
 10
-1.404962702658041
 20
0.4192695073061615
 10
-1.397653817021674
 20
0.4369242676729601
 10
-1.387272845786924
 20
0.4531529019011836
 10
-1.373515392485013
 20
0.4681877960755442
 10
-1.357229582829812
 20
0.4810673349725821
 10
-1.337457133478138
 20
0.4922448427626715
 10
-1.315860593716519
 20
0.5005888649357709
 10
-1.291518136157758
 20
0.5062097848663824
 10
-1.266409107381795
 20
0.5084562217858019
 10
-1.240379765203141
 20
0.5071687717835871
 10
-1.214971790725203
 20
0.5022727760826745
 10
-1.190858343108491
 20
0.4937546615554508
 10
-1.168847016853461
 20
0.4817850178289659
 10
-1.150195986554995
 20
0.4669664099943619
 10
-1.134921853000828
 20
0.4493423204667695
 10
-1.124312161668641
 20
0.4306161545622689
 10
-1.117691392977301
 20
0.4102787858297282
 10
-1.115466099925212
 20
0.3905559799310272
 10
-1.117025016981391
 20
0.3705627994067989
 10
-1.122098738103953
 20
0.3516251298922318
 10
-1.13042433990247
 20
0.333521603645628
 10
-1.138558780618553
 20
0.3209113014001787
 10
-1.148181044566818
 20
0.3091885024179671
  0
LINE
  5
E5
330
89
100
AcDbEntity
  8
AM_4
100
AcDbLine
 10
-1.07
 20
0.9200000000000033
 30
0.0
 11
-1.115434401233481
 21
0.9200000000000033
 31
0.0
  0
LINE
  5
E6
330
89
100
AcDbEntity
  8
AM_4
100
AcDbLine
 10
-1.409565598766519
 20
0.9200000000000033
 30
0.0
 11
-1.5532
 21
0.9200000000000033
 31
0.0
  0
LINE
  5
E7
330
89
100
AcDbEntity
  8
AM_4
100
AcDbLine
 10
-1.5532
 20
-0.9200000000000033
 30
0.0
 11
-1.07
 21
-0.9200000000000033
 31
0.0
  0
LWPOLYLINE
  5
E8
330
89
100
AcDbEntity
  8
AM_4
100
AcDbPolyline
 90
        7
 70
     0
 43
0.0
 10
-1.115434401233663
 20
0.9199999999999782
 10
-1.116252102019539
 20
0.9198876039379064
 10
-1.120579453697294
 20
0.919302844674918
 10
-1.128066968576812
 20
0.918331114429548
 10
-1.138862165043329
 20
0.9170199877773115
 10
-1.149186170604419
 20
0.9158660245799308
 10
-1.161181436945873
 20
0.9146488251145454
  0
ELLIPSE
  5
E9
330
89
100
AcDbEntity
  8
AM_4
100
AcDbEllipse
 10
-1.2625
 20
0.3799906177205599
 30
0.0
 11
0.1262000000000001
 21
0.0
 31
0.0
210
0.0
220
0.0
230
1.0
 40
0.9063077870366507
 41
0.0
 42
6.283185307179586
  0
ENDBLK
  5
8C
330
89
100
AcDbEntity
  8
0
100
AcDbBlockEnd
  0
BLOCK
  5
EC
330
EA
100
AcDbEntity
  8
0
100
AcDbBlockBegin
  2
3_405015E_Inch_0_in_124611_2
 70
     2
 10
0.0
 20
0.0
 30
0.0
  3
3_405015E_Inch_0_in_124611_2
  1

  0
ATTDEF
  5
EE
330
EA
100
AcDbEntity
  8
AM_6
100
AcDbText
 10
4.562590742770461
 20
-1.468
 30
0.0
 40
0.5
  1
405015E -Inch
100
AcDbAttributeDefinition
  3

  2
NN
 70
     8
280
     0
  0
ATTDEF
  5
EF
330
EA
100
AcDbEntity
  8
AM_6
100
AcDbText
 10
4.562590742770461
 20
-1.968
 30
0.0
 40
0.5
  1
Grease Fitting
100
AcDbAttributeDefinition
  3

  2
NT
 70
     8
280
     0
  0
ATTDEF
  5
F0
330
EA
100
AcDbEntity
  8
AM_6
100
AcDbText
 10
4.562590742770461
 20
-2.468
 30
0.0
 40
0.5
  1
405015E-Inch
100
AcDbAttributeDefinition
  3

  2
NB
 70
     8
280
     0
  0
ATTDEF
  5
F1
330
EA
100
AcDbEntity
  8
AM_6
100
AcDbText
 10
4.562590742770461
 20
-2.968
 30
0.0
 40
0.5
  1
$MN.-Inch
100
AcDbAttributeDefinition
  3

  2
NBSYN
 70
     8
280
     0
  0
ATTDEF
  5
F2
330
EA
100
AcDbEntity
  8
AM_6
100
AcDbText
 10
4.562590742770461
 20
-3.468
 30
0.0
 40
0.5
  1
405015E
100
AcDbAttributeDefinition
  3

  2
LINA
 70
     8
280
     0
  0
ATTDEF
  5
F3
330
EA
100
AcDbEntity
  8
AM_6
100
AcDbText
 10
4.562590742770461
 20
-3.968
 30
0.0
 40
0.5
  1
405015E
100
AcDbAttributeDefinition
  3

  2
MN
 70
     8
280
     0
  0
ATTDEF
  5
F4
330
EA
100
AcDbEntity
  8
AM_6
100
AcDbText
 10
4.562590742770461
 20
-4.468
 30
0.0
 40
0.5
  1
1/8 x 27PTF
100
AcDbAttributeDefinition
  3

  2
T
 70
     8
280
     0
  0
ATTDEF
  5
F5
330
EA
100
AcDbEntity
  8
AM_6
100
AcDbText
 10
4.562590742770461
 20
-4.968
 30
0.0
 40
0.5
  1
baldor
100
AcDbAttributeDefinition
  3

  2
COMPANY
 70
     8
280
     0
  0
LINE
  5
F6
330
EA
100
AcDbEntity
  8
AM_9
100
AcDbLine
 10
-0.5280971275277311
 20
-1.5
 30
0.0
 11
-0.851902872472269
 21
-1.5
 31
0.0
  0
LINE
  5
F7
330
EA
100
AcDbEntity
  8
AM_9
100
AcDbLine
 10
-0.851902872472269
 20
-1.5
 30
0.0
 11
-0.8886176267812154
 21
-1.536714754308946
 31
0.0
  0
LINE
  5
F8
330
EA
100
AcDbEntity
  8
AM_9
100
AcDbLine
 10
-0.4913823732187846
 20
-1.536714754308946
 30
0.0
 11
-0.5280971275277311
 21
-1.5
 31
0.0
  0
LINE
  5
F9
330
EA
100
AcDbEntity
  8
AM_9
100
AcDbLine
 10
-0.4913823732187846
 20
-1.536714754308946
 30
0.0
 11
-0.8886176267812154
 21
-1.536714754308946
 31
0.0
  0
LINE
  5
FA
330
EA
100
AcDbEntity
  8
AM_9
100
AcDbLine
 10
-0.8886176267812154
 20
-1.536714754308946
 30
0.0
 11
-0.8957518972230697
 21
-1.765
 31
0.0
  0
LINE
  5
FB
330
EA
100
AcDbEntity
  8
AM_9
100
AcDbLine
 10
-0.4842481027769304
 20
-1.765
 30
0.0
 11
-0.4913823732187846
 21
-1.536714754308946
 31
0.0
  0
LINE
  5
FC
330
EA
100
AcDbEntity
  8
AM_5
100
AcDbLine
 10
-0.858149124852348
 20
-1.699870087748463
 30
0.0
 11
-0.851902872472269
 21
-1.5
 31
0.0
  0
LINE
  5
FD
330
EA
100
AcDbEntity
  8
AM_5
100
AcDbLine
 10
-0.8957518972230698
 20
-1.765
 30
0.0
 11
-0.858149124852348
 21
-1.699870087748463
 31
0.0
  0
LINE
  5
FE
330
EA
100
AcDbEntity
  8
AM_5
100
AcDbLine
 10
-0.521850875147652
 20
-1.699870087748463
 30
0.0
 11
-0.5280971275277311
 21
-1.5
 31
0.0
  0
LINE
  5
FF
330
EA
100
AcDbEntity
  8
AM_5
100
AcDbLine
 10
-0.4842481027769304
 20
-1.765
 30
0.0
 11
-0.521850875147652
 21
-1.699870087748463
 31
0.0
  0
LINE
  5
100
330
EA
100
AcDbEntity
  8
AM_5
100
AcDbLine
 10
-0.8937164857515567
 20
-1.699870087748463
 30
0.0
 11
-0.4862835142484433
 21
-1.699870087748463
 31
0.0
  0
LINE
  5
101
330
EA
100
AcDbEntity
  8
AM_7
100
AcDbLine
 10
-0.6900000000000001
 20
-2.172
 30
0.0
 11
-0.6900000000000001
 21
-1.468
 31
0.0
  0
LINE
  5
102
330
EA
100
AcDbEntity
  8
AM_4
100
AcDbLine
 10
-0.795
 20
-1.97
 30
0.0
 11
-0.795
 21
-2.0
 31
0.0
  0
LINE
  5
103
330
EA
100
AcDbEntity
  8
AM_4
100
AcDbLine
 10
-0.5850000000000001
 20
-2.0
 30
0.0
 11
-0.5850000000000001
 21
-1.97
 31
0.0
  0
LINE
  5
104
330
EA
100
AcDbEntity
  8
AM_4
100
AcDbLine
 10
-0.47125
 20
-1.865
 30
0.0
 11
-0.4374092572295388
 21
-1.855932400303386
 31
0.0
  0
LINE
  5
105
330
EA
100
AcDbEntity
  8
AM_4
100
AcDbLine
 10
-0.47125
 20
-1.865
 30
0.0
 11
-0.90875
 21
-1.865
 31
0.0
  0
LINE
  5
106
330
EA
100
AcDbEntity
  8
AM_4
100
AcDbLine
 10
-0.9425907427704613
 20
-1.855932400303386
 30
0.0
 11
-0.90875
 21
-1.865
 31
0.0
  0
LINE
  5
107
330
EA
100
AcDbEntity
  8
AM_4
100
AcDbLine
 10
-0.4374092572295388
 20
-1.774067599696615
 30
0.0
 11
-0.4712500000000001
 21
-1.765
 31
0.0
  0
LINE
  5
108
330
EA
100
AcDbEntity
  8
AM_4
100
AcDbLine
 10
-0.90875
 20
-1.765
 30
0.0
 11
-0.9425907427704613
 21
-1.774067599696615
 31
0.0
  0
LINE
  5
109
330
EA
100
AcDbEntity
  8
AM_4
100
AcDbLine
 10
-0.585
 20
-1.97
 30
0.0
 11
-0.795
 21
-1.97
 31
0.0
  0
LINE
  5
10A
330
EA
100
AcDbEntity
  8
AM_4
100
AcDbLine
 10
-0.585
 20
-1.97
 30
0.0
 11
-0.5711799092651024
 21
-1.937753121618573
 31
0.0
  0
LINE
  5
10B
330
EA
100
AcDbEntity
  8
AM_4
100
AcDbLine
 10
-0.8088200907348976
 20
-1.937753121618573
 30
0.0
 11
-0.795
 21
-1.97
 31
0.0
  0
LINE
  5
10C
330
EA
100
AcDbEntity
  8
AM_4
100
AcDbLine
 10
-0.5850000000000001
 20
-2.0
 30
0.0
 11
-0.795
 21
-2.0
 31
0.0
  0
LINE
  5
10D
330
EA
100
AcDbEntity
  8
AM_4
100
AcDbLine
 10
-0.795
 20
-2.0
 30
0.0
 11
-0.8250000000000001
 21
-2.06
 31
0.0
  0
LINE
  5
10E
330
EA
100
AcDbEntity
  8
AM_4
100
AcDbLine
 10
-0.555
 20
-2.06
 30
0.0
 11
-0.5850000000000001
 21
-2.0
 31
0.0
  0
LINE
  5
10F
330
EA
100
AcDbEntity
  8
AM_4
100
AcDbLine
 10
-0.5873220980668126
 20
-2.14
 30
0.0
 11
-0.7926779019331874
 21
-2.14
 31
0.0
  0
LINE
  5
110
330
EA
100
AcDbEntity
  8
AM_4
100
AcDbLine
 10
-0.555
 20
-2.06
 30
0.0
 11
-0.8250000000000001
 21
-2.06
 31
0.0
  0
LINE
  5
111
330
EA
100
AcDbEntity
  8
AM_4
100
AcDbLine
 10
-0.5873220980668126
 20
-2.14
 30
0.0
 11
-0.555
 21
-2.06
 31
0.0
  0
LINE
  5
112
330
EA
100
AcDbEntity
  8
AM_4
100
AcDbLine
 10
-0.8250000000000001
 20
-2.06
 30
0.0
 11
-0.7926779019331874
 21
-2.14
 31
0.0
  0
LINE
  5
113
330
EA
100
AcDbEntity
  8
AM_4
100
AcDbLine
 10
-0.5711799092651024
 20
-1.937753121618573
 30
0.0
 11
-0.8088200907348976
 21
-1.937753121618573
 31
0.0
  0
LINE
  5
114
330
EA
100
AcDbEntity
  8
AM_4
100
AcDbLine
 10
-0.5711799092651024
 20
-1.937753121618573
 30
0.0
 11
-0.5174659467169845
 21
-1.883318198540882
 31
0.0
  0
LINE
  5
115
330
EA
100
AcDbEntity
  8
AM_4
100
AcDbLine
 10
-0.8625340532830154
 20
-1.883318198540882
 30
0.0
 11
-0.8088200907348976
 21
-1.937753121618573
 31
0.0
  0
LINE
  5
116
330
EA
100
AcDbEntity
  8
AM_4
100
AcDbLine
 10
-0.5174659467169845
 20
-1.883318198540882
 30
0.0
 11
-0.8625340532830154
 21
-1.883318198540882
 31
0.0
  0
LINE
  5
117
330
EA
100
AcDbEntity
  8
AM_4
100
AcDbLine
 10
-0.5174659467169845
 20
-1.883318198540882
 30
0.0
 11
-0.47625
 21
-1.865
 31
0.0
  0
LINE
  5
118
330
EA
100
AcDbEntity
  8
AM_4
100
AcDbLine
 10
-0.90375
 20
-1.865
 30
0.0
 11
-0.8625340532830154
 21
-1.883318198540882
 31
0.0
  0
LWPOLYLINE
  5
119
330
EA
100
AcDbEntity
  8
AM_4
100
AcDbPolyline
 90
        4
 70
     0
 43
0.0
 10
-0.6900000000000001
 20
-1.865
 10
-0.7383998160558989
 20
-1.863582439282863
 10
-0.7867996321117978
 20
-1.859517587482157
 10
-0.8162953713852307
 20
-1.855932400303386
  0
LWPOLYLINE
  5
11A
330
EA
100
AcDbEntity
  8
AM_4
100
AcDbPolyline
 90
        4
 70
     0
 43
0.0
 10
-0.5637046286147693
 20
-1.855932400303386
 10
-0.6265683853085632
 20
-1.86258547505038
 10
-0.6582399629513856
 20
-1.864385438185773
 10
-0.6900000000000001
 20
-1.865
  0
LWPOLYLINE
  5
11B
330
EA
100
AcDbEntity
  8
AM_4
100
AcDbPolyline
 90
        3
 70
     0
 43
0.0
 10
-0.6900000000000001
 20
-1.765
 10
-0.6268523143073846
 20
-1.767393380785035
 10
-0.5637046286147693
 20
-1.774067599696615
  0
LINE
  5
11C
330
EA
100
AcDbEntity
  8
AM_4
100
AcDbLine
 10
-0.5637046286147693
 20
-1.855932400303386
 30
0.0
 11
-0.5637046286147693
 21
-1.774067599696615
 31
0.0
  0
LWPOLYLINE
  5
11D
330
EA
100
AcDbEntity
  8
AM_4
100
AcDbPolyline
 90
        3
 70
     0
 43
0.0
 10
-0.500556942922154
 20
-1.865
 10
-0.5321307857684617
 20
-1.862606619214966
 10
-0.5637046286147693
 20
-1.855932400303386
  0
LWPOLYLINE
  5
11E
330
EA
100
AcDbEntity
  8
AM_4
100
AcDbPolyline
 90
        4
 70
     0
 43
0.0
 10
-0.4374092572295388
 20
-1.855932400303386
 10
-0.4688411355764357
 20
-1.86258547505038
 10
-0.484676924397847
 20
-1.864385438185773
 10
-0.500556942922154
 20
-1.865
  0
LINE
  5
11F
330
EA
100
AcDbEntity
  8
AM_4
100
AcDbLine
 10
-0.4374092572295388
 20
-1.855932400303386
 30
0.0
 11
-0.4374092572295388
 21
-1.774067599696615
 31
0.0
  0
LWPOLYLINE
  5
120
330
EA
100
AcDbEntity
  8
AM_4
100
AcDbPolyline
 90
        3
 70
     0
 43
0.0
 10
-0.500556942922154
 20
-1.765
 10
-0.4689831000758464
 20
-1.767393380785035
 10
-0.4374092572295388
 20
-1.774067599696615
  0
LWPOLYLINE
  5
121
330
EA
100
AcDbEntity
  8
AM_4
100
AcDbPolyline
 90
        4
 70
     0
 43
0.0
 10
-0.5637046286147693
 20
-1.774067599696615
 10
-0.5322727502678725
 20
-1.76741452494962
 10
-0.5164369614464611
 20
-1.765614561814228
 10
-0.500556942922154
 20
-1.765
  0
LWPOLYLINE
  5
122
330
EA
100
AcDbEntity
  8
AM_4
100
AcDbPolyline
 90
        4
 70
     0
 43
0.0
 10
-0.8162953713852307
 20
-1.774067599696615
 10
-0.7867996321117978
 20
-1.770482412517844
 10
-0.7385424412477544
 20
-1.766425828243072
 10
-0.6900000000000001
 20
-1.765
  0
LINE
  5
123
330
EA
100
AcDbEntity
  8
AM_4
100
AcDbLine
 10
-0.9425907427704613
 20
-1.855932400303386
 30
0.0
 11
-0.9425907427704613
 21
-1.774067599696615
 31
0.0
  0
LWPOLYLINE
  5
124
330
EA
100
AcDbEntity
  8
AM_4
100
AcDbPolyline
 90
        3
 70
     0
 43
0.0
 10
-0.8794430570778459
 20
-1.865
 10
-0.9110168999241536
 20
-1.862606619214966
 10
-0.9425907427704613
 20
-1.855932400303386
  0
LWPOLYLINE
  5
125
330
EA
100
AcDbEntity
  8
AM_4
100
AcDbPolyline
 90
        4
 70
     0
 43
0.0
 10
-0.8162953713852307
 20
-1.855932400303386
 10
-0.8477272497321275
 20
-1.86258547505038
 10
-0.8635630385535389
 20
-1.864385438185773
 10
-0.8794430570778459
 20
-1.865
  0
LINE
  5
126
330
EA
100
AcDbEntity
  8
AM_4
100
AcDbLine
 10
-0.8162953713852307
 20
-1.855932400303386
 30
0.0
 11
-0.8162953713852307
 21
-1.774067599696615
 31
0.0
  0
LWPOLYLINE
  5
127
330
EA
100
AcDbEntity
  8
AM_4
100
AcDbPolyline
 90
        3
 70
     0
 43
0.0
 10
-0.8794430570778459
 20
-1.765
 10
-0.8478692142315384
 20
-1.767393380785035
 10
-0.8162953713852307
 20
-1.774067599696615
  0
LWPOLYLINE
  5
128
330
EA
100
AcDbEntity
  8
AM_4
100
AcDbPolyline
 90
        4
 70
     0
 43
0.0
 10
-0.9425907427704613
 20
-1.774067599696615
 10
-0.9111588644235643
 20
-1.76741452494962
 10
-0.8953230756021531
 20
-1.765614561814228
 10
-0.8794430570778459
 20
-1.765
  0
ENDBLK
  5
ED
330
EA
100
AcDbEntity
  8
0
100
AcDbBlockEnd
  0
BLOCK
  5
12B
330
129
100
AcDbEntity
  8
0
100
AcDbBlockBegin
  2
4_124611H_0_in_124611_2
 70
     2
 10
0.0
 20
0.0
 30
0.0
  3
4_124611H_0_in_124611_2
  1

  0
ATTDEF
  5
12D
330
129
100
AcDbEntity
  8
AM_6
100
AcDbText
 10
5.025
 20
2.405000000000003
 30
0.0
 40
0.5
  1
LF-SC & LF-SC-NL - housing -Inch
100
AcDbAttributeDefinition
  3

  2
NN
 70
     8
280
     0
  0
ATTDEF
  5
12E
330
129
100
AcDbEntity
  8
AM_6
100
AcDbText
 10
5.025
 20
1.905000000000003
 30
0.0
 40
0.5
  1
SC 3 Bolt Flange Bearings -(Normal Duty) -Re-Lube and No-Lube
100
AcDbAttributeDefinition
  3

  2
NT
 70
     8
280
     0
  0
ATTDEF
  5
12F
330
129
100
AcDbEntity
  8
AM_6
100
AcDbText
 10
5.025
 20
1.405000000000003
 30
0.0
 40
0.5
  1
124611H
100
AcDbAttributeDefinition
  3

  2
NB
 70
     8
280
     0
  0
ATTDEF
  5
130
330
129
100
AcDbEntity
  8
AM_6
100
AcDbText
 10
5.025
 20
0.9050000000000034
 30
0.0
 40
0.5
  1
$PN.H
100
AcDbAttributeDefinition
  3

  2
NBSYN
 70
     8
280
     0
  0
ATTDEF
  5
131
330
129
100
AcDbEntity
  8
AM_6
100
AcDbText
 10
5.025
 20
0.4050000000000034
 30
0.0
 40
0.5
  1
124611
100
AcDbAttributeDefinition
  3

  2
LINA
 70
     8
280
     0
  0
ATTDEF
  5
132
330
129
100
AcDbEntity
  8
AM_6
100
AcDbText
 10
5.025
 20
-0.0949999999999966
 30
0.0
 40
0.5
  1
207
100
AcDbAttributeDefinition
  3

  2
SERIES
 70
     8
280
     0
  0
ATTDEF
  5
133
330
129
100
AcDbEntity
  8
AM_6
100
AcDbText
 10
5.025
 20
-0.5949999999999966
 30
0.0
 40
0.5
  1
1-5/16
100
AcDbAttributeDefinition
  3

  2
SS
 70
     8
280
     0
  0
ATTDEF
  5
134
330
129
100
AcDbEntity
  8
AM_6
100
AcDbText
 10
5.025
 20
-1.094999999999997
 30
0.0
 40
0.5
  1
124611
100
AcDbAttributeDefinition
  3

  2
PN
 70
     8
280
     0
  0
ATTDEF
  5
135
330
129
100
AcDbEntity
  8
AM_6
100
AcDbText
 10
5.025
 20
-1.594999999999997
 30
0.0
 40
0.5
  1
LF-SC-105
100
AcDbAttributeDefinition
  3

  2
DESCRIPTION
 70
     8
280
     0
  0
ATTDEF
  5
136
330
129
100
AcDbEntity
  8
AM_6
100
AcDbText
 10
5.025
 20
-2.094999999999997
 30
0.0
 40
0.5
  1
2.05
100
AcDbAttributeDefinition
  3

  2
W
 70
     8
280
     0
  0
ATTDEF
  5
137
330
129
100
AcDbEntity
  8
AM_6
100
AcDbText
 10
5.025
 20
-2.594999999999997
 30
0.0
 40
0.5
  1
RE-LUBE
100
AcDbAttributeDefinition
  3

  2
LF
 70
     8
280
     0
  0
ATTDEF
  5
138
330
129
100
AcDbEntity
  8
AM_6
100
AcDbText
 10
5.025
 20
-3.094999999999997
 30
0.0
 40
0.5
  1
1.40
100
AcDbAttributeDefinition
  3

  2
A
 70
     8
280
     0
  0
ATTDEF
  5
139
330
129
100
AcDbEntity
  8
AM_6
100
AcDbText
 10
5.025
 20
-3.594999999999997
 30
0.0
 40
0.5
  1
4.81
100
AcDbAttributeDefinition
  3

  2
B
 70
     8
280
     0
  0
ATTDEF
  5
13A
330
129
100
AcDbEntity
  8
AM_6
100
AcDbText
 10
5.025
 20
-4.094999999999997
 30
0.0
 40
0.5
  1
1.59
100
AcDbAttributeDefinition
  3

  2
C
 70
     8
280
     0
  0
ATTDEF
  5
13B
330
129
100
AcDbEntity
  8
AM_6
100
AcDbText
 10
5.025
 20
-4.594999999999997
 30
0.0
 40
0.5
  1
3.94
100
AcDbAttributeDefinition
  3

  2
D
 70
     8
280
     0
  0
ATTDEF
  5
13C
330
129
100
AcDbEntity
  8
AM_6
100
AcDbText
 10
5.025
 20
-5.094999999999997
 30
0.0
 40
0.5
  1
0.41
100
AcDbAttributeDefinition
  3

  2
G
 70
     8
280
     0
  0
ATTDEF
  5
13D
330
129
100
AcDbEntity
  8
AM_6
100
AcDbText
 10
5.025
 20
-5.594999999999997
 30
0.0
 40
0.5
  1
0.50
100
AcDbAttributeDefinition
  3

  2
H
 70
     8
280
     0
  0
ATTDEF
  5
13E
330
129
100
AcDbEntity
  8
AM_6
100
AcDbText
 10
5.025
 20
-6.094999999999997
 30
0.0
 40
0.5
  1
0.52
100
AcDbAttributeDefinition
  3

  2
J
 70
     8
280
     0
  0
ATTDEF
  5
13F
330
129
100
AcDbEntity
  8
AM_6
100
AcDbText
 10
5.025
 20
-6.594999999999997
 30
0.0
 40
0.5
  1
1.84
100
AcDbAttributeDefinition
  3

  2
L
 70
     8
280
     0
  0
ATTDEF
  5
140
330
129
100
AcDbEntity
  8
AM_6
100
AcDbText
 10
5.025
 20
-7.094999999999997
 30
0.0
 40
0.5
  1
2.41
100
AcDbAttributeDefinition
  3

  2
M
 70
     8
280
     0
  0
ATTDEF
  5
141
330
129
100
AcDbEntity
  8
AM_6
100
AcDbText
 10
5.025
 20
-7.594999999999997
 30
0.0
 40
0.5
  1
2.14
100
AcDbAttributeDefinition
  3

  2
N
 70
     8
280
     0
  0
ATTDEF
  5
142
330
129
100
AcDbEntity
  8
AM_6
100
AcDbText
 10
5.025
 20
-8.094999999999997
 30
0.0
 40
0.5
  1
3065
100
AcDbAttributeDefinition
  3

  2
CAPS
 70
     8
280
     0
  0
ATTDEF
  5
143
330
129
100
AcDbEntity
  8
AM_6
100
AcDbText
 10
5.025
 20
-8.594999999999997
 30
0.0
 40
0.5
  1
5759
100
AcDbAttributeDefinition
  3

  2
CAPD
 70
     8
280
     0
  0
ATTDEF
  5
144
330
129
100
AcDbEntity
  8
AM_6
100
AcDbText
 10
5.025
 20
-9.094999999999997
 30
0.0
 40
0.5
  1
baldor
100
AcDbAttributeDefinition
  3

  2
COMPANY
 70
     8
280
     0
  0
LINE
  5
145
330
129
100
AcDbEntity
  8
AM_9
100
AcDbLine
 10
-0.1250000000000001
 20
-0.2215085603344758
 30
0.0
 11
-0.0000000000000001
 21
-0.2215085603344752
 31
0.0
  0
LINE
  5
146
330
129
100
AcDbEntity
  8
AM_9
100
AcDbLine
 10
-0.54
 20
-1.49
 30
0.0
 11
-0.8400000000000001
 21
-1.49
 31
0.0
  0
LINE
  5
147
330
129
100
AcDbEntity
  8
AM_9
100
AcDbLine
 10
-0.8400000000000001
 20
-1.49
 30
0.0
 11
-0.8400000000000001
 21
-1.765
 31
0.0
  0
LINE
  5
148
330
129
100
AcDbEntity
  8
AM_9
100
AcDbLine
 10
-0.54
 20
-1.765
 30
0.0
 11
-0.54
 21
-1.49
 31
0.0
  0
LINE
  5
149
330
129
100
AcDbEntity
  8
AM_9
100
AcDbLine
 10
-0.5
 20
1.765
 30
0.0
 11
0.0
 21
1.765
 31
0.0
  0
LINE
  5
14A
330
129
100
AcDbEntity
  8
AM_9
100
AcDbLine
 10
0.0
 20
2.175
 30
0.0
 11
-0.5
 21
2.175
 31
0.0
  0
LINE
  5
14B
330
129
100
AcDbEntity
  8
AM_9
100
AcDbLine
 10
-0.25
 20
1.765
 30
0.0
 11
-0.25
 21
2.175
 31
0.0
  0
LINE
  5
14C
330
129
100
AcDbEntity
  8
AM_9
100
AcDbLine
 10
-1.07
 20
1.585512820512821
 30
0.0
 11
-0.5
 21
1.585512820512821
 31
0.0
  0
LINE
  5
14D
330
129
100
AcDbEntity
  8
AM_9
100
AcDbLine
 10
0.0
 20
1.482925
 30
0.0
 11
-0.125
 21
1.482925
 31
0.0
  0
LINE
  5
14E
330
129
100
AcDbEntity
  8
AM_9
100
AcDbLine
 10
-0.125
 20
1.380596941677971
 30
0.0
 11
0.0
 21
1.380596941677971
 31
0.0
  0
LINE
  5
14F
330
129
100
AcDbEntity
  8
AM_9
100
AcDbLine
 10
-0.125
 20
-1.159088381343495
 30
0.0
 11
0.0000000000000001
 21
-1.159088381343495
 31
0.0
  0
LINE
  5
150
330
129
100
AcDbEntity
  8
AM_9
100
AcDbLine
 10
-0.1249999999999999
 20
-0.65625
 30
0.0
 11
-0.1249999999999999
 21
-1.419999999999999
 31
0.0
  0
LINE
  5
151
330
129
100
AcDbEntity
  8
AM_9
100
AcDbLine
 10
-0.6955
 20
0.6562500000000004
 30
0.0
 11
-0.1249999999999999
 21
0.6562500000000004
 31
0.0
  0
LINE
  5
152
330
129
100
AcDbEntity
  8
AM_9
100
AcDbLine
 10
-0.6955
 20
-0.65625
 30
0.0
 11
-0.1249999999999999
 21
-0.65625
 31
0.0
  0
LINE
  5
153
330
129
100
AcDbEntity
  8
AM_9
100
AcDbLine
 10
-1.07
 20
-1.4173
 30
0.0
 11
-0.125
 21
-1.4173
 31
0.0
  0
LINE
  5
154
330
129
100
AcDbEntity
  8
AM_9
100
AcDbLine
 10
-0.125
 20
1.4173
 30
0.0
 11
-1.07
 21
1.4173
 31
0.0
  0
LINE
  5
155
330
129
100
AcDbEntity
  8
AM_9
100
AcDbLine
 10
-0.6955
 20
-0.65625
 30
0.0
 11
-0.6955
 21
0.6562500000000004
 31
0.0
  0
LINE
  5
156
330
129
100
AcDbEntity
  8
AM_9
100
AcDbLine
 10
-0.4999999999999999
 20
-1.343401556787934
 30
0.0
 11
-0.1249999999999999
 21
-1.343401556787934
 31
0.0
  0
LINE
  5
157
330
129
100
AcDbEntity
  8
AM_9
100
AcDbLine
 10
-0.125
 20
-1.341682737620313
 30
0.0
 11
0.0000000000000001
 21
-1.341682737620313
 31
0.0
  0
LINE
  5
158
330
129
100
AcDbEntity
  8
AM_9
100
AcDbLine
 10
0.0000000000000001
 20
-1.341165291974553
 30
0.0
 11
-0.125
 21
-1.341165291974553
 31
0.0
  0
LINE
  5
159
330
129
100
AcDbEntity
  8
AM_9
100
AcDbLine
 10
-0.2499999999999999
 20
-0.7049647922241896
 30
0.0
 11
-0.4999999999999999
 21
-0.7049647922241896
 31
0.0
  0
LINE
  5
15A
330
129
100
AcDbEntity
  8
AM_9
100
AcDbLine
 10
-0.2499999999999999
 20
-1.265035207775809
 30
0.0
 11
-0.4999999999999998
 21
-1.265035207775809
 31
0.0
  0
LINE
  5
15B
330
129
100
AcDbEntity
  8
AM_9
100
AcDbLine
 10
-0.2499999999999999
 20
-1.06003520777581
 30
0.0
 11
-0.4999999999999999
 21
-1.06003520777581
 31
0.0
  0
LINE
  5
15C
330
129
100
AcDbEntity
  8
AM_9
100
AcDbLine
 10
-0.2499999999999999
 20
-1.265035207775809
 30
0.0
 11
-0.2499999999999999
 21
-0.7049647922241896
 31
0.0
  0
LINE
  5
15D
330
129
100
AcDbEntity
  8
AM_9
100
AcDbLine
 10
-0.2499999999999999
 20
-1.19
 30
0.0
 11
0.0000000000000001
 21
-1.19
 31
0.0
  0
LINE
  5
15E
330
129
100
AcDbEntity
  8
AM_9
100
AcDbLine
 10
0.0000000000000001
 20
-0.7799999999999995
 30
0.0
 11
-0.2499999999999999
 21
-0.7799999999999995
 31
0.0
  0
LINE
  5
15F
330
129
100
AcDbEntity
  8
AM_9
100
AcDbLine
 10
-0.2499999999999999
 20
-0.9099647922241896
 30
0.0
 11
-0.4999999999999998
 21
-0.9099647922241896
 31
0.0
  0
LINE
  5
160
330
129
100
AcDbEntity
  8
AM_9
100
AcDbLine
 10
-0.4999999999999999
 20
-1.407946186997866
 30
0.0
 11
0.0000000000000001
 21
-1.407946186997866
 31
0.0
  0
LINE
  5
161
330
129
100
AcDbEntity
  8
AM_7
100
AcDbLine
 10
0.025
 20
1.97
 30
0.0
 11
-1.6235
 21
1.97
 31
0.0
  0
LINE
  5
162
330
129
100
AcDbEntity
  8
AM_7
100
AcDbLine
 10
-1.66025
 20
0.0
 30
0.0
 11
-0.07775
 21
0.0
 31
0.0
  0
LINE
  5
163
330
129
100
AcDbEntity
  8
AM_7
100
AcDbLine
 10
0.0249999999999999
 20
-0.9849999999999994
 30
0.0
 11
-1.6235
 21
-0.9850000000000005
 31
0.0
  0
LINE
  5
164
330
129
100
AcDbEntity
  8
AM_4
100
AcDbLine
 10
0.0
 20
2.405000000000003
 30
0.0
 11
-0.5
 21
2.405000000000003
 31
0.0
  0
LINE
  5
165
330
129
100
AcDbEntity
  8
AM_4
100
AcDbLine
 10
-1.069
 20
-1.765
 30
0.0
 11
-1.069
 21
-1.549756238691118
 31
0.0
  0
LINE
  5
166
330
129
100
AcDbEntity
  8
AM_4
100
AcDbLine
 10
-1.069
 20
-1.765
 30
0.0
 11
-0.126
 21
-1.765
 31
0.0
  0
LINE
  5
167
330
129
100
AcDbEntity
  8
AM_4
100
AcDbLine
 10
-0.126
 20
-1.765
 30
0.0
 11
-0.126
 21
-1.707667724489648
 31
0.0
  0
LINE
  5
168
330
129
100
AcDbEntity
  8
AM_4
100
AcDbLine
 10
-1.069
 20
-1.683
 30
0.0
 11
-0.5
 21
-1.683
 31
0.0
  0
LINE
  5
169
330
129
100
AcDbEntity
  8
AM_4
100
AcDbLine
 10
-0.5
 20
2.093404090457874
 30
0.0
 11
0.0
 21
2.093404090457874
 31
0.0
  0
LINE
  5
16A
330
129
100
AcDbEntity
  8
AM_4
100
AcDbLine
 10
-0.125
 20
1.529102381305144
 30
0.0
 11
0.0
 21
1.529102381305144
 31
0.0
  0
LINE
  5
16B
330
129
100
AcDbEntity
  8
AM_4
100
AcDbLine
 10
-0.125
 20
1.373524010829811
 30
0.0
 11
0.0
 21
1.373524010829811
 31
0.0
  0
LINE
  5
16C
330
129
100
AcDbEntity
  8
AM_4
100
AcDbLine
 10
0.0
 20
1.373524010829811
 30
0.0
 11
0.0
 21
2.405000000000003
 31
0.0
  0
LINE
  5
16D
330
129
100
AcDbEntity
  8
AM_4
100
AcDbLine
 10
-0.5
 20
2.405000000000003
 30
0.0
 11
-0.5
 21
-1.707667724489648
 31
0.0
  0
LINE
  5
16E
330
129
100
AcDbEntity
  8
AM_4
100
AcDbLine
 10
-0.1249999999999999
 20
-1.419999999999999
 30
0.0
 11
-0.125
 21
-1.765
 31
0.0
  0
LINE
  5
16F
330
129
100
AcDbEntity
  8
AM_4
100
AcDbLine
 10
-0.5
 20
-1.707667724489648
 30
0.0
 11
-0.126
 21
-1.707667724489648
 31
0.0
  0
LINE
  5
170
330
129
100
AcDbEntity
  8
AM_4
100
AcDbLine
 10
-0.9880000000000001
 20
-1.621724082573851
 30
0.0
 11
-0.5499999999999998
 21
-1.621724082573851
 31
0.0
  0
LINE
  5
171
330
129
100
AcDbEntity
  8
AM_4
100
AcDbLine
 10
-0.5499999999999998
 20
-1.037487699034364
 30
0.0
 11
-0.5499999999999998
 21
-1.621724082573851
 31
0.0
  0
LWPOLYLINE
  5
172
330
129
100
AcDbEntity
  8
AM_4
100
AcDbPolyline
 90
       10
 70
     0
 43
0.0
 10
-0.4999999999999996
 20
-1.673555795305314
 10
-0.5000343252360492
 20
-1.671637535687624
 10
-0.5017134054208774
 20
-1.660114098985309
 10
-0.5045777953933231
 20
-1.651903543837117
 10
-0.5088892167131716
 20
-1.644068335110264
 10
-0.5143104249884267
 20
-1.637266981145399
 10
-0.5210206006906604
 20
-1.631326254625082
 10
-0.5282475927020873
 20
-1.626891289075944
 10
-0.5363816483667766
 20
-1.62368575125522
 10
-0.5499999999999998
 20
-1.621724082573851
  0
LINE
  5
173
330
129
100
AcDbEntity
  8
AM_4
100
AcDbLine
 10
-0.988
 20
-1.037487699034363
 30
0.0
 11
-0.9880000000000001
 21
-1.621724082573851
 31
0.0
  0
LWPOLYLINE
  5
174
330
129
100
AcDbEntity
  8
AM_4
100
AcDbPolyline
 90
       10
 70
     0
 43
0.0
 10
-1.069
 20
-1.549756238691118
 10
-1.066302020792316
 20
-1.561811132632371
 10
-1.060914457565953
 20
-1.575511365664254
 10
-1.053014038769036
 20
-1.588460791174751
 10
-1.043527987716681
 20
-1.599232027697607
 10
-1.031956067088726
 20
-1.608460706824781
 10
-1.015795189268266
 20
-1.61668559206164
 10
-1.003125344828891
 20
-1.620263823233176
 10
-0.9896568966871464
 20
-1.621706708620018
 10
-0.9880000000000001
 20
-1.621724082573851
  0
ARC
  5
175
330
129
100
AcDbEntity
  8
AM_4
100
AcDbCircle
 10
-0.9879999999999634
 20
-1.600999999999996
 30
0.0
 40
0.0820000000000367
100
AcDbArc
 50
179.9999991462263
 51
188.9572160647207
  0
LWPOLYLINE
  5
176
330
129
100
AcDbEntity
  8
AM_4
100
AcDbPolyline
 90
       13
 70
     0
 43
0.0
 10
-0.988
 20
-1.037487699034363
 10
-0.9986869314882912
 20
-1.036511491558298
 10
-1.009035473864943
 20
-1.033678589589454
 10
-1.018700833795446
 20
-1.029138190048285
 10
-1.027533459010242
 20
-1.023132955687581
 10
-1.037559427393369
 20
-1.013529945102541
 10
-1.045915480373267
 20
-1.002408643335217
 10
-1.055056178773993
 20
-0.984863265604508
 10
-1.061464143974863
 20
-0.9661067178763724
 10
-1.066125615922089
 20
-0.9441584261416025
 10
-1.068698526338198
 20
-0.9219181009386415
 10
-1.06979956932368
 20
-0.8998022195602652
 10
-1.07
 20
-0.8833169311146183
  0
LINE
  5
177
330
129
100
AcDbEntity
  8
AM_4
100
AcDbLine
 10
-0.5499999999999998
 20
-1.037487699034364
 30
0.0
 11
-0.988
 21
-1.037487699034363
 31
0.0
  0
LWPOLYLINE
  5
178
330
129
100
AcDbEntity
  8
AM_4
100
AcDbPolyline
 90
        9
 70
     0
 43
0.0
 10
-0.5499999999999998
 20
-1.037487699034364
 10
-0.5431805962435063
 20
-1.038139569558481
 10
-0.5365888899976883
 20
-1.040004464448178
 10
-0.5248275346016876
 20
-1.046724652612161
 10
-0.5177564464411348
 20
-1.053330861641943
 10
-0.5118525078367778
 20
-1.060959138902188
 10
-0.5061270585878899
 20
-1.071465090460537
 10
-0.5022355592402471
 20
-1.082675675107565
 10
-0.4999999999999999
 20
-1.099958967888266
  0
LINE
  5
179
330
129
100
AcDbEntity
  8
AM_4
100
AcDbLine
 10
0.0000000000000001
 20
-0.1343192654842708
 30
0.0
 11
-0.1249999999999999
 21
-0.1343192654842708
 31
0.0
  0
LINE
  5
17A
330
129
100
AcDbEntity
  8
AM_4
100
AcDbLine
 10
-0.988
 20
-0.628897734673758
 30
0.0
 11
-0.5499999999999998
 21
-0.6288977346737565
 31
0.0
  0
LINE
  5
17B
330
129
100
AcDbEntity
  8
AM_4
100
AcDbLine
 10
-0.5499999999999998
 20
1.66638543370812
 30
0.0
 11
-0.9880000000000001
 21
1.66638543370812
 31
0.0
  0
LINE
  5
17C
330
129
100
AcDbEntity
  8
AM_4
100
AcDbLine
 10
-1.07
 20
1.598038225586293
 30
0.0
 11
-1.07
 21
-1.601
 31
0.0
  0
LWPOLYLINE
  5
17D
330
129
100
AcDbEntity
  8
AM_4
100
AcDbPolyline
 90
       14
 70
     0
 43
0.0
 10
-1.07
 20
-0.7147212944716755
 10
-1.069727600725649
 20
-0.7011481381468514
 10
-1.068705893737004
 20
-0.6882788907786889
 10
-1.066544114926285
 20
-0.6760474972444295
 10
-1.062779562273044
 20
-0.6646796095648534
 10
-1.056951005638626
 20
-0.6544955419257777
 10
-1.048246757517831
 20
-0.6454343352425589
 10
-1.040687886254619
 20
-0.6403286546512732
 10
-1.031327177366502
 20
-0.6359504602506633
 10
-1.022371629651029
 20
-0.6330634188210058
 10
-1.012109907801764
 20
-0.630846311387999
 10
-1.002601969716945
 20
-0.6295917685560654
 10
-0.9924025628997477
 20
-0.6289598840682956
 10
-0.988
 20
-0.628897734673758
  0
LINE
  5
17E
330
129
100
AcDbEntity
  8
AM_4
100
AcDbLine
 10
-0.9880000000000001
 20
1.66638543370812
 30
0.0
 11
-0.988
 21
-0.628897734673758
 31
0.0
  0
LWPOLYLINE
  5
17F
330
129
100
AcDbEntity
  8
AM_4
100
AcDbPolyline
 90
       13
 70
     0
 43
0.0
 10
-0.9880000000000001
 20
1.66638543370812
 10
-0.9985177369324716
 20
1.66580690006707
 10
-1.009035473864943
 20
1.664043079891814
 10
-1.018585806274986
 20
1.661338699296832
 10
-1.027533459010242
 20
1.657732504849166
 10
-1.037440275362693
 20
1.652289908397323
 10
-1.045915480373267
 20
1.646070141605749
 10
-1.054961943654523
 20
1.637071148509017
 10
-1.061464143974863
 20
1.627979944019837
 10
-1.065138998503862
 20
1.620842712219073
 10
-1.067570404648002
 20
1.614239604286802
 10
-1.06979956932368
 20
1.602703100780059
 10
-1.07
 20
1.598038225586293
  0
LWPOLYLINE
  5
180
330
129
100
AcDbEntity
  8
AM_4
100
AcDbPolyline
 90
       10
 70
     0
 43
0.0
 10
-0.4999999999999999
 20
-0.6097767196269629
 10
-0.500807505287366
 20
-0.612283293499364
 10
-0.5032414014685253
 20
-0.6150867898157435
 10
-0.5076956776529437
 20
-0.6183331000072325
 10
-0.5141896357287111
 20
-0.6216971204713464
 10
-0.5199864874430769
 20
-0.6239689822622105
 10
-0.5269425149123249
 20
-0.6260450238236903
 10
-0.5328841620574093
 20
-0.6273422572668677
 10
-0.5394957719853938
 20
-0.6283160497679574
 10
-0.5499999999999998
 20
-0.6288977346737565
  0
LWPOLYLINE
  5
181
330
129
100
AcDbEntity
  8
AM_4
100
AcDbPolyline
 90
        9
 70
     0
 43
0.0
 10
-0.5499999999999998
 20
1.66638543370812
 10
-0.5432944449988442
 20
1.66677136652408
 10
-0.5365888899976884
 20
1.667951515246289
 10
-0.5248275346016877
 20
1.67220544772686
 10
-0.5178428999166287
 20
1.676426544721382
 10
-0.5118525078367778
 20
1.681566563727618
 10
-0.5061939472688218
 20
1.688678486937027
 10
-0.5022355592402472
 20
1.696785993494917
 10
-0.5
 20
1.709735687515227
  0
LINE
  5
182
330
129
100
AcDbEntity
  8
AM_4
100
AcDbLine
 10
-0.5499999999999998
 20
1.66638543370812
 30
0.0
 11
-0.5499999999999998
 21
-0.6288977346737565
 31
0.0
  0
LINE
  5
183
330
129
100
AcDbEntity
  8
AM_4
100
AcDbLine
 10
-0.125
 20
1.663100265439838
 30
0.0
 11
-0.1249999999999999
 21
-0.3196987086519029
 31
0.0
  0
LINE
  5
184
330
129
100
AcDbEntity
  8
AM_4
100
AcDbLine
 10
-0.125
 20
1.663100265439838
 30
0.0
 11
-0.4999999999999995
 21
1.663100265439838
 31
0.0
  0
LINE
  5
185
330
129
100
AcDbEntity
  8
AM_4
100
AcDbLine
 10
-0.1249999999999999
 20
-0.1874196804391484
 30
0.0
 11
0.0000000000000001
 21
-0.1874196804391484
 31
0.0
  0
LINE
  5
186
330
129
100
AcDbEntity
  8
AM_4
100
AcDbLine
 10
-0.1249999999999999
 20
-0.3196987086519029
 30
0.0
 11
-0.4999999999999996
 21
-0.319698708651903
 31
0.0
  0
LINE
  5
187
330
129
100
AcDbEntity
  8
AM_4
100
AcDbLine
 10
-0.4999999999999998
 20
-0.6854579384726182
 30
0.0
 11
0.0000000000000001
 21
-0.6854579384726182
 31
0.0
  0
LINE
  5
188
330
129
100
AcDbEntity
  8
AM_4
100
AcDbLine
 10
-0.4999999999999998
 20
-1.419999999999999
 30
0.0
 11
0.0000000000000001
 21
-1.419999999999999
 31
0.0
  0
LINE
  5
189
330
129
100
AcDbEntity
  8
AM_4
100
AcDbLine
 10
0.0000000000000001
 20
-1.419999999999999
 30
0.0
 11
0.0000000000000001
 21
-0.1343192654842708
 31
0.0
  0
ENDBLK
  5
12C
330
129
100
AcDbEntity
  8
0
100
AcDbBlockEnd
  0
ENDSEC
  0
SECTION
  2
ENTITIES
  0
INSERT
  5
6F
330
1F
100
AcDbEntity
  8
0
100
AcDbBlockReference
  2
1_124611_2
 10
0.0
 20
0.0
 30
0.0
  0
POINT
  5
18B
330
1F
100
AcDbEntity
  8
ConnectionPoints
100
AcDbPoint
 10
-0.6900000000000001
 20
-1.765
 30
0.0
  0
POINT
  5
18C
330
1F
100
AcDbEntity
  8
ConnectionPoints
100
AcDbPoint
 10
-0.6900000000000001
 20
-1.765
 30
0.0
  0
POINT
  5
18D
330
1F
100
AcDbEntity
  8
ConnectionPoints
100
AcDbPoint
 10
-1.59
 20
0.0
 30
0.0000000000000001
  0
ENDSEC
  0
SECTION
  2
OBJECTS
  0
DICTIONARY
  5
C
330
0
100
AcDbDictionary
281
     1
  3
ACAD_DETAILVIEWSTYLE
350
195
  3
ACAD_GROUP
350
D
  3
ACAD_LAYOUT
350
1A
  3
ACAD_MATERIAL
350
43
  3
ACAD_MLEADERSTYLE
350
6B
  3
ACAD_MLINESTYLE
350
17
  3
ACAD_PLOTSETTINGS
350
19
  3
ACAD_PLOTSTYLENAME
350
E
  3
ACAD_SCALELIST
350
47
  3
ACAD_SECTIONVIEWSTYLE
350
196
  3
ACAD_TABLESTYLE
350
69
  3
ACAD_VISUALSTYLE
350
2A
  3
ACDB_RECOMPOSE_DATA
350
192
  3
AcDbVariableDictionary
350
18E
  0
SUN
  5
6D
330
29
100
AcDbSun
 90
        1
290
     0
 63
     7
421
 16777215
 40
1.0
291
     1
 91
  2455826
 92
 54000000
292
     0
 70
     2
 71
   256
280
     1
  0
DICTIONARY
  5
195
102
{ACAD_REACTORS
330
C
102
}
330
C
100
AcDbDictionary
281
     1
  0
DICTIONARY
  5
D
102
{ACAD_REACTORS
330
C
102
}
330
C
100
AcDbDictionary
281
     1
  0
DICTIONARY
  5
1A
102
{ACAD_REACTORS
330
C
102
}
330
C
100
AcDbDictionary
281
     1
  3
Layout1
350
1E
  3
Layout2
350
26
  3
Model
350
22
  0
DICTIONARY
  5
43
102
{ACAD_REACTORS
330
C
102
}
330
C
100
AcDbDictionary
281
     1
  3
ByBlock
350
45
  3
ByLayer
350
44
  3
Global
350
46
  0
DICTIONARY
  5
6B
102
{ACAD_REACTORS
330
C
102
}
330
C
100
AcDbDictionary
281
     1
  3
Standard
350
6C
  0
DICTIONARY
  5
17
102
{ACAD_REACTORS
330
C
102
}
330
C
100
AcDbDictionary
281
     1
  3
Standard
350
18
  0
DICTIONARY
  5
19
102
{ACAD_REACTORS
330
C
102
}
330
C
100
AcDbDictionary
281
     1
  0
ACDBDICTIONARYWDFLT
  5
E
102
{ACAD_REACTORS
330
C
102
}
330
C
100
AcDbDictionary
281
     1
  3
Normal
350
F
100
AcDbDictionaryWithDefault
340
F
  0
DICTIONARY
  5
47
102
{ACAD_REACTORS
330
C
102
}
330
C
100
AcDbDictionary
281
     1
  3
A0
350
48
  3
A1
350
49
  3
A2
350
4A
  3
A3
350
4B
  3
A4
350
4C
  3
A5
350
4D
  3
A6
350
4E
  3
A7
350
4F
  3
A8
350
50
  3
A9
350
51
  3
B0
350
52
  3
B1
350
53
  3
B2
350
54
  3
B3
350
55
  3
B4
350
56
  3
B5
350
57
  3
B6
350
58
  3
B7
350
59
  3
B8
350
5A
  3
B9
350
5B
  3
C0
350
5C
  3
C1
350
5D
  3
C2
350
5E
  3
C3
350
5F
  3
C4
350
60
  3
C5
350
61
  3
C6
350
62
  3
C7
350
63
  3
C8
350
64
  3
C9
350
65
  3
D0
350
66
  3
D1
350
67
  3
D2
350
68
  0
DICTIONARY
  5
196
102
{ACAD_REACTORS
330
C
102
}
330
C
100
AcDbDictionary
281
     1
  0
DICTIONARY
  5
69
102
{ACAD_REACTORS
330
C
102
}
330
C
100
AcDbDictionary
281
     1
  3
Standard
350
6A
  0
DICTIONARY
  5
2A
102
{ACAD_REACTORS
330
C
102
}
330
C
100
AcDbDictionary
281
     1
  3
2dWireframe
350
2F
  3
Basic
350
32
  3
Brighten
350
36
  3
ColorChange
350
3A
  3
Conceptual
350
34
  3
Dim
350
35
  3
EdgeColorOff
350
3D
  3
Facepattern
350
39
  3
Flat
350
2B
  3
FlatWithEdges
350
2C
  3
Gouraud
350
2D
  3
GouraudWithEdges
350
2E
  3
Hidden
350
31
  3
JitterOff
350
3B
  3
Linepattern
350
38
  3
OverhangOff
350
3C
  3
Realistic
350
33
  3
Shaded
350
42
  3
Shaded with edges
350
41
  3
Shades of Gray
350
3E
  3
Sketchy
350
3F
  3
Thicken
350
37
  3
Wireframe
350
30
  3
X-Ray
350
40
  0
XRECORD
  5
192
102
{ACAD_REACTORS
330
C
102
}
330
C
100
AcDbXrecord
280
     1
 90
        1
330
6A
  0
DICTIONARY
  5
18E
102
{ACAD_REACTORS
330
C
102
}
330
C
100
AcDbDictionary
281
     1
  3
CANNOSCALE
350
18F
  3
CMLEADERSTYLE
350
194
  3
CTABLESTYLE
350
193
  0
LAYOUT
  5
1E
102
{ACAD_REACTORS
330
1A
102
}
330
1A
100
AcDbPlotSettings
  1

  2
none_device
  4

  6

 40
0.0
 41
0.0
 42
0.0
 43
0.0
 44
0.0
 45
0.0
 46
0.0
 47
0.0
 48
0.0
 49
0.0
140
0.0
141
0.0
142
1.0
143
1.0
 70
   688
 72
     0
 73
     0
 74
     5
  7

 75
    16
 76
     0
 77
     2
 78
   300
147
1.0
148
0.0
149
0.0
100
AcDbLayout
  1
Layout1
 70
     1
 71
     1
 10
0.0
 20
0.0
 11
12.0
 21
9.0
 12
0.0
 22
0.0
 32
0.0
 14
1.000000000000000E+20
 24
1.000000000000000E+20
 34
1.000000000000000E+20
 15
-1.000000000000000E+20
 25
-1.000000000000000E+20
 35
-1.000000000000000E+20
146
0.0
 13
0.0
 23
0.0
 33
0.0
 16
1.0
 26
0.0
 36
0.0
 17
0.0
 27
1.0
 37
0.0
 76
     0
330
1B
  0
LAYOUT
  5
26
102
{ACAD_REACTORS
330
1A
102
}
330
1A
100
AcDbPlotSettings
  1

  2
none_device
  4

  6

 40
0.0
 41
0.0
 42
0.0
 43
0.0
 44
0.0
 45
0.0
 46
0.0
 47
0.0
 48
0.0
 49
0.0
140
0.0
141
0.0
142
1.0
143
1.0
 70
   688
 72
     0
 73
     0
 74
     5
  7

 75
    16
 76
     0
 77
     2
 78
   300
147
1.0
148
0.0
149
0.0
100
AcDbLayout
  1
Layout2
 70
     1
 71
     2
 10
0.0
 20
0.0
 11
0.0
 21
0.0
 12
0.0
 22
0.0
 32
0.0
 14
0.0
 24
0.0
 34
0.0
 15
0.0
 25
0.0
 35
0.0
146
0.0
 13
0.0
 23
0.0
 33
0.0
 16
1.0
 26
0.0
 36
0.0
 17
0.0
 27
1.0
 37
0.0
 76
     0
330
23
  0
LAYOUT
  5
22
102
{ACAD_REACTORS
330
1A
102
}
330
1A
100
AcDbPlotSettings
  1

  2
none_device
  4
Letter_(8.50_x_11.00_Inches)
  6

 40
6.35
 41
6.35
 42
6.35000508
 43
6.35000508
 44
215.9
 45
279.4
 46
0.0
 47
0.0
 48
0.0
 49
0.0
140
0.0
141
0.0
142
1.0
143
1.0
 70
  1712
 72
     0
 73
     0
 74
     0
  7

 75
     0
 76
     0
 77
     2
 78
   300
147
1.0
148
0.0
149
0.0
100
AcDbLayout
  1
Model
 70
     1
 71
     0
 10
0.0
 20
0.0
 11
12.0
 21
9.0
 12
0.0
 22
0.0
 32
0.0
 14
1.000000000000000E+20
 24
1.000000000000000E+20
 34
1.000000000000000E+20
 15
-1.000000000000000E+20
 25
-1.000000000000000E+20
 35
-1.000000000000000E+20
146
0.0
 13
0.0
 23
0.0
 33
0.0
 16
1.0
 26
0.0
 36
0.0
 17
0.0
 27
1.0
 37
0.0
 76
     0
330
1F
331
29
  0
MATERIAL
  5
45
102
{ACAD_REACTORS
330
43
102
}
330
43
100
AcDbMaterial
  1
ByBlock
 72
     1
 94
      127
  0
MATERIAL
  5
44
102
{ACAD_REACTORS
330
43
102
}
330
43
100
AcDbMaterial
  1
ByLayer
 72
     1
 94
      127
  0
MATERIAL
  5
46
102
{ACAD_REACTORS
330
43
102
}
330
43
100
AcDbMaterial
  1
Global
 72
     1
 94
      127
  0
MLEADERSTYLE
  5
6C
102
{ACAD_REACTORS
330
6B
102
}
330
6B
100
AcDbMLeaderStyle
179
     2
170
     2
171
     1
172
     0
 90
        2
 40
0.0
 41
0.0
173
     1
 91
-1056964608
340
14
 92
       -2
290
     1
 42
0.09
291
     1
 43
0.36
  3
Standard
341
0
 44
0.18
300

342
11
174
     1
178
     6
175
     1
176
     0
 93
-1056964608
 45
0.18
292
     0
297
     0
 46
0.18
343
0
 94
-1056964608
 47
1.0
 49
1.0
140
1.0
293
     1
141
0.0
294
     1
177
     0
142
1.0
295
     0
296
     0
143
0.125
271
     0
272
     9
273
     9
298
     0
  0
MLINESTYLE
  5
18
102
{ACAD_REACTORS
330
17
102
}
330
17
100
AcDbMlineStyle
  2
Standard
 70
     0
  3

 62
   256
 51
90.0
 52
90.0
 71
     2
 49
0.5
 62
   256
  6
BYLAYER
 49
-0.5
 62
   256
  6
BYLAYER
  0
ACDBPLACEHOLDER
  5
F
102
{ACAD_REACTORS
330
E
102
}
330
E
  0
SCALE
  5
48
102
{ACAD_REACTORS
330
47
102
}
330
47
100
AcDbScale
 70
     0
300
1:1
140
1.0
141
1.0
290
     1
  0
SCALE
  5
49
102
{ACAD_REACTORS
330
47
102
}
330
47
100
AcDbScale
 70
     0
300
1:2
140
1.0
141
2.0
290
     0
  0
SCALE
  5
4A
102
{ACAD_REACTORS
330
47
102
}
330
47
100
AcDbScale
 70
     0
300
1:4
140
1.0
141
4.0
290
     0
  0
SCALE
  5
4B
102
{ACAD_REACTORS
330
47
102
}
330
47
100
AcDbScale
 70
     0
300
1:5
140
1.0
141
5.0
290
     0
  0
SCALE
  5
4C
102
{ACAD_REACTORS
330
47
102
}
330
47
100
AcDbScale
 70
     0
300
1:8
140
1.0
141
8.0
290
     0
  0
SCALE
  5
4D
102
{ACAD_REACTORS
330
47
102
}
330
47
100
AcDbScale
 70
     0
300
1:10
140
1.0
141
10.0
290
     0
  0
SCALE
  5
4E
102
{ACAD_REACTORS
330
47
102
}
330
47
100
AcDbScale
 70
     0
300
1:16
140
1.0
141
16.0
290
     0
  0
SCALE
  5
4F
102
{ACAD_REACTORS
330
47
102
}
330
47
100
AcDbScale
 70
     0
300
1:20
140
1.0
141
20.0
290
     0
  0
SCALE
  5
50
102
{ACAD_REACTORS
330
47
102
}
330
47
100
AcDbScale
 70
     0
300
1:30
140
1.0
141
30.0
290
     0
  0
SCALE
  5
51
102
{ACAD_REACTORS
330
47
102
}
330
47
100
AcDbScale
 70
     0
300
1:40
140
1.0
141
40.0
290
     0
  0
SCALE
  5
52
102
{ACAD_REACTORS
330
47
102
}
330
47
100
AcDbScale
 70
     0
300
1:50
140
1.0
141
50.0
290
     0
  0
SCALE
  5
53
102
{ACAD_REACTORS
330
47
102
}
330
47
100
AcDbScale
 70
     0
300
1:100
140
1.0
141
100.0
290
     0
  0
SCALE
  5
54
102
{ACAD_REACTORS
330
47
102
}
330
47
100
AcDbScale
 70
     0
300
2:1
140
2.0
141
1.0
290
     0
  0
SCALE
  5
55
102
{ACAD_REACTORS
330
47
102
}
330
47
100
AcDbScale
 70
     0
300
4:1
140
4.0
141
1.0
290
     0
  0
SCALE
  5
56
102
{ACAD_REACTORS
330
47
102
}
330
47
100
AcDbScale
 70
     0
300
8:1
140
8.0
141
1.0
290
     0
  0
SCALE
  5
57
102
{ACAD_REACTORS
330
47
102
}
330
47
100
AcDbScale
 70
     0
300
10:1
140
10.0
141
1.0
290
     0
  0
SCALE
  5
58
102
{ACAD_REACTORS
330
47
102
}
330
47
100
AcDbScale
 70
     0
300
100:1
140
100.0
141
1.0
290
     0
  0
SCALE
  5
59
102
{ACAD_REACTORS
330
47
102
}
330
47
100
AcDbScale
 70
     0
300
1/128" = 1'-0"
140
0.0078125
141
12.0
290
     0
  0
SCALE
  5
5A
102
{ACAD_REACTORS
330
47
102
}
330
47
100
AcDbScale
 70
     0
300
1/64" = 1'-0"
140
0.015625
141
12.0
290
     0
  0
SCALE
  5
5B
102
{ACAD_REACTORS
330
47
102
}
330
47
100
AcDbScale
 70
     0
300
1/32" = 1'-0"
140
0.03125
141
12.0
290
     0
  0
SCALE
  5
5C
102
{ACAD_REACTORS
330
47
102
}
330
47
100
AcDbScale
 70
     0
300
1/16" = 1'-0"
140
0.0625
141
12.0
290
     0
  0
SCALE
  5
5D
102
{ACAD_REACTORS
330
47
102
}
330
47
100
AcDbScale
 70
     0
300
3/32" = 1'-0"
140
0.09375
141
12.0
290
     0
  0
SCALE
  5
5E
102
{ACAD_REACTORS
330
47
102
}
330
47
100
AcDbScale
 70
     0
300
1/8" = 1'-0"
140
0.125
141
12.0
290
     0
  0
SCALE
  5
5F
102
{ACAD_REACTORS
330
47
102
}
330
47
100
AcDbScale
 70
     0
300
3/16" = 1'-0"
140
0.1875
141
12.0
290
     0
  0
SCALE
  5
60
102
{ACAD_REACTORS
330
47
102
}
330
47
100
AcDbScale
 70
     0
300
1/4" = 1'-0"
140
0.25
141
12.0
290
     0
  0
SCALE
  5
61
102
{ACAD_REACTORS
330
47
102
}
330
47
100
AcDbScale
 70
     0
300
3/8" = 1'-0"
140
0.375
141
12.0
290
     0
  0
SCALE
  5
62
102
{ACAD_REACTORS
330
47
102
}
330
47
100
AcDbScale
 70
     0
300
1/2" = 1'-0"
140
0.5
141
12.0
290
     0
  0
SCALE
  5
63
102
{ACAD_REACTORS
330
47
102
}
330
47
100
AcDbScale
 70
     0
300
3/4" = 1'-0"
140
0.75
141
12.0
290
     0
  0
SCALE
  5
64
102
{ACAD_REACTORS
330
47
102
}
330
47
100
AcDbScale
 70
     0
300
1" = 1'-0"
140
1.0
141
12.0
290
     0
  0
SCALE
  5
65
102
{ACAD_REACTORS
330
47
102
}
330
47
100
AcDbScale
 70
     0
300
1-1/2" = 1'-0"
140
1.5
141
12.0
290
     0
  0
SCALE
  5
66
102
{ACAD_REACTORS
330
47
102
}
330
47
100
AcDbScale
 70
     0
300
3" = 1'-0"
140
3.0
141
12.0
290
     0
  0
SCALE
  5
67
102
{ACAD_REACTORS
330
47
102
}
330
47
100
AcDbScale
 70
     0
300
6" = 1'-0"
140
6.0
141
12.0
290
     0
  0
SCALE
  5
68
102
{ACAD_REACTORS
330
47
102
}
330
47
100
AcDbScale
 70
     0
300
1'-0" = 1'-0"
140
12.0
141
12.0
290
     0
  0
TABLESTYLE
  5
6A
102
{ACAD_REACTORS
330
69
102
}
102
{ACAD_XDICTIONARY
360
190
102
}
330
69
100
AcDbTableStyle
  3
Standard
 70
     0
 71
     0
 40
0.06
 41
0.06
280
     0
281
     0
  7
Standard
140
0.18
170
     2
 62
     0
 63
   257
283
     0
 90
        4
 91
        0
  1

274
    -2
284
     1
 64
     0
275
    -2
285
     1
 65
     0
276
    -2
286
     1
 66
     0
277
    -2
287
     1
 67
     0
278
    -2
288
     1
 68
     0
279
    -2
289
     1
 69
     0
  7
Standard
140
0.25
170
     5
 62
     0
 63
   257
283
     0
 90
        4
 91
        0
  1

274
    -2
284
     1
 64
     0
275
    -2
285
     1
 65
     0
276
    -2
286
     1
 66
     0
277
    -2
287
     1
 67
     0
278
    -2
288
     1
 68
     0
279
    -2
289
     1
 69
     0
  7
Standard
140
0.18
170
     5
 62
     0
 63
   257
283
     0
 90
        4
 91
        0
  1

274
    -2
284
     1
 64
     0
275
    -2
285
     1
 65
     0
276
    -2
286
     1
 66
     0
277
    -2
287
     1
 67
     0
278
    -2
288
     1
 68
     0
279
    -2
289
     1
 69
     0
  0
VISUALSTYLE
  5
2F
102
{ACAD_REACTORS
330
2A
102
}
330
2A
100
AcDbVisualStyle
  2
2dWireframe
 70
     4
177
     3
291
     0
 70
    58
 90
        0
176
     1
 90
        2
176
     1
 90
        0
176
     1
 90
        0
176
     1
 40
0.6
176
     1
 40
30.0
176
     1
 62
     7
420
 16777215
176
     1
 90
        1
176
     1
 90
        4
176
     1
 62
     7
176
     1
 62
   257
176
     1
 90
        1
176
     1
 90
        1
176
     1
 40
1.0
176
     1
 90
        0
176
     1
 62
   257
176
     1
 40
1.0
176
     1
 90
        1
176
     1
 90
        6
176
     1
 90
        2
176
     1
 62
     7
176
     1
 90
        5
176
     1
 90
        0
176
     1
 90
        0
176
     1
290
     0
176
     1
 90
        1
176
     1
 40
0.0
176
     1
 90
        0
176
     1
290
     1
176
     1
290
     1
176
     1
290
     0
176
     1
290
     0
176
     1
290
     0
176
     1
290
     0
176
     1
290
     0
176
     1
290
     0
176
     1
290
     0
176
     1
 90
       50
176
     1
 40
0.0
176
     1
 40
1.0
176
     1
 90
        0
176
     1
 62
    18
420
        0
176
     1
 90
       50
176
     1
 90
        3
176
     1
 62
     5
420
      255
176
     1
290
     0
176
     1
 90
       50
176
     1
 90
       50
176
     1
 90
       50
176
     1
290
     0
176
     1
 90
       50
176
     1
 62
   256
176
     0
 40
1.0
176
     0
 90
        2
176
     1
  1
strokes_ogs.tif
176
     1
290
     0
176
     1
 40
1.0
176
     1
 40
1.0
176
     1
  0
VISUALSTYLE
  5
32
102
{ACAD_REACTORS
330
2A
102
}
330
2A
100
AcDbVisualStyle
  2
Basic
 70
     7
177
     3
291
     1
 70
    58
 90
        1
176
     1
 90
        0
176
     1
 90
        1
176
     1
 90
        0
176
     1
 40
0.6
176
     1
 40
30.0
176
     1
 62
     7
420
 16777215
176
     1
 90
        0
176
     1
 90
        4
176
     1
 62
     7
176
     1
 62
   257
176
     1
 90
        1
176
     1
 90
        1
176
     1
 40
1.0
176
     1
 90
        8
176
     1
 62
     7
176
     1
 40
1.0
176
     1
 90
        1
176
     1
 90
        6
176
     1
 90
        2
176
     1
 62
     7
176
     1
 90
        5
176
     1
 90
        0
176
     1
 90
        0
176
     1
290
     0
176
     1
 90
        1
176
     1
 40
0.0
176
     1
 90
        0
176
     1
290
     0
176
     1
290
     1
176
     1
290
     1
176
     1
290
     0
176
     1
290
     0
176
     1
290
     0
176
     1
290
     0
176
     1
290
     0
176
     1
290
     0
176
     1
 90
       50
176
     1
 40
0.0
176
     1
 40
1.0
176
     1
 90
        0
176
     1
 62
    18
420
        0
176
     1
 90
       50
176
     1
 90
        3
176
     1
 62
     5
420
      255
176
     1
290
     0
176
     1
 90
       50
176
     1
 90
       50
176
     1
 90
       50
176
     1
290
     0
176
     1
 90
       50
176
     1
 62
   256
176
     0
 40
1.0
176
     0
 90
        2
176
     1
  1
strokes_ogs.tif
176
     1
290
     0
176
     1
 40
1.0
176
     1
 40
1.0
176
     1
  0
VISUALSTYLE
  5
36
102
{ACAD_REACTORS
330
2A
102
}
330
2A
100
AcDbVisualStyle
  2
Brighten
 70
    12
177
     3
291
     1
 70
    58
 90
        2
176
     1
 90
        2
176
     1
 90
        0
176
     1
 90
        0
176
     1
 40
0.6
176
     1
 40
30.0
176
     1
 62
     7
420
 16777215
176
     1
 90
        1
176
     1
 90
        4
176
     1
 62
     7
176
     1
 62
   257
176
     1
 90
        1
176
     1
 90
        1
176
     1
 40
1.0
176
     1
 90
        8
176
     1
 62
     7
176
     1
 40
1.0
176
     1
 90
        1
176
     1
 90
        6
176
     1
 90
        2
176
     1
 62
     7
176
     1
 90
        5
176
     1
 90
        0
176
     1
 90
        0
176
     1
290
     0
176
     1
 90
        1
176
     1
 40
50.0
176
     1
 90
        0
176
     1
290
     0
176
     1
290
     1
176
     1
290
     1
176
     1
290
     0
176
     1
290
     0
176
     1
290
     0
176
     1
290
     0
176
     1
290
     0
176
     1
290
     0
176
     1
 90
       50
176
     1
 40
0.0
176
     1
 40
1.0
176
     1
 90
        0
176
     1
 62
    18
420
        0
176
     1
 90
       50
176
     1
 90
        3
176
     1
 62
     5
420
      255
176
     1
290
     0
176
     1
 90
       50
176
     1
 90
       50
176
     1
 90
       50
176
     1
290
     0
176
     1
 90
       50
176
     1
 62
   256
176
     0
 40
1.0
176
     0
 90
        2
176
     1
  1
strokes_ogs.tif
176
     1
290
     0
176
     1
 40
1.0
176
     1
 40
1.0
176
     1
  0
VISUALSTYLE
  5
3A
102
{ACAD_REACTORS
330
2A
102
}
330
2A
100
AcDbVisualStyle
  2
ColorChange
 70
    16
177
     3
291
     1
 70
    58
 90
        2
176
     1
 90
        2
176
     1
 90
        3
176
     1
 90
        0
176
     1
 40
0.6
176
     1
 40
30.0
176
     1
 62
     8
420
  8421504
176
     1
 90
        1
176
     1
 90
        4
176
     1
 62
     7
176
     1
 62
   257
176
     1
 90
        1
176
     1
 90
        1
176
     1
 40
1.0
176
     1
 90
        8
176
     1
 62
     8
420
  8421504
176
     1
 40
1.0
176
     1
 90
        1
176
     1
 90
        6
176
     1
 90
        2
176
     1
 62
     7
176
     1
 90
        5
176
     1
 90
        0
176
     1
 90
        0
176
     1
290
     0
176
     1
 90
        1
176
     1
 40
0.0
176
     1
 90
        0
176
     1
290
     0
176
     1
290
     1
176
     1
290
     1
176
     1
290
     0
176
     1
290
     0
176
     1
290
     0
176
     1
290
     0
176
     1
290
     0
176
     1
290
     0
176
     1
 90
       50
176
     1
 40
0.0
176
     1
 40
1.0
176
     1
 90
        0
176
     1
 62
    18
420
        0
176
     1
 90
       50
176
     1
 90
        3
176
     1
 62
     5
420
      255
176
     1
290
     0
176
     1
 90
       50
176
     1
 90
       50
176
     1
 90
       50
176
     1
290
     0
176
     1
 90
       50
176
     1
 62
   256
176
     0
 40
1.0
176
     0
 90
        2
176
     1
  1
strokes_ogs.tif
176
     1
290
     0
176
     1
 40
1.0
176
     1
 40
1.0
176
     1
  0
VISUALSTYLE
  5
34
102
{ACAD_REACTORS
330
2A
102
}
330
2A
100
AcDbVisualStyle
  2
Conceptual
 70
     9
177
     3
291
     0
 70
    58
 90
        3
176
     1
 90
        2
176
     1
 90
        0
176
     1
 90
        0
176
     1
 40
0.6
176
     1
 40
30.0
176
     1
 62
     7
420
 16777215
176
     1
 90
        2
176
     1
 90
        2
176
     1
 62
     7
176
     1
 62
   257
176
     1
 90
        1
176
     1
 90
        1
176
     1
 40
179.0
176
     1
 90
        8
176
     1
 62
     7
176
     1
 40
1.0
176
     1
 90
        1
176
     1
 90
        6
176
     1
 90
        2
176
     1
 62
     7
176
     1
 90
        3
176
     1
 90
        0
176
     1
 90
        0
176
     1
290
     0
176
     1
 90
        1
176
     1
 40
0.0
176
     1
 90
        0
176
     1
290
     0
176
     1
290
     1
176
     1
290
     1
176
     1
290
     0
176
     1
290
     0
176
     1
290
     0
176
     1
290
     0
176
     1
290
     0
176
     1
290
     0
176
     1
 90
       50
176
     1
 40
0.0
176
     1
 40
1.0
176
     1
 90
        0
176
     1
 62
    18
420
        0
176
     1
 90
       50
176
     1
 90
        3
176
     1
 62
     5
420
      255
176
     1
290
     0
176
     1
 90
       50
176
     1
 90
       50
176
     1
 90
       50
176
     1
290
     0
176
     1
 90
       50
176
     1
 62
   256
176
     0
 40
1.0
176
     0
 90
        2
176
     1
  1
strokes_ogs.tif
176
     1
290
     0
176
     1
 40
1.0
176
     1
 40
1.0
176
     1
  0
VISUALSTYLE
  5
35
102
{ACAD_REACTORS
330
2A
102
}
330
2A
100
AcDbVisualStyle
  2
Dim
 70
    11
177
     3
291
     1
 70
    58
 90
        2
176
     1
 90
        2
176
     1
 90
        0
176
     1
 90
        0
176
     1
 40
0.6
176
     1
 40
30.0
176
     1
 62
     7
420
 16777215
176
     1
 90
        1
176
     1
 90
        4
176
     1
 62
     7
176
     1
 62
   257
176
     1
 90
        1
176
     1
 90
        1
176
     1
 40
1.0
176
     1
 90
        8
176
     1
 62
     7
176
     1
 40
1.0
176
     1
 90
        1
176
     1
 90
        6
176
     1
 90
        2
176
     1
 62
     7
176
     1
 90
        5
176
     1
 90
        0
176
     1
 90
        0
176
     1
290
     0
176
     1
 90
        1
176
     1
 40
-50.0
176
     1
 90
        0
176
     1
290
     0
176
     1
290
     1
176
     1
290
     1
176
     1
290
     0
176
     1
290
     0
176
     1
290
     0
176
     1
290
     0
176
     1
290
     0
176
     1
290
     0
176
     1
 90
       50
176
     1
 40
0.0
176
     1
 40
1.0
176
     1
 90
        0
176
     1
 62
    18
420
        0
176
     1
 90
       50
176
     1
 90
        3
176
     1
 62
     5
420
      255
176
     1
290
     0
176
     1
 90
       50
176
     1
 90
       50
176
     1
 90
       50
176
     1
290
     0
176
     1
 90
       50
176
     1
 62
   256
176
     0
 40
1.0
176
     0
 90
        2
176
     1
  1
strokes_ogs.tif
176
     1
290
     0
176
     1
 40
1.0
176
     1
 40
1.0
176
     1
  0
VISUALSTYLE
  5
3D
102
{ACAD_REACTORS
330
2A
102
}
330
2A
100
AcDbVisualStyle
  2
EdgeColorOff
 70
    22
177
     3
291
     1
 70
    58
 90
        2
176
     0
 90
        2
176
     0
 90
        0
176
     0
 90
        0
176
     0
 40
0.6
176
     0
 40
30.0
176
     0
 62
     7
420
 16777215
176
     0
 90
        1
176
     0
 90
        4
176
     0
 62
     7
176
     0
 62
   257
176
     0
 90
        1
176
     0
 90
        1
176
     0
 40
1.0
176
     0
 90
        8
176
     2
 62
     7
176
     0
 40
1.0
176
     0
 90
        1
176
     0
 90
        6
176
     0
 90
        2
176
     0
 62
     7
176
     0
 90
        5
176
     0
 90
        0
176
     0
 90
        0
176
     0
290
     0
176
     0
 90
        1
176
     0
 40
0.0
176
     0
 90
        0
176
     0
290
     0
176
     0
290
     1
176
     0
290
     1
176
     0
290
     0
176
     0
290
     0
176
     0
290
     0
176
     0
290
     0
176
     0
290
     0
176
     0
290
     0
176
     0
 90
       50
176
     0
 40
0.0
176
     0
 40
1.0
176
     0
 90
        0
176
     0
 62
    18
420
        0
176
     0
 90
       50
176
     0
 90
        3
176
     0
 62
     5
420
      255
176
     0
290
     0
176
     0
 90
       50
176
     0
 90
       50
176
     0
 90
       50
176
     0
290
     0
176
     0
 90
       50
176
     0
 62
   256
176
     0
 40
1.0
176
     0
 90
        2
176
     0
  1
strokes_ogs.tif
176
     0
290
     0
176
     0
 40
1.0
176
     0
 40
1.0
176
     0
  0
VISUALSTYLE
  5
39
102
{ACAD_REACTORS
330
2A
102
}
330
2A
100
AcDbVisualStyle
  2
Facepattern
 70
    15
177
     3
291
     1
 70
    58
 90
        2
176
     1
 90
        2
176
     1
 90
        0
176
     1
 90
        0
176
     1
 40
0.6
176
     1
 40
30.0
176
     1
 62
     7
420
 16777215
176
     1
 90
        1
176
     1
 90
        4
176
     1
 62
     7
176
     1
 62
   257
176
     1
 90
        1
176
     1
 90
        1
176
     1
 40
1.0
176
     1
 90
        8
176
     1
 62
     7
176
     1
 40
1.0
176
     1
 90
        1
176
     1
 90
        6
176
     1
 90
        2
176
     1
 62
     7
176
     1
 90
        5
176
     1
 90
        0
176
     1
 90
        0
176
     1
290
     0
176
     1
 90
        1
176
     1
 40
0.0
176
     1
 90
        0
176
     1
290
     0
176
     1
290
     1
176
     1
290
     1
176
     1
290
     0
176
     1
290
     0
176
     1
290
     0
176
     1
290
     0
176
     1
290
     0
176
     1
290
     0
176
     1
 90
       50
176
     1
 40
0.0
176
     1
 40
1.0
176
     1
 90
        0
176
     1
 62
    18
420
        0
176
     1
 90
       50
176
     1
 90
        3
176
     1
 62
     5
420
      255
176
     1
290
     0
176
     1
 90
       50
176
     1
 90
       50
176
     1
 90
       50
176
     1
290
     0
176
     1
 90
       50
176
     1
 62
   256
176
     0
 40
1.0
176
     0
 90
        2
176
     1
  1
strokes_ogs.tif
176
     1
290
     0
176
     1
 40
1.0
176
     1
 40
1.0
176
     1
  0
VISUALSTYLE
  5
2B
102
{ACAD_REACTORS
330
2A
102
}
330
2A
100
AcDbVisualStyle
  2
Flat
 70
     0
177
     3
291
     1
 70
    58
 90
        2
176
     1
 90
        1
176
     1
 90
        1
176
     1
 90
        2
176
     1
 40
0.6
176
     1
 40
30.0
176
     1
 62
     7
420
 16777215
176
     1
 90
        0
176
     1
 90
        0
176
     1
 62
     7
176
     1
 62
   257
176
     1
 90
        1
176
     1
 90
        1
176
     1
 40
1.0
176
     1
 90
        8
176
     1
 62
     7
176
     1
 40
1.0
176
     1
 90
        1
176
     1
 90
        6
176
     1
 90
        2
176
     1
 62
     7
176
     1
 90
        5
176
     1
 90
        0
176
     1
 90
        0
176
     1
290
     0
176
     1
 90
       13
176
     1
 40
0.0
176
     1
 90
        0
176
     1
290
     0
176
     1
290
     1
176
     1
290
     1
176
     1
290
     0
176
     1
290
     0
176
     1
290
     0
176
     1
290
     0
176
     1
290
     0
176
     1
290
     0
176
     1
 90
       50
176
     1
 40
0.0
176
     1
 40
1.0
176
     1
 90
        0
176
     1
 62
    18
420
        0
176
     1
 90
       50
176
     1
 90
        3
176
     1
 62
     5
420
      255
176
     1
290
     0
176
     1
 90
       50
176
     1
 90
       50
176
     1
 90
       50
176
     1
290
     0
176
     1
 90
       50
176
     1
 62
   256
176
     0
 40
1.0
176
     0
 90
        2
176
     1
  1
strokes_ogs.tif
176
     1
290
     0
176
     1
 40
1.0
176
     1
 40
1.0
176
     1
  0
VISUALSTYLE
  5
2C
102
{ACAD_REACTORS
330
2A
102
}
330
2A
100
AcDbVisualStyle
  2
FlatWithEdges
 70
     1
177
     3
291
     1
 70
    58
 90
        2
176
     1
 90
        1
176
     1
 90
        1
176
     1
 90
        2
176
     1
 40
0.6
176
     1
 40
30.0
176
     1
 62
     7
420
 16777215
176
     1
 90
        1
176
     1
 90
        0
176
     1
 62
     7
176
     1
 62
   257
176
     1
 90
        1
176
     1
 90
        1
176
     1
 40
1.0
176
     1
 90
        0
176
     1
 62
   257
176
     1
 40
1.0
176
     1
 90
        1
176
     1
 90
        6
176
     1
 90
        2
176
     1
 62
     7
176
     1
 90
        5
176
     1
 90
        0
176
     1
 90
        0
176
     1
290
     0
176
     1
 90
       13
176
     1
 40
0.0
176
     1
 90
        0
176
     1
290
     0
176
     1
290
     1
176
     1
290
     1
176
     1
290
     0
176
     1
290
     0
176
     1
290
     0
176
     1
290
     0
176
     1
290
     0
176
     1
290
     0
176
     1
 90
       50
176
     1
 40
0.0
176
     1
 40
1.0
176
     1
 90
        0
176
     1
 62
    18
420
        0
176
     1
 90
       50
176
     1
 90
        3
176
     1
 62
     5
420
      255
176
     1
290
     0
176
     1
 90
       50
176
     1
 90
       50
176
     1
 90
       50
176
     1
290
     0
176
     1
 90
       50
176
     1
 62
   256
176
     0
 40
1.0
176
     0
 90
        2
176
     1
  1
strokes_ogs.tif
176
     1
290
     0
176
     1
 40
1.0
176
     1
 40
1.0
176
     1
  0
VISUALSTYLE
  5
2D
102
{ACAD_REACTORS
330
2A
102
}
330
2A
100
AcDbVisualStyle
  2
Gouraud
 70
     2
177
     3
291
     1
 70
    58
 90
        2
176
     1
 90
        2
176
     1
 90
        1
176
     1
 90
        2
176
     1
 40
0.6
176
     1
 40
30.0
176
     1
 62
     7
420
 16777215
176
     1
 90
        0
176
     1
 90
        0
176
     1
 62
     7
176
     1
 62
   257
176
     1
 90
        1
176
     1
 90
        1
176
     1
 40
1.0
176
     1
 90
        0
176
     1
 62
     7
176
     1
 40
1.0
176
     1
 90
        1
176
     1
 90
        6
176
     1
 90
        2
176
     1
 62
     7
176
     1
 90
        5
176
     1
 90
        0
176
     1
 90
        0
176
     1
290
     0
176
     1
 90
       13
176
     1
 40
0.0
176
     1
 90
        0
176
     1
290
     0
176
     1
290
     1
176
     1
290
     1
176
     1
290
     0
176
     1
290
     0
176
     1
290
     0
176
     1
290
     0
176
     1
290
     0
176
     1
290
     0
176
     1
 90
       50
176
     1
 40
0.0
176
     1
 40
1.0
176
     1
 90
        0
176
     1
 62
    18
420
        0
176
     1
 90
       50
176
     1
 90
        3
176
     1
 62
     5
420
      255
176
     1
290
     0
176
     1
 90
       50
176
     1
 90
       50
176
     1
 90
       50
176
     1
290
     0
176
     1
 90
       50
176
     1
 62
   256
176
     0
 40
1.0
176
     0
 90
        2
176
     1
  1
strokes_ogs.tif
176
     1
290
     0
176
     1
 40
1.0
176
     1
 40
1.0
176
     1
  0
VISUALSTYLE
  5
2E
102
{ACAD_REACTORS
330
2A
102
}
330
2A
100
AcDbVisualStyle
  2
GouraudWithEdges
 70
     3
177
     3
291
     1
 70
    58
 90
        2
176
     1
 90
        2
176
     1
 90
        1
176
     1
 90
        2
176
     1
 40
0.6
176
     1
 40
30.0
176
     1
 62
     7
420
 16777215
176
     1
 90
        1
176
     1
 90
        0
176
     1
 62
     7
176
     1
 62
   257
176
     1
 90
        1
176
     1
 90
        1
176
     1
 40
1.0
176
     1
 90
        0
176
     1
 62
   257
176
     1
 40
1.0
176
     1
 90
        1
176
     1
 90
        6
176
     1
 90
        2
176
     1
 62
     7
176
     1
 90
        5
176
     1
 90
        0
176
     1
 90
        0
176
     1
290
     0
176
     1
 90
       13
176
     1
 40
0.0
176
     1
 90
        0
176
     1
290
     0
176
     1
290
     1
176
     1
290
     1
176
     1
290
     0
176
     1
290
     0
176
     1
290
     0
176
     1
290
     0
176
     1
290
     0
176
     1
290
     0
176
     1
 90
       50
176
     1
 40
0.0
176
     1
 40
1.0
176
     1
 90
        0
176
     1
 62
    18
420
        0
176
     1
 90
       50
176
     1
 90
        3
176
     1
 62
     5
420
      255
176
     1
290
     0
176
     1
 90
       50
176
     1
 90
       50
176
     1
 90
       50
176
     1
290
     0
176
     1
 90
       50
176
     1
 62
   256
176
     0
 40
1.0
176
     0
 90
        2
176
     1
  1
strokes_ogs.tif
176
     1
290
     0
176
     1
 40
1.0
176
     1
 40
1.0
176
     1
  0
VISUALSTYLE
  5
31
102
{ACAD_REACTORS
330
2A
102
}
330
2A
100
AcDbVisualStyle
  2
Hidden
 70
     6
177
     3
291
     0
 70
    58
 90
        1
176
     1
 90
        2
176
     1
 90
        2
176
     1
 90
        0
176
     1
 40
0.6
176
     1
 40
30.0
176
     1
 62
     7
420
 16777215
176
     1
 90
        2
176
     1
 90
        2
176
     1
 62
     7
176
     1
 62
   257
176
     1
 90
        2
176
     1
 90
        1
176
     1
 40
40.0
176
     1
 90
        0
176
     1
 62
   257
176
     1
 40
1.0
176
     1
 90
        1
176
     1
 90
        6
176
     1
 90
        2
176
     1
 62
     7
176
     1
 90
        3
176
     1
 90
        0
176
     1
 90
        0
176
     1
290
     0
176
     1
 90
        1
176
     1
 40
0.0
176
     1
 90
        0
176
     1
290
     0
176
     1
290
     1
176
     1
290
     1
176
     1
290
     0
176
     1
290
     0
176
     1
290
     0
176
     1
290
     0
176
     1
290
     0
176
     1
290
     0
176
     1
 90
       50
176
     1
 40
0.0
176
     1
 40
1.0
176
     1
 90
        0
176
     1
 62
    18
420
        0
176
     1
 90
       50
176
     1
 90
        3
176
     1
 62
     5
420
      255
176
     1
290
     0
176
     1
 90
       50
176
     1
 90
       50
176
     1
 90
       50
176
     1
290
     0
176
     1
 90
       50
176
     1
 62
   256
176
     0
 40
1.0
176
     0
 90
        2
176
     1
  1
strokes_ogs.tif
176
     1
290
     0
176
     1
 40
1.0
176
     1
 40
1.0
176
     1
  0
VISUALSTYLE
  5
3B
102
{ACAD_REACTORS
330
2A
102
}
330
2A
100
AcDbVisualStyle
  2
JitterOff
 70
    20
177
     3
291
     1
 70
    58
 90
        2
176
     0
 90
        2
176
     0
 90
        0
176
     0
 90
        0
176
     0
 40
0.6
176
     0
 40
30.0
176
     0
 62
     7
420
 16777215
176
     0
 90
        1
176
     0
 90
        4
176
     0
 62
     7
176
     0
 62
   257
176
     0
 90
        1
176
     0
 90
        1
176
     0
 40
1.0
176
     0
 90
       10
176
     2
 62
     7
176
     0
 40
1.0
176
     0
 90
        1
176
     0
 90
        6
176
     0
 90
        2
176
     0
 62
     7
176
     0
 90
        5
176
     0
 90
        0
176
     0
 90
        0
176
     0
290
     0
176
     0
 90
        1
176
     0
 40
0.0
176
     0
 90
        0
176
     0
290
     0
176
     0
290
     1
176
     0
290
     1
176
     0
290
     0
176
     0
290
     0
176
     0
290
     0
176
     0
290
     0
176
     0
290
     0
176
     0
290
     0
176
     0
 90
       50
176
     0
 40
0.0
176
     0
 40
1.0
176
     0
 90
        0
176
     0
 62
    18
420
        0
176
     0
 90
       50
176
     0
 90
        3
176
     0
 62
     5
420
      255
176
     0
290
     0
176
     0
 90
       50
176
     0
 90
       50
176
     0
 90
       50
176
     0
290
     0
176
     0
 90
       50
176
     0
 62
   256
176
     0
 40
1.0
176
     0
 90
        2
176
     0
  1
strokes_ogs.tif
176
     0
290
     0
176
     0
 40
1.0
176
     0
 40
1.0
176
     0
  0
VISUALSTYLE
  5
38
102
{ACAD_REACTORS
330
2A
102
}
330
2A
100
AcDbVisualStyle
  2
Linepattern
 70
    14
177
     3
291
     1
 70
    58
 90
        2
176
     1
 90
        2
176
     1
 90
        0
176
     1
 90
        0
176
     1
 40
0.6
176
     1
 40
30.0
176
     1
 62
     7
420
 16777215
176
     1
 90
        1
176
     1
 90
        4
176
     1
 62
     7
176
     1
 62
   257
176
     1
 90
        7
176
     1
 90
        7
176
     1
 40
1.0
176
     1
 90
        8
176
     1
 62
     7
176
     1
 40
1.0
176
     1
 90
        1
176
     1
 90
        6
176
     1
 90
        2
176
     1
 62
     7
176
     1
 90
        5
176
     1
 90
        0
176
     1
 90
        0
176
     1
290
     0
176
     1
 90
        1
176
     1
 40
0.0
176
     1
 90
        0
176
     1
290
     0
176
     1
290
     1
176
     1
290
     1
176
     1
290
     0
176
     1
290
     0
176
     1
290
     0
176
     1
290
     0
176
     1
290
     0
176
     1
290
     0
176
     1
 90
       50
176
     1
 40
0.0
176
     1
 40
1.0
176
     1
 90
        0
176
     1
 62
    18
420
        0
176
     1
 90
       50
176
     1
 90
        3
176
     1
 62
     5
420
      255
176
     1
290
     0
176
     1
 90
       50
176
     1
 90
       50
176
     1
 90
       50
176
     1
290
     0
176
     1
 90
       50
176
     1
 62
   256
176
     0
 40
1.0
176
     0
 90
        2
176
     1
  1
strokes_ogs.tif
176
     1
290
     0
176
     1
 40
1.0
176
     1
 40
1.0
176
     1
  0
VISUALSTYLE
  5
3C
102
{ACAD_REACTORS
330
2A
102
}
330
2A
100
AcDbVisualStyle
  2
OverhangOff
 70
    21
177
     3
291
     1
 70
    58
 90
        2
176
     0
 90
        2
176
     0
 90
        0
176
     0
 90
        0
176
     0
 40
0.6
176
     0
 40
30.0
176
     0
 62
     7
420
 16777215
176
     0
 90
        1
176
     0
 90
        4
176
     0
 62
     7
176
     0
 62
   257
176
     0
 90
        1
176
     0
 90
        1
176
     0
 40
1.0
176
     0
 90
        9
176
     2
 62
     7
176
     0
 40
1.0
176
     0
 90
        1
176
     0
 90
        6
176
     0
 90
        2
176
     0
 62
     7
176
     0
 90
        5
176
     0
 90
        0
176
     0
 90
        0
176
     0
290
     0
176
     0
 90
        1
176
     0
 40
0.0
176
     0
 90
        0
176
     0
290
     0
176
     0
290
     1
176
     0
290
     1
176
     0
290
     0
176
     0
290
     0
176
     0
290
     0
176
     0
290
     0
176
     0
290
     0
176
     0
290
     0
176
     0
 90
       50
176
     0
 40
0.0
176
     0
 40
1.0
176
     0
 90
        0
176
     0
 62
    18
420
        0
176
     0
 90
       50
176
     0
 90
        3
176
     0
 62
     5
420
      255
176
     0
290
     0
176
     0
 90
       50
176
     0
 90
       50
176
     0
 90
       50
176
     0
290
     0
176
     0
 90
       50
176
     0
 62
   256
176
     0
 40
1.0
176
     0
 90
        2
176
     0
  1
strokes_ogs.tif
176
     0
290
     0
176
     0
 40
1.0
176
     0
 40
1.0
176
     0
  0
VISUALSTYLE
  5
33
102
{ACAD_REACTORS
330
2A
102
}
330
2A
100
AcDbVisualStyle
  2
Realistic
 70
     8
177
     3
291
     0
 70
    58
 90
        2
176
     1
 90
        3
176
     1
 90
        0
176
     1
 90
        2
176
     1
 40
0.6
176
     1
 40
30.0
176
     1
 62
     7
420
 16777215
176
     1
 90
        0
176
     1
 90
        0
176
     1
 62
     7
176
     1
 62
   257
176
     1
 90
        1
176
     1
 90
        1
176
     1
 40
1.0
176
     1
 90
        8
176
     1
 62
   257
176
     1
 40
1.0
176
     1
 90
        1
176
     1
 90
        6
176
     1
 90
        2
176
     1
 62
     7
176
     1
 90
        3
176
     1
 90
        0
176
     1
 90
        0
176
     1
290
     0
176
     1
 90
       13
176
     1
 40
0.0
176
     1
 90
        0
176
     1
290
     0
176
     1
290
     1
176
     1
290
     1
176
     1
290
     0
176
     1
290
     0
176
     1
290
     0
176
     1
290
     0
176
     1
290
     0
176
     1
290
     0
176
     1
 90
       50
176
     1
 40
0.0
176
     1
 40
1.0
176
     1
 90
        0
176
     1
 62
    18
420
        0
176
     1
 90
       50
176
     1
 90
        3
176
     1
 62
     5
420
      255
176
     1
290
     0
176
     1
 90
       50
176
     1
 90
       50
176
     1
 90
       50
176
     1
290
     0
176
     1
 90
       50
176
     1
 62
   256
176
     0
 40
1.0
176
     0
 90
        2
176
     1
  1
strokes_ogs.tif
176
     1
290
     0
176
     1
 40
1.0
176
     1
 40
1.0
176
     1
  0
VISUALSTYLE
  5
42
102
{ACAD_REACTORS
330
2A
102
}
330
2A
100
AcDbVisualStyle
  2
Shaded
 70
    27
177
     3
291
     0
 70
    58
 90
        2
176
     1
 90
        2
176
     1
 90
        1
176
     1
 90
        2
176
     1
 40
0.6
176
     1
 40
30.0
176
     1
 62
     7
420
 16777215
176
     1
 90
        0
176
     1
 90
        4
176
     1
 62
     7
176
     1
 62
   257
176
     1
 90
        1
176
     1
 90
        1
176
     1
 40
1.0
176
     1
 90
        8
176
     1
 62
   257
176
     1
 40
1.0
176
     1
 90
        1
176
     1
 90
        6
176
     1
 90
        2
176
     1
 62
     8
420
  7895160
176
     1
 90
        3
176
     1
 90
        0
176
     1
 90
        0
176
     1
290
     0
176
     1
 90
        5
176
     1
 40
0.0
176
     1
 90
        0
176
     1
290
     0
176
     1
290
     1
176
     1
290
     1
176
     1
290
     0
176
     1
290
     0
176
     1
290
     0
176
     1
290
     0
176
     1
290
     0
176
     1
290
     0
176
     1
 90
       50
176
     1
 40
0.0
176
     1
 40
1.0
176
     1
 90
        0
176
     1
 62
    18
420
        0
176
     1
 90
       50
176
     1
 90
        3
176
     1
 62
     5
420
      255
176
     1
290
     0
176
     1
 90
       50
176
     1
 90
       50
176
     1
 90
       50
176
     1
290
     0
176
     1
 90
       50
176
     1
 62
   256
176
     0
 40
1.0
176
     0
 90
        2
176
     1
  1
strokes_ogs.tif
176
     1
290
     0
176
     1
 40
1.0
176
     1
 40
1.0
176
     1
  0
VISUALSTYLE
  5
41
102
{ACAD_REACTORS
330
2A
102
}
330
2A
100
AcDbVisualStyle
  2
Shaded with edges
 70
    26
177
     3
291
     0
 70
    58
 90
        2
176
     1
 90
        2
176
     1
 90
        1
176
     1
 90
        2
176
     1
 40
0.6
176
     1
 40
30.0
176
     1
 62
     7
420
 16777215
176
     1
 90
        1
176
     1
 90
       10
176
     1
 62
     7
176
     1
 62
   257
176
     1
 90
        2
176
     1
 90
        1
176
     1
 40
1.0
176
     1
 90
        8
176
     1
 62
   257
176
     1
 40
1.0
176
     1
 90
        1
176
     1
 90
        6
176
     1
 90
        2
176
     1
 62
     7
176
     1
 90
        3
176
     1
 90
        0
176
     1
 90
        0
176
     1
290
     0
176
     1
 90
        5
176
     1
 40
0.0
176
     1
 90
        0
176
     1
290
     0
176
     1
290
     1
176
     1
290
     1
176
     1
290
     0
176
     1
290
     0
176
     1
290
     0
176
     1
290
     0
176
     1
290
     0
176
     1
290
     0
176
     1
 90
       50
176
     1
 40
0.0
176
     1
 40
1.0
176
     1
 90
        0
176
     1
 62
    18
420
        0
176
     1
 90
       50
176
     1
 90
        3
176
     1
 62
     5
420
      255
176
     1
290
     0
176
     1
 90
       50
176
     1
 90
       50
176
     1
 90
       50
176
     1
290
     0
176
     1
 90
       50
176
     1
 62
   256
176
     0
 40
1.0
176
     0
 90
        2
176
     1
  1
strokes_ogs.tif
176
     1
290
     0
176
     1
 40
1.0
176
     1
 40
1.0
176
     1
  0
VISUALSTYLE
  5
3E
102
{ACAD_REACTORS
330
2A
102
}
330
2A
100
AcDbVisualStyle
  2
Shades of Gray
 70
    23
177
     3
291
     0
 70
    58
 90
        2
176
     1
 90
        2
176
     1
 90
        3
176
     1
 90
        0
176
     1
 40
0.6
176
     1
 40
30.0
176
     1
 62
     7
420
 16777215
176
     1
 90
        2
176
     1
 90
        2
176
     1
 62
     7
176
     1
 62
     7
176
     1
 90
        1
176
     1
 90
        1
176
     1
 40
40.0
176
     1
 90
        8
176
     1
 62
     7
176
     1
 40
1.0
176
     1
 90
        1
176
     1
 90
        6
176
     1
 90
        2
176
     1
 62
     7
176
     1
 90
        3
176
     1
 90
        0
176
     1
 90
        0
176
     1
290
     0
176
     1
 90
        1
176
     1
 40
0.0
176
     1
 90
        0
176
     1
290
     0
176
     1
290
     1
176
     1
290
     1
176
     1
290
     0
176
     1
290
     0
176
     1
290
     0
176
     1
290
     0
176
     1
290
     0
176
     1
290
     0
176
     1
 90
       50
176
     1
 40
0.0
176
     1
 40
1.0
176
     1
 90
        0
176
     1
 62
    18
420
        0
176
     1
 90
       50
176
     1
 90
        3
176
     1
 62
     5
420
      255
176
     1
290
     0
176
     1
 90
       50
176
     1
 90
       50
176
     1
 90
       50
176
     1
290
     0
176
     1
 90
       50
176
     1
 62
   256
176
     0
 40
1.0
176
     0
 90
        2
176
     1
  1
strokes_ogs.tif
176
     1
290
     0
176
     1
 40
1.0
176
     1
 40
1.0
176
     1
  0
VISUALSTYLE
  5
3F
102
{ACAD_REACTORS
330
2A
102
}
330
2A
100
AcDbVisualStyle
  2
Sketchy
 70
    24
177
     3
291
     0
 70
    58
 90
        1
176
     1
 90
        2
176
     1
 90
        2
176
     1
 90
        0
176
     1
 40
0.6
176
     1
 40
30.0
176
     1
 62
     7
420
 16777215
176
     1
 90
        2
176
     1
 90
        2
176
     1
 62
     7
176
     1
 62
     7
176
     1
 90
        1
176
     1
 90
        1
176
     1
 40
40.0
176
     1
 90
       11
176
     1
 62
     7
176
     1
 40
1.0
176
     1
 90
        1
176
     1
 90
        6
176
     1
 90
        2
176
     1
 62
     7
176
     1
 90
        6
176
     1
 90
        0
176
     1
 90
        0
176
     1
290
     0
176
     1
 90
        1
176
     1
 40
0.0
176
     1
 90
        0
176
     1
290
     0
176
     1
290
     1
176
     1
290
     1
176
     1
290
     0
176
     1
290
     0
176
     1
290
     0
176
     1
290
     0
176
     1
290
     0
176
     1
290
     0
176
     1
 90
       50
176
     1
 40
0.0
176
     1
 40
1.0
176
     1
 90
        0
176
     1
 62
    18
420
        0
176
     1
 90
       50
176
     1
 90
        3
176
     1
 62
     5
420
      255
176
     1
290
     0
176
     1
 90
       50
176
     1
 90
       50
176
     1
 90
       50
176
     1
290
     0
176
     1
 90
       50
176
     1
 62
   256
176
     0
 40
1.0
176
     0
 90
        2
176
     1
  1
strokes_ogs.tif
176
     1
290
     0
176
     1
 40
1.0
176
     1
 40
1.0
176
     1
  0
VISUALSTYLE
  5
37
102
{ACAD_REACTORS
330
2A
102
}
330
2A
100
AcDbVisualStyle
  2
Thicken
 70
    13
177
     3
291
     1
 70
    58
 90
        2
176
     1
 90
        2
176
     1
 90
        0
176
     1
 90
        0
176
     1
 40
0.6
176
     1
 40
30.0
176
     1
 62
     7
420
 16777215
176
     1
 90
        1
176
     1
 90
        4
176
     1
 62
     7
176
     1
 62
   257
176
     1
 90
        1
176
     1
 90
        1
176
     1
 40
1.0
176
     1
 90
       12
176
     1
 62
     7
176
     1
 40
1.0
176
     1
 90
        1
176
     1
 90
        6
176
     1
 90
        2
176
     1
 62
     7
176
     1
 90
        5
176
     1
 90
        0
176
     1
 90
        0
176
     1
290
     0
176
     1
 90
        1
176
     1
 40
0.0
176
     1
 90
        0
176
     1
290
     0
176
     1
290
     1
176
     1
290
     1
176
     1
290
     0
176
     1
290
     0
176
     1
290
     0
176
     1
290
     0
176
     1
290
     0
176
     1
290
     0
176
     1
 90
       50
176
     1
 40
0.0
176
     1
 40
1.0
176
     1
 90
        0
176
     1
 62
    18
420
        0
176
     1
 90
       50
176
     1
 90
        3
176
     1
 62
     5
420
      255
176
     1
290
     0
176
     1
 90
       50
176
     1
 90
       50
176
     1
 90
       50
176
     1
290
     0
176
     1
 90
       50
176
     1
 62
   256
176
     0
 40
1.0
176
     0
 90
        2
176
     1
  1
strokes_ogs.tif
176
     1
290
     0
176
     1
 40
1.0
176
     1
 40
1.0
176
     1
  0
VISUALSTYLE
  5
30
102
{ACAD_REACTORS
330
2A
102
}
330
2A
100
AcDbVisualStyle
  2
Wireframe
 70
     5
177
     3
291
     0
 70
    58
 90
        0
176
     1
 90
        2
176
     1
 90
        0
176
     1
 90
        0
176
     1
 40
0.6
176
     1
 40
30.0
176
     1
 62
     7
420
 16777215
176
     1
 90
        1
176
     1
 90
        4
176
     1
 62
     7
176
     1
 62
   257
176
     1
 90
        1
176
     1
 90
        1
176
     1
 40
1.0
176
     1
 90
        0
176
     1
 62
   257
176
     1
 40
1.0
176
     1
 90
        1
176
     1
 90
        6
176
     1
 90
        2
176
     1
 62
     7
176
     1
 90
        3
176
     1
 90
        0
176
     1
 90
        0
176
     1
290
     0
176
     1
 90
        1
176
     1
 40
0.0
176
     1
 90
        0
176
     1
290
     0
176
     1
290
     1
176
     1
290
     1
176
     1
290
     0
176
     1
290
     0
176
     1
290
     0
176
     1
290
     0
176
     1
290
     0
176
     1
290
     0
176
     1
 90
       50
176
     1
 40
0.0
176
     1
 40
1.0
176
     1
 90
        0
176
     1
 62
    18
420
        0
176
     1
 90
       50
176
     1
 90
        3
176
     1
 62
     5
420
      255
176
     1
290
     0
176
     1
 90
       50
176
     1
 90
       50
176
     1
 90
       50
176
     1
290
     0
176
     1
 90
       50
176
     1
 62
   256
176
     0
 40
1.0
176
     0
 90
        2
176
     1
  1
strokes_ogs.tif
176
     1
290
     0
176
     1
 40
1.0
176
     1
 40
1.0
176
     1
  0
VISUALSTYLE
  5
40
102
{ACAD_REACTORS
330
2A
102
}
330
2A
100
AcDbVisualStyle
  2
X-Ray
 70
    25
177
     3
291
     0
 70
    58
 90
        2
176
     1
 90
        2
176
     1
 90
        1
176
     1
 90
        1
176
     1
 40
0.5
176
     1
 40
30.0
176
     1
 62
     7
420
 16777215
176
     1
 90
        1
176
     1
 90
        0
176
     1
 62
     7
176
     1
 62
   257
176
     1
 90
        1
176
     1
 90
        1
176
     1
 40
1.0
176
     1
 90
        8
176
     1
 62
     7
176
     1
 40
1.0
176
     1
 90
        1
176
     1
 90
        6
176
     1
 90
        2
176
     1
 62
     7
176
     1
 90
        3
176
     1
 90
        0
176
     1
 90
        0
176
     1
290
     0
176
     1
 90
       13
176
     1
 40
0.0
176
     1
 90
        0
176
     1
290
     0
176
     1
290
     1
176
     1
290
     1
176
     1
290
     0
176
     1
290
     0
176
     1
290
     0
176
     1
290
     0
176
     1
290
     0
176
     1
290
     0
176
     1
 90
       50
176
     1
 40
0.0
176
     1
 40
1.0
176
     1
 90
        0
176
     1
 62
    18
420
        0
176
     1
 90
       50
176
     1
 90
        3
176
     1
 62
     5
420
      255
176
     1
290
     0
176
     1
 90
       50
176
     1
 90
       50
176
     1
 90
       50
176
     1
290
     0
176
     1
 90
       50
176
     1
 62
   256
176
     0
 40
1.0
176
     0
 90
        2
176
     1
  1
strokes_ogs.tif
176
     1
290
     0
176
     1
 40
1.0
176
     1
 40
1.0
176
     1
  0
DICTIONARYVAR
  5
18F
102
{ACAD_REACTORS
330
18E
102
}
330
18E
100
DictionaryVariables
280
     0
  1
1:1
  0
DICTIONARYVAR
  5
194
102
{ACAD_REACTORS
330
18E
102
}
330
18E
100
DictionaryVariables
280
     0
  1
Standard
  0
DICTIONARYVAR
  5
193
102
{ACAD_REACTORS
330
18E
102
}
330
18E
100
DictionaryVariables
280
     0
  1
Standard
  0
DICTIONARY
  5
190
330
6A
100
AcDbDictionary
280
     1
281
     1
  3
ACAD_ROUNDTRIP_2008_TABLESTYLE_CELLSTYLEMAP
360
191
  0
CELLSTYLEMAP
  5
191
102
{ACAD_REACTORS
330
190
102
}
330
190
100
AcDbCellStyleMap
 90
        3
300
CELLSTYLE
  1
TABLEFORMAT_BEGIN
 90
        5
170
     1
 91
        0
 92
    32768
 62
   257
 93
        1
300
CONTENTFORMAT
  1
CONTENTFORMAT_BEGIN
 90
        0
 91
        0
 92
        4
 93
        0
300

 40
0.0
140
1.0
 94
        5
 62
     0
340
11
144
0.25
309
CONTENTFORMAT_END
171
     1
301
MARGIN
  1
CELLMARGIN_BEGIN
 40
0.06
 40
0.06
 40
0.06
 40
0.06
 40
0.06
 40
0.06
309
CELLMARGIN_END
 94
        6
 95
        1
302
GRIDFORMAT
  1
GRIDFORMAT_BEGIN
 90
        0
 91
        1
 62
     0
 92
       -2
340
14
 93
        0
 40
0.045
309
GRIDFORMAT_END
 95
        2
302
GRIDFORMAT
  1
GRIDFORMAT_BEGIN
 90
        0
 91
        1
 62
     0
 92
       -2
340
14
 93
        0
 40
0.045
309
GRIDFORMAT_END
 95
        4
302
GRIDFORMAT
  1
GRIDFORMAT_BEGIN
 90
        0
 91
        1
 62
     0
 92
       -2
340
14
 93
        0
 40
0.045
309
GRIDFORMAT_END
 95
        8
302
GRIDFORMAT
  1
GRIDFORMAT_BEGIN
 90
        0
 91
        1
 62
     0
 92
       -2
340
14
 93
        0
 40
0.045
309
GRIDFORMAT_END
 95
       16
302
GRIDFORMAT
  1
GRIDFORMAT_BEGIN
 90
        0
 91
        1
 62
     0
 92
       -2
340
14
 93
        0
 40
0.045
309
GRIDFORMAT_END
 95
       32
302
GRIDFORMAT
  1
GRIDFORMAT_BEGIN
 90
        0
 91
        1
 62
     0
 92
       -2
340
14
 93
        0
 40
0.045
309
GRIDFORMAT_END
309
TABLEFORMAT_END
  1
CELLSTYLE_BEGIN
 90
        1
 91
        1
300
_TITLE
309
CELLSTYLE_END
300
CELLSTYLE
  1
TABLEFORMAT_BEGIN
 90
        5
170
     1
 91
        0
 92
        0
 62
   257
 93
        1
300
CONTENTFORMAT
  1
CONTENTFORMAT_BEGIN
 90
        0
 91
        0
 92
        4
 93
        0
300

 40
0.0
140
1.0
 94
        5
 62
     0
340
11
144
0.18
309
CONTENTFORMAT_END
171
     1
301
MARGIN
  1
CELLMARGIN_BEGIN
 40
0.06
 40
0.06
 40
0.06
 40
0.06
 40
0.06
 40
0.06
309
CELLMARGIN_END
 94
        6
 95
        1
302
GRIDFORMAT
  1
GRIDFORMAT_BEGIN
 90
        0
 91
        1
 62
     0
 92
       -2
340
14
 93
        0
 40
0.045
309
GRIDFORMAT_END
 95
        2
302
GRIDFORMAT
  1
GRIDFORMAT_BEGIN
 90
        0
 91
        1
 62
     0
 92
       -2
340
14
 93
        0
 40
0.045
309
GRIDFORMAT_END
 95
        4
302
GRIDFORMAT
  1
GRIDFORMAT_BEGIN
 90
        0
 91
        1
 62
     0
 92
       -2
340
14
 93
        0
 40
0.045
309
GRIDFORMAT_END
 95
        8
302
GRIDFORMAT
  1
GRIDFORMAT_BEGIN
 90
        0
 91
        1
 62
     0
 92
       -2
340
14
 93
        0
 40
0.045
309
GRIDFORMAT_END
 95
       16
302
GRIDFORMAT
  1
GRIDFORMAT_BEGIN
 90
        0
 91
        1
 62
     0
 92
       -2
340
14
 93
        0
 40
0.045
309
GRIDFORMAT_END
 95
       32
302
GRIDFORMAT
  1
GRIDFORMAT_BEGIN
 90
        0
 91
        1
 62
     0
 92
       -2
340
14
 93
        0
 40
0.045
309
GRIDFORMAT_END
309
TABLEFORMAT_END
  1
CELLSTYLE_BEGIN
 90
        2
 91
        1
300
_HEADER
309
CELLSTYLE_END
300
CELLSTYLE
  1
TABLEFORMAT_BEGIN
 90
        5
170
     1
 91
        0
 92
        0
 62
   257
 93
        1
300
CONTENTFORMAT
  1
CONTENTFORMAT_BEGIN
 90
        0
 91
        0
 92
        4
 93
        0
300

 40
0.0
140
1.0
 94
        2
 62
     0
340
11
144
0.18
309
CONTENTFORMAT_END
171
     1
301
MARGIN
  1
CELLMARGIN_BEGIN
 40
0.06
 40
0.06
 40
0.06
 40
0.06
 40
0.06
 40
0.06
309
CELLMARGIN_END
 94
        6
 95
        1
302
GRIDFORMAT
  1
GRIDFORMAT_BEGIN
 90
        0
 91
        1
 62
     0
 92
       -2
340
14
 93
        0
 40
0.045
309
GRIDFORMAT_END
 95
        2
302
GRIDFORMAT
  1
GRIDFORMAT_BEGIN
 90
        0
 91
        1
 62
     0
 92
       -2
340
14
 93
        0
 40
0.045
309
GRIDFORMAT_END
 95
        4
302
GRIDFORMAT
  1
GRIDFORMAT_BEGIN
 90
        0
 91
        1
 62
     0
 92
       -2
340
14
 93
        0
 40
0.045
309
GRIDFORMAT_END
 95
        8
302
GRIDFORMAT
  1
GRIDFORMAT_BEGIN
 90
        0
 91
        1
 62
     0
 92
       -2
340
14
 93
        0
 40
0.045
309
GRIDFORMAT_END
 95
       16
302
GRIDFORMAT
  1
GRIDFORMAT_BEGIN
 90
        0
 91
        1
 62
     0
 92
       -2
340
14
 93
        0
 40
0.045
309
GRIDFORMAT_END
 95
       32
302
GRIDFORMAT
  1
GRIDFORMAT_BEGIN
 90
        0
 91
        1
 62
     0
 92
       -2
340
14
 93
        0
 40
0.045
309
GRIDFORMAT_END
309
TABLEFORMAT_END
  1
CELLSTYLE_BEGIN
 90
        3
 91
        2
300
_DATA
309
CELLSTYLE_END
  0
ENDSEC
  0
EOF