0
SECTION
  2
HEADER
  9
$ACADVER
  1
AC1027
  9
$ACADMAINTVER
 70
     8
  9
$DWGCODEPAGE
  3
ANSI_1252
  9
$REQUIREDVERSIONS
160
                 0
  9
$COMMENTS
  1
File was created by Cadenas
  9
$CUSTOMPROPERTYTAG
  1
NN
  9
$CUSTOMPROPERTY
  1
Set Screw LF  Normal Duty 3-Bolt Flange Inch Bore
  9
$CUSTOMPROPERTYTAG
  1
NT
  9
$CUSTOMPROPERTY
  1
SC 3 Bolt Flange Bearings -(Normal Duty) -Re-Lube and No-Lube
  9
$CUSTOMPROPERTYTAG
  1
NB
  9
$CUSTOMPROPERTY
  1
124600
  9
$CUSTOMPROPERTYTAG
  1
NBSYN
  9
$CUSTOMPROPERTY
  1
$PN.
  9
$CUSTOMPROPERTYTAG
  1
LINA
  9
$CUSTOMPROPERTY
  1
124600
  9
$CUSTOMPROPERTYTAG
  1
SERIES
  9
$CUSTOMPROPERTY
  1
203
  9
$CUSTOMPROPERTYTAG
  1
SS
  9
$CUSTOMPROPERTY
  1
1/2
  9
$CUSTOMPROPERTYTAG
  1
PN
  9
$CUSTOMPROPERTY
  1
124600
  9
$CUSTOMPROPERTYTAG
  1
DESCRIPTION
  9
$CUSTOMPROPERTY
  1
LF-SC-008
  9
$CUSTOMPROPERTYTAG
  1
W
  9
$CUSTOMPROPERTY
  1
0.65
  9
$CUSTOMPROPERTYTAG
  1
LF
  9
$CUSTOMPROPERTY
  1
RE-LUBE
  9
$CUSTOMPROPERTYTAG
  1
A
  9
$CUSTOMPROPERTY
  1
1
  9
$CUSTOMPROPERTYTAG
  1
B
  9
$CUSTOMPROPERTY
  1
3.19
  9
$CUSTOMPROPERTYTAG
  1
C
  9
$CUSTOMPROPERTY
  1
1.05
  9
$CUSTOMPROPERTYTAG
  1
D
  9
$CUSTOMPROPERTY
  1
2.50
  9
$CUSTOMPROPERTYTAG
  1
G
  9
$CUSTOMPROPERTY
  1
0.28
  9
$CUSTOMPROPERTYTAG
  1
H
  9
$CUSTOMPROPERTY
  1
0.38
  9
$CUSTOMPROPERTYTAG
  1
J
  9
$CUSTOMPROPERTY
  1
0.33
  9
$CUSTOMPROPERTYTAG
  1
L
  9
$CUSTOMPROPERTY
  1
0.96
  9
$CUSTOMPROPERTYTAG
  1
M
  9
$CUSTOMPROPERTY
  1
1.59
  9
$CUSTOMPROPERTYTAG
  1
N
  9
$CUSTOMPROPERTY
  1
1.84
  9
$CUSTOMPROPERTYTAG
  1
COMPANY
  9
$CUSTOMPROPERTY
  1
baldor
  9
$INSBASE
 10
0.0
 20
0.0
 30
0.0
  9
$EXTMIN
 10
1.000000000000000E+20
 20
1.000000000000000E+20
 30
1.000000000000000E+20
  9
$EXTMAX
 10
-1.000000000000000E+20
 20
-1.000000000000000E+20
 30
-1.000000000000000E+20
  9
$LIMMIN
 10
0.0
 20
0.0
  9
$LIMMAX
 10
12.0
 20
9.0
  9
$ORTHOMODE
 70
     0
  9
$REGENMODE
 70
     1
  9
$FILLMODE
 70
     1
  9
$QTEXTMODE
 70
     0
  9
$MIRRTEXT
 70
     1
  9
$LTSCALE
 40
1.0
  9
$ATTMODE
 70
     1
  9
$TEXTSIZE
 40
0.2
  9
$TRACEWID
 40
0.05
  9
$TEXTSTYLE
  7
Standard
  9
$CLAYER
  8
0
  9
$CELTYPE
  6
ByLayer
  9
$CECOLOR
 62
   256
  9
$CELTSCALE
 40
1.0
  9
$DISPSILH
 70
     0
  9
$DIMSCALE
 40
1.0
  9
$DIMASZ
 40
0.18
  9
$DIMEXO
 40
0.0625
  9
$DIMDLI
 40
0.38
  9
$DIMRND
 40
0.0
  9
$DIMDLE
 40
0.0
  9
$DIMEXE
 40
0.18
  9
$DIMTP
 40
0.0
  9
$DIMTM
 40
0.0
  9
$DIMTXT
 40
0.18
  9
$DIMCEN
 40
0.09
  9
$DIMTSZ
 40
0.0
  9
$DIMTOL
 70
     0
  9
$DIMLIM
 70
     0
  9
$DIMTIH
 70
     1
  9
$DIMTOH
 70
     1
  9
$DIMSE1
 70
     0
  9
$DIMSE2
 70
     0
  9
$DIMTAD
 70
     0
  9
$DIMZIN
 70
     0
  9
$DIMBLK
  1

  9
$DIMASO
 70
     1
  9
$DIMSHO
 70
     1
  9
$DIMPOST
  1

  9
$DIMAPOST
  1

  9
$DIMALT
 70
     0
  9
$DIMALTD
 70
     2
  9
$DIMALTF
 40
25.4
  9
$DIMLFAC
 40
1.0
  9
$DIMTOFL
 70
     0
  9
$DIMTVP
 40
0.0
  9
$DIMTIX
 70
     0
  9
$DIMSOXD
 70
     0
  9
$DIMSAH
 70
     0
  9
$DIMBLK1
  1

  9
$DIMBLK2
  1

  9
$DIMSTYLE
  2
Standard
  9
$DIMCLRD
 70
     0
  9
$DIMCLRE
 70
     0
  9
$DIMCLRT
 70
     0
  9
$DIMTFAC
 40
1.0
  9
$DIMGAP
 40
0.09
  9
$DIMJUST
 70
     0
  9
$DIMSD1
 70
     0
  9
$DIMSD2
 70
     0
  9
$DIMTOLJ
 70
     1
  9
$DIMTZIN
 70
     0
  9
$DIMALTZ
 70
     0
  9
$DIMALTTZ
 70
     0
  9
$DIMUPT
 70
     0
  9
$DIMDEC
 70
     4
  9
$DIMTDEC
 70
     4
  9
$DIMALTU
 70
     2
  9
$DIMALTTD
 70
     2
  9
$DIMTXSTY
  7
Standard
  9
$DIMAUNIT
 70
     0
  9
$DIMADEC
 70
     0
  9
$DIMALTRND
 40
0.0
  9
$DIMAZIN
 70
     0
  9
$DIMDSEP
 70
    46
  9
$DIMATFIT
 70
     3
  9
$DIMFRAC
 70
     0
  9
$DIMLDRBLK
  1

  9
$DIMLUNIT
 70
     2
  9
$DIMLWD
 70
    -2
  9
$DIMLWE
 70
    -2
  9
$DIMTMOVE
 70
     0
  9
$DIMFXL
 40
1.0
  9
$DIMFXLON
 70
     0
  9
$DIMJOGANG
 40
0.7853981633974483
  9
$DIMTFILL
 70
     0
  9
$DIMTFILLCLR
 70
     0
  9
$DIMARCSYM
 70
     0
  9
$DIMLTYPE
  6

  9
$DIMLTEX1
  6

  9
$DIMLTEX2
  6

  9
$DIMTXTDIRECTION
 70
     0
  9
$LUNITS
 70
     2
  9
$LUPREC
 70
     4
  9
$SKETCHINC
 40
0.1
  9
$FILLETRAD
 40
0.5
  9
$AUNITS
 70
     0
  9
$AUPREC
 70
     0
  9
$MENU
  1
.
  9
$ELEVATION
 40
0.0
  9
$PELEVATION
 40
0.0
  9
$THICKNESS
 40
0.0
  9
$LIMCHECK
 70
     0
  9
$CHAMFERA
 40
0.0
  9
$CHAMFERB
 40
0.0
  9
$CHAMFERC
 40
0.0
  9
$CHAMFERD
 40
0.0
  9
$SKPOLY
 70
     0
  9
$TDCREATE
 40
2458169.004817685
  9
$TDUCREATE
 40
2458168.963151019
  9
$TDUPDATE
 40
2458169.00481787
  9
$TDUUPDATE
 40
2458168.963151204
  9
$TDINDWG
 40
0.0000000116
  9
$TDUSRTIMER
 40
0.0000000116
  9
$USRTIMER
 70
     1
  9
$ANGBASE
 50
0.0
  9
$ANGDIR
 70
     0
  9
$PDMODE
 70
     0
  9
$PDSIZE
 40
0.0
  9
$PLINEWID
 40
0.0
  9
$SPLFRAME
 70
     0
  9
$SPLINETYPE
 70
     6
  9
$SPLINESEGS
 70
     8
  9
$HANDSEED
  5
19B
  9
$SURFTAB1
 70
     6
  9
$SURFTAB2
 70
     6
  9
$SURFTYPE
 70
     6
  9
$SURFU
 70
     6
  9
$SURFV
 70
     6
  9
$UCSBASE
  2

  9
$UCSNAME
  2

  9
$UCSORG
 10
0.0
 20
0.0
 30
0.0
  9
$UCSXDIR
 10
1.0
 20
0.0
 30
0.0
  9
$UCSYDIR
 10
0.0
 20
1.0
 30
0.0
  9
$UCSORTHOREF
  2

  9
$UCSORTHOVIEW
 70
     0
  9
$UCSORGTOP
 10
0.0
 20
0.0
 30
0.0
  9
$UCSORGBOTTOM
 10
0.0
 20
0.0
 30
0.0
  9
$UCSORGLEFT
 10
0.0
 20
0.0
 30
0.0
  9
$UCSORGRIGHT
 10
0.0
 20
0.0
 30
0.0
  9
$UCSORGFRONT
 10
0.0
 20
0.0
 30
0.0
  9
$UCSORGBACK
 10
0.0
 20
0.0
 30
0.0
  9
$PUCSBASE
  2

  9
$PUCSNAME
  2

  9
$PUCSORG
 10
0.0
 20
0.0
 30
0.0
  9
$PUCSXDIR
 10
1.0
 20
0.0
 30
0.0
  9
$PUCSYDIR
 10
0.0
 20
1.0
 30
0.0
  9
$PUCSORTHOREF
  2

  9
$PUCSORTHOVIEW
 70
     0
  9
$PUCSORGTOP
 10
0.0
 20
0.0
 30
0.0
  9
$PUCSORGBOTTOM
 10
0.0
 20
0.0
 30
0.0
  9
$PUCSORGLEFT
 10
0.0
 20
0.0
 30
0.0
  9
$PUCSORGRIGHT
 10
0.0
 20
0.0
 30
0.0
  9
$PUCSORGFRONT
 10
0.0
 20
0.0
 30
0.0
  9
$PUCSORGBACK
 10
0.0
 20
0.0
 30
0.0
  9
$USERI1
 70
     0
  9
$USERI2
 70
     0
  9
$USERI3
 70
     0
  9
$USERI4
 70
     0
  9
$USERI5
 70
     0
  9
$USERR1
 40
0.0
  9
$USERR2
 40
0.0
  9
$USERR3
 40
0.0
  9
$USERR4
 40
0.0
  9
$USERR5
 40
0.0
  9
$WORLDVIEW
 70
     1
  9
$SHADEDGE
 70
     3
  9
$SHADEDIF
 70
    70
  9
$TILEMODE
 70
     1
  9
$MAXACTVP
 70
    64
  9
$PINSBASE
 10
0.0
 20
0.0
 30
0.0
  9
$PLIMCHECK
 70
     0
  9
$PEXTMIN
 10
1.000000000000000E+20
 20
1.000000000000000E+20
 30
1.000000000000000E+20
  9
$PEXTMAX
 10
-1.000000000000000E+20
 20
-1.000000000000000E+20
 30
-1.000000000000000E+20
  9
$PLIMMIN
 10
0.0
 20
0.0
  9
$PLIMMAX
 10
12.0
 20
9.0
  9
$UNITMODE
 70
     0
  9
$VISRETAIN
 70
     1
  9
$PLINEGEN
 70
     0
  9
$PSLTSCALE
 70
     1
  9
$TREEDEPTH
 70
  3020
  9
$CMLSTYLE
  2
Standard
  9
$CMLJUST
 70
     0
  9
$CMLSCALE
 40
1.0
  9
$PROXYGRAPHICS
 70
     1
  9
$MEASUREMENT
 70
     0
  9
$CELWEIGHT
370
    -1
  9
$ENDCAPS
280
     0
  9
$JOINSTYLE
280
     0
  9
$LWDISPLAY
290
     0
  9
$INSUNITS
 70
     1
  9
$HYPERLINKBASE
  1

  9
$STYLESHEET
  1

  9
$XEDIT
290
     1
  9
$CEPSNTYPE
380
     0
  9
$PSTYLEMODE
290
     1
  9
$FINGERPRINTGUID
  2
{FCD9CC2F-BE2B-46DC-815E-C93B98EBA8CA}
  9
$VERSIONGUID
  2
{FAEB1C32-E019-11D5-929B-00C0DF256EC4}
  9
$EXTNAMES
290
     1
  9
$PSVPSCALE
 40
0.0
  9
$OLESTARTUP
290
     0
  9
$SORTENTS
280
   127
  9
$INDEXCTL
280
     0
  9
$HIDETEXT
280
     1
  9
$XCLIPFRAME
280
     2
  9
$HALOGAP
280
     0
  9
$OBSCOLOR
 70
   257
  9
$OBSLTYPE
280
     0
  9
$INTERSECTIONDISPLAY
280
     0
  9
$INTERSECTIONCOLOR
 70
   257
  9
$DIMASSOC
280
     2
  9
$PROJECTNAME
  1

  9
$CAMERADISPLAY
290
     0
  9
$LENSLENGTH
 40
50.0
  9
$CAMERAHEIGHT
 40
0.0
  9
$STEPSPERSEC
 40
2.0
  9
$STEPSIZE
 40
6.0
  9
$3DDWFPREC
 40
2.0
  9
$PSOLWIDTH
 40
0.25
  9
$PSOLHEIGHT
 40
4.0
  9
$LOFTANG1
 40
1.570796326794897
  9
$LOFTANG2
 40
1.570796326794897
  9
$LOFTMAG1
 40
0.0
  9
$LOFTMAG2
 40
0.0
  9
$LOFTPARAM
 70
     7
  9
$LOFTNORMALS
280
     1
  9
$LATITUDE
 40
37.795
  9
$LONGITUDE
 40
-122.394
  9
$NORTHDIRECTION
 40
0.0
  9
$TIMEZONE
 70
 -8000
  9
$LIGHTGLYPHDISPLAY
280
     1
  9
$TILEMODELIGHTSYNCH
280
     1
  9
$CMATERIAL
347
44
  9
$SOLIDHIST
280
     0
  9
$SHOWHIST
280
     1
  9
$DWFFRAME
280
     2
  9
$DGNFRAME
280
     2
  9
$REALWORLDSCALE
290
     1
  9
$INTERFERECOLOR
 62
   256
  9
$CSHADOW
280
     0
  9
$SHADOWPLANELOCATION
 40
0.0
  0
ENDSEC
  0
SECTION
  2
CLASSES
  0
CLASS
  1
ACDBDICTIONARYWDFLT
  2
AcDbDictionaryWithDefault
  3
ObjectDBX Classes
 90
        0
 91
        4
280
     0
281
     0
  0
CLASS
  1
VISUALSTYLE
  2
AcDbVisualStyle
  3
ObjectDBX Classes
 90
     4095
 91
        4
280
     0
281
     0
  0
CLASS
  1
MATERIAL
  2
AcDbMaterial
  3
ObjectDBX Classes
 90
     1153
 91
        4
280
     0
281
     0
  0
CLASS
  1
SCALE
  2
AcDbScale
  3
ObjectDBX Classes
 90
     1153
 91
        4
280
     0
281
     0
  0
CLASS
  1
TABLESTYLE
  2
AcDbTableStyle
  3
ObjectDBX Classes
 90
     4095
 91
        4
280
     0
281
     0
  0
CLASS
  1
MLEADERSTYLE
  2
AcDbMLeaderStyle
  3
ACDB_MLEADERSTYLE_CLASS
 90
     4095
 91
        4
280
     0
281
     0
  0
CLASS
  1
SUN
  2
AcDbSun
  3
SCENEOE
 90
     1153
 91
        4
280
     0
281
     0
  0
CLASS
  1
DICTIONARYVAR
  2
AcDbDictionaryVar
  3
ObjectDBX Classes
 90
        0
 91
        4
280
     0
281
     0
  0
CLASS
  1
CELLSTYLEMAP
  2
AcDbCellStyleMap
  3
ObjectDBX Classes
 90
     1152
 91
        4
280
     0
281
     0
  0
ENDSEC
  0
SECTION
  2
TABLES
  0
TABLE
  2
VPORT
  5
8
330
0
100
AcDbSymbolTable
 70
     1
  0
VPORT
  5
29
330
8
100
AcDbSymbolTableRecord
100
AcDbViewportTableRecord
  2
*Active
 70
     0
 10
0.0
 20
0.0
 11
1.0
 21
1.0
 12
-0.5584999999999987
 22
-0.1361249999999998
 13
0.0
 23
0.0
 14
0.5
 24
0.5
 15
0.5
 25
0.5
 16
0.0
 26
0.0
 36
1.0
 17
0.0
 27
0.0
 37
0.0
 40
3.531495
 41
0.333598093725179
 42
50.0
 43
0.0
 44
0.0
 50
0.0
 51
0.0
 71
     0
 72
   100
 73
     1
 74
     3
 75
     0
 76
     0
 77
     0
 78
     0
281
     0
 65
     1
110
0.0
120
0.0
130
0.0
111
1.0
121
0.0
131
0.0
112
0.0
122
1.0
132
0.0
 79
     0
146
0.0
348
2F
 60
     3
 61
     5
292
     1
282
     1
141
0.0
142
0.0
 63
   250
361
6D
  0
ENDTAB
  0
TABLE
  2
LTYPE
  5
5
330
0
100
AcDbSymbolTable
 70
     3
  0
LTYPE
  5
14
330
5
100
AcDbSymbolTableRecord
100
AcDbLinetypeTableRecord
  2
ByBlock
 70
     0
  3

 72
    65
 73
     0
 40
0.0
  0
LTYPE
  5
15
330
5
100
AcDbSymbolTableRecord
100
AcDbLinetypeTableRecord
  2
ByLayer
 70
     0
  3

 72
    65
 73
     0
 40
0.0
  0
LTYPE
  5
16
330
5
100
AcDbSymbolTableRecord
100
AcDbLinetypeTableRecord
  2
Continuous
 70
     0
  3
Solid line
 72
    65
 73
     0
 40
0.0
  0
LTYPE
  5
9F
330
5
100
AcDbSymbolTableRecord
100
AcDbLinetypeTableRecord
  2
Dashed
 70
     0
  3

 72
    65
 73
     2
 40
2.0
 49
1.0
 74
     0
 49
-1.0
 74
     0
  0
LTYPE
  5
D3
330
5
100
AcDbSymbolTableRecord
100
AcDbLinetypeTableRecord
  2
Center
 70
     0
  3

 72
    65
 73
     4
 40
1.5
 49
0.45
 74
     0
 49
-0.5
 74
     0
 49
0.05
 74
     0
 49
-0.5
 74
     0
  0
ENDTAB
  0
TABLE
  2
LAYER
  5
2
330
0
100
AcDbSymbolTable
 70
     7
  0
LAYER
  5
10
330
2
100
AcDbSymbolTableRecord
100
AcDbLayerTableRecord
  2
0
 70
     0
 62
     7
  6
Continuous
370
    -3
390
F
347
46
348
0
  0
LAYER
  5
72
330
2
100
AcDbSymbolTableRecord
100
AcDbLayerTableRecord
  2
AM_6
 70
     0
 62
    -2
  6
Continuous
370
    35
390
F
347
46
348
0
  0
LAYER
  5
A0
330
2
100
AcDbSymbolTableRecord
100
AcDbLayerTableRecord
  2
AM_9
 70
     0
 62
     6
  6
Dashed
370
    25
390
F
347
46
348
0
  0
LAYER
  5
D0
330
2
100
AcDbSymbolTableRecord
100
AcDbLayerTableRecord
  2
AM_5
 70
     0
 62
     3
  6
Continuous
370
    25
390
F
347
46
348
0
  0
LAYER
  5
D4
330
2
100
AcDbSymbolTableRecord
100
AcDbLayerTableRecord
  2
AM_7
 70
     0
 62
     7
  6
Center
370
    25
390
F
347
46
348
0
  0
LAYER
  5
D8
330
2
100
AcDbSymbolTableRecord
100
AcDbLayerTableRecord
  2
AM_4
 70
     0
 62
     7
  6
Continuous
370
    50
390
F
347
46
348
0
  0
LAYER
  5
18E
330
2
100
AcDbSymbolTableRecord
100
AcDbLayerTableRecord
  2
ConnectionPoints
 70
     0
 62
     7
  6
Continuous
370
    50
390
F
347
46
348
0
  0
ENDTAB
  0
TABLE
  2
STYLE
  5
3
330
0
100
AcDbSymbolTable
 70
     1
  0
STYLE
  5
11
330
3
100
AcDbSymbolTableRecord
100
AcDbTextStyleTableRecord
  2
Standard
 70
     0
 40
0.0
 41
1.0
 50
0.0
 71
     0
 42
0.2
  3
txt
  4

  0
ENDTAB
  0
TABLE
  2
VIEW
  5
6
330
0
100
AcDbSymbolTable
 70
     0
  0
ENDTAB
  0
TABLE
  2
UCS
  5
7
330
0
100
AcDbSymbolTable
 70
     0
  0
ENDTAB
  0
TABLE
  2
APPID
  5
9
330
0
100
AcDbSymbolTable
 70
     1
  0
APPID
  5
12
330
9
100
AcDbSymbolTableRecord
100
AcDbRegAppTableRecord
  2
ACAD
 70
     0
  0
ENDTAB
  0
TABLE
  2
DIMSTYLE
  5
A
330
0
100
AcDbSymbolTable
 70
     1
100
AcDbDimStyleTable
  0
DIMSTYLE
105
27
330
A
100
AcDbSymbolTableRecord
100
AcDbDimStyleTableRecord
  2
Standard
 70
     0
178
     0
340
11
  0
ENDTAB
  0
TABLE
  2
BLOCK_RECORD
  5
1
330
0
100
AcDbSymbolTable
 70
     5
  0
BLOCK_RECORD
  5
1F
330
1
100
AcDbSymbolTableRecord
100
AcDbBlockTableRecord
  2
*Model_Space
340
22
 70
     0
280
     1
281
     0
  0
BLOCK_RECORD
  5
1B
330
1
100
AcDbSymbolTableRecord
100
AcDbBlockTableRecord
  2
*Paper_Space
340
1E
 70
     0
280
     1
281
     0
  0
BLOCK_RECORD
  5
23
330
1
100
AcDbSymbolTableRecord
100
AcDbBlockTableRecord
  2
*Paper_Space0
340
26
 70
     0
280
     1
281
     0
  0
BLOCK_RECORD
  5
6E
330
1
100
AcDbSymbolTableRecord
100
AcDbBlockTableRecord
  2
1_124600_2
340
0
102
{BLKREFS
331
6F
102
}
 70
     0
280
     1
281
     0
  0
BLOCK_RECORD
  5
89
330
1
100
AcDbSymbolTableRecord
100
AcDbBlockTableRecord
  2
2_123328_0_in_124600_2
340
0
102
{BLKREFS
331
8A
102
}
 70
     0
280
     1
281
     0
  0
BLOCK_RECORD
  5
E9
330
1
100
AcDbSymbolTableRecord
100
AcDbBlockTableRecord
  2
3_405020c_Inch_0_in_124600_2
340
0
102
{BLKREFS
331
EA
102
}
 70
     0
280
     1
281
     0
  0
BLOCK_RECORD
  5
12D
330
1
100
AcDbSymbolTableRecord
100
AcDbBlockTableRecord
  2
4_124600H_0_in_124600_2
340
0
102
{BLKREFS
331
12E
102
}
 70
     0
280
     1
281
     0
  0
ENDTAB
  0
ENDSEC
  0
SECTION
  2
BLOCKS
  0
BLOCK
  5
20
330
1F
100
AcDbEntity
  8
0
100
AcDbBlockBegin
  2
*Model_Space
 70
     0
 10
0.0
 20
0.0
 30
0.0
  3
*Model_Space
  1

  0
ENDBLK
  5
21
330
1F
100
AcDbEntity
  8
0
100
AcDbBlockEnd
  0
BLOCK
  5
1C
330
1B
100
AcDbEntity
 67
     1
  8
0
100
AcDbBlockBegin
  2
*Paper_Space
 70
     0
 10
0.0
 20
0.0
 30
0.0
  3
*Paper_Space
  1

  0
ENDBLK
  5
1D
330
1B
100
AcDbEntity
 67
     1
  8
0
100
AcDbBlockEnd
  0
BLOCK
  5
24
330
23
100
AcDbEntity
  8
0
100
AcDbBlockBegin
  2
*Paper_Space0
 70
     0
 10
0.0
 20
0.0
 30
0.0
  3
*Paper_Space0
  1

  0
ENDBLK
  5
25
330
23
100
AcDbEntity
  8
0
100
AcDbBlockEnd
  0
BLOCK
  5
70
330
6E
100
AcDbEntity
  8
0
100
AcDbBlockBegin
  2
1_124600_2
 70
     2
 10
0.0
 20
0.0
 30
0.0
  3
1_124600_2
  1

  0
ATTDEF
  5
73
330
6E
100
AcDbEntity
  8
AM_6
100
AcDbText
 10
5.019
 20
1.595
 30
0.0
 40
0.5
  1
Set Screw LF  Normal Duty 3-Bolt Flange Inch Bore
100
AcDbAttributeDefinition
  3

  2
NN
 70
     8
280
     0
  0
ATTDEF
  5
74
330
6E
100
AcDbEntity
  8
AM_6
100
AcDbText
 10
5.019
 20
1.095
 30
0.0
 40
0.5
  1
SC 3 Bolt Flange Bearings -(Normal Duty) -Re-Lube and No-Lube
100
AcDbAttributeDefinition
  3

  2
NT
 70
     8
280
     0
  0
ATTDEF
  5
75
330
6E
100
AcDbEntity
  8
AM_6
100
AcDbText
 10
5.019
 20
0.595
 30
0.0
 40
0.5
  1
124600
100
AcDbAttributeDefinition
  3

  2
NB
 70
     8
280
     0
  0
ATTDEF
  5
76
330
6E
100
AcDbEntity
  8
AM_6
100
AcDbText
 10
5.019
 20
0.095
 30
0.0
 40
0.5
  1
$PN.
100
AcDbAttributeDefinition
  3

  2
NBSYN
 70
     8
280
     0
  0
ATTDEF
  5
77
330
6E
100
AcDbEntity
  8
AM_6
100
AcDbText
 10
5.019
 20
-0.405
 30
0.0
 40
0.5
  1
124600
100
AcDbAttributeDefinition
  3

  2
LINA
 70
     8
280
     0
  0
ATTDEF
  5
78
330
6E
100
AcDbEntity
  8
AM_6
100
AcDbText
 10
5.019
 20
-0.905
 30
0.0
 40
0.5
  1
203
100
AcDbAttributeDefinition
  3

  2
SERIES
 70
     8
280
     0
  0
ATTDEF
  5
79
330
6E
100
AcDbEntity
  8
AM_6
100
AcDbText
 10
5.019
 20
-1.405
 30
0.0
 40
0.5
  1
1/2
100
AcDbAttributeDefinition
  3

  2
SS
 70
     8
280
     0
  0
ATTDEF
  5
7A
330
6E
100
AcDbEntity
  8
AM_6
100
AcDbText
 10
5.019
 20
-1.905
 30
0.0
 40
0.5
  1
124600
100
AcDbAttributeDefinition
  3

  2
PN
 70
     8
280
     0
  0
ATTDEF
  5
7B
330
6E
100
AcDbEntity
  8
AM_6
100
AcDbText
 10
5.019
 20
-2.405
 30
0.0
 40
0.5
  1
LF-SC-008
100
AcDbAttributeDefinition
  3

  2
DESCRIPTION
 70
     8
280
     0
  0
ATTDEF
  5
7C
330
6E
100
AcDbEntity
  8
AM_6
100
AcDbText
 10
5.019
 20
-2.905
 30
0.0
 40
0.5
  1
0.65
100
AcDbAttributeDefinition
  3

  2
W
 70
     8
280
     0
  0
ATTDEF
  5
7D
330
6E
100
AcDbEntity
  8
AM_6
100
AcDbText
 10
5.019
 20
-3.405
 30
0.0
 40
0.5
  1
RE-LUBE
100
AcDbAttributeDefinition
  3

  2
LF
 70
     8
280
     0
  0
ATTDEF
  5
7E
330
6E
100
AcDbEntity
  8
AM_6
100
AcDbText
 10
5.019
 20
-3.905
 30
0.0
 40
0.5
  1
1
100
AcDbAttributeDefinition
  3

  2
A
 70
     8
280
     0
  0
ATTDEF
  5
7F
330
6E
100
AcDbEntity
  8
AM_6
100
AcDbText
 10
5.019
 20
-4.405
 30
0.0
 40
0.5
  1
3.19
100
AcDbAttributeDefinition
  3

  2
B
 70
     8
280
     0
  0
ATTDEF
  5
80
330
6E
100
AcDbEntity
  8
AM_6
100
AcDbText
 10
5.019
 20
-4.905
 30
0.0
 40
0.5
  1
1.05
100
AcDbAttributeDefinition
  3

  2
C
 70
     8
280
     0
  0
ATTDEF
  5
81
330
6E
100
AcDbEntity
  8
AM_6
100
AcDbText
 10
5.019
 20
-5.405
 30
0.0
 40
0.5
  1
2.50
100
AcDbAttributeDefinition
  3

  2
D
 70
     8
280
     0
  0
ATTDEF
  5
82
330
6E
100
AcDbEntity
  8
AM_6
100
AcDbText
 10
5.019
 20
-5.905
 30
0.0
 40
0.5
  1
0.28
100
AcDbAttributeDefinition
  3

  2
G
 70
     8
280
     0
  0
ATTDEF
  5
83
330
6E
100
AcDbEntity
  8
AM_6
100
AcDbText
 10
5.019
 20
-6.405
 30
0.0
 40
0.5
  1
0.38
100
AcDbAttributeDefinition
  3

  2
H
 70
     8
280
     0
  0
ATTDEF
  5
84
330
6E
100
AcDbEntity
  8
AM_6
100
AcDbText
 10
5.019
 20
-6.905
 30
0.0
 40
0.5
  1
0.33
100
AcDbAttributeDefinition
  3

  2
J
 70
     8
280
     0
  0
ATTDEF
  5
85
330
6E
100
AcDbEntity
  8
AM_6
100
AcDbText
 10
5.019
 20
-7.405
 30
0.0
 40
0.5
  1
0.96
100
AcDbAttributeDefinition
  3

  2
L
 70
     8
280
     0
  0
ATTDEF
  5
86
330
6E
100
AcDbEntity
  8
AM_6
100
AcDbText
 10
5.019
 20
-7.905
 30
0.0
 40
0.5
  1
1.59
100
AcDbAttributeDefinition
  3

  2
M
 70
     8
280
     0
  0
ATTDEF
  5
87
330
6E
100
AcDbEntity
  8
AM_6
100
AcDbText
 10
5.019
 20
-8.405000000000001
 30
0.0
 40
0.5
  1
1.84
100
AcDbAttributeDefinition
  3

  2
N
 70
     8
280
     0
  0
ATTDEF
  5
88
330
6E
100
AcDbEntity
  8
AM_6
100
AcDbText
 10
5.019
 20
-8.905000000000001
 30
0.0
 40
0.5
  1
baldor
100
AcDbAttributeDefinition
  3

  2
COMPANY
 70
     8
280
     0
  0
INSERT
  5
8A
330
6E
100
AcDbEntity
  8
0
100
AcDbBlockReference
  2
2_123328_0_in_124600_2
 10
0.0
 20
0.0
 30
0.0
  0
INSERT
  5
EA
330
6E
100
AcDbEntity
  8
0
100
AcDbBlockReference
  2
3_405020c_Inch_0_in_124600_2
 10
0.0
 20
0.0
 30
0.0
  0
INSERT
  5
12E
330
6E
100
AcDbEntity
  8
0
100
AcDbBlockReference
  2
4_124600H_0_in_124600_2
 10
0.0
 20
0.0
 30
0.0
  0
ENDBLK
  5
71
330
6E
100
AcDbEntity
  8
0
100
AcDbBlockEnd
  0
BLOCK
  5
8B
330
89
100
AcDbEntity
  8
0
100
AcDbBlockBegin
  2
2_123328_0_in_124600_2
 70
     2
 10
0.0
 20
0.0
 30
0.0
  3
2_123328_0_in_124600_2
  1

  0
ATTDEF
  5
8D
330
89
100
AcDbEntity
  8
AM_6
100
AcDbText
 10
5.0
 20
0.7873991640568178
 30
0.0
 40
0.5
  1
Set Screw Insert Inch Bore
100
AcDbAttributeDefinition
  3

  2
NN
 70
     8
280
     0
  0
ATTDEF
  5
8E
330
89
100
AcDbEntity
  8
AM_6
100
AcDbText
 10
5.0
 20
0.2873991640568178
 30
0.0
 40
0.5
  1
SC Normal Duty Bearing Inserts
100
AcDbAttributeDefinition
  3

  2
NT
 70
     8
280
     0
  0
ATTDEF
  5
8F
330
89
100
AcDbEntity
  8
AM_6
100
AcDbText
 10
5.0
 20
-0.2126008359431822
 30
0.0
 40
0.5
  1
123328
100
AcDbAttributeDefinition
  3

  2
NB
 70
     8
280
     0
  0
ATTDEF
  5
90
330
89
100
AcDbEntity
  8
AM_6
100
AcDbText
 10
5.0
 20
-0.7126008359431822
 30
0.0
 40
0.5
  1
$PN.
100
AcDbAttributeDefinition
  3

  2
NBSYN
 70
     8
280
     0
  0
ATTDEF
  5
91
330
89
100
AcDbEntity
  8
AM_6
100
AcDbText
 10
5.0
 20
-1.212600835943182
 30
0.0
 40
0.5
  1
123328
100
AcDbAttributeDefinition
  3

  2
LINA
 70
     8
280
     0
  0
ATTDEF
  5
92
330
89
100
AcDbEntity
  8
AM_6
100
AcDbText
 10
5.0
 20
-1.712600835943182
 30
0.0
 40
0.5
  1
203
100
AcDbAttributeDefinition
  3

  2
SERIES
 70
     8
280
     0
  0
ATTDEF
  5
93
330
89
100
AcDbEntity
  8
AM_6
100
AcDbText
 10
5.0
 20
-2.212600835943182
 30
0.0
 40
0.5
  1
1/2
100
AcDbAttributeDefinition
  3

  2
SS
 70
     8
280
     0
  0
ATTDEF
  5
94
330
89
100
AcDbEntity
  8
AM_6
100
AcDbText
 10
5.0
 20
-2.712600835943182
 30
0.0
 40
0.5
  1
123328
100
AcDbAttributeDefinition
  3

  2
PN
 70
     8
280
     0
  0
ATTDEF
  5
95
330
89
100
AcDbEntity
  8
AM_6
100
AcDbText
 10
5.0
 20
-3.212600835943182
 30
0.0
 40
0.5
  1
INS-SC-008
100
AcDbAttributeDefinition
  3

  2
DESCRIPTION
 70
     8
280
     0
  0
ATTDEF
  5
96
330
89
100
AcDbEntity
  8
AM_6
100
AcDbText
 10
5.0
 20
-3.712600835943182
 30
0.0
 40
0.5
  1
1
100
AcDbAttributeDefinition
  3

  2
A
 70
     8
280
     0
  0
ATTDEF
  5
97
330
89
100
AcDbEntity
  8
AM_6
100
AcDbText
 10
5.0
 20
-4.212600835943182
 30
0.0
 40
0.5
  1
0.51
100
AcDbAttributeDefinition
  3

  2
C
 70
     8
280
     0
  0
ATTDEF
  5
98
330
89
100
AcDbEntity
  8
AM_6
100
AcDbText
 10
5.0
 20
-4.712600835943182
 30
0.0
 40
0.5
  1
1.5748
100
AcDbAttributeDefinition
  3

  2
D
 70
     8
280
     0
  0
ATTDEF
  5
99
330
89
100
AcDbEntity
  8
AM_6
100
AcDbText
 10
5.0
 20
-5.212600835943182
 30
0.0
 40
0.5
  1
0.15
100
AcDbAttributeDefinition
  3

  2
J
 70
     8
280
     0
  0
ATTDEF
  5
9A
330
89
100
AcDbEntity
  8
AM_6
100
AcDbText
 10
5.0
 20
-5.712600835943182
 30
0.0
 40
0.5
  1
0.96
100
AcDbAttributeDefinition
  3

  2
L
 70
     8
280
     0
  0
ATTDEF
  5
9B
330
89
100
AcDbEntity
  8
AM_6
100
AcDbText
 10
5.0
 20
-6.212600835943182
 30
0.0
 40
0.5
  1
10 - 32
100
AcDbAttributeDefinition
  3

  2
N
 70
     8
280
     0
  0
ATTDEF
  5
9C
330
89
100
AcDbEntity
  8
AM_6
100
AcDbText
 10
5.0
 20
-6.712600835943182
 30
0.0
 40
0.5
  1
0.36
100
AcDbAttributeDefinition
  3

  2
W
 70
     8
280
     0
  0
ATTDEF
  5
9D
330
89
100
AcDbEntity
  8
AM_6
100
AcDbText
 10
5.0
 20
-7.212600835943182
 30
0.0
 40
0.5
  1
0.64
100
AcDbAttributeDefinition
  3

  2
Y
 70
     8
280
     0
  0
ATTDEF
  5
9E
330
89
100
AcDbEntity
  8
AM_6
100
AcDbText
 10
5.0
 20
-7.712600835943182
 30
0.0
 40
0.5
  1
baldor
100
AcDbAttributeDefinition
  3

  2
COMPANY
 70
     8
280
     0
  0
ARC
  5
A1
330
89
100
AcDbEntity
  8
AM_9
100
AcDbCircle
 10
-0.2600000000000109
 20
-0.0000000000000005
 30
0.0
 40
0.0633333333333427
100
AcDbArc
 50
357.3866317599894
 51
9.074990242689331
  0
CIRCLE
  5
A2
330
89
100
AcDbEntity
  8
AM_9
100
AcDbCircle
 10
-0.2600000000000001
 20
0.0
 30
0.0
 40
0.0169696969697087
  0
LINE
  5
A3
330
89
100
AcDbEntity
  8
AM_9
100
AcDbLine
 10
-0.78505
 20
0.25
 30
0.0
 11
-0.78505
 21
0.4705050477943886
 31
0.0
  0
LINE
  5
A4
330
89
100
AcDbEntity
  8
AM_9
100
AcDbLine
 10
-0.92995
 20
0.4705050477943886
 30
0.0
 11
-0.92995
 21
0.25
 31
0.0
  0
LINE
  5
A5
330
89
100
AcDbEntity
  8
AM_9
100
AcDbLine
 10
-0.92995
 20
0.4705050477943886
 30
0.0
 11
-0.78505
 21
0.4705050477943886
 31
0.0
  0
LINE
  5
A6
330
89
100
AcDbEntity
  8
AM_9
100
AcDbLine
 10
-0.78505
 20
0.4705050477943886
 30
0.0
 11
-0.7755550477943887
 21
0.4799999999999999
 31
0.0
  0
LINE
  5
A7
330
89
100
AcDbEntity
  8
AM_9
100
AcDbLine
 10
-0.9394449522056112
 20
0.4799999999999999
 30
0.0
 11
-0.92995
 21
0.4705050477943886
 31
0.0
  0
LWPOLYLINE
  5
A8
330
89
100
AcDbEntity
  8
AM_9
100
AcDbPolyline
 90
       20
 70
     0
 43
0.0
 10
-0.92995
 20
0.25
 10
-0.9289967075259257
 20
0.2497254025665933
 10
-0.9260573427736833
 20
0.2488997925836587
 10
-0.9213979340389934
 20
0.2476569067772016
 10
-0.9149010312783998
 20
0.2460607158646496
 10
-0.9068808440447474
 20
0.2443142755930804
 10
-0.897244290931485
 20
0.2425502136911995
 10
-0.886536028125696
 20
0.2410271528880434
 10
-0.8746007784099286
 20
0.2398821254746286
 10
-0.86281325760951
 20
0.2393307924326183
 10
-0.8504985021390715
 20
0.2393742226562764
 10
-0.8391335991667306
 20
0.2399756699742045
 10
-0.8279679057703095
 20
0.2410874158673391
 10
-0.8177639628001577
 20
0.242548861370956
 10
-0.8083737409777968
 20
0.2442629460755696
 10
-0.8002347071647107
 20
0.2460290862144381
 10
-0.7935030922742186
 20
0.2476824614268482
 10
-0.7887257977201734
 20
0.2489596119840053
 10
-0.7858221087119408
 20
0.249777336040528
 10
-0.785050000001637
 20
0.2499999999995256
  0
LINE
  5
A9
330
89
100
AcDbEntity
  8
AM_9
100
AcDbLine
 10
-0.0949999999999999
 20
-0.25
 30
0.0
 11
-0.0692
 21
-0.25
 31
0.0
  0
LINE
  5
AA
330
89
100
AcDbEntity
  8
AM_9
100
AcDbLine
 10
-1.0308
 20
-0.25
 30
0.0
 11
-0.4679999999999998
 21
-0.25
 31
0.0
  0
LINE
  5
AB
330
89
100
AcDbEntity
  8
AM_9
100
AcDbLine
 10
-0.4679999999999999
 20
0.25
 30
0.0
 11
-0.78505
 21
0.25
 31
0.0
  0
LINE
  5
AC
330
89
100
AcDbEntity
  8
AM_9
100
AcDbLine
 10
-0.0692
 20
0.25
 30
0.0
 11
-0.095
 21
0.25
 31
0.0
  0
LINE
  5
AD
330
89
100
AcDbEntity
  8
AM_9
100
AcDbLine
 10
-0.9299500000000003
 20
0.25
 30
0.0
 11
-1.0308
 21
0.25
 31
0.0
  0
LINE
  5
AE
330
89
100
AcDbEntity
  8
AM_9
100
AcDbLine
 10
-0.0692
 20
-0.25
 30
0.0
 11
-0.05
 21
-0.2692
 31
0.0
  0
LINE
  5
AF
330
89
100
AcDbEntity
  8
AM_9
100
AcDbLine
 10
-0.05
 20
0.2692
 30
0.0
 11
-0.0692
 21
0.25
 31
0.0
  0
LINE
  5
B0
330
89
100
AcDbEntity
  8
AM_9
100
AcDbLine
 10
-1.0308
 20
0.25
 30
0.0
 11
-1.05
 21
0.2692
 31
0.0
  0
LINE
  5
B1
330
89
100
AcDbEntity
  8
AM_9
100
AcDbLine
 10
-1.05
 20
-0.2692
 30
0.0
 11
-1.0308
 21
-0.25
 31
0.0
  0
LWPOLYLINE
  5
B2
330
89
100
AcDbEntity
  8
AM_9
100
AcDbPolyline
 90
        7
 70
     0
 43
0.0
 10
-0.9070771349822002
 20
0.1511495827153036
 10
-0.9104826892757585
 20
0.148355225328694
 10
-0.9180600145324664
 20
0.1403512418545546
 10
-0.923865816874216
 20
0.1312770874815
 10
-0.9278962139816497
 20
0.1209297315708081
 10
-0.9297523044825623
 20
0.1104778163385036
 10
-0.9299499999430292
 20
0.1056571693997213
  0
LINE
  5
B3
330
89
100
AcDbEntity
  8
AM_9
100
AcDbLine
 10
-0.78505
 20
0.1056287346650816
 30
0.0
 11
-0.78505
 21
0.1988440254390892
 31
0.0
  0
LINE
  5
B4
330
89
100
AcDbEntity
  8
AM_9
100
AcDbLine
 10
-0.92995
 20
0.1988440254390892
 30
0.0
 11
-0.92995
 21
0.1056231215007545
 31
0.0
  0
LWPOLYLINE
  5
B5
330
89
100
AcDbEntity
  8
AM_9
100
AcDbPolyline
 90
       21
 70
     0
 43
0.0
 10
-0.9299499999430292
 20
0.1056571693997213
 10
-0.9296153816018884
 20
0.0993101551069097
 10
-0.9275860703932366
 20
0.0887331346537796
 10
-0.9236459205128646
 20
0.0781241411985138
 10
-0.9180553875853429
 20
0.068260433151242
 10
-0.9107067978200898
 20
0.0590242085699665
 10
-0.9018439998674292
 20
0.0509164854857068
 10
-0.8914399960988386
 20
0.0441215327486822
 10
-0.8802524019731526
 20
0.039236698693554
 10
-0.8680042598300081
 20
0.0362498406928933
 10
-0.8562219446924436
 20
0.0354702958006883
 10
-0.8441219986817644
 20
0.0367456876128161
 10
-0.8330136393652462
 20
0.0398506659652015
 10
-0.8222793352278932
 20
0.0448294284279026
 10
-0.8125223463258894
 20
0.0514152241390681
 10
-0.8037418528417016
 20
0.0596218705152002
 10
-0.7963962444842179
 20
0.0690857891089282
 10
-0.790609431115123
 20
0.0797728447450729
 10
-0.7869119109998577
 20
0.0906387807046109
 10
-0.7851572000696634
 20
0.1020707995819487
 10
-0.7850500002172545
 20
0.1056494802988321
  0
LWPOLYLINE
  5
B6
330
89
100
AcDbEntity
  8
AM_9
100
AcDbPolyline
 90
        7
 70
     0
 43
0.0
 10
-0.7850500002172545
 20
0.1056494802988321
 10
-0.7854668784406795
 20
0.1126374263133171
 10
-0.7877452925901165
 20
0.1230734537103023
 10
-0.791745713104221
 20
0.1324393675364261
 10
-0.7975749305190161
 20
0.1411471616255958
 10
-0.8050082930762568
 20
0.1487829696773441
 10
-0.8079051820192039
 20
0.1511360549687001
  0
LINE
  5
B7
330
89
100
AcDbEntity
  8
AM_9
100
AcDbLine
 10
-0.155
 20
-0.4799999999999996
 30
0.0
 11
-0.0692
 21
-0.4799999999999996
 31
0.0
  0
LINE
  5
B8
330
89
100
AcDbEntity
  8
AM_9
100
AcDbLine
 10
-0.095
 20
0.4799999999999996
 30
0.0
 11
-0.155
 21
0.4799999999999996
 31
0.0
  0
LINE
  5
B9
330
89
100
AcDbEntity
  8
AM_9
100
AcDbLine
 10
-0.0692
 20
-0.4799999999999999
 30
0.0
 11
-0.05
 21
-0.4607999999999999
 31
0.0
  0
LINE
  5
BA
330
89
100
AcDbEntity
  8
AM_9
100
AcDbLine
 10
-0.0692
 20
0.0207758501989533
 30
0.0
 11
-0.0692
 21
-0.4799999999999999
 31
0.0
  0
LINE
  5
BB
330
89
100
AcDbEntity
  8
AM_9
100
AcDbLine
 10
-0.05
 20
0.0207758501989429
 30
0.0
 11
-0.05
 21
-0.4607999999999999
 31
0.0
  0
LINE
  5
BC
330
89
100
AcDbEntity
  8
AM_9
100
AcDbLine
 10
-0.72
 20
-0.4799999999999999
 30
0.0
 11
-0.665
 21
-0.4799999999999999
 31
0.0
  0
LINE
  5
BD
330
89
100
AcDbEntity
  8
AM_9
100
AcDbLine
 10
-0.665
 20
0.4799999999999999
 30
0.0
 11
-0.72
 21
0.4799999999999999
 31
0.0
  0
LINE
  5
BE
330
89
100
AcDbEntity
  8
AM_9
100
AcDbLine
 10
-0.59
 20
-0.7373999999999999
 30
0.0
 11
-0.53
 21
-0.7373999999999999
 31
0.0
  0
LINE
  5
BF
330
89
100
AcDbEntity
  8
AM_9
100
AcDbLine
 10
-0.53
 20
0.7373999999999999
 30
0.0
 11
-0.59
 21
0.7373999999999999
 31
0.0
  0
LINE
  5
C0
330
89
100
AcDbEntity
  8
AM_9
100
AcDbLine
 10
-0.155
 20
0.7232079645579133
 30
0.0
 11
-0.155
 21
-0.7232079645579133
 31
0.0
  0
ARC
  5
C1
330
89
100
AcDbEntity
  8
AM_9
100
AcDbCircle
 10
-0.1850000000000002
 20
-0.723207964557913
 30
0.0
 40
0.0300000000000001
100
AcDbArc
 50
287.2816404239049
 51
0.0
  0
ARC
  5
C2
330
89
100
AcDbEntity
  8
AM_9
100
AcDbCircle
 10
-0.1850000000000002
 20
0.723207964557913
 30
0.0
 40
0.0300000000000002
100
AcDbArc
 50
0.0000008537736463
 51
72.71835957609503
  0
LINE
  5
C3
330
89
100
AcDbEntity
  8
AM_9
100
AcDbLine
 10
-0.6650000000000001
 20
0.7232079645579129
 30
0.0
 11
-0.6650000000000001
 21
-0.7232079645579129
 31
0.0
  0
ARC
  5
C4
330
89
100
AcDbEntity
  8
AM_9
100
AcDbCircle
 10
-0.6349999999999997
 20
-0.7232079645579128
 30
0.0
 40
0.0300000000000005
100
AcDbArc
 50
180.0
 51
252.7183595760949
  0
ARC
  5
C5
330
89
100
AcDbEntity
  8
AM_9
100
AcDbCircle
 10
-0.6349999999999997
 20
0.7232079645579128
 30
0.0
 40
0.0300000000000005
100
AcDbArc
 50
107.2816404239051
 51
180.0
  0
ARC
  5
C6
330
89
100
AcDbEntity
  8
AM_9
100
AcDbCircle
 10
-0.4100000000000413
 20
0.0000000000001641
 30
0.0
 40
0.7873999999998309
100
AcDbArc
 50
103.2146888115204
 51
107.2816404239054
  0
ARC
  5
C7
330
89
100
AcDbEntity
  8
AM_9
100
AcDbCircle
 10
-0.4099999999527787
 20
0.000000000173333
 30
0.0
 40
0.7874000001794238
100
AcDbArc
 50
252.7183595765586
 51
256.7853111880155
  0
LINE
  5
C8
330
89
100
AcDbEntity
  8
AM_9
100
AcDbLine
 10
-0.6439120675996831
 20
0.7518536457524437
 30
0.0
 11
-0.6439120675996831
 21
-0.7518536457523263
 31
0.0
  0
LINE
  5
C9
330
89
100
AcDbEntity
  8
AM_9
100
AcDbLine
 10
-0.59
 20
0.7665499070510675
 30
0.0
 11
-0.59
 21
-0.76654990705095
 31
0.0
  0
LWPOLYLINE
  5
CA
330
89
100
AcDbEntity
  8
AM_9
100
AcDbPolyline
 90
       24
 70
     0
 43
0.0
 10
-0.2377468717477822
 20
-0.0592951043012935
 10
-0.2489800072019411
 20
-0.0623037684014797
 10
-0.260566766577375
 20
-0.0631144925292983
 10
-0.2708067526104373
 20
-0.0619356236312679
 10
-0.2807102145939549
 20
-0.0590330930220087
 10
-0.289986618971927
 20
-0.0544701103314287
 10
-0.2983908789375164
 20
-0.0484006230174487
 10
-0.3057024116487065
 20
-0.0409481351075654
 10
-0.3117024140264527
 20
-0.0323643444562439
 10
-0.3162340681823196
 20
-0.022812044512099
 10
-0.3191512737566381
 20
-0.0126264790578717
 10
-0.3203555282832503
 20
-0.0020152208228244
 10
-0.3198130281783452
 20
0.0086525036970007
 10
-0.3175037511605454
 20
0.0191082812841636
 10
-0.3135131223232783
 20
0.0290235964596103
 10
-0.3079402864420607
 20
0.0380865799954286
 10
-0.300954720016701
 20
0.0460678369819802
 10
-0.2927883112221872
 20
0.0526792209105895
 10
-0.2836486381438767
 20
0.0577990474863989
 10
-0.2738566842751521
 20
0.0612343709413266
 10
-0.2636382244750594
 20
0.0629495753573965
 10
-0.2533314380445724
 20
0.0628736320322912
 10
-0.2431810743259705
 20
0.0610465993632603
 10
-0.2377468717477822
 20
0.0592951043012934
  0
LWPOLYLINE
  5
CB
330
89
100
AcDbEntity
  8
AM_9
100
AcDbPolyline
 90
       16
 70
     0
 43
0.0
 10
-0.2377468717477822
 20
-0.0592951043012935
 10
-0.228096689116858
 20
-0.054703794279358
 10
-0.2193275091525625
 20
-0.048547498384325
 10
-0.2116897447238939
 20
-0.0409435822214442
 10
-0.2054241634302312
 20
-0.0321339255899557
 10
-0.2008011598988909
 20
-0.0224887443486461
 10
-0.1978498539279231
 20
-0.0121848452731428
 10
-0.1966959803354675
 20
-0.001697012796187
 10
-0.1972865464272889
 20
0.0088393355007221
 10
-0.1996033649319736
 20
0.019041209338261
 10
-0.2035481605706473
 20
0.0287106415141405
 10
-0.2090523037313787
 20
0.0376123096633759
 10
-0.2159165915796393
 20
0.0454726754563066
 10
-0.2240875620078313
 20
0.0521599532737748
 10
-0.2332236765444877
 20
0.0573945956804009
 10
-0.2377468717477822
 20
0.0592951043012934
  0
ARC
  5
CC
330
89
100
AcDbEntity
  8
AM_9
100
AcDbCircle
 10
-0.4100000000000004
 20
-0.000000000000002
 30
0.0
 40
0.7874000000000019
100
AcDbArc
 50
72.71835957609527
 51
98.76605344787514
  0
ARC
  5
CD
330
89
100
AcDbEntity
  8
AM_9
100
AcDbCircle
 10
-0.4099999999999985
 20
-0.0000000000000275
 30
0.0
 40
0.7873999999999728
100
AcDbArc
 50
261.2339465521244
 51
287.2816404239052
  0
LINE
  5
CE
330
89
100
AcDbEntity
  8
AM_9
100
AcDbLine
 10
-0.5299999999999999
 20
0.7782022616261148
 30
0.0
 11
-0.5299999999999999
 21
-0.7782022616261146
 31
0.0
  0
LINE
  5
CF
330
89
100
AcDbEntity
  8
AM_9
100
AcDbLine
 10
-0.1760879324003169
 20
0.7518536457524437
 30
0.0
 11
-0.1760879324003169
 21
-0.7518536457524434
 31
0.0
  0
LINE
  5
D1
330
89
100
AcDbEntity
  8
AM_5
100
AcDbLine
 10
-0.7625000000000002
 20
0.25
 30
0.0
 11
-0.7625000000000002
 21
0.4799999999999999
 31
0.0
  0
LINE
  5
D2
330
89
100
AcDbEntity
  8
AM_5
100
AcDbLine
 10
-0.9525
 20
0.25
 30
0.0
 11
-0.9525
 21
0.4799999999999999
 31
0.0
  0
LINE
  5
D5
330
89
100
AcDbEntity
  8
AM_7
100
AcDbLine
 10
-0.2600000000000001
 20
-0.0178181818181942
 30
0.0
 11
-0.2600000000000001
 21
0.0178181818181941
 31
0.0
  0
LINE
  5
D6
330
89
100
AcDbEntity
  8
AM_7
100
AcDbLine
 10
-1.1
 20
0.0
 30
0.0
 11
0.0
 21
0.0
 31
0.0
  0
LINE
  5
D7
330
89
100
AcDbEntity
  8
AM_7
100
AcDbLine
 10
-0.8575
 20
0.5072729691042609
 30
0.0
 11
-0.8575
 21
0.1944787002870714
 31
0.0
  0
LWPOLYLINE
  5
D9
330
89
100
AcDbEntity
  8
AM_4
100
AcDbPolyline
 90
        6
 70
     0
 43
0.0
 10
-0.8575
 20
0.1667826342182697
 10
-0.869201944092236
 20
0.1660413422195134
 10
-0.8809038881844721
 20
0.1637448761256388
 10
-0.8916102862961522
 20
0.1600722441296188
 10
-0.9016577791020912
 20
0.154884512432977
 10
-0.9070771349822002
 20
0.1511495827153036
  0
LWPOLYLINE
  5
DA
330
89
100
AcDbEntity
  8
AM_4
100
AcDbPolyline
 90
        6
 70
     0
 43
0.0
 10
-0.8079051820192039
 20
0.1511360549687001
 10
-0.8141003269419083
 20
0.1553479278860622
 10
-0.8244173106351012
 20
0.1604993273919554
 10
-0.8360574193383692
 20
0.1642461595898937
 10
-0.8465150896481911
 20
0.166130010937047
 10
-0.8575
 20
0.1667826342182697
  0
LINE
  5
DB
330
89
100
AcDbEntity
  8
AM_4
100
AcDbLine
 10
-0.0692
 20
0.4799999999999996
 30
0.0
 11
-0.095
 21
0.4799999999999996
 31
0.0
  0
LINE
  5
DC
330
89
100
AcDbEntity
  8
AM_4
100
AcDbLine
 10
-0.05
 20
0.4607999999999999
 30
0.0
 11
-0.0692
 21
0.4799999999999999
 31
0.0
  0
LINE
  5
DD
330
89
100
AcDbEntity
  8
AM_4
100
AcDbLine
 10
-0.0692
 20
0.4799999999999999
 30
0.0
 11
-0.0692
 21
0.0207758501989533
 31
0.0
  0
LINE
  5
DE
330
89
100
AcDbEntity
  8
AM_4
100
AcDbLine
 10
-0.05
 20
0.4607999999999999
 30
0.0
 11
-0.05
 21
0.0207758501989429
 31
0.0
  0
LWPOLYLINE
  5
DF
330
89
100
AcDbEntity
  8
AM_4
100
AcDbPolyline
 90
       39
 70
     0
 43
0.0
 10
-0.7965749507153228
 20
0.155774024313736
 10
-0.805342901342205
 20
0.1483391788014412
 10
-0.8151426368978824
 20
0.1421371747093828
 10
-0.8275879740888881
 20
0.1366272239099285
 10
-0.8407923682114397
 20
0.1330694481600012
 10
-0.8550836123702966
 20
0.1315506386149101
 10
-0.8694407920008635
 20
0.1323031189515372
 10
-0.8837153657614839
 20
0.135413697737596
 10
-0.8972364583786246
 20
0.1407776528038339
 10
-0.9094471087065114
 20
0.1481917200601074
 10
-0.9201040763388556
 20
0.1574708853484493
 10
-0.928411683507617
 20
0.1678213846409636
 10
-0.9345970528594827
 20
0.1793020580425153
 10
-0.9381223611900191
 20
0.1905425967483151
 10
-0.9394393143738513
 20
0.202051272900816
 10
-0.9385811123872575
 20
0.2126961448491845
 10
-0.9357771925675639
 20
0.2229448873891507
 10
-0.9311500965623308
 20
0.2324631045069539
 10
-0.9248827948330262
 20
0.2411243312116209
 10
-0.9167101953990693
 20
0.2491384241883339
 10
-0.9071963413995313
 20
0.2559024952250042
 10
-0.8957273624034227
 20
0.2616784283178164
 10
-0.8833222181195446
 20
0.2658341368314204
 10
-0.8694720438590803
 20
0.2684062021835526
 10
-0.85530258928984
 20
0.2690748352878042
 10
-0.8407930606333708
 20
0.2677477234081383
 10
-0.8267563336265387
 20
0.2644148972032251
 10
-0.8136272121431892
 20
0.2590987338451397
 10
-0.8017948713948412
 20
0.2518916278627145
 10
-0.7920084949206764
 20
0.2432148906273336
 10
-0.7841983264655156
 20
0.2330478235356843
 10
-0.7790593767928141
 20
0.2224741180392902
 10
-0.7761556447752792
 20
0.2111152160206229
 10
-0.77562354118919
 20
0.2002403419431281
 10
-0.7771413831947844
 20
0.189318410595182
 10
-0.7805436406724683
 20
0.178985528608009
 10
-0.7856852005666944
 20
0.1691944533711339
 10
-0.7907152296432365
 20
0.1622047252983186
 10
-0.7965749496866728
 20
0.1557740227958316
  0
LINE
  5
E0
330
89
100
AcDbEntity
  8
AM_4
100
AcDbLine
 10
-1.0308
 20
-0.4799999999999999
 30
0.0
 11
-0.72
 21
-0.4799999999999999
 31
0.0
  0
LINE
  5
E1
330
89
100
AcDbEntity
  8
AM_4
100
AcDbLine
 10
-0.72
 20
0.4799999999999999
 30
0.0
 11
-0.7755550477943887
 21
0.4799999999999999
 31
0.0
  0
LINE
  5
E2
330
89
100
AcDbEntity
  8
AM_4
100
AcDbLine
 10
-0.9394449522056112
 20
0.4799999999999999
 30
0.0
 11
-1.0308
 21
0.4799999999999999
 31
0.0
  0
LWPOLYLINE
  5
E3
330
89
100
AcDbEntity
  8
AM_4
100
AcDbPolyline
 90
       20
 70
     0
 43
0.0
 10
-0.7755550477943892
 20
0.4799999999999998
 10
-0.7766284247977268
 20
0.479844458160782
 10
-0.77955234287694
 20
0.4794307395649873
 10
-0.7843673484023369
 20
0.4787814105479508
 10
-0.7908644605890939
 20
0.4779687225173389
 10
-0.7990332061025129
 20
0.4770513137528059
 10
-0.8089469211462599
 20
0.4760956481273923
 10
-0.8202709741045043
 20
0.4752177570987241
 10
-0.8330462401772893
 20
0.4745035444799032
 10
-0.8467991470645543
 20
0.4740644284357029
 10
-0.861056565977811
 20
0.4739718260969834
 10
-0.875614922352465
 20
0.4742585540105694
 10
-0.8894180547761125
 20
0.474885142682134
 10
-0.9026890581180882
 20
0.4758109594892681
 10
-0.9140327886772177
 20
0.4768512500783165
 10
-0.9240063874190786
 20
0.4779533106490111
 10
-0.9312147569270904
 20
0.47885778928277
 10
-0.9364337373106463
 20
0.4795686299302759
 10
-0.9389444900473036
 20
0.4799272341335781
 10
-0.9394449522054311
 20
0.4799999999999736
  0
LINE
  5
E4
330
89
100
AcDbEntity
  8
AM_4
100
AcDbLine
 10
-1.05
 20
-0.4608
 30
0.0
 11
-1.0308
 21
-0.48
 31
0.0
  0
LINE
  5
E5
330
89
100
AcDbEntity
  8
AM_4
100
AcDbLine
 10
-1.0308
 20
0.48
 30
0.0
 11
-1.05
 21
0.4608
 31
0.0
  0
LINE
  5
E6
330
89
100
AcDbEntity
  8
AM_4
100
AcDbLine
 10
-1.05
 20
0.4608
 30
0.0
 11
-1.05
 21
-0.4608
 31
0.0
  0
LINE
  5
E7
330
89
100
AcDbEntity
  8
AM_4
100
AcDbLine
 10
-1.0308
 20
0.48
 30
0.0
 11
-1.0308
 21
-0.48
 31
0.0
  0
ELLIPSE
  5
E8
330
89
100
AcDbEntity
  8
AM_4
100
AcDbEllipse
 10
-0.8574999999999999
 20
0.1988440254390892
 30
0.0
 11
0.07245000000000013
 21
0.0
 31
0.0
210
0.0
220
0.0
230
1.0
 40
0.9063077870366503
 41
0.0
 42
6.283185307179586
  0
ENDBLK
  5
8C
330
89
100
AcDbEntity
  8
0
100
AcDbBlockEnd
  0
BLOCK
  5
EB
330
E9
100
AcDbEntity
  8
0
100
AcDbBlockBegin
  2
3_405020c_Inch_0_in_124600_2
 70
     2
 10
0.0
 20
0.0
 30
0.0
  3
3_405020c_Inch_0_in_124600_2
  1

  0
ATTDEF
  5
ED
330
E9
100
AcDbEntity
  8
AM_6
100
AcDbText
 10
4.669075297389709
 20
-1.295
 30
0.0
 40
0.5
  1
405020C -Inch
100
AcDbAttributeDefinition
  3

  2
NN
 70
     8
280
     0
  0
ATTDEF
  5
EE
330
E9
100
AcDbEntity
  8
AM_6
100
AcDbText
 10
4.669075297389709
 20
-1.795
 30
0.0
 40
0.5
  1
Grease fitting
100
AcDbAttributeDefinition
  3

  2
NT
 70
     8
280
     0
  0
ATTDEF
  5
EF
330
E9
100
AcDbEntity
  8
AM_6
100
AcDbText
 10
4.669075297389709
 20
-2.295
 30
0.0
 40
0.5
  1
405020c-Inch
100
AcDbAttributeDefinition
  3

  2
NB
 70
     8
280
     0
  0
ATTDEF
  5
F0
330
E9
100
AcDbEntity
  8
AM_6
100
AcDbText
 10
4.669075297389709
 20
-2.795
 30
0.0
 40
0.5
  1
$MN.-Inch
100
AcDbAttributeDefinition
  3

  2
NBSYN
 70
     8
280
     0
  0
ATTDEF
  5
F1
330
E9
100
AcDbEntity
  8
AM_6
100
AcDbText
 10
4.669075297389709
 20
-3.295
 30
0.0
 40
0.5
  1
405020c
100
AcDbAttributeDefinition
  3

  2
LINA
 70
     8
280
     0
  0
ATTDEF
  5
F2
330
E9
100
AcDbEntity
  8
AM_6
100
AcDbText
 10
4.669075297389709
 20
-3.795
 30
0.0
 40
0.5
  1
405020c
100
AcDbAttributeDefinition
  3

  2
MN
 70
     8
280
     0
  0
ATTDEF
  5
F3
330
E9
100
AcDbEntity
  8
AM_6
100
AcDbText
 10
4.669075297389709
 20
-4.295
 30
0.0
 40
0.5
  1
0.230
100
AcDbAttributeDefinition
  3

  2
NDR
 70
     8
280
     0
  0
ATTDEF
  5
F4
330
E9
100
AcDbEntity
  8
AM_6
100
AcDbText
 10
4.669075297389709
 20
-4.795
 30
0.0
 40
0.5
  1
0.210
100
AcDbAttributeDefinition
  3

  2
KDR
 70
     8
280
     0
  0
ATTDEF
  5
F5
330
E9
100
AcDbEntity
  8
AM_6
100
AcDbText
 10
4.669075297389709
 20
-5.295
 30
0.0
 40
0.5
  1
0.157
100
AcDbAttributeDefinition
  3

  2
BZE
 70
     8
280
     0
  0
ATTDEF
  5
F6
330
E9
100
AcDbEntity
  8
AM_6
100
AcDbText
 10
4.669075297389709
 20
-5.795
 30
0.0
 40
0.5
  1
9/32
100
AcDbAttributeDefinition
  3

  2
WAF
 70
     8
280
     0
  0
ATTDEF
  5
F7
330
E9
100
AcDbEntity
  8
AM_6
100
AcDbText
 10
4.669075297389709
 20
-6.295
 30
0.0
 40
0.5
  1
0.2813
100
AcDbAttributeDefinition
  3

  2
WAF1
 70
     8
280
     0
  0
ATTDEF
  5
F8
330
E9
100
AcDbEntity
  8
AM_6
100
AcDbText
 10
4.669075297389709
 20
-6.795
 30
0.0
 40
0.5
  1
0.545
100
AcDbAttributeDefinition
  3

  2
BL
 70
     8
280
     0
  0
ATTDEF
  5
F9
330
E9
100
AcDbEntity
  8
AM_6
100
AcDbText
 10
4.669075297389709
 20
-7.295
 30
0.0
 40
0.5
  1
0.200
100
AcDbAttributeDefinition
  3

  2
TL
 70
     8
280
     0
  0
ATTDEF
  5
FA
330
E9
100
AcDbEntity
  8
AM_6
100
AcDbText
 10
4.669075297389709
 20
-7.795
 30
0.0
 40
0.5
  1
baldor
100
AcDbAttributeDefinition
  3

  2
COMPANY
 70
     8
280
     0
  0
LINE
  5
FB
330
E9
100
AcDbEntity
  8
AM_9
100
AcDbLine
 10
-0.593421956036991
 20
-1.295
 30
0.0
 11
-0.3932447106296756
 21
-1.295
 31
0.0
  0
LINE
  5
FC
330
E9
100
AcDbEntity
  8
AM_9
100
AcDbLine
 10
-0.593421956036991
 20
-1.295
 30
0.0
 11
-0.6037495929273224
 21
-1.305327636890331
 31
0.0
  0
LINE
  5
FD
330
E9
100
AcDbEntity
  8
AM_9
100
AcDbLine
 10
-0.3829170737393442
 20
-1.305327636890331
 30
0.0
 11
-0.3932447106296756
 21
-1.295
 31
0.0
  0
LINE
  5
FE
330
E9
100
AcDbEntity
  8
AM_9
100
AcDbLine
 10
-0.6037495929273224
 20
-1.305327636890331
 30
0.0
 11
-0.3829170737393442
 21
-1.305327636890331
 31
0.0
  0
LINE
  5
FF
330
E9
100
AcDbEntity
  8
AM_9
100
AcDbLine
 10
-0.6037495929273224
 20
-1.305327636890331
 30
0.0
 11
-0.6096771504866104
 21
-1.495
 31
0.0
  0
LINE
  5
100
330
E9
100
AcDbEntity
  8
AM_9
100
AcDbLine
 10
-0.3769895161800562
 20
-1.495
 30
0.0
 11
-0.3829170737393442
 21
-1.305327636890331
 31
0.0
  0
LINE
  5
101
330
E9
100
AcDbEntity
  8
AM_5
100
AcDbLine
 10
-0.3875669471454587
 20
-1.476679352154371
 30
0.0
 11
-0.3932447106296756
 21
-1.295
 31
0.0
  0
LINE
  5
102
330
E9
100
AcDbEntity
  8
AM_5
100
AcDbLine
 10
-0.3769895161800562
 20
-1.495
 30
0.0
 11
-0.3875669471454587
 21
-1.476679352154371
 31
0.0
  0
LINE
  5
103
330
E9
100
AcDbEntity
  8
AM_5
100
AcDbLine
 10
-0.6091046016300034
 20
-1.476679352154371
 30
0.0
 11
-0.3775620650366633
 21
-1.476679352154371
 31
0.0
  0
LINE
  5
104
330
E9
100
AcDbEntity
  8
AM_5
100
AcDbLine
 10
-0.5990997195212079
 20
-1.476679352154371
 30
0.0
 11
-0.593421956036991
 21
-1.295
 31
0.0
  0
LINE
  5
105
330
E9
100
AcDbEntity
  8
AM_5
100
AcDbLine
 10
-0.6096771504866104
 20
-1.495
 30
0.0
 11
-0.5990997195212079
 21
-1.476679352154371
 31
0.0
  0
LINE
  5
106
330
E9
100
AcDbEntity
  8
AM_4
100
AcDbLine
 10
-0.3309247026102916
 20
-1.500830207530646
 30
0.0
 11
-0.3526833333333335
 21
-1.495
 31
0.0
  0
LINE
  5
107
330
E9
100
AcDbEntity
  8
AM_4
100
AcDbLine
 10
-0.6339833333333331
 20
-1.495
 30
0.0
 11
-0.655741964056375
 21
-1.500830207530646
 31
0.0
  0
LINE
  5
108
330
E9
100
AcDbEntity
  8
AM_4
100
AcDbLine
 10
-0.3526833333333333
 20
-1.561666666666667
 30
0.0
 11
-0.3309247026102916
 21
-1.555836459136021
 31
0.0
  0
LINE
  5
109
330
E9
100
AcDbEntity
  8
AM_4
100
AcDbLine
 10
-0.6557419640563751
 20
-1.555836459136021
 30
0.0
 11
-0.6339833333333333
 21
-1.561666666666667
 31
0.0
  0
LINE
  5
10A
330
E9
100
AcDbEntity
  8
AM_4
100
AcDbLine
 10
-0.5741397630500613
 20
-1.84
 30
0.0
 11
-0.412526903663494
 21
-1.84
 31
0.0
  0
ARC
  5
10B
330
E9
100
AcDbEntity
  8
AM_4
100
AcDbCircle
 10
-0.4125269036166056
 20
-1.815
 30
0.0
 40
0.0250000000000004
100
AcDbArc
 50
270.0
 51
336.9999999999997
  0
ARC
  5
10C
330
E9
100
AcDbEntity
  8
AM_4
100
AcDbCircle
 10
-0.5741397630500611
 20
-1.815
 30
0.0
 40
0.0250000000000004
100
AcDbArc
 50
203.0000000000004
 51
270.0
  0
ARC
  5
10D
330
E9
100
AcDbEntity
  8
AM_4
100
AcDbCircle
 10
-0.3486485436942336
 20
-1.628342555146223
 30
0.0
 40
0.0500000000000008
100
AcDbArc
 50
135.0000000000006
 51
204.9999999999995
  0
ARC
  5
10E
330
E9
100
AcDbEntity
  8
AM_4
100
AcDbCircle
 10
-0.638018122972433
 20
-1.628342555146223
 30
0.0
 40
0.0500000000000007
100
AcDbArc
 50
335.0000000000005
 51
44.99999999999937
  0
LINE
  5
10F
330
E9
100
AcDbEntity
  8
AM_4
100
AcDbLine
 10
-0.5927027336205997
 20
-1.649473468233258
 30
0.0
 11
-0.393963933046067
 21
-1.649473468233258
 31
0.0
  0
LINE
  5
110
330
E9
100
AcDbEntity
  8
AM_4
100
AcDbLine
 10
-0.5927027336205997
 20
-1.649473468233258
 30
0.0
 11
-0.6245752446802239
 21
-1.717824288774639
 31
0.0
  0
LINE
  5
111
330
E9
100
AcDbEntity
  8
AM_4
100
AcDbLine
 10
-0.3620914219864428
 20
-1.717824288774639
 30
0.0
 11
-0.393963933046067
 21
-1.649473468233258
 31
0.0
  0
LINE
  5
112
330
E9
100
AcDbEntity
  8
AM_4
100
AcDbLine
 10
-0.5971523843863724
 20
-1.824768278212232
 30
0.0
 11
-0.3895142822802942
 21
-1.824768278212232
 31
0.0
  0
LINE
  5
113
330
E9
100
AcDbEntity
  8
AM_4
100
AcDbLine
 10
-0.3895142822802942
 20
-1.824768278212232
 30
0.0
 11
-0.3613815686656533
 21
-1.758491758286138
 31
0.0
  0
LINE
  5
114
330
E9
100
AcDbEntity
  8
AM_4
100
AcDbLine
 10
-0.6252850980010133
 20
-1.758491758286138
 30
0.0
 11
-0.5971523843863724
 21
-1.824768278212232
 31
0.0
  0
LINE
  5
115
330
E9
100
AcDbEntity
  8
AM_4
100
AcDbLine
 10
-0.6252850980010133
 20
-1.758491758286138
 30
0.0
 11
-0.3613815686656533
 21
-1.758491758286138
 31
0.0
  0
LINE
  5
116
330
E9
100
AcDbEntity
  8
AM_4
100
AcDbLine
 10
-0.6245752446802239
 20
-1.717824288774639
 30
0.0
 11
-0.3620914219864428
 21
-1.717824288774639
 31
0.0
  0
ARC
  5
117
330
E9
100
AcDbEntity
  8
AM_4
100
AcDbCircle
 10
-0.4074068113382746
 20
-1.738955201861674
 30
0.0
 40
0.0499999999999994
100
AcDbArc
 50
336.9999999999995
 51
25.00000000000034
  0
ARC
  5
118
330
E9
100
AcDbEntity
  8
AM_4
100
AcDbCircle
 10
-0.5792598553283921
 20
-1.738955201861674
 30
0.0
 40
0.0499999999999993
100
AcDbArc
 50
154.9999999999997
 51
203.0000000000005
  0
LWPOLYLINE
  5
119
330
E9
100
AcDbEntity
  8
AM_4
100
AcDbPolyline
 90
        4
 70
     0
 43
0.0
 10
-0.4933333333333333
 20
-1.561666666666667
 10
-0.5244842092552848
 20
-1.560753410066301
 10
-0.5556350851772365
 20
-1.558134868230415
 10
-0.5745376486948541
 20
-1.555836459136021
  0
LWPOLYLINE
  5
11A
330
E9
100
AcDbEntity
  8
AM_4
100
AcDbPolyline
 90
        3
 70
     0
 43
0.0
 10
-0.4933333333333333
 20
-1.495
 10
-0.4527311756525729
 20
-1.496538875462469
 10
-0.4121290179718125
 20
-1.500830207530646
  0
LWPOLYLINE
  5
11B
330
E9
100
AcDbEntity
  8
AM_4
100
AcDbPolyline
 90
        4
 70
     0
 43
0.0
 10
-0.5745376486948541
 20
-1.500830207530646
 10
-0.5556350851772365
 20
-1.498531798436252
 10
-0.5245761589541537
 20
-1.495918591732273
 10
-0.4933333333333333
 20
-1.495
  0
LINE
  5
11C
330
E9
100
AcDbEntity
  8
AM_4
100
AcDbLine
 10
-0.3309247026102916
 20
-1.555836459136021
 30
0.0
 11
-0.3309247026102916
 21
-1.500830207530646
 31
0.0
  0
LWPOLYLINE
  5
11D
330
E9
100
AcDbEntity
  8
AM_4
100
AcDbPolyline
 90
        3
 70
     0
 43
0.0
 10
-0.371526860291052
 20
-1.495
 10
-0.3512257814506718
 20
-1.496538875462469
 10
-0.3309247026102916
 20
-1.500830207530646
  0
LWPOLYLINE
  5
11E
330
E9
100
AcDbEntity
  8
AM_4
100
AcDbPolyline
 90
        3
 70
     0
 43
0.0
 10
-0.4121290179718125
 20
-1.500830207530646
 10
-0.3919192182484247
 20
-1.496552470556179
 10
-0.371526860291052
 20
-1.495
  0
LINE
  5
11F
330
E9
100
AcDbEntity
  8
AM_4
100
AcDbLine
 10
-0.4121290179718125
 20
-1.555836459136021
 30
0.0
 11
-0.4121290179718125
 21
-1.500830207530646
 31
0.0
  0
LWPOLYLINE
  5
120
330
E9
100
AcDbEntity
  8
AM_4
100
AcDbPolyline
 90
        3
 70
     0
 43
0.0
 10
-0.3309247026102916
 20
-1.555836459136021
 10
-0.3511345023336793
 20
-1.560114196110488
 10
-0.371526860291052
 20
-1.561666666666667
  0
LWPOLYLINE
  5
121
330
E9
100
AcDbEntity
  8
AM_4
100
AcDbPolyline
 90
        3
 70
     0
 43
0.0
 10
-0.371526860291052
 20
-1.561666666666667
 10
-0.3918279391314322
 20
-1.560127791204198
 10
-0.4121290179718125
 20
-1.555836459136021
  0
LWPOLYLINE
  5
122
330
E9
100
AcDbEntity
  8
AM_4
100
AcDbPolyline
 90
        3
 70
     0
 43
0.0
 10
-0.4121290179718125
 20
-1.555836459136021
 10
-0.4525486174185878
 20
-1.560114196110488
 10
-0.4933333333333333
 20
-1.561666666666667
  0
LINE
  5
123
330
E9
100
AcDbEntity
  8
AM_4
100
AcDbLine
 10
-0.6026627839131047
 20
-1.592987216086895
 30
0.0
 11
-0.384003882753562
 21
-1.592987216086895
 31
0.0
  0
LINE
  5
124
330
E9
100
AcDbEntity
  8
AM_4
100
AcDbLine
 10
-0.384003882753562
 20
-1.592987216086895
 30
0.0
 11
-0.3526833333333333
 21
-1.561666666666667
 31
0.0
  0
LINE
  5
125
330
E9
100
AcDbEntity
  8
AM_4
100
AcDbLine
 10
-0.6339833333333333
 20
-1.561666666666667
 30
0.0
 11
-0.6026627839131047
 21
-1.592987216086895
 31
0.0
  0
LINE
  5
126
330
E9
100
AcDbEntity
  8
AM_4
100
AcDbLine
 10
-0.6339833333333333
 20
-1.561666666666667
 30
0.0
 11
-0.3526833333333333
 21
-1.561666666666667
 31
0.0
  0
LINE
  5
127
330
E9
100
AcDbEntity
  8
AM_4
100
AcDbLine
 10
-0.5745376486948541
 20
-1.555836459136021
 30
0.0
 11
-0.5745376486948541
 21
-1.500830207530646
 31
0.0
  0
LWPOLYLINE
  5
128
330
E9
100
AcDbEntity
  8
AM_4
100
AcDbPolyline
 90
        3
 70
     0
 43
0.0
 10
-0.6151398063756146
 20
-1.495
 10
-0.5948387275352344
 20
-1.496538875462469
 10
-0.5745376486948541
 20
-1.500830207530646
  0
LWPOLYLINE
  5
129
330
E9
100
AcDbEntity
  8
AM_4
100
AcDbPolyline
 90
        3
 70
     0
 43
0.0
 10
-0.6557419640563751
 20
-1.500830207530646
 10
-0.6355321643329873
 20
-1.496552470556179
 10
-0.6151398063756146
 20
-1.495
  0
LINE
  5
12A
330
E9
100
AcDbEntity
  8
AM_4
100
AcDbLine
 10
-0.6557419640563751
 20
-1.555836459136021
 30
0.0
 11
-0.6557419640563751
 21
-1.500830207530646
 31
0.0
  0
LWPOLYLINE
  5
12B
330
E9
100
AcDbEntity
  8
AM_4
100
AcDbPolyline
 90
        3
 70
     0
 43
0.0
 10
-0.6151398063756146
 20
-1.561666666666667
 10
-0.6354408852159948
 20
-1.560127791204198
 10
-0.6557419640563751
 20
-1.555836459136021
  0
LWPOLYLINE
  5
12C
330
E9
100
AcDbEntity
  8
AM_4
100
AcDbPolyline
 90
        3
 70
     0
 43
0.0
 10
-0.5745376486948541
 20
-1.555836459136021
 10
-0.5947474484182419
 20
-1.560114196110488
 10
-0.6151398063756146
 20
-1.561666666666667
  0
ENDBLK
  5
EC
330
E9
100
AcDbEntity
  8
0
100
AcDbBlockEnd
  0
BLOCK
  5
12F
330
12D
100
AcDbEntity
  8
0
100
AcDbBlockBegin
  2
4_124600H_0_in_124600_2
 70
     2
 10
0.0
 20
0.0
 30
0.0
  3
4_124600H_0_in_124600_2
  1

  0
ATTDEF
  5
131
330
12D
100
AcDbEntity
  8
AM_6
100
AcDbText
 10
5.019
 20
1.595
 30
0.0
 40
0.5
  1
LF-SC & LF-SC-NL - housing -Inch
100
AcDbAttributeDefinition
  3

  2
NN
 70
     8
280
     0
  0
ATTDEF
  5
132
330
12D
100
AcDbEntity
  8
AM_6
100
AcDbText
 10
5.019
 20
1.095
 30
0.0
 40
0.5
  1
SC 3 Bolt Flange Bearings -(Normal Duty) -Re-Lube and No-Lube
100
AcDbAttributeDefinition
  3

  2
NT
 70
     8
280
     0
  0
ATTDEF
  5
133
330
12D
100
AcDbEntity
  8
AM_6
100
AcDbText
 10
5.019
 20
0.595
 30
0.0
 40
0.5
  1
124600H
100
AcDbAttributeDefinition
  3

  2
NB
 70
     8
280
     0
  0
ATTDEF
  5
134
330
12D
100
AcDbEntity
  8
AM_6
100
AcDbText
 10
5.019
 20
0.095
 30
0.0
 40
0.5
  1
$PN.H
100
AcDbAttributeDefinition
  3

  2
NBSYN
 70
     8
280
     0
  0
ATTDEF
  5
135
330
12D
100
AcDbEntity
  8
AM_6
100
AcDbText
 10
5.019
 20
-0.405
 30
0.0
 40
0.5
  1
124600
100
AcDbAttributeDefinition
  3

  2
LINA
 70
     8
280
     0
  0
ATTDEF
  5
136
330
12D
100
AcDbEntity
  8
AM_6
100
AcDbText
 10
5.019
 20
-0.905
 30
0.0
 40
0.5
  1
203
100
AcDbAttributeDefinition
  3

  2
SERIES
 70
     8
280
     0
  0
ATTDEF
  5
137
330
12D
100
AcDbEntity
  8
AM_6
100
AcDbText
 10
5.019
 20
-1.405
 30
0.0
 40
0.5
  1
1/2
100
AcDbAttributeDefinition
  3

  2
SS
 70
     8
280
     0
  0
ATTDEF
  5
138
330
12D
100
AcDbEntity
  8
AM_6
100
AcDbText
 10
5.019
 20
-1.905
 30
0.0
 40
0.5
  1
124600
100
AcDbAttributeDefinition
  3

  2
PN
 70
     8
280
     0
  0
ATTDEF
  5
139
330
12D
100
AcDbEntity
  8
AM_6
100
AcDbText
 10
5.019
 20
-2.405
 30
0.0
 40
0.5
  1
LF-SC-008
100
AcDbAttributeDefinition
  3

  2
DESCRIPTION
 70
     8
280
     0
  0
ATTDEF
  5
13A
330
12D
100
AcDbEntity
  8
AM_6
100
AcDbText
 10
5.019
 20
-2.905
 30
0.0
 40
0.5
  1
0.65
100
AcDbAttributeDefinition
  3

  2
W
 70
     8
280
     0
  0
ATTDEF
  5
13B
330
12D
100
AcDbEntity
  8
AM_6
100
AcDbText
 10
5.019
 20
-3.405
 30
0.0
 40
0.5
  1
RE-LUBE
100
AcDbAttributeDefinition
  3

  2
LF
 70
     8
280
     0
  0
ATTDEF
  5
13C
330
12D
100
AcDbEntity
  8
AM_6
100
AcDbText
 10
5.019
 20
-3.905
 30
0.0
 40
0.5
  1
1
100
AcDbAttributeDefinition
  3

  2
A
 70
     8
280
     0
  0
ATTDEF
  5
13D
330
12D
100
AcDbEntity
  8
AM_6
100
AcDbText
 10
5.019
 20
-4.405
 30
0.0
 40
0.5
  1
3.19
100
AcDbAttributeDefinition
  3

  2
B
 70
     8
280
     0
  0
ATTDEF
  5
13E
330
12D
100
AcDbEntity
  8
AM_6
100
AcDbText
 10
5.019
 20
-4.905
 30
0.0
 40
0.5
  1
1.05
100
AcDbAttributeDefinition
  3

  2
C
 70
     8
280
     0
  0
ATTDEF
  5
13F
330
12D
100
AcDbEntity
  8
AM_6
100
AcDbText
 10
5.019
 20
-5.405
 30
0.0
 40
0.5
  1
2.50
100
AcDbAttributeDefinition
  3

  2
D
 70
     8
280
     0
  0
ATTDEF
  5
140
330
12D
100
AcDbEntity
  8
AM_6
100
AcDbText
 10
5.019
 20
-5.905
 30
0.0
 40
0.5
  1
0.28
100
AcDbAttributeDefinition
  3

  2
G
 70
     8
280
     0
  0
ATTDEF
  5
141
330
12D
100
AcDbEntity
  8
AM_6
100
AcDbText
 10
5.019
 20
-6.405
 30
0.0
 40
0.5
  1
0.38
100
AcDbAttributeDefinition
  3

  2
H
 70
     8
280
     0
  0
ATTDEF
  5
142
330
12D
100
AcDbEntity
  8
AM_6
100
AcDbText
 10
5.019
 20
-6.905
 30
0.0
 40
0.5
  1
0.33
100
AcDbAttributeDefinition
  3

  2
J
 70
     8
280
     0
  0
ATTDEF
  5
143
330
12D
100
AcDbEntity
  8
AM_6
100
AcDbText
 10
5.019
 20
-7.405
 30
0.0
 40
0.5
  1
0.96
100
AcDbAttributeDefinition
  3

  2
L
 70
     8
280
     0
  0
ATTDEF
  5
144
330
12D
100
AcDbEntity
  8
AM_6
100
AcDbText
 10
5.019
 20
-7.905
 30
0.0
 40
0.5
  1
1.59
100
AcDbAttributeDefinition
  3

  2
M
 70
     8
280
     0
  0
ATTDEF
  5
145
330
12D
100
AcDbEntity
  8
AM_6
100
AcDbText
 10
5.019
 20
-8.405000000000001
 30
0.0
 40
0.5
  1
1.84
100
AcDbAttributeDefinition
  3

  2
N
 70
     8
280
     0
  0
ATTDEF
  5
146
330
12D
100
AcDbEntity
  8
AM_6
100
AcDbText
 10
5.019
 20
-8.905000000000001
 30
0.0
 40
0.5
  1
1000
100
AcDbAttributeDefinition
  3

  2
CAPS
 70
     8
280
     0
  0
ATTDEF
  5
147
330
12D
100
AcDbEntity
  8
AM_6
100
AcDbText
 10
5.019
 20
-9.405000000000001
 30
0.0
 40
0.5
  1
2158
100
AcDbAttributeDefinition
  3

  2
CAPD
 70
     8
280
     0
  0
ATTDEF
  5
148
330
12D
100
AcDbEntity
  8
AM_6
100
AcDbText
 10
5.019
 20
-9.905000000000001
 30
0.0
 40
0.5
  1
baldor
100
AcDbAttributeDefinition
  3

  2
COMPANY
 70
     8
280
     0
  0
LINE
  5
149
330
12D
100
AcDbEntity
  8
AM_9
100
AcDbLine
 10
-0.3799999999999999
 20
1.11
 30
0.0
 11
0.0
 21
1.11
 31
0.0
  0
LINE
  5
14A
330
12D
100
AcDbEntity
  8
AM_9
100
AcDbLine
 10
0.0
 20
1.39
 30
0.0
 11
-0.3799999999999999
 21
1.39
 31
0.0
  0
LINE
  5
14B
330
12D
100
AcDbEntity
  8
AM_9
100
AcDbLine
 10
-0.19
 20
1.11
 30
0.0
 11
-0.19
 21
1.39
 31
0.0
  0
LINE
  5
14C
330
12D
100
AcDbEntity
  8
AM_9
100
AcDbLine
 10
-0.3433333333333333
 20
-1.19
 30
0.0
 11
-0.6433333333333332
 21
-1.19
 31
0.0
  0
LINE
  5
14D
330
12D
100
AcDbEntity
  8
AM_9
100
AcDbLine
 10
-0.6433333333333332
 20
-1.19
 30
0.0
 11
-0.6433333333333332
 21
-1.495
 31
0.0
  0
LINE
  5
14E
330
12D
100
AcDbEntity
  8
AM_9
100
AcDbLine
 10
-0.3433333333333333
 20
-1.495
 30
0.0
 11
-0.3433333333333333
 21
-1.19
 31
0.0
  0
LINE
  5
14F
330
12D
100
AcDbEntity
  8
AM_9
100
AcDbLine
 10
-0.72
 20
0.9370512820512822
 30
0.0
 11
-0.3799999999999999
 21
0.9370512820512822
 31
0.0
  0
LINE
  5
150
330
12D
100
AcDbEntity
  8
AM_9
100
AcDbLine
 10
0.0
 20
0.8124
 30
0.0
 11
-0.095
 21
0.8124
 31
0.0
  0
LINE
  5
151
330
12D
100
AcDbEntity
  8
AM_9
100
AcDbLine
 10
-0.095
 20
0.7251231039239989
 30
0.0
 11
0.0
 21
0.7251231039239989
 31
0.0
  0
LINE
  5
152
330
12D
100
AcDbEntity
  8
AM_9
100
AcDbLine
 10
-0.0949999999999999
 20
-0.8078553634148254
 30
0.0
 11
0.0
 21
-0.8078553634148254
 31
0.0
  0
LINE
  5
153
330
12D
100
AcDbEntity
  8
AM_9
100
AcDbLine
 10
-0.0949999999999999
 20
-0.6798038617454188
 30
0.0
 11
0.0
 21
-0.6798038617454188
 31
0.0
  0
LINE
  5
154
330
12D
100
AcDbEntity
  8
AM_9
100
AcDbLine
 10
-0.3799999999999999
 20
-0.8546049926260755
 30
0.0
 11
-0.0949999999999999
 21
-0.8546049926260757
 31
0.0
  0
LINE
  5
155
330
12D
100
AcDbEntity
  8
AM_9
100
AcDbLine
 10
-0.095
 20
-0.25
 30
0.0
 11
-0.095
 21
-0.9699999999999999
 31
0.0
  0
LINE
  5
156
330
12D
100
AcDbEntity
  8
AM_9
100
AcDbLine
 10
-0.4679999999999999
 20
-0.25
 30
0.0
 11
-0.095
 21
-0.25
 31
0.0
  0
LINE
  5
157
330
12D
100
AcDbEntity
  8
AM_9
100
AcDbLine
 10
-0.4679999999999999
 20
0.2499999999999998
 30
0.0
 11
-0.095
 21
0.2499999999999998
 31
0.0
  0
LINE
  5
158
330
12D
100
AcDbEntity
  8
AM_9
100
AcDbLine
 10
-0.72
 20
-0.7873999999999999
 30
0.0
 11
-0.0949999999999999
 21
-0.7873999999999999
 31
0.0
  0
LINE
  5
159
330
12D
100
AcDbEntity
  8
AM_9
100
AcDbLine
 10
-0.0949999999999999
 20
0.7873999999999999
 30
0.0
 11
-0.72
 21
0.7873999999999999
 31
0.0
  0
LINE
  5
15A
330
12D
100
AcDbEntity
  8
AM_9
100
AcDbLine
 10
-0.4679999999999999
 20
-0.25
 30
0.0
 11
-0.4679999999999999
 21
0.2499999999999998
 31
0.0
  0
LINE
  5
15B
330
12D
100
AcDbEntity
  8
AM_9
100
AcDbLine
 10
-0.0949999999999999
 20
-0.0453192421785702
 30
0.0
 11
0.0
 21
-0.0453192434936176
 31
0.0
  0
LINE
  5
15C
330
12D
100
AcDbEntity
  8
AM_9
100
AcDbLine
 10
-0.1899999999999999
 20
-0.4337564434701784
 30
0.0
 11
-0.3799999999999999
 21
-0.4337564434701784
 31
0.0
  0
LINE
  5
15D
330
12D
100
AcDbEntity
  8
AM_9
100
AcDbLine
 10
-0.1899999999999999
 20
-0.8162435565298212
 30
0.0
 11
-0.3799999999999999
 21
-0.8162435565298212
 31
0.0
  0
LINE
  5
15E
330
12D
100
AcDbEntity
  8
AM_9
100
AcDbLine
 10
-0.1899999999999999
 20
-0.6762435565298213
 30
0.0
 11
-0.3799999999999999
 21
-0.6762435565298213
 31
0.0
  0
LINE
  5
15F
330
12D
100
AcDbEntity
  8
AM_9
100
AcDbLine
 10
-0.1899999999999999
 20
-0.8162435565298212
 30
0.0
 11
-0.1899999999999999
 21
-0.4337564434701784
 31
0.0
  0
LINE
  5
160
330
12D
100
AcDbEntity
  8
AM_9
100
AcDbLine
 10
-0.1899999999999999
 20
-0.7649999999999998
 30
0.0
 11
0.0000000000000001
 21
-0.7649999999999998
 31
0.0
  0
LINE
  5
161
330
12D
100
AcDbEntity
  8
AM_9
100
AcDbLine
 10
0.0000000000000001
 20
-0.4849999999999998
 30
0.0
 11
-0.1899999999999999
 21
-0.4849999999999998
 31
0.0
  0
LINE
  5
162
330
12D
100
AcDbEntity
  8
AM_9
100
AcDbLine
 10
-0.1899999999999999
 20
-0.5737564434701783
 30
0.0
 11
-0.3799999999999999
 21
-0.5737564434701783
 31
0.0
  0
LINE
  5
163
330
12D
100
AcDbEntity
  8
AM_9
100
AcDbLine
 10
-0.3799999999999999
 20
-0.9389707073678276
 30
0.0
 11
0.0000000000000001
 21
-0.9389707073678276
 31
0.0
  0
LINE
  5
164
330
12D
100
AcDbEntity
  8
AM_7
100
AcDbLine
 10
0.019
 20
1.25
 30
0.0
 11
-1.136
 21
1.25
 31
0.0
  0
LINE
  5
165
330
12D
100
AcDbEntity
  8
AM_7
100
AcDbLine
 10
0.0189999999999999
 20
-0.6249999999999998
 30
0.0
 11
-1.136
 21
-0.6250000000000003
 31
0.0
  0
LINE
  5
166
330
12D
100
AcDbEntity
  8
AM_7
100
AcDbLine
 10
-0.4933333333333333
 20
-1.1725
 30
0.0
 11
-0.4933333333333333
 21
-1.86725
 31
0.0
  0
LINE
  5
167
330
12D
100
AcDbEntity
  8
AM_4
100
AcDbLine
 10
0.0
 20
1.595
 30
0.0
 11
-0.3799999999999999
 21
1.595
 31
0.0
  0
LINE
  5
168
330
12D
100
AcDbEntity
  8
AM_4
100
AcDbLine
 10
-0.7190000000000001
 20
-1.495
 30
0.0
 11
-0.7190000000000001
 21
-0.9025764039075548
 31
0.0
  0
LINE
  5
169
330
12D
100
AcDbEntity
  8
AM_4
100
AcDbLine
 10
-0.096
 20
-1.495
 30
0.0
 11
-0.096
 21
-1.014692071517266
 31
0.0
  0
LINE
  5
16A
330
12D
100
AcDbEntity
  8
AM_4
100
AcDbLine
 10
-0.7190000000000001
 20
-1.495
 30
0.0
 11
-0.096
 21
-1.495
 31
0.0
  0
LINE
  5
16B
330
12D
100
AcDbEntity
  8
AM_4
100
AcDbLine
 10
-0.7190000000000001
 20
-1.439
 30
0.0
 11
-0.096
 21
-1.439
 31
0.0
  0
LINE
  5
16C
330
12D
100
AcDbEntity
  8
AM_4
100
AcDbLine
 10
-0.3799999999999999
 20
1.283148581333337
 30
0.0
 11
0.0
 21
1.283148581333337
 31
0.0
  0
LINE
  5
16D
330
12D
100
AcDbEntity
  8
AM_4
100
AcDbLine
 10
-0.0949999999999999
 20
0.8149416221925407
 30
0.0
 11
0.0
 21
0.8149416221925407
 31
0.0
  0
LINE
  5
16E
330
12D
100
AcDbEntity
  8
AM_4
100
AcDbLine
 10
-0.095
 20
0.7176029380878097
 30
0.0
 11
0.0
 21
0.7176029380878097
 31
0.0
  0
LINE
  5
16F
330
12D
100
AcDbEntity
  8
AM_4
100
AcDbLine
 10
0.0
 20
0.7176029380878097
 30
0.0
 11
0.0
 21
1.595
 31
0.0
  0
LINE
  5
170
330
12D
100
AcDbEntity
  8
AM_4
100
AcDbLine
 10
-0.3799999999999999
 20
1.595
 30
0.0
 11
-0.3799999999999999
 21
-1.014692071517266
 31
0.0
  0
LINE
  5
171
330
12D
100
AcDbEntity
  8
AM_4
100
AcDbLine
 10
-0.095
 20
-0.9699999999999999
 30
0.0
 11
-0.095
 21
-1.11
 31
0.0
  0
LINE
  5
172
330
12D
100
AcDbEntity
  8
AM_4
100
AcDbLine
 10
-0.3799999999999999
 20
-1.014692071517266
 30
0.0
 11
-0.096
 21
-1.014692071517266
 31
0.0
  0
LINE
  5
173
330
12D
100
AcDbEntity
  8
AM_4
100
AcDbLine
 10
-0.096
 20
-1.11
 30
0.0
 11
-0.095
 21
-1.11
 31
0.0
  0
LINE
  5
174
330
12D
100
AcDbEntity
  8
AM_4
100
AcDbLine
 10
-0.6639999999999999
 20
-0.9531085982195314
 30
0.0
 11
-0.4300000000000003
 21
-0.9531085982195314
 31
0.0
  0
LINE
  5
175
330
12D
100
AcDbEntity
  8
AM_4
100
AcDbLine
 10
-0.6639999999999998
 20
-0.708010020335663
 30
0.0
 11
-0.6639999999999999
 21
-0.9531085982195314
 31
0.0
  0
LWPOLYLINE
  5
176
330
12D
100
AcDbEntity
  8
AM_4
100
AcDbPolyline
 90
       10
 70
     0
 43
0.0
 10
-0.7190000000000001
 20
-0.9025764039075548
 10
-0.7183383857240178
 20
-0.9059325509949666
 10
-0.7148496202776784
 20
-0.9169940653079917
 10
-0.7092593790277437
 20
-0.9275865948344552
 10
-0.7025057449041018
 20
-0.9361177463657571
 10
-0.6939730240555609
 20
-0.9434825565736915
 10
-0.6826603793460311
 20
-0.9495681385500423
 10
-0.6745304207494683
 20
-0.9520037345275808
 10
-0.6658665594635186
 20
-0.9530741881172539
 10
-0.6639999999999999
 20
-0.9531085982195314
  0
ARC
  5
177
330
12D
100
AcDbEntity
  8
AM_4
100
AcDbCircle
 10
-0.6639999999999814
 20
-0.9979999999999986
 30
0.0
 40
0.0560000000000186
100
AcDbArc
 50
180.0
 51
190.8440625636945
  0
LINE
  5
178
330
12D
100
AcDbEntity
  8
AM_4
100
AcDbLine
 10
-0.4300000000000003
 20
-0.7080100203356627
 30
0.0
 11
-0.4300000000000003
 21
-0.9531085982195314
 31
0.0
  0
LWPOLYLINE
  5
179
330
12D
100
AcDbEntity
  8
AM_4
100
AcDbPolyline
 90
       11
 70
     0
 43
0.0
 10
-0.3799999999999956
 20
-1.008124992250465
 10
-0.3801415731558855
 20
-1.004006052469091
 10
-0.3816314027404924
 20
-0.9942361312464052
 10
-0.3848366062446779
 20
-0.9845842562020987
 10
-0.3895021605763866
 20
-0.975923909881012
 10
-0.3958521933651608
 20
-0.967991327759638
 10
-0.4028117214343988
 20
-0.9619901327574839
 10
-0.4110519927638426
 20
-0.9572310998547177
 10
-0.4188754065391274
 20
-0.9544943528330464
 10
-0.4273454266511562
 20
-0.9531865795796672
 10
-0.4300000000000003
 20
-0.9531085982195314
  0
LINE
  5
17A
330
12D
100
AcDbEntity
  8
AM_4
100
AcDbLine
 10
0.0000000000000001
 20
0.0207758501989533
 30
0.0
 11
-0.0949999999999999
 21
0.0207758501989533
 31
0.0
  0
LINE
  5
17B
330
12D
100
AcDbEntity
  8
AM_4
100
AcDbLine
 10
-0.4300000000000003
 20
1.030191639973701
 30
0.0
 11
-0.6639999999999998
 21
1.030191639973702
 31
0.0
  0
LINE
  5
17C
330
12D
100
AcDbEntity
  8
AM_4
100
AcDbLine
 10
-0.72
 20
0.9842268399737014
 30
0.0
 11
-0.72
 21
-0.998
 31
0.0
  0
LINE
  5
17D
330
12D
100
AcDbEntity
  8
AM_4
100
AcDbLine
 10
-0.6639999999999998
 20
1.030191639973702
 30
0.0
 11
-0.6639999999992253
 21
-0.3221816196380392
 31
0.0
  0
LWPOLYLINE
  5
17E
330
12D
100
AcDbEntity
  8
AM_4
100
AcDbPolyline
 90
       12
 70
     0
 43
0.0
 10
-0.6639999999999998
 20
1.030191639973702
 10
-0.6720828521875409
 20
1.029697328351644
 10
-0.6801657043750822
 20
1.028183681766965
 10
-0.6875498582510706
 20
1.025824126302129
 10
-0.6944786121549862
 20
1.022617931142508
 10
-0.7006910099843674
 20
1.018719595497312
 10
-0.7061158278714668
 20
1.014239701944367
 10
-0.7110072689605278
 20
1.008897030551463
 10
-0.7148080356358094
 20
1.003249977485542
 10
-0.7185059537537422
 20
0.9945516525995473
 10
-0.7199576418718815
 20
0.9859674013702314
 10
-0.72
 20
0.9842268399737014
  0
LWPOLYLINE
  5
17F
330
12D
100
AcDbEntity
  8
AM_4
100
AcDbPolyline
 90
       11
 70
     0
 43
0.0
 10
-0.4300000000000003
 20
-0.7080100203356627
 10
-0.4224705645629219
 20
-0.7086673160987365
 10
-0.4151701748086593
 20
-0.7105687424263051
 10
-0.4083297342229569
 20
-0.7136038268749773
 10
-0.4020563387889051
 20
-0.7176062424591866
 10
-0.3960721491843807
 20
-0.722803765793275
 10
-0.3909409868826926
 20
-0.7287393931988039
 10
-0.3862070823552502
 20
-0.7362164966992524
 10
-0.3827500905028866
 20
-0.7442077636232272
 10
-0.3807014316971527
 20
-0.7522560061740924
 10
-0.3799999999999999
 20
-0.7603925889701444
  0
LINE
  5
180
330
12D
100
AcDbEntity
  8
AM_4
100
AcDbLine
 10
-0.6639999999992253
 20
-0.3221816196380392
 30
0.0
 11
-0.4300000000000003
 21
-0.3221816196380387
 31
0.0
  0
LWPOLYLINE
  5
181
330
12D
100
AcDbEntity
  8
AM_4
100
AcDbPolyline
 90
       11
 70
     0
 43
0.0
 10
-0.72
 20
-0.3490185367570985
 10
-0.7193418664583217
 20
-0.3433101326257696
 10
-0.7172194144235264
 20
-0.3381228162081979
 10
-0.7135130992371612
 20
-0.3336564884819098
 10
-0.7080126911847747
 20
-0.3298381170815047
 10
-0.7022688299223931
 20
-0.3273242851925994
 10
-0.6953360141109108
 20
-0.3252929632878407
 10
-0.6872311861434158
 20
-0.3237600349397733
 10
-0.6782392216871612
 20
-0.3227406879808474
 10
-0.6712018590056273
 20
-0.3223217407548634
 10
-0.6639999999992253
 20
-0.3221816196380392
  0
LWPOLYLINE
  5
182
330
12D
100
AcDbEntity
  8
AM_4
100
AcDbPolyline
 90
       12
 70
     0
 43
0.0
 10
-0.6639999999999998
 20
-0.708010020335663
 10
-0.672203868510136
 20
-0.7073132257161588
 10
-0.6801657043750822
 20
-0.7052745173305539
 10
-0.687642012308963
 20
-0.7019637387651212
 10
-0.6944786121549862
 20
-0.6975231463440261
 10
-0.7007524448777968
 20
-0.6918676338951387
 10
-0.7061158278714669
 20
-0.6853485984986385
 10
-0.7110464669349452
 20
-0.6771497510196184
 10
-0.7148080356358095
 20
-0.6683238034990421
 10
-0.7185356955305112
 20
-0.6536413385305019
 10
-0.7199576418718815
 20
-0.6384751615854668
 10
-0.72
 20
-0.6352083032166036
  0
LINE
  5
183
330
12D
100
AcDbEntity
  8
AM_4
100
AcDbLine
 10
-0.4300000000000003
 20
-0.7080100203356627
 30
0.0
 11
-0.6639999999999998
 21
-0.708010020335663
 31
0.0
  0
LWPOLYLINE
  5
184
330
12D
100
AcDbEntity
  8
AM_4
100
AcDbPolyline
 90
       10
 70
     0
 43
0.0
 10
-0.3799999999999999
 20
-0.3129590510035581
 10
-0.3804491578926256
 20
-0.3135886031754557
 10
-0.3818034909295753
 20
-0.3143829925290628
 10
-0.384860656006479
 20
-0.3156109910903975
 10
-0.3894405386761086
 20
-0.3170286681836103
 10
-0.3954342145908253
 20
-0.318513142669774
 10
-0.402967585165278
 20
-0.319967873925949
 10
-0.4108208084278745
 20
-0.3210755891684477
 10
-0.419814433951062
 20
-0.3218710059099988
 10
-0.4300000000000003
 20
-0.3221816196380387
  0
LWPOLYLINE
  5
185
330
12D
100
AcDbEntity
  8
AM_4
100
AcDbPolyline
 90
       11
 70
     0
 43
0.0
 10
-0.4300000000000003
 20
1.030191639973701
 10
-0.4225850874043299
 20
1.030657938760639
 10
-0.4151701748086594
 20
1.032090743003725
 10
-0.4084088632067321
 20
1.03433468200612
 10
-0.4020563387889051
 20
1.037419483387217
 10
-0.3961310975942375
 20
1.04140715355055
 10
-0.3909409868826927
 20
1.046172065062918
 10
-0.3862553822679734
 20
1.052198745870229
 10
-0.3827500905028868
 20
1.059014961728799
 10
-0.3807150440232589
 20
1.065938422612414
 10
-0.3799999999999999
 20
1.073351639973702
  0
LINE
  5
186
330
12D
100
AcDbEntity
  8
AM_4
100
AcDbLine
 10
-0.4300000000000003
 20
1.030191639973701
 30
0.0
 11
-0.4300000000000003
 21
-0.3221816196380387
 31
0.0
  0
LINE
  5
187
330
12D
100
AcDbEntity
  8
AM_4
100
AcDbLine
 10
-0.095
 20
1.040745835125954
 30
0.0
 11
-0.0949999999999999
 21
-0.1861408424998786
 31
0.0
  0
LINE
  5
188
330
12D
100
AcDbEntity
  8
AM_4
100
AcDbLine
 10
-0.095
 20
1.040745835125954
 30
0.0
 11
-0.3799999999999999
 21
1.040745835125954
 31
0.0
  0
LINE
  5
189
330
12D
100
AcDbEntity
  8
AM_4
100
AcDbLine
 10
-0.0949999999999999
 20
-0.0070862825754297
 30
0.0
 11
0.0000000000000001
 21
-0.0070862825754296
 31
0.0
  0
LINE
  5
18A
330
12D
100
AcDbEntity
  8
AM_4
100
AcDbLine
 10
-0.0949999999999999
 20
-0.1861408424998786
 30
0.0
 11
-0.3799999999999998
 21
-0.1861408424998788
 31
0.0
  0
LINE
  5
18B
330
12D
100
AcDbEntity
  8
AM_4
100
AcDbLine
 10
-0.3799999999999999
 20
-0.3441778739655054
 30
0.0
 11
0.0000000000000001
 21
-0.3441778739655054
 31
0.0
  0
LINE
  5
18C
330
12D
100
AcDbEntity
  8
AM_4
100
AcDbLine
 10
-0.3799999999999999
 20
-0.9699999999999996
 30
0.0
 11
0.0000000000000001
 21
-0.9699999999999996
 31
0.0
  0
LINE
  5
18D
330
12D
100
AcDbEntity
  8
AM_4
100
AcDbLine
 10
0.0000000000000001
 20
-0.9699999999999996
 30
0.0
 11
0.0000000000000001
 21
0.0207758501989533
 31
0.0
  0
ENDBLK
  5
130
330
12D
100
AcDbEntity
  8
0
100
AcDbBlockEnd
  0
ENDSEC
  0
SECTION
  2
ENTITIES
  0
INSERT
  5
6F
330
1F
100
AcDbEntity
  8
0
100
AcDbBlockReference
  2
1_124600_2
 10
0.0
 20
0.0
 30
0.0
  0
POINT
  5
18F
330
1F
100
AcDbEntity
  8
ConnectionPoints
100
AcDbPoint
 10
-0.4933333333333333
 20
-1.495
 30
0.0
  0
POINT
  5
190
330
1F
100
AcDbEntity
  8
ConnectionPoints
100
AcDbPoint
 10
-0.4933333333333333
 20
-1.495
 30
0.0
  0
POINT
  5
191
330
1F
100
AcDbEntity
  8
ConnectionPoints
100
AcDbPoint
 10
-1.05
 20
0.0
 30
0.0000000000000001
  0
ENDSEC
  0
SECTION
  2
OBJECTS
  0
DICTIONARY
  5
C
330
0
100
AcDbDictionary
281
     1
  3
ACAD_DETAILVIEWSTYLE
350
199
  3
ACAD_GROUP
350
D
  3
ACAD_LAYOUT
350
1A
  3
ACAD_MATERIAL
350
43
  3
ACAD_MLEADERSTYLE
350
6B
  3
ACAD_MLINESTYLE
350
17
  3
ACAD_PLOTSETTINGS
350
19
  3
ACAD_PLOTSTYLENAME
350
E
  3
ACAD_SCALELIST
350
47
  3
ACAD_SECTIONVIEWSTYLE
350
19A
  3
ACAD_TABLESTYLE
350
69
  3
ACAD_VISUALSTYLE
350
2A
  3
ACDB_RECOMPOSE_DATA
350
196
  3
AcDbVariableDictionary
350
192
  0
SUN
  5
6D
330
29
100
AcDbSun
 90
        1
290
     0
 63
     7
421
 16777215
 40
1.0
291
     1
 91
  2455826
 92
 54000000
292
     0
 70
     2
 71
   256
280
     1
  0
DICTIONARY
  5
199
102
{ACAD_REACTORS
330
C
102
}
330
C
100
AcDbDictionary
281
     1
  0
DICTIONARY
  5
D
102
{ACAD_REACTORS
330
C
102
}
330
C
100
AcDbDictionary
281
     1
  0
DICTIONARY
  5
1A
102
{ACAD_REACTORS
330
C
102
}
330
C
100
AcDbDictionary
281
     1
  3
Layout1
350
1E
  3
Layout2
350
26
  3
Model
350
22
  0
DICTIONARY
  5
43
102
{ACAD_REACTORS
330
C
102
}
330
C
100
AcDbDictionary
281
     1
  3
ByBlock
350
45
  3
ByLayer
350
44
  3
Global
350
46
  0
DICTIONARY
  5
6B
102
{ACAD_REACTORS
330
C
102
}
330
C
100
AcDbDictionary
281
     1
  3
Standard
350
6C
  0
DICTIONARY
  5
17
102
{ACAD_REACTORS
330
C
102
}
330
C
100
AcDbDictionary
281
     1
  3
Standard
350
18
  0
DICTIONARY
  5
19
102
{ACAD_REACTORS
330
C
102
}
330
C
100
AcDbDictionary
281
     1
  0
ACDBDICTIONARYWDFLT
  5
E
102
{ACAD_REACTORS
330
C
102
}
330
C
100
AcDbDictionary
281
     1
  3
Normal
350
F
100
AcDbDictionaryWithDefault
340
F
  0
DICTIONARY
  5
47
102
{ACAD_REACTORS
330
C
102
}
330
C
100
AcDbDictionary
281
     1
  3
A0
350
48
  3
A1
350
49
  3
A2
350
4A
  3
A3
350
4B
  3
A4
350
4C
  3
A5
350
4D
  3
A6
350
4E
  3
A7
350
4F
  3
A8
350
50
  3
A9
350
51
  3
B0
350
52
  3
B1
350
53
  3
B2
350
54
  3
B3
350
55
  3
B4
350
56
  3
B5
350
57
  3
B6
350
58
  3
B7
350
59
  3
B8
350
5A
  3
B9
350
5B
  3
C0
350
5C
  3
C1
350
5D
  3
C2
350
5E
  3
C3
350
5F
  3
C4
350
60
  3
C5
350
61
  3
C6
350
62
  3
C7
350
63
  3
C8
350
64
  3
C9
350
65
  3
D0
350
66
  3
D1
350
67
  3
D2
350
68
  0
DICTIONARY
  5
19A
102
{ACAD_REACTORS
330
C
102
}
330
C
100
AcDbDictionary
281
     1
  0
DICTIONARY
  5
69
102
{ACAD_REACTORS
330
C
102
}
330
C
100
AcDbDictionary
281
     1
  3
Standard
350
6A
  0
DICTIONARY
  5
2A
102
{ACAD_REACTORS
330
C
102
}
330
C
100
AcDbDictionary
281
     1
  3
2dWireframe
350
2F
  3
Basic
350
32
  3
Brighten
350
36
  3
ColorChange
350
3A
  3
Conceptual
350
34
  3
Dim
350
35
  3
EdgeColorOff
350
3D
  3
Facepattern
350
39
  3
Flat
350
2B
  3
FlatWithEdges
350
2C
  3
Gouraud
350
2D
  3
GouraudWithEdges
350
2E
  3
Hidden
350
31
  3
JitterOff
350
3B
  3
Linepattern
350
38
  3
OverhangOff
350
3C
  3
Realistic
350
33
  3
Shaded
350
42
  3
Shaded with edges
350
41
  3
Shades of Gray
350
3E
  3
Sketchy
350
3F
  3
Thicken
350
37
  3
Wireframe
350
30
  3
X-Ray
350
40
  0
XRECORD
  5
196
102
{ACAD_REACTORS
330
C
102
}
330
C
100
AcDbXrecord
280
     1
 90
        1
330
6A
  0
DICTIONARY
  5
192
102
{ACAD_REACTORS
330
C
102
}
330
C
100
AcDbDictionary
281
     1
  3
CANNOSCALE
350
193
  3
CMLEADERSTYLE
350
198
  3
CTABLESTYLE
350
197
  0
LAYOUT
  5
1E
102
{ACAD_REACTORS
330
1A
102
}
330
1A
100
AcDbPlotSettings
  1

  2
none_device
  4

  6

 40
0.0
 41
0.0
 42
0.0
 43
0.0
 44
0.0
 45
0.0
 46
0.0
 47
0.0
 48
0.0
 49
0.0
140
0.0
141
0.0
142
1.0
143
1.0
 70
   688
 72
     0
 73
     0
 74
     5
  7

 75
    16
 76
     0
 77
     2
 78
   300
147
1.0
148
0.0
149
0.0
100
AcDbLayout
  1
Layout1
 70
     1
 71
     1
 10
0.0
 20
0.0
 11
12.0
 21
9.0
 12
0.0
 22
0.0
 32
0.0
 14
1.000000000000000E+20
 24
1.000000000000000E+20
 34
1.000000000000000E+20
 15
-1.000000000000000E+20
 25
-1.000000000000000E+20
 35
-1.000000000000000E+20
146
0.0
 13
0.0
 23
0.0
 33
0.0
 16
1.0
 26
0.0
 36
0.0
 17
0.0
 27
1.0
 37
0.0
 76
     0
330
1B
  0
LAYOUT
  5
26
102
{ACAD_REACTORS
330
1A
102
}
330
1A
100
AcDbPlotSettings
  1

  2
none_device
  4

  6

 40
0.0
 41
0.0
 42
0.0
 43
0.0
 44
0.0
 45
0.0
 46
0.0
 47
0.0
 48
0.0
 49
0.0
140
0.0
141
0.0
142
1.0
143
1.0
 70
   688
 72
     0
 73
     0
 74
     5
  7

 75
    16
 76
     0
 77
     2
 78
   300
147
1.0
148
0.0
149
0.0
100
AcDbLayout
  1
Layout2
 70
     1
 71
     2
 10
0.0
 20
0.0
 11
0.0
 21
0.0
 12
0.0
 22
0.0
 32
0.0
 14
0.0
 24
0.0
 34
0.0
 15
0.0
 25
0.0
 35
0.0
146
0.0
 13
0.0
 23
0.0
 33
0.0
 16
1.0
 26
0.0
 36
0.0
 17
0.0
 27
1.0
 37
0.0
 76
     0
330
23
  0
LAYOUT
  5
22
102
{ACAD_REACTORS
330
1A
102
}
330
1A
100
AcDbPlotSettings
  1

  2
none_device
  4
Letter_(8.50_x_11.00_Inches)
  6

 40
6.35
 41
6.35
 42
6.35000508
 43
6.35000508
 44
215.9
 45
279.4
 46
0.0
 47
0.0
 48
0.0
 49
0.0
140
0.0
141
0.0
142
1.0
143
1.0
 70
  1712
 72
     0
 73
     0
 74
     0
  7

 75
     0
 76
     0
 77
     2
 78
   300
147
1.0
148
0.0
149
0.0
100
AcDbLayout
  1
Model
 70
     1
 71
     0
 10
0.0
 20
0.0
 11
12.0
 21
9.0
 12
0.0
 22
0.0
 32
0.0
 14
1.000000000000000E+20
 24
1.000000000000000E+20
 34
1.000000000000000E+20
 15
-1.000000000000000E+20
 25
-1.000000000000000E+20
 35
-1.000000000000000E+20
146
0.0
 13
0.0
 23
0.0
 33
0.0
 16
1.0
 26
0.0
 36
0.0
 17
0.0
 27
1.0
 37
0.0
 76
     0
330
1F
331
29
  0
MATERIAL
  5
45
102
{ACAD_REACTORS
330
43
102
}
330
43
100
AcDbMaterial
  1
ByBlock
 72
     1
 94
      127
  0
MATERIAL
  5
44
102
{ACAD_REACTORS
330
43
102
}
330
43
100
AcDbMaterial
  1
ByLayer
 72
     1
 94
      127
  0
MATERIAL
  5
46
102
{ACAD_REACTORS
330
43
102
}
330
43
100
AcDbMaterial
  1
Global
 72
     1
 94
      127
  0
MLEADERSTYLE
  5
6C
102
{ACAD_REACTORS
330
6B
102
}
330
6B
100
AcDbMLeaderStyle
179
     2
170
     2
171
     1
172
     0
 90
        2
 40
0.0
 41
0.0
173
     1
 91
-1056964608
340
14
 92
       -2
290
     1
 42
0.09
291
     1
 43
0.36
  3
Standard
341
0
 44
0.18
300

342
11
174
     1
178
     6
175
     1
176
     0
 93
-1056964608
 45
0.18
292
     0
297
     0
 46
0.18
343
0
 94
-1056964608
 47
1.0
 49
1.0
140
1.0
293
     1
141
0.0
294
     1
177
     0
142
1.0
295
     0
296
     0
143
0.125
271
     0
272
     9
273
     9
298
     0
  0
MLINESTYLE
  5
18
102
{ACAD_REACTORS
330
17
102
}
330
17
100
AcDbMlineStyle
  2
Standard
 70
     0
  3

 62
   256
 51
90.0
 52
90.0
 71
     2
 49
0.5
 62
   256
  6
BYLAYER
 49
-0.5
 62
   256
  6
BYLAYER
  0
ACDBPLACEHOLDER
  5
F
102
{ACAD_REACTORS
330
E
102
}
330
E
  0
SCALE
  5
48
102
{ACAD_REACTORS
330
47
102
}
330
47
100
AcDbScale
 70
     0
300
1:1
140
1.0
141
1.0
290
     1
  0
SCALE
  5
49
102
{ACAD_REACTORS
330
47
102
}
330
47
100
AcDbScale
 70
     0
300
1:2
140
1.0
141
2.0
290
     0
  0
SCALE
  5
4A
102
{ACAD_REACTORS
330
47
102
}
330
47
100
AcDbScale
 70
     0
300
1:4
140
1.0
141
4.0
290
     0
  0
SCALE
  5
4B
102
{ACAD_REACTORS
330
47
102
}
330
47
100
AcDbScale
 70
     0
300
1:5
140
1.0
141
5.0
290
     0
  0
SCALE
  5
4C
102
{ACAD_REACTORS
330
47
102
}
330
47
100
AcDbScale
 70
     0
300
1:8
140
1.0
141
8.0
290
     0
  0
SCALE
  5
4D
102
{ACAD_REACTORS
330
47
102
}
330
47
100
AcDbScale
 70
     0
300
1:10
140
1.0
141
10.0
290
     0
  0
SCALE
  5
4E
102
{ACAD_REACTORS
330
47
102
}
330
47
100
AcDbScale
 70
     0
300
1:16
140
1.0
141
16.0
290
     0
  0
SCALE
  5
4F
102
{ACAD_REACTORS
330
47
102
}
330
47
100
AcDbScale
 70
     0
300
1:20
140
1.0
141
20.0
290
     0
  0
SCALE
  5
50
102
{ACAD_REACTORS
330
47
102
}
330
47
100
AcDbScale
 70
     0
300
1:30
140
1.0
141
30.0
290
     0
  0
SCALE
  5
51
102
{ACAD_REACTORS
330
47
102
}
330
47
100
AcDbScale
 70
     0
300
1:40
140
1.0
141
40.0
290
     0
  0
SCALE
  5
52
102
{ACAD_REACTORS
330
47
102
}
330
47
100
AcDbScale
 70
     0
300
1:50
140
1.0
141
50.0
290
     0
  0
SCALE
  5
53
102
{ACAD_REACTORS
330
47
102
}
330
47
100
AcDbScale
 70
     0
300
1:100
140
1.0
141
100.0
290
     0
  0
SCALE
  5
54
102
{ACAD_REACTORS
330
47
102
}
330
47
100
AcDbScale
 70
     0
300
2:1
140
2.0
141
1.0
290
     0
  0
SCALE
  5
55
102
{ACAD_REACTORS
330
47
102
}
330
47
100
AcDbScale
 70
     0
300
4:1
140
4.0
141
1.0
290
     0
  0
SCALE
  5
56
102
{ACAD_REACTORS
330
47
102
}
330
47
100
AcDbScale
 70
     0
300
8:1
140
8.0
141
1.0
290
     0
  0
SCALE
  5
57
102
{ACAD_REACTORS
330
47
102
}
330
47
100
AcDbScale
 70
     0
300
10:1
140
10.0
141
1.0
290
     0
  0
SCALE
  5
58
102
{ACAD_REACTORS
330
47
102
}
330
47
100
AcDbScale
 70
     0
300
100:1
140
100.0
141
1.0
290
     0
  0
SCALE
  5
59
102
{ACAD_REACTORS
330
47
102
}
330
47
100
AcDbScale
 70
     0
300
1/128" = 1'-0"
140
0.0078125
141
12.0
290
     0
  0
SCALE
  5
5A
102
{ACAD_REACTORS
330
47
102
}
330
47
100
AcDbScale
 70
     0
300
1/64" = 1'-0"
140
0.015625
141
12.0
290
     0
  0
SCALE
  5
5B
102
{ACAD_REACTORS
330
47
102
}
330
47
100
AcDbScale
 70
     0
300
1/32" = 1'-0"
140
0.03125
141
12.0
290
     0
  0
SCALE
  5
5C
102
{ACAD_REACTORS
330
47
102
}
330
47
100
AcDbScale
 70
     0
300
1/16" = 1'-0"
140
0.0625
141
12.0
290
     0
  0
SCALE
  5
5D
102
{ACAD_REACTORS
330
47
102
}
330
47
100
AcDbScale
 70
     0
300
3/32" = 1'-0"
140
0.09375
141
12.0
290
     0
  0
SCALE
  5
5E
102
{ACAD_REACTORS
330
47
102
}
330
47
100
AcDbScale
 70
     0
300
1/8" = 1'-0"
140
0.125
141
12.0
290
     0
  0
SCALE
  5
5F
102
{ACAD_REACTORS
330
47
102
}
330
47
100
AcDbScale
 70
     0
300
3/16" = 1'-0"
140
0.1875
141
12.0
290
     0
  0
SCALE
  5
60
102
{ACAD_REACTORS
330
47
102
}
330
47
100
AcDbScale
 70
     0
300
1/4" = 1'-0"
140
0.25
141
12.0
290
     0
  0
SCALE
  5
61
102
{ACAD_REACTORS
330
47
102
}
330
47
100
AcDbScale
 70
     0
300
3/8" = 1'-0"
140
0.375
141
12.0
290
     0
  0
SCALE
  5
62
102
{ACAD_REACTORS
330
47
102
}
330
47
100
AcDbScale
 70
     0
300
1/2" = 1'-0"
140
0.5
141
12.0
290
     0
  0
SCALE
  5
63
102
{ACAD_REACTORS
330
47
102
}
330
47
100
AcDbScale
 70
     0
300
3/4" = 1'-0"
140
0.75
141
12.0
290
     0
  0
SCALE
  5
64
102
{ACAD_REACTORS
330
47
102
}
330
47
100
AcDbScale
 70
     0
300
1" = 1'-0"
140
1.0
141
12.0
290
     0
  0
SCALE
  5
65
102
{ACAD_REACTORS
330
47
102
}
330
47
100
AcDbScale
 70
     0
300
1-1/2" = 1'-0"
140
1.5
141
12.0
290
     0
  0
SCALE
  5
66
102
{ACAD_REACTORS
330
47
102
}
330
47
100
AcDbScale
 70
     0
300
3" = 1'-0"
140
3.0
141
12.0
290
     0
  0
SCALE
  5
67
102
{ACAD_REACTORS
330
47
102
}
330
47
100
AcDbScale
 70
     0
300
6" = 1'-0"
140
6.0
141
12.0
290
     0
  0
SCALE
  5
68
102
{ACAD_REACTORS
330
47
102
}
330
47
100
AcDbScale
 70
     0
300
1'-0" = 1'-0"
140
12.0
141
12.0
290
     0
  0
TABLESTYLE
  5
6A
102
{ACAD_REACTORS
330
69
102
}
102
{ACAD_XDICTIONARY
360
194
102
}
330
69
100
AcDbTableStyle
  3
Standard
 70
     0
 71
     0
 40
0.06
 41
0.06
280
     0
281
     0
  7
Standard
140
0.18
170
     2
 62
     0
 63
   257
283
     0
 90
        4
 91
        0
  1

274
    -2
284
     1
 64
     0
275
    -2
285
     1
 65
     0
276
    -2
286
     1
 66
     0
277
    -2
287
     1
 67
     0
278
    -2
288
     1
 68
     0
279
    -2
289
     1
 69
     0
  7
Standard
140
0.25
170
     5
 62
     0
 63
   257
283
     0
 90
        4
 91
        0
  1

274
    -2
284
     1
 64
     0
275
    -2
285
     1
 65
     0
276
    -2
286
     1
 66
     0
277
    -2
287
     1
 67
     0
278
    -2
288
     1
 68
     0
279
    -2
289
     1
 69
     0
  7
Standard
140
0.18
170
     5
 62
     0
 63
   257
283
     0
 90
        4
 91
        0
  1

274
    -2
284
     1
 64
     0
275
    -2
285
     1
 65
     0
276
    -2
286
     1
 66
     0
277
    -2
287
     1
 67
     0
278
    -2
288
     1
 68
     0
279
    -2
289
     1
 69
     0
  0
VISUALSTYLE
  5
2F
102
{ACAD_REACTORS
330
2A
102
}
330
2A
100
AcDbVisualStyle
  2
2dWireframe
 70
     4
177
     3
291
     0
 70
    58
 90
        0
176
     1
 90
        2
176
     1
 90
        0
176
     1
 90
        0
176
     1
 40
0.6
176
     1
 40
30.0
176
     1
 62
     7
420
 16777215
176
     1
 90
        1
176
     1
 90
        4
176
     1
 62
     7
176
     1
 62
   257
176
     1
 90
        1
176
     1
 90
        1
176
     1
 40
1.0
176
     1
 90
        0
176
     1
 62
   257
176
     1
 40
1.0
176
     1
 90
        1
176
     1
 90
        6
176
     1
 90
        2
176
     1
 62
     7
176
     1
 90
        5
176
     1
 90
        0
176
     1
 90
        0
176
     1
290
     0
176
     1
 90
        1
176
     1
 40
0.0
176
     1
 90
        0
176
     1
290
     1
176
     1
290
     1
176
     1
290
     0
176
     1
290
     0
176
     1
290
     0
176
     1
290
     0
176
     1
290
     0
176
     1
290
     0
176
     1
290
     0
176
     1
 90
       50
176
     1
 40
0.0
176
     1
 40
1.0
176
     1
 90
        0
176
     1
 62
    18
420
        0
176
     1
 90
       50
176
     1
 90
        3
176
     1
 62
     5
420
      255
176
     1
290
     0
176
     1
 90
       50
176
     1
 90
       50
176
     1
 90
       50
176
     1
290
     0
176
     1
 90
       50
176
     1
 62
   256
176
     0
 40
1.0
176
     0
 90
        2
176
     1
  1
strokes_ogs.tif
176
     1
290
     0
176
     1
 40
1.0
176
     1
 40
1.0
176
     1
  0
VISUALSTYLE
  5
32
102
{ACAD_REACTORS
330
2A
102
}
330
2A
100
AcDbVisualStyle
  2
Basic
 70
     7
177
     3
291
     1
 70
    58
 90
        1
176
     1
 90
        0
176
     1
 90
        1
176
     1
 90
        0
176
     1
 40
0.6
176
     1
 40
30.0
176
     1
 62
     7
420
 16777215
176
     1
 90
        0
176
     1
 90
        4
176
     1
 62
     7
176
     1
 62
   257
176
     1
 90
        1
176
     1
 90
        1
176
     1
 40
1.0
176
     1
 90
        8
176
     1
 62
     7
176
     1
 40
1.0
176
     1
 90
        1
176
     1
 90
        6
176
     1
 90
        2
176
     1
 62
     7
176
     1
 90
        5
176
     1
 90
        0
176
     1
 90
        0
176
     1
290
     0
176
     1
 90
        1
176
     1
 40
0.0
176
     1
 90
        0
176
     1
290
     0
176
     1
290
     1
176
     1
290
     1
176
     1
290
     0
176
     1
290
     0
176
     1
290
     0
176
     1
290
     0
176
     1
290
     0
176
     1
290
     0
176
     1
 90
       50
176
     1
 40
0.0
176
     1
 40
1.0
176
     1
 90
        0
176
     1
 62
    18
420
        0
176
     1
 90
       50
176
     1
 90
        3
176
     1
 62
     5
420
      255
176
     1
290
     0
176
     1
 90
       50
176
     1
 90
       50
176
     1
 90
       50
176
     1
290
     0
176
     1
 90
       50
176
     1
 62
   256
176
     0
 40
1.0
176
     0
 90
        2
176
     1
  1
strokes_ogs.tif
176
     1
290
     0
176
     1
 40
1.0
176
     1
 40
1.0
176
     1
  0
VISUALSTYLE
  5
36
102
{ACAD_REACTORS
330
2A
102
}
330
2A
100
AcDbVisualStyle
  2
Brighten
 70
    12
177
     3
291
     1
 70
    58
 90
        2
176
     1
 90
        2
176
     1
 90
        0
176
     1
 90
        0
176
     1
 40
0.6
176
     1
 40
30.0
176
     1
 62
     7
420
 16777215
176
     1
 90
        1
176
     1
 90
        4
176
     1
 62
     7
176
     1
 62
   257
176
     1
 90
        1
176
     1
 90
        1
176
     1
 40
1.0
176
     1
 90
        8
176
     1
 62
     7
176
     1
 40
1.0
176
     1
 90
        1
176
     1
 90
        6
176
     1
 90
        2
176
     1
 62
     7
176
     1
 90
        5
176
     1
 90
        0
176
     1
 90
        0
176
     1
290
     0
176
     1
 90
        1
176
     1
 40
50.0
176
     1
 90
        0
176
     1
290
     0
176
     1
290
     1
176
     1
290
     1
176
     1
290
     0
176
     1
290
     0
176
     1
290
     0
176
     1
290
     0
176
     1
290
     0
176
     1
290
     0
176
     1
 90
       50
176
     1
 40
0.0
176
     1
 40
1.0
176
     1
 90
        0
176
     1
 62
    18
420
        0
176
     1
 90
       50
176
     1
 90
        3
176
     1
 62
     5
420
      255
176
     1
290
     0
176
     1
 90
       50
176
     1
 90
       50
176
     1
 90
       50
176
     1
290
     0
176
     1
 90
       50
176
     1
 62
   256
176
     0
 40
1.0
176
     0
 90
        2
176
     1
  1
strokes_ogs.tif
176
     1
290
     0
176
     1
 40
1.0
176
     1
 40
1.0
176
     1
  0
VISUALSTYLE
  5
3A
102
{ACAD_REACTORS
330
2A
102
}
330
2A
100
AcDbVisualStyle
  2
ColorChange
 70
    16
177
     3
291
     1
 70
    58
 90
        2
176
     1
 90
        2
176
     1
 90
        3
176
     1
 90
        0
176
     1
 40
0.6
176
     1
 40
30.0
176
     1
 62
     8
420
  8421504
176
     1
 90
        1
176
     1
 90
        4
176
     1
 62
     7
176
     1
 62
   257
176
     1
 90
        1
176
     1
 90
        1
176
     1
 40
1.0
176
     1
 90
        8
176
     1
 62
     8
420
  8421504
176
     1
 40
1.0
176
     1
 90
        1
176
     1
 90
        6
176
     1
 90
        2
176
     1
 62
     7
176
     1
 90
        5
176
     1
 90
        0
176
     1
 90
        0
176
     1
290
     0
176
     1
 90
        1
176
     1
 40
0.0
176
     1
 90
        0
176
     1
290
     0
176
     1
290
     1
176
     1
290
     1
176
     1
290
     0
176
     1
290
     0
176
     1
290
     0
176
     1
290
     0
176
     1
290
     0
176
     1
290
     0
176
     1
 90
       50
176
     1
 40
0.0
176
     1
 40
1.0
176
     1
 90
        0
176
     1
 62
    18
420
        0
176
     1
 90
       50
176
     1
 90
        3
176
     1
 62
     5
420
      255
176
     1
290
     0
176
     1
 90
       50
176
     1
 90
       50
176
     1
 90
       50
176
     1
290
     0
176
     1
 90
       50
176
     1
 62
   256
176
     0
 40
1.0
176
     0
 90
        2
176
     1
  1
strokes_ogs.tif
176
     1
290
     0
176
     1
 40
1.0
176
     1
 40
1.0
176
     1
  0
VISUALSTYLE
  5
34
102
{ACAD_REACTORS
330
2A
102
}
330
2A
100
AcDbVisualStyle
  2
Conceptual
 70
     9
177
     3
291
     0
 70
    58
 90
        3
176
     1
 90
        2
176
     1
 90
        0
176
     1
 90
        0
176
     1
 40
0.6
176
     1
 40
30.0
176
     1
 62
     7
420
 16777215
176
     1
 90
        2
176
     1
 90
        2
176
     1
 62
     7
176
     1
 62
   257
176
     1
 90
        1
176
     1
 90
        1
176
     1
 40
179.0
176
     1
 90
        8
176
     1
 62
     7
176
     1
 40
1.0
176
     1
 90
        1
176
     1
 90
        6
176
     1
 90
        2
176
     1
 62
     7
176
     1
 90
        3
176
     1
 90
        0
176
     1
 90
        0
176
     1
290
     0
176
     1
 90
        1
176
     1
 40
0.0
176
     1
 90
        0
176
     1
290
     0
176
     1
290
     1
176
     1
290
     1
176
     1
290
     0
176
     1
290
     0
176
     1
290
     0
176
     1
290
     0
176
     1
290
     0
176
     1
290
     0
176
     1
 90
       50
176
     1
 40
0.0
176
     1
 40
1.0
176
     1
 90
        0
176
     1
 62
    18
420
        0
176
     1
 90
       50
176
     1
 90
        3
176
     1
 62
     5
420
      255
176
     1
290
     0
176
     1
 90
       50
176
     1
 90
       50
176
     1
 90
       50
176
     1
290
     0
176
     1
 90
       50
176
     1
 62
   256
176
     0
 40
1.0
176
     0
 90
        2
176
     1
  1
strokes_ogs.tif
176
     1
290
     0
176
     1
 40
1.0
176
     1
 40
1.0
176
     1
  0
VISUALSTYLE
  5
35
102
{ACAD_REACTORS
330
2A
102
}
330
2A
100
AcDbVisualStyle
  2
Dim
 70
    11
177
     3
291
     1
 70
    58
 90
        2
176
     1
 90
        2
176
     1
 90
        0
176
     1
 90
        0
176
     1
 40
0.6
176
     1
 40
30.0
176
     1
 62
     7
420
 16777215
176
     1
 90
        1
176
     1
 90
        4
176
     1
 62
     7
176
     1
 62
   257
176
     1
 90
        1
176
     1
 90
        1
176
     1
 40
1.0
176
     1
 90
        8
176
     1
 62
     7
176
     1
 40
1.0
176
     1
 90
        1
176
     1
 90
        6
176
     1
 90
        2
176
     1
 62
     7
176
     1
 90
        5
176
     1
 90
        0
176
     1
 90
        0
176
     1
290
     0
176
     1
 90
        1
176
     1
 40
-50.0
176
     1
 90
        0
176
     1
290
     0
176
     1
290
     1
176
     1
290
     1
176
     1
290
     0
176
     1
290
     0
176
     1
290
     0
176
     1
290
     0
176
     1
290
     0
176
     1
290
     0
176
     1
 90
       50
176
     1
 40
0.0
176
     1
 40
1.0
176
     1
 90
        0
176
     1
 62
    18
420
        0
176
     1
 90
       50
176
     1
 90
        3
176
     1
 62
     5
420
      255
176
     1
290
     0
176
     1
 90
       50
176
     1
 90
       50
176
     1
 90
       50
176
     1
290
     0
176
     1
 90
       50
176
     1
 62
   256
176
     0
 40
1.0
176
     0
 90
        2
176
     1
  1
strokes_ogs.tif
176
     1
290
     0
176
     1
 40
1.0
176
     1
 40
1.0
176
     1
  0
VISUALSTYLE
  5
3D
102
{ACAD_REACTORS
330
2A
102
}
330
2A
100
AcDbVisualStyle
  2
EdgeColorOff
 70
    22
177
     3
291
     1
 70
    58
 90
        2
176
     0
 90
        2
176
     0
 90
        0
176
     0
 90
        0
176
     0
 40
0.6
176
     0
 40
30.0
176
     0
 62
     7
420
 16777215
176
     0
 90
        1
176
     0
 90
        4
176
     0
 62
     7
176
     0
 62
   257
176
     0
 90
        1
176
     0
 90
        1
176
     0
 40
1.0
176
     0
 90
        8
176
     2
 62
     7
176
     0
 40
1.0
176
     0
 90
        1
176
     0
 90
        6
176
     0
 90
        2
176
     0
 62
     7
176
     0
 90
        5
176
     0
 90
        0
176
     0
 90
        0
176
     0
290
     0
176
     0
 90
        1
176
     0
 40
0.0
176
     0
 90
        0
176
     0
290
     0
176
     0
290
     1
176
     0
290
     1
176
     0
290
     0
176
     0
290
     0
176
     0
290
     0
176
     0
290
     0
176
     0
290
     0
176
     0
290
     0
176
     0
 90
       50
176
     0
 40
0.0
176
     0
 40
1.0
176
     0
 90
        0
176
     0
 62
    18
420
        0
176
     0
 90
       50
176
     0
 90
        3
176
     0
 62
     5
420
      255
176
     0
290
     0
176
     0
 90
       50
176
     0
 90
       50
176
     0
 90
       50
176
     0
290
     0
176
     0
 90
       50
176
     0
 62
   256
176
     0
 40
1.0
176
     0
 90
        2
176
     0
  1
strokes_ogs.tif
176
     0
290
     0
176
     0
 40
1.0
176
     0
 40
1.0
176
     0
  0
VISUALSTYLE
  5
39
102
{ACAD_REACTORS
330
2A
102
}
330
2A
100
AcDbVisualStyle
  2
Facepattern
 70
    15
177
     3
291
     1
 70
    58
 90
        2
176
     1
 90
        2
176
     1
 90
        0
176
     1
 90
        0
176
     1
 40
0.6
176
     1
 40
30.0
176
     1
 62
     7
420
 16777215
176
     1
 90
        1
176
     1
 90
        4
176
     1
 62
     7
176
     1
 62
   257
176
     1
 90
        1
176
     1
 90
        1
176
     1
 40
1.0
176
     1
 90
        8
176
     1
 62
     7
176
     1
 40
1.0
176
     1
 90
        1
176
     1
 90
        6
176
     1
 90
        2
176
     1
 62
     7
176
     1
 90
        5
176
     1
 90
        0
176
     1
 90
        0
176
     1
290
     0
176
     1
 90
        1
176
     1
 40
0.0
176
     1
 90
        0
176
     1
290
     0
176
     1
290
     1
176
     1
290
     1
176
     1
290
     0
176
     1
290
     0
176
     1
290
     0
176
     1
290
     0
176
     1
290
     0
176
     1
290
     0
176
     1
 90
       50
176
     1
 40
0.0
176
     1
 40
1.0
176
     1
 90
        0
176
     1
 62
    18
420
        0
176
     1
 90
       50
176
     1
 90
        3
176
     1
 62
     5
420
      255
176
     1
290
     0
176
     1
 90
       50
176
     1
 90
       50
176
     1
 90
       50
176
     1
290
     0
176
     1
 90
       50
176
     1
 62
   256
176
     0
 40
1.0
176
     0
 90
        2
176
     1
  1
strokes_ogs.tif
176
     1
290
     0
176
     1
 40
1.0
176
     1
 40
1.0
176
     1
  0
VISUALSTYLE
  5
2B
102
{ACAD_REACTORS
330
2A
102
}
330
2A
100
AcDbVisualStyle
  2
Flat
 70
     0
177
     3
291
     1
 70
    58
 90
        2
176
     1
 90
        1
176
     1
 90
        1
176
     1
 90
        2
176
     1
 40
0.6
176
     1
 40
30.0
176
     1
 62
     7
420
 16777215
176
     1
 90
        0
176
     1
 90
        0
176
     1
 62
     7
176
     1
 62
   257
176
     1
 90
        1
176
     1
 90
        1
176
     1
 40
1.0
176
     1
 90
        8
176
     1
 62
     7
176
     1
 40
1.0
176
     1
 90
        1
176
     1
 90
        6
176
     1
 90
        2
176
     1
 62
     7
176
     1
 90
        5
176
     1
 90
        0
176
     1
 90
        0
176
     1
290
     0
176
     1
 90
       13
176
     1
 40
0.0
176
     1
 90
        0
176
     1
290
     0
176
     1
290
     1
176
     1
290
     1
176
     1
290
     0
176
     1
290
     0
176
     1
290
     0
176
     1
290
     0
176
     1
290
     0
176
     1
290
     0
176
     1
 90
       50
176
     1
 40
0.0
176
     1
 40
1.0
176
     1
 90
        0
176
     1
 62
    18
420
        0
176
     1
 90
       50
176
     1
 90
        3
176
     1
 62
     5
420
      255
176
     1
290
     0
176
     1
 90
       50
176
     1
 90
       50
176
     1
 90
       50
176
     1
290
     0
176
     1
 90
       50
176
     1
 62
   256
176
     0
 40
1.0
176
     0
 90
        2
176
     1
  1
strokes_ogs.tif
176
     1
290
     0
176
     1
 40
1.0
176
     1
 40
1.0
176
     1
  0
VISUALSTYLE
  5
2C
102
{ACAD_REACTORS
330
2A
102
}
330
2A
100
AcDbVisualStyle
  2
FlatWithEdges
 70
     1
177
     3
291
     1
 70
    58
 90
        2
176
     1
 90
        1
176
     1
 90
        1
176
     1
 90
        2
176
     1
 40
0.6
176
     1
 40
30.0
176
     1
 62
     7
420
 16777215
176
     1
 90
        1
176
     1
 90
        0
176
     1
 62
     7
176
     1
 62
   257
176
     1
 90
        1
176
     1
 90
        1
176
     1
 40
1.0
176
     1
 90
        0
176
     1
 62
   257
176
     1
 40
1.0
176
     1
 90
        1
176
     1
 90
        6
176
     1
 90
        2
176
     1
 62
     7
176
     1
 90
        5
176
     1
 90
        0
176
     1
 90
        0
176
     1
290
     0
176
     1
 90
       13
176
     1
 40
0.0
176
     1
 90
        0
176
     1
290
     0
176
     1
290
     1
176
     1
290
     1
176
     1
290
     0
176
     1
290
     0
176
     1
290
     0
176
     1
290
     0
176
     1
290
     0
176
     1
290
     0
176
     1
 90
       50
176
     1
 40
0.0
176
     1
 40
1.0
176
     1
 90
        0
176
     1
 62
    18
420
        0
176
     1
 90
       50
176
     1
 90
        3
176
     1
 62
     5
420
      255
176
     1
290
     0
176
     1
 90
       50
176
     1
 90
       50
176
     1
 90
       50
176
     1
290
     0
176
     1
 90
       50
176
     1
 62
   256
176
     0
 40
1.0
176
     0
 90
        2
176
     1
  1
strokes_ogs.tif
176
     1
290
     0
176
     1
 40
1.0
176
     1
 40
1.0
176
     1
  0
VISUALSTYLE
  5
2D
102
{ACAD_REACTORS
330
2A
102
}
330
2A
100
AcDbVisualStyle
  2
Gouraud
 70
     2
177
     3
291
     1
 70
    58
 90
        2
176
     1
 90
        2
176
     1
 90
        1
176
     1
 90
        2
176
     1
 40
0.6
176
     1
 40
30.0
176
     1
 62
     7
420
 16777215
176
     1
 90
        0
176
     1
 90
        0
176
     1
 62
     7
176
     1
 62
   257
176
     1
 90
        1
176
     1
 90
        1
176
     1
 40
1.0
176
     1
 90
        0
176
     1
 62
     7
176
     1
 40
1.0
176
     1
 90
        1
176
     1
 90
        6
176
     1
 90
        2
176
     1
 62
     7
176
     1
 90
        5
176
     1
 90
        0
176
     1
 90
        0
176
     1
290
     0
176
     1
 90
       13
176
     1
 40
0.0
176
     1
 90
        0
176
     1
290
     0
176
     1
290
     1
176
     1
290
     1
176
     1
290
     0
176
     1
290
     0
176
     1
290
     0
176
     1
290
     0
176
     1
290
     0
176
     1
290
     0
176
     1
 90
       50
176
     1
 40
0.0
176
     1
 40
1.0
176
     1
 90
        0
176
     1
 62
    18
420
        0
176
     1
 90
       50
176
     1
 90
        3
176
     1
 62
     5
420
      255
176
     1
290
     0
176
     1
 90
       50
176
     1
 90
       50
176
     1
 90
       50
176
     1
290
     0
176
     1
 90
       50
176
     1
 62
   256
176
     0
 40
1.0
176
     0
 90
        2
176
     1
  1
strokes_ogs.tif
176
     1
290
     0
176
     1
 40
1.0
176
     1
 40
1.0
176
     1
  0
VISUALSTYLE
  5
2E
102
{ACAD_REACTORS
330
2A
102
}
330
2A
100
AcDbVisualStyle
  2
GouraudWithEdges
 70
     3
177
     3
291
     1
 70
    58
 90
        2
176
     1
 90
        2
176
     1
 90
        1
176
     1
 90
        2
176
     1
 40
0.6
176
     1
 40
30.0
176
     1
 62
     7
420
 16777215
176
     1
 90
        1
176
     1
 90
        0
176
     1
 62
     7
176
     1
 62
   257
176
     1
 90
        1
176
     1
 90
        1
176
     1
 40
1.0
176
     1
 90
        0
176
     1
 62
   257
176
     1
 40
1.0
176
     1
 90
        1
176
     1
 90
        6
176
     1
 90
        2
176
     1
 62
     7
176
     1
 90
        5
176
     1
 90
        0
176
     1
 90
        0
176
     1
290
     0
176
     1
 90
       13
176
     1
 40
0.0
176
     1
 90
        0
176
     1
290
     0
176
     1
290
     1
176
     1
290
     1
176
     1
290
     0
176
     1
290
     0
176
     1
290
     0
176
     1
290
     0
176
     1
290
     0
176
     1
290
     0
176
     1
 90
       50
176
     1
 40
0.0
176
     1
 40
1.0
176
     1
 90
        0
176
     1
 62
    18
420
        0
176
     1
 90
       50
176
     1
 90
        3
176
     1
 62
     5
420
      255
176
     1
290
     0
176
     1
 90
       50
176
     1
 90
       50
176
     1
 90
       50
176
     1
290
     0
176
     1
 90
       50
176
     1
 62
   256
176
     0
 40
1.0
176
     0
 90
        2
176
     1
  1
strokes_ogs.tif
176
     1
290
     0
176
     1
 40
1.0
176
     1
 40
1.0
176
     1
  0
VISUALSTYLE
  5
31
102
{ACAD_REACTORS
330
2A
102
}
330
2A
100
AcDbVisualStyle
  2
Hidden
 70
     6
177
     3
291
     0
 70
    58
 90
        1
176
     1
 90
        2
176
     1
 90
        2
176
     1
 90
        0
176
     1
 40
0.6
176
     1
 40
30.0
176
     1
 62
     7
420
 16777215
176
     1
 90
        2
176
     1
 90
        2
176
     1
 62
     7
176
     1
 62
   257
176
     1
 90
        2
176
     1
 90
        1
176
     1
 40
40.0
176
     1
 90
        0
176
     1
 62
   257
176
     1
 40
1.0
176
     1
 90
        1
176
     1
 90
        6
176
     1
 90
        2
176
     1
 62
     7
176
     1
 90
        3
176
     1
 90
        0
176
     1
 90
        0
176
     1
290
     0
176
     1
 90
        1
176
     1
 40
0.0
176
     1
 90
        0
176
     1
290
     0
176
     1
290
     1
176
     1
290
     1
176
     1
290
     0
176
     1
290
     0
176
     1
290
     0
176
     1
290
     0
176
     1
290
     0
176
     1
290
     0
176
     1
 90
       50
176
     1
 40
0.0
176
     1
 40
1.0
176
     1
 90
        0
176
     1
 62
    18
420
        0
176
     1
 90
       50
176
     1
 90
        3
176
     1
 62
     5
420
      255
176
     1
290
     0
176
     1
 90
       50
176
     1
 90
       50
176
     1
 90
       50
176
     1
290
     0
176
     1
 90
       50
176
     1
 62
   256
176
     0
 40
1.0
176
     0
 90
        2
176
     1
  1
strokes_ogs.tif
176
     1
290
     0
176
     1
 40
1.0
176
     1
 40
1.0
176
     1
  0
VISUALSTYLE
  5
3B
102
{ACAD_REACTORS
330
2A
102
}
330
2A
100
AcDbVisualStyle
  2
JitterOff
 70
    20
177
     3
291
     1
 70
    58
 90
        2
176
     0
 90
        2
176
     0
 90
        0
176
     0
 90
        0
176
     0
 40
0.6
176
     0
 40
30.0
176
     0
 62
     7
420
 16777215
176
     0
 90
        1
176
     0
 90
        4
176
     0
 62
     7
176
     0
 62
   257
176
     0
 90
        1
176
     0
 90
        1
176
     0
 40
1.0
176
     0
 90
       10
176
     2
 62
     7
176
     0
 40
1.0
176
     0
 90
        1
176
     0
 90
        6
176
     0
 90
        2
176
     0
 62
     7
176
     0
 90
        5
176
     0
 90
        0
176
     0
 90
        0
176
     0
290
     0
176
     0
 90
        1
176
     0
 40
0.0
176
     0
 90
        0
176
     0
290
     0
176
     0
290
     1
176
     0
290
     1
176
     0
290
     0
176
     0
290
     0
176
     0
290
     0
176
     0
290
     0
176
     0
290
     0
176
     0
290
     0
176
     0
 90
       50
176
     0
 40
0.0
176
     0
 40
1.0
176
     0
 90
        0
176
     0
 62
    18
420
        0
176
     0
 90
       50
176
     0
 90
        3
176
     0
 62
     5
420
      255
176
     0
290
     0
176
     0
 90
       50
176
     0
 90
       50
176
     0
 90
       50
176
     0
290
     0
176
     0
 90
       50
176
     0
 62
   256
176
     0
 40
1.0
176
     0
 90
        2
176
     0
  1
strokes_ogs.tif
176
     0
290
     0
176
     0
 40
1.0
176
     0
 40
1.0
176
     0
  0
VISUALSTYLE
  5
38
102
{ACAD_REACTORS
330
2A
102
}
330
2A
100
AcDbVisualStyle
  2
Linepattern
 70
    14
177
     3
291
     1
 70
    58
 90
        2
176
     1
 90
        2
176
     1
 90
        0
176
     1
 90
        0
176
     1
 40
0.6
176
     1
 40
30.0
176
     1
 62
     7
420
 16777215
176
     1
 90
        1
176
     1
 90
        4
176
     1
 62
     7
176
     1
 62
   257
176
     1
 90
        7
176
     1
 90
        7
176
     1
 40
1.0
176
     1
 90
        8
176
     1
 62
     7
176
     1
 40
1.0
176
     1
 90
        1
176
     1
 90
        6
176
     1
 90
        2
176
     1
 62
     7
176
     1
 90
        5
176
     1
 90
        0
176
     1
 90
        0
176
     1
290
     0
176
     1
 90
        1
176
     1
 40
0.0
176
     1
 90
        0
176
     1
290
     0
176
     1
290
     1
176
     1
290
     1
176
     1
290
     0
176
     1
290
     0
176
     1
290
     0
176
     1
290
     0
176
     1
290
     0
176
     1
290
     0
176
     1
 90
       50
176
     1
 40
0.0
176
     1
 40
1.0
176
     1
 90
        0
176
     1
 62
    18
420
        0
176
     1
 90
       50
176
     1
 90
        3
176
     1
 62
     5
420
      255
176
     1
290
     0
176
     1
 90
       50
176
     1
 90
       50
176
     1
 90
       50
176
     1
290
     0
176
     1
 90
       50
176
     1
 62
   256
176
     0
 40
1.0
176
     0
 90
        2
176
     1
  1
strokes_ogs.tif
176
     1
290
     0
176
     1
 40
1.0
176
     1
 40
1.0
176
     1
  0
VISUALSTYLE
  5
3C
102
{ACAD_REACTORS
330
2A
102
}
330
2A
100
AcDbVisualStyle
  2
OverhangOff
 70
    21
177
     3
291
     1
 70
    58
 90
        2
176
     0
 90
        2
176
     0
 90
        0
176
     0
 90
        0
176
     0
 40
0.6
176
     0
 40
30.0
176
     0
 62
     7
420
 16777215
176
     0
 90
        1
176
     0
 90
        4
176
     0
 62
     7
176
     0
 62
   257
176
     0
 90
        1
176
     0
 90
        1
176
     0
 40
1.0
176
     0
 90
        9
176
     2
 62
     7
176
     0
 40
1.0
176
     0
 90
        1
176
     0
 90
        6
176
     0
 90
        2
176
     0
 62
     7
176
     0
 90
        5
176
     0
 90
        0
176
     0
 90
        0
176
     0
290
     0
176
     0
 90
        1
176
     0
 40
0.0
176
     0
 90
        0
176
     0
290
     0
176
     0
290
     1
176
     0
290
     1
176
     0
290
     0
176
     0
290
     0
176
     0
290
     0
176
     0
290
     0
176
     0
290
     0
176
     0
290
     0
176
     0
 90
       50
176
     0
 40
0.0
176
     0
 40
1.0
176
     0
 90
        0
176
     0
 62
    18
420
        0
176
     0
 90
       50
176
     0
 90
        3
176
     0
 62
     5
420
      255
176
     0
290
     0
176
     0
 90
       50
176
     0
 90
       50
176
     0
 90
       50
176
     0
290
     0
176
     0
 90
       50
176
     0
 62
   256
176
     0
 40
1.0
176
     0
 90
        2
176
     0
  1
strokes_ogs.tif
176
     0
290
     0
176
     0
 40
1.0
176
     0
 40
1.0
176
     0
  0
VISUALSTYLE
  5
33
102
{ACAD_REACTORS
330
2A
102
}
330
2A
100
AcDbVisualStyle
  2
Realistic
 70
     8
177
     3
291
     0
 70
    58
 90
        2
176
     1
 90
        3
176
     1
 90
        0
176
     1
 90
        2
176
     1
 40
0.6
176
     1
 40
30.0
176
     1
 62
     7
420
 16777215
176
     1
 90
        0
176
     1
 90
        0
176
     1
 62
     7
176
     1
 62
   257
176
     1
 90
        1
176
     1
 90
        1
176
     1
 40
1.0
176
     1
 90
        8
176
     1
 62
   257
176
     1
 40
1.0
176
     1
 90
        1
176
     1
 90
        6
176
     1
 90
        2
176
     1
 62
     7
176
     1
 90
        3
176
     1
 90
        0
176
     1
 90
        0
176
     1
290
     0
176
     1
 90
       13
176
     1
 40
0.0
176
     1
 90
        0
176
     1
290
     0
176
     1
290
     1
176
     1
290
     1
176
     1
290
     0
176
     1
290
     0
176
     1
290
     0
176
     1
290
     0
176
     1
290
     0
176
     1
290
     0
176
     1
 90
       50
176
     1
 40
0.0
176
     1
 40
1.0
176
     1
 90
        0
176
     1
 62
    18
420
        0
176
     1
 90
       50
176
     1
 90
        3
176
     1
 62
     5
420
      255
176
     1
290
     0
176
     1
 90
       50
176
     1
 90
       50
176
     1
 90
       50
176
     1
290
     0
176
     1
 90
       50
176
     1
 62
   256
176
     0
 40
1.0
176
     0
 90
        2
176
     1
  1
strokes_ogs.tif
176
     1
290
     0
176
     1
 40
1.0
176
     1
 40
1.0
176
     1
  0
VISUALSTYLE
  5
42
102
{ACAD_REACTORS
330
2A
102
}
330
2A
100
AcDbVisualStyle
  2
Shaded
 70
    27
177
     3
291
     0
 70
    58
 90
        2
176
     1
 90
        2
176
     1
 90
        1
176
     1
 90
        2
176
     1
 40
0.6
176
     1
 40
30.0
176
     1
 62
     7
420
 16777215
176
     1
 90
        0
176
     1
 90
        4
176
     1
 62
     7
176
     1
 62
   257
176
     1
 90
        1
176
     1
 90
        1
176
     1
 40
1.0
176
     1
 90
        8
176
     1
 62
   257
176
     1
 40
1.0
176
     1
 90
        1
176
     1
 90
        6
176
     1
 90
        2
176
     1
 62
     8
420
  7895160
176
     1
 90
        3
176
     1
 90
        0
176
     1
 90
        0
176
     1
290
     0
176
     1
 90
        5
176
     1
 40
0.0
176
     1
 90
        0
176
     1
290
     0
176
     1
290
     1
176
     1
290
     1
176
     1
290
     0
176
     1
290
     0
176
     1
290
     0
176
     1
290
     0
176
     1
290
     0
176
     1
290
     0
176
     1
 90
       50
176
     1
 40
0.0
176
     1
 40
1.0
176
     1
 90
        0
176
     1
 62
    18
420
        0
176
     1
 90
       50
176
     1
 90
        3
176
     1
 62
     5
420
      255
176
     1
290
     0
176
     1
 90
       50
176
     1
 90
       50
176
     1
 90
       50
176
     1
290
     0
176
     1
 90
       50
176
     1
 62
   256
176
     0
 40
1.0
176
     0
 90
        2
176
     1
  1
strokes_ogs.tif
176
     1
290
     0
176
     1
 40
1.0
176
     1
 40
1.0
176
     1
  0
VISUALSTYLE
  5
41
102
{ACAD_REACTORS
330
2A
102
}
330
2A
100
AcDbVisualStyle
  2
Shaded with edges
 70
    26
177
     3
291
     0
 70
    58
 90
        2
176
     1
 90
        2
176
     1
 90
        1
176
     1
 90
        2
176
     1
 40
0.6
176
     1
 40
30.0
176
     1
 62
     7
420
 16777215
176
     1
 90
        1
176
     1
 90
       10
176
     1
 62
     7
176
     1
 62
   257
176
     1
 90
        2
176
     1
 90
        1
176
     1
 40
1.0
176
     1
 90
        8
176
     1
 62
   257
176
     1
 40
1.0
176
     1
 90
        1
176
     1
 90
        6
176
     1
 90
        2
176
     1
 62
     7
176
     1
 90
        3
176
     1
 90
        0
176
     1
 90
        0
176
     1
290
     0
176
     1
 90
        5
176
     1
 40
0.0
176
     1
 90
        0
176
     1
290
     0
176
     1
290
     1
176
     1
290
     1
176
     1
290
     0
176
     1
290
     0
176
     1
290
     0
176
     1
290
     0
176
     1
290
     0
176
     1
290
     0
176
     1
 90
       50
176
     1
 40
0.0
176
     1
 40
1.0
176
     1
 90
        0
176
     1
 62
    18
420
        0
176
     1
 90
       50
176
     1
 90
        3
176
     1
 62
     5
420
      255
176
     1
290
     0
176
     1
 90
       50
176
     1
 90
       50
176
     1
 90
       50
176
     1
290
     0
176
     1
 90
       50
176
     1
 62
   256
176
     0
 40
1.0
176
     0
 90
        2
176
     1
  1
strokes_ogs.tif
176
     1
290
     0
176
     1
 40
1.0
176
     1
 40
1.0
176
     1
  0
VISUALSTYLE
  5
3E
102
{ACAD_REACTORS
330
2A
102
}
330
2A
100
AcDbVisualStyle
  2
Shades of Gray
 70
    23
177
     3
291
     0
 70
    58
 90
        2
176
     1
 90
        2
176
     1
 90
        3
176
     1
 90
        0
176
     1
 40
0.6
176
     1
 40
30.0
176
     1
 62
     7
420
 16777215
176
     1
 90
        2
176
     1
 90
        2
176
     1
 62
     7
176
     1
 62
     7
176
     1
 90
        1
176
     1
 90
        1
176
     1
 40
40.0
176
     1
 90
        8
176
     1
 62
     7
176
     1
 40
1.0
176
     1
 90
        1
176
     1
 90
        6
176
     1
 90
        2
176
     1
 62
     7
176
     1
 90
        3
176
     1
 90
        0
176
     1
 90
        0
176
     1
290
     0
176
     1
 90
        1
176
     1
 40
0.0
176
     1
 90
        0
176
     1
290
     0
176
     1
290
     1
176
     1
290
     1
176
     1
290
     0
176
     1
290
     0
176
     1
290
     0
176
     1
290
     0
176
     1
290
     0
176
     1
290
     0
176
     1
 90
       50
176
     1
 40
0.0
176
     1
 40
1.0
176
     1
 90
        0
176
     1
 62
    18
420
        0
176
     1
 90
       50
176
     1
 90
        3
176
     1
 62
     5
420
      255
176
     1
290
     0
176
     1
 90
       50
176
     1
 90
       50
176
     1
 90
       50
176
     1
290
     0
176
     1
 90
       50
176
     1
 62
   256
176
     0
 40
1.0
176
     0
 90
        2
176
     1
  1
strokes_ogs.tif
176
     1
290
     0
176
     1
 40
1.0
176
     1
 40
1.0
176
     1
  0
VISUALSTYLE
  5
3F
102
{ACAD_REACTORS
330
2A
102
}
330
2A
100
AcDbVisualStyle
  2
Sketchy
 70
    24
177
     3
291
     0
 70
    58
 90
        1
176
     1
 90
        2
176
     1
 90
        2
176
     1
 90
        0
176
     1
 40
0.6
176
     1
 40
30.0
176
     1
 62
     7
420
 16777215
176
     1
 90
        2
176
     1
 90
        2
176
     1
 62
     7
176
     1
 62
     7
176
     1
 90
        1
176
     1
 90
        1
176
     1
 40
40.0
176
     1
 90
       11
176
     1
 62
     7
176
     1
 40
1.0
176
     1
 90
        1
176
     1
 90
        6
176
     1
 90
        2
176
     1
 62
     7
176
     1
 90
        6
176
     1
 90
        0
176
     1
 90
        0
176
     1
290
     0
176
     1
 90
        1
176
     1
 40
0.0
176
     1
 90
        0
176
     1
290
     0
176
     1
290
     1
176
     1
290
     1
176
     1
290
     0
176
     1
290
     0
176
     1
290
     0
176
     1
290
     0
176
     1
290
     0
176
     1
290
     0
176
     1
 90
       50
176
     1
 40
0.0
176
     1
 40
1.0
176
     1
 90
        0
176
     1
 62
    18
420
        0
176
     1
 90
       50
176
     1
 90
        3
176
     1
 62
     5
420
      255
176
     1
290
     0
176
     1
 90
       50
176
     1
 90
       50
176
     1
 90
       50
176
     1
290
     0
176
     1
 90
       50
176
     1
 62
   256
176
     0
 40
1.0
176
     0
 90
        2
176
     1
  1
strokes_ogs.tif
176
     1
290
     0
176
     1
 40
1.0
176
     1
 40
1.0
176
     1
  0
VISUALSTYLE
  5
37
102
{ACAD_REACTORS
330
2A
102
}
330
2A
100
AcDbVisualStyle
  2
Thicken
 70
    13
177
     3
291
     1
 70
    58
 90
        2
176
     1
 90
        2
176
     1
 90
        0
176
     1
 90
        0
176
     1
 40
0.6
176
     1
 40
30.0
176
     1
 62
     7
420
 16777215
176
     1
 90
        1
176
     1
 90
        4
176
     1
 62
     7
176
     1
 62
   257
176
     1
 90
        1
176
     1
 90
        1
176
     1
 40
1.0
176
     1
 90
       12
176
     1
 62
     7
176
     1
 40
1.0
176
     1
 90
        1
176
     1
 90
        6
176
     1
 90
        2
176
     1
 62
     7
176
     1
 90
        5
176
     1
 90
        0
176
     1
 90
        0
176
     1
290
     0
176
     1
 90
        1
176
     1
 40
0.0
176
     1
 90
        0
176
     1
290
     0
176
     1
290
     1
176
     1
290
     1
176
     1
290
     0
176
     1
290
     0
176
     1
290
     0
176
     1
290
     0
176
     1
290
     0
176
     1
290
     0
176
     1
 90
       50
176
     1
 40
0.0
176
     1
 40
1.0
176
     1
 90
        0
176
     1
 62
    18
420
        0
176
     1
 90
       50
176
     1
 90
        3
176
     1
 62
     5
420
      255
176
     1
290
     0
176
     1
 90
       50
176
     1
 90
       50
176
     1
 90
       50
176
     1
290
     0
176
     1
 90
       50
176
     1
 62
   256
176
     0
 40
1.0
176
     0
 90
        2
176
     1
  1
strokes_ogs.tif
176
     1
290
     0
176
     1
 40
1.0
176
     1
 40
1.0
176
     1
  0
VISUALSTYLE
  5
30
102
{ACAD_REACTORS
330
2A
102
}
330
2A
100
AcDbVisualStyle
  2
Wireframe
 70
     5
177
     3
291
     0
 70
    58
 90
        0
176
     1
 90
        2
176
     1
 90
        0
176
     1
 90
        0
176
     1
 40
0.6
176
     1
 40
30.0
176
     1
 62
     7
420
 16777215
176
     1
 90
        1
176
     1
 90
        4
176
     1
 62
     7
176
     1
 62
   257
176
     1
 90
        1
176
     1
 90
        1
176
     1
 40
1.0
176
     1
 90
        0
176
     1
 62
   257
176
     1
 40
1.0
176
     1
 90
        1
176
     1
 90
        6
176
     1
 90
        2
176
     1
 62
     7
176
     1
 90
        3
176
     1
 90
        0
176
     1
 90
        0
176
     1
290
     0
176
     1
 90
        1
176
     1
 40
0.0
176
     1
 90
        0
176
     1
290
     0
176
     1
290
     1
176
     1
290
     1
176
     1
290
     0
176
     1
290
     0
176
     1
290
     0
176
     1
290
     0
176
     1
290
     0
176
     1
290
     0
176
     1
 90
       50
176
     1
 40
0.0
176
     1
 40
1.0
176
     1
 90
        0
176
     1
 62
    18
420
        0
176
     1
 90
       50
176
     1
 90
        3
176
     1
 62
     5
420
      255
176
     1
290
     0
176
     1
 90
       50
176
     1
 90
       50
176
     1
 90
       50
176
     1
290
     0
176
     1
 90
       50
176
     1
 62
   256
176
     0
 40
1.0
176
     0
 90
        2
176
     1
  1
strokes_ogs.tif
176
     1
290
     0
176
     1
 40
1.0
176
     1
 40
1.0
176
     1
  0
VISUALSTYLE
  5
40
102
{ACAD_REACTORS
330
2A
102
}
330
2A
100
AcDbVisualStyle
  2
X-Ray
 70
    25
177
     3
291
     0
 70
    58
 90
        2
176
     1
 90
        2
176
     1
 90
        1
176
     1
 90
        1
176
     1
 40
0.5
176
     1
 40
30.0
176
     1
 62
     7
420
 16777215
176
     1
 90
        1
176
     1
 90
        0
176
     1
 62
     7
176
     1
 62
   257
176
     1
 90
        1
176
     1
 90
        1
176
     1
 40
1.0
176
     1
 90
        8
176
     1
 62
     7
176
     1
 40
1.0
176
     1
 90
        1
176
     1
 90
        6
176
     1
 90
        2
176
     1
 62
     7
176
     1
 90
        3
176
     1
 90
        0
176
     1
 90
        0
176
     1
290
     0
176
     1
 90
       13
176
     1
 40
0.0
176
     1
 90
        0
176
     1
290
     0
176
     1
290
     1
176
     1
290
     1
176
     1
290
     0
176
     1
290
     0
176
     1
290
     0
176
     1
290
     0
176
     1
290
     0
176
     1
290
     0
176
     1
 90
       50
176
     1
 40
0.0
176
     1
 40
1.0
176
     1
 90
        0
176
     1
 62
    18
420
        0
176
     1
 90
       50
176
     1
 90
        3
176
     1
 62
     5
420
      255
176
     1
290
     0
176
     1
 90
       50
176
     1
 90
       50
176
     1
 90
       50
176
     1
290
     0
176
     1
 90
       50
176
     1
 62
   256
176
     0
 40
1.0
176
     0
 90
        2
176
     1
  1
strokes_ogs.tif
176
     1
290
     0
176
     1
 40
1.0
176
     1
 40
1.0
176
     1
  0
DICTIONARYVAR
  5
193
102
{ACAD_REACTORS
330
192
102
}
330
192
100
DictionaryVariables
280
     0
  1
1:1
  0
DICTIONARYVAR
  5
198
102
{ACAD_REACTORS
330
192
102
}
330
192
100
DictionaryVariables
280
     0
  1
Standard
  0
DICTIONARYVAR
  5
197
102
{ACAD_REACTORS
330
192
102
}
330
192
100
DictionaryVariables
280
     0
  1
Standard
  0
DICTIONARY
  5
194
330
6A
100
AcDbDictionary
280
     1
281
     1
  3
ACAD_ROUNDTRIP_2008_TABLESTYLE_CELLSTYLEMAP
360
195
  0
CELLSTYLEMAP
  5
195
102
{ACAD_REACTORS
330
194
102
}
330
194
100
AcDbCellStyleMap
 90
        3
300
CELLSTYLE
  1
TABLEFORMAT_BEGIN
 90
        5
170
     1
 91
        0
 92
    32768
 62
   257
 93
        1
300
CONTENTFORMAT
  1
CONTENTFORMAT_BEGIN
 90
        0
 91
        0
 92
        4
 93
        0
300

 40
0.0
140
1.0
 94
        5
 62
     0
340
11
144
0.25
309
CONTENTFORMAT_END
171
     1
301
MARGIN
  1
CELLMARGIN_BEGIN
 40
0.06
 40
0.06
 40
0.06
 40
0.06
 40
0.06
 40
0.06
309
CELLMARGIN_END
 94
        6
 95
        1
302
GRIDFORMAT
  1
GRIDFORMAT_BEGIN
 90
        0
 91
        1
 62
     0
 92
       -2
340
14
 93
        0
 40
0.045
309
GRIDFORMAT_END
 95
        2
302
GRIDFORMAT
  1
GRIDFORMAT_BEGIN
 90
        0
 91
        1
 62
     0
 92
       -2
340
14
 93
        0
 40
0.045
309
GRIDFORMAT_END
 95
        4
302
GRIDFORMAT
  1
GRIDFORMAT_BEGIN
 90
        0
 91
        1
 62
     0
 92
       -2
340
14
 93
        0
 40
0.045
309
GRIDFORMAT_END
 95
        8
302
GRIDFORMAT
  1
GRIDFORMAT_BEGIN
 90
        0
 91
        1
 62
     0
 92
       -2
340
14
 93
        0
 40
0.045
309
GRIDFORMAT_END
 95
       16
302
GRIDFORMAT
  1
GRIDFORMAT_BEGIN
 90
        0
 91
        1
 62
     0
 92
       -2
340
14
 93
        0
 40
0.045
309
GRIDFORMAT_END
 95
       32
302
GRIDFORMAT
  1
GRIDFORMAT_BEGIN
 90
        0
 91
        1
 62
     0
 92
       -2
340
14
 93
        0
 40
0.045
309
GRIDFORMAT_END
309
TABLEFORMAT_END
  1
CELLSTYLE_BEGIN
 90
        1
 91
        1
300
_TITLE
309
CELLSTYLE_END
300
CELLSTYLE
  1
TABLEFORMAT_BEGIN
 90
        5
170
     1
 91
        0
 92
        0
 62
   257
 93
        1
300
CONTENTFORMAT
  1
CONTENTFORMAT_BEGIN
 90
        0
 91
        0
 92
        4
 93
        0
300

 40
0.0
140
1.0
 94
        5
 62
     0
340
11
144
0.18
309
CONTENTFORMAT_END
171
     1
301
MARGIN
  1
CELLMARGIN_BEGIN
 40
0.06
 40
0.06
 40
0.06
 40
0.06
 40
0.06
 40
0.06
309
CELLMARGIN_END
 94
        6
 95
        1
302
GRIDFORMAT
  1
GRIDFORMAT_BEGIN
 90
        0
 91
        1
 62
     0
 92
       -2
340
14
 93
        0
 40
0.045
309
GRIDFORMAT_END
 95
        2
302
GRIDFORMAT
  1
GRIDFORMAT_BEGIN
 90
        0
 91
        1
 62
     0
 92
       -2
340
14
 93
        0
 40
0.045
309
GRIDFORMAT_END
 95
        4
302
GRIDFORMAT
  1
GRIDFORMAT_BEGIN
 90
        0
 91
        1
 62
     0
 92
       -2
340
14
 93
        0
 40
0.045
309
GRIDFORMAT_END
 95
        8
302
GRIDFORMAT
  1
GRIDFORMAT_BEGIN
 90
        0
 91
        1
 62
     0
 92
       -2
340
14
 93
        0
 40
0.045
309
GRIDFORMAT_END
 95
       16
302
GRIDFORMAT
  1
GRIDFORMAT_BEGIN
 90
        0
 91
        1
 62
     0
 92
       -2
340
14
 93
        0
 40
0.045
309
GRIDFORMAT_END
 95
       32
302
GRIDFORMAT
  1
GRIDFORMAT_BEGIN
 90
        0
 91
        1
 62
     0
 92
       -2
340
14
 93
        0
 40
0.045
309
GRIDFORMAT_END
309
TABLEFORMAT_END
  1
CELLSTYLE_BEGIN
 90
        2
 91
        1
300
_HEADER
309
CELLSTYLE_END
300
CELLSTYLE
  1
TABLEFORMAT_BEGIN
 90
        5
170
     1
 91
        0
 92
        0
 62
   257
 93
        1
300
CONTENTFORMAT
  1
CONTENTFORMAT_BEGIN
 90
        0
 91
        0
 92
        4
 93
        0
300

 40
0.0
140
1.0
 94
        2
 62
     0
340
11
144
0.18
309
CONTENTFORMAT_END
171
     1
301
MARGIN
  1
CELLMARGIN_BEGIN
 40
0.06
 40
0.06
 40
0.06
 40
0.06
 40
0.06
 40
0.06
309
CELLMARGIN_END
 94
        6
 95
        1
302
GRIDFORMAT
  1
GRIDFORMAT_BEGIN
 90
        0
 91
        1
 62
     0
 92
       -2
340
14
 93
        0
 40
0.045
309
GRIDFORMAT_END
 95
        2
302
GRIDFORMAT
  1
GRIDFORMAT_BEGIN
 90
        0
 91
        1
 62
     0
 92
       -2
340
14
 93
        0
 40
0.045
309
GRIDFORMAT_END
 95
        4
302
GRIDFORMAT
  1
GRIDFORMAT_BEGIN
 90
        0
 91
        1
 62
     0
 92
       -2
340
14
 93
        0
 40
0.045
309
GRIDFORMAT_END
 95
        8
302
GRIDFORMAT
  1
GRIDFORMAT_BEGIN
 90
        0
 91
        1
 62
     0
 92
       -2
340
14
 93
        0
 40
0.045
309
GRIDFORMAT_END
 95
       16
302
GRIDFORMAT
  1
GRIDFORMAT_BEGIN
 90
        0
 91
        1
 62
     0
 92
       -2
340
14
 93
        0
 40
0.045
309
GRIDFORMAT_END
 95
       32
302
GRIDFORMAT
  1
GRIDFORMAT_BEGIN
 90
        0
 91
        1
 62
     0
 92
       -2
340
14
 93
        0
 40
0.045
309
GRIDFORMAT_END
309
TABLEFORMAT_END
  1
CELLSTYLE_BEGIN
 90
        3
 91
        2
300
_DATA
309
CELLSTYLE_END
  0
ENDSEC
  0
EOF