0
SECTION
  2
HEADER
  9
$ACADVER
  1
AC1027
  9
$ACADMAINTVER
 70
     8
  9
$DWGCODEPAGE
  3
ANSI_1252
  9
$REQUIREDVERSIONS
160
                 0
  9
$COMMENTS
  1
File was created by Cadenas
  9
$CUSTOMPROPERTYTAG
  1
NN
  9
$CUSTOMPROPERTY
  1
Set Screw Tapped Base Inch Bore
  9
$CUSTOMPROPERTYTAG
  1
NT
  9
$CUSTOMPROPERTY
  1
SC Pillow Block Bearings -(Normal Duty) -Tapped Base Housing
  9
$CUSTOMPROPERTYTAG
  1
NB
  9
$CUSTOMPROPERTY
  1
124480
  9
$CUSTOMPROPERTYTAG
  1
NBSYN
  9
$CUSTOMPROPERTY
  1
$PN.
  9
$CUSTOMPROPERTYTAG
  1
LINA
  9
$CUSTOMPROPERTY
  1
124480
  9
$CUSTOMPROPERTYTAG
  1
SERIES
  9
$CUSTOMPROPERTY
  1
211
  9
$CUSTOMPROPERTYTAG
  1
SS
  9
$CUSTOMPROPERTY
  1
2
  9
$CUSTOMPROPERTYTAG
  1
PN
  9
$CUSTOMPROPERTY
  1
124480
  9
$CUSTOMPROPERTYTAG
  1
DESCRIPTION
  9
$CUSTOMPROPERTY
  1
TB-SC-200L
  9
$CUSTOMPROPERTYTAG
  1
WEIGHT
  9
$CUSTOMPROPERTY
  1
6.70
  9
$CUSTOMPROPERTYTAG
  1
A
  9
$CUSTOMPROPERTY
  1
2.22
  9
$CUSTOMPROPERTYTAG
  1
B
  9
$CUSTOMPROPERTY
  1
5.50
  9
$CUSTOMPROPERTYTAG
  1
C
  9
$CUSTOMPROPERTY
  1
2.00
  9
$CUSTOMPROPERTYTAG
  1
D
  9
$CUSTOMPROPERTY
  1
4.00
  9
$CUSTOMPROPERTYTAG
  1
J
  9
$CUSTOMPROPERTY
  1
4.63
  9
$CUSTOMPROPERTYTAG
  1
L
  9
$CUSTOMPROPERTY
  1
2.71
  9
$CUSTOMPROPERTYTAG
  1
M
  9
$CUSTOMPROPERTY
  1
2.25
  9
$CUSTOMPROPERTYTAG
  1
N
  9
$CUSTOMPROPERTY
  1
0.88
  9
$CUSTOMPROPERTYTAG
  1
R
  9
$CUSTOMPROPERTY
  1
5/8-11
  9
$CUSTOMPROPERTYTAG
  1
S
  9
$CUSTOMPROPERTY
  1
1.35
  9
$CUSTOMPROPERTYTAG
  1
COMPANY
  9
$CUSTOMPROPERTY
  1
baldor
  9
$INSBASE
 10
0.0
 20
0.0
 30
0.0
  9
$EXTMIN
 10
1.000000000000000E+20
 20
1.000000000000000E+20
 30
1.000000000000000E+20
  9
$EXTMAX
 10
-1.000000000000000E+20
 20
-1.000000000000000E+20
 30
-1.000000000000000E+20
  9
$LIMMIN
 10
0.0
 20
0.0
  9
$LIMMAX
 10
12.0
 20
9.0
  9
$ORTHOMODE
 70
     0
  9
$REGENMODE
 70
     1
  9
$FILLMODE
 70
     1
  9
$QTEXTMODE
 70
     0
  9
$MIRRTEXT
 70
     1
  9
$LTSCALE
 40
1.0
  9
$ATTMODE
 70
     1
  9
$TEXTSIZE
 40
0.2
  9
$TRACEWID
 40
0.05
  9
$TEXTSTYLE
  7
Standard
  9
$CLAYER
  8
0
  9
$CELTYPE
  6
ByLayer
  9
$CECOLOR
 62
   256
  9
$CELTSCALE
 40
1.0
  9
$DISPSILH
 70
     0
  9
$DIMSCALE
 40
1.0
  9
$DIMASZ
 40
0.18
  9
$DIMEXO
 40
0.0625
  9
$DIMDLI
 40
0.38
  9
$DIMRND
 40
0.0
  9
$DIMDLE
 40
0.0
  9
$DIMEXE
 40
0.18
  9
$DIMTP
 40
0.0
  9
$DIMTM
 40
0.0
  9
$DIMTXT
 40
0.18
  9
$DIMCEN
 40
0.09
  9
$DIMTSZ
 40
0.0
  9
$DIMTOL
 70
     0
  9
$DIMLIM
 70
     0
  9
$DIMTIH
 70
     1
  9
$DIMTOH
 70
     1
  9
$DIMSE1
 70
     0
  9
$DIMSE2
 70
     0
  9
$DIMTAD
 70
     0
  9
$DIMZIN
 70
     0
  9
$DIMBLK
  1

  9
$DIMASO
 70
     1
  9
$DIMSHO
 70
     1
  9
$DIMPOST
  1

  9
$DIMAPOST
  1

  9
$DIMALT
 70
     0
  9
$DIMALTD
 70
     2
  9
$DIMALTF
 40
25.4
  9
$DIMLFAC
 40
1.0
  9
$DIMTOFL
 70
     0
  9
$DIMTVP
 40
0.0
  9
$DIMTIX
 70
     0
  9
$DIMSOXD
 70
     0
  9
$DIMSAH
 70
     0
  9
$DIMBLK1
  1

  9
$DIMBLK2
  1

  9
$DIMSTYLE
  2
Standard
  9
$DIMCLRD
 70
     0
  9
$DIMCLRE
 70
     0
  9
$DIMCLRT
 70
     0
  9
$DIMTFAC
 40
1.0
  9
$DIMGAP
 40
0.09
  9
$DIMJUST
 70
     0
  9
$DIMSD1
 70
     0
  9
$DIMSD2
 70
     0
  9
$DIMTOLJ
 70
     1
  9
$DIMTZIN
 70
     0
  9
$DIMALTZ
 70
     0
  9
$DIMALTTZ
 70
     0
  9
$DIMUPT
 70
     0
  9
$DIMDEC
 70
     4
  9
$DIMTDEC
 70
     4
  9
$DIMALTU
 70
     2
  9
$DIMALTTD
 70
     2
  9
$DIMTXSTY
  7
Standard
  9
$DIMAUNIT
 70
     0
  9
$DIMADEC
 70
     0
  9
$DIMALTRND
 40
0.0
  9
$DIMAZIN
 70
     0
  9
$DIMDSEP
 70
    46
  9
$DIMATFIT
 70
     3
  9
$DIMFRAC
 70
     0
  9
$DIMLDRBLK
  1

  9
$DIMLUNIT
 70
     2
  9
$DIMLWD
 70
    -2
  9
$DIMLWE
 70
    -2
  9
$DIMTMOVE
 70
     0
  9
$DIMFXL
 40
1.0
  9
$DIMFXLON
 70
     0
  9
$DIMJOGANG
 40
0.7853981633974483
  9
$DIMTFILL
 70
     0
  9
$DIMTFILLCLR
 70
     0
  9
$DIMARCSYM
 70
     0
  9
$DIMLTYPE
  6

  9
$DIMLTEX1
  6

  9
$DIMLTEX2
  6

  9
$DIMTXTDIRECTION
 70
     0
  9
$LUNITS
 70
     2
  9
$LUPREC
 70
     4
  9
$SKETCHINC
 40
0.1
  9
$FILLETRAD
 40
0.5
  9
$AUNITS
 70
     0
  9
$AUPREC
 70
     0
  9
$MENU
  1
.
  9
$ELEVATION
 40
0.0
  9
$PELEVATION
 40
0.0
  9
$THICKNESS
 40
0.0
  9
$LIMCHECK
 70
     0
  9
$CHAMFERA
 40
0.0
  9
$CHAMFERB
 40
0.0
  9
$CHAMFERC
 40
0.0
  9
$CHAMFERD
 40
0.0
  9
$SKPOLY
 70
     0
  9
$TDCREATE
 40
2458169.004132859
  9
$TDUCREATE
 40
2458168.962466192
  9
$TDUPDATE
 40
2458169.004132859
  9
$TDUUPDATE
 40
2458168.962466192
  9
$TDINDWG
 40
0.0000000116
  9
$TDUSRTIMER
 40
0.0000000116
  9
$USRTIMER
 70
     1
  9
$ANGBASE
 50
0.0
  9
$ANGDIR
 70
     0
  9
$PDMODE
 70
     0
  9
$PDSIZE
 40
0.0
  9
$PLINEWID
 40
0.0
  9
$SPLFRAME
 70
     0
  9
$SPLINETYPE
 70
     6
  9
$SPLINESEGS
 70
     8
  9
$HANDSEED
  5
170
  9
$SURFTAB1
 70
     6
  9
$SURFTAB2
 70
     6
  9
$SURFTYPE
 70
     6
  9
$SURFU
 70
     6
  9
$SURFV
 70
     6
  9
$UCSBASE
  2

  9
$UCSNAME
  2

  9
$UCSORG
 10
0.0
 20
0.0
 30
0.0
  9
$UCSXDIR
 10
1.0
 20
0.0
 30
0.0
  9
$UCSYDIR
 10
0.0
 20
1.0
 30
0.0
  9
$UCSORTHOREF
  2

  9
$UCSORTHOVIEW
 70
     0
  9
$UCSORGTOP
 10
0.0
 20
0.0
 30
0.0
  9
$UCSORGBOTTOM
 10
0.0
 20
0.0
 30
0.0
  9
$UCSORGLEFT
 10
0.0
 20
0.0
 30
0.0
  9
$UCSORGRIGHT
 10
0.0
 20
0.0
 30
0.0
  9
$UCSORGFRONT
 10
0.0
 20
0.0
 30
0.0
  9
$UCSORGBACK
 10
0.0
 20
0.0
 30
0.0
  9
$PUCSBASE
  2

  9
$PUCSNAME
  2

  9
$PUCSORG
 10
0.0
 20
0.0
 30
0.0
  9
$PUCSXDIR
 10
1.0
 20
0.0
 30
0.0
  9
$PUCSYDIR
 10
0.0
 20
1.0
 30
0.0
  9
$PUCSORTHOREF
  2

  9
$PUCSORTHOVIEW
 70
     0
  9
$PUCSORGTOP
 10
0.0
 20
0.0
 30
0.0
  9
$PUCSORGBOTTOM
 10
0.0
 20
0.0
 30
0.0
  9
$PUCSORGLEFT
 10
0.0
 20
0.0
 30
0.0
  9
$PUCSORGRIGHT
 10
0.0
 20
0.0
 30
0.0
  9
$PUCSORGFRONT
 10
0.0
 20
0.0
 30
0.0
  9
$PUCSORGBACK
 10
0.0
 20
0.0
 30
0.0
  9
$USERI1
 70
     0
  9
$USERI2
 70
     0
  9
$USERI3
 70
     0
  9
$USERI4
 70
     0
  9
$USERI5
 70
     0
  9
$USERR1
 40
0.0
  9
$USERR2
 40
0.0
  9
$USERR3
 40
0.0
  9
$USERR4
 40
0.0
  9
$USERR5
 40
0.0
  9
$WORLDVIEW
 70
     1
  9
$SHADEDGE
 70
     3
  9
$SHADEDIF
 70
    70
  9
$TILEMODE
 70
     1
  9
$MAXACTVP
 70
    64
  9
$PINSBASE
 10
0.0
 20
0.0
 30
0.0
  9
$PLIMCHECK
 70
     0
  9
$PEXTMIN
 10
1.000000000000000E+20
 20
1.000000000000000E+20
 30
1.000000000000000E+20
  9
$PEXTMAX
 10
-1.000000000000000E+20
 20
-1.000000000000000E+20
 30
-1.000000000000000E+20
  9
$PLIMMIN
 10
0.0
 20
0.0
  9
$PLIMMAX
 10
12.0
 20
9.0
  9
$UNITMODE
 70
     0
  9
$VISRETAIN
 70
     1
  9
$PLINEGEN
 70
     0
  9
$PSLTSCALE
 70
     1
  9
$TREEDEPTH
 70
  3020
  9
$CMLSTYLE
  2
Standard
  9
$CMLJUST
 70
     0
  9
$CMLSCALE
 40
1.0
  9
$PROXYGRAPHICS
 70
     1
  9
$MEASUREMENT
 70
     0
  9
$CELWEIGHT
370
    -1
  9
$ENDCAPS
280
     0
  9
$JOINSTYLE
280
     0
  9
$LWDISPLAY
290
     0
  9
$INSUNITS
 70
     1
  9
$HYPERLINKBASE
  1

  9
$STYLESHEET
  1

  9
$XEDIT
290
     1
  9
$CEPSNTYPE
380
     0
  9
$PSTYLEMODE
290
     1
  9
$FINGERPRINTGUID
  2
{80C14BD0-345E-4AB1-A616-B3CA96DEA978}
  9
$VERSIONGUID
  2
{FAEB1C32-E019-11D5-929B-00C0DF256EC4}
  9
$EXTNAMES
290
     1
  9
$PSVPSCALE
 40
0.0
  9
$OLESTARTUP
290
     0
  9
$SORTENTS
280
   127
  9
$INDEXCTL
280
     0
  9
$HIDETEXT
280
     1
  9
$XCLIPFRAME
280
     2
  9
$HALOGAP
280
     0
  9
$OBSCOLOR
 70
   257
  9
$OBSLTYPE
280
     0
  9
$INTERSECTIONDISPLAY
280
     0
  9
$INTERSECTIONCOLOR
 70
   257
  9
$DIMASSOC
280
     2
  9
$PROJECTNAME
  1

  9
$CAMERADISPLAY
290
     0
  9
$LENSLENGTH
 40
50.0
  9
$CAMERAHEIGHT
 40
0.0
  9
$STEPSPERSEC
 40
2.0
  9
$STEPSIZE
 40
6.0
  9
$3DDWFPREC
 40
2.0
  9
$PSOLWIDTH
 40
0.25
  9
$PSOLHEIGHT
 40
4.0
  9
$LOFTANG1
 40
1.570796326794897
  9
$LOFTANG2
 40
1.570796326794897
  9
$LOFTMAG1
 40
0.0
  9
$LOFTMAG2
 40
0.0
  9
$LOFTPARAM
 70
     7
  9
$LOFTNORMALS
280
     1
  9
$LATITUDE
 40
37.795
  9
$LONGITUDE
 40
-122.394
  9
$NORTHDIRECTION
 40
0.0
  9
$TIMEZONE
 70
 -8000
  9
$LIGHTGLYPHDISPLAY
280
     1
  9
$TILEMODELIGHTSYNCH
280
     1
  9
$CMATERIAL
347
44
  9
$SOLIDHIST
280
     0
  9
$SHOWHIST
280
     1
  9
$DWFFRAME
280
     2
  9
$DGNFRAME
280
     2
  9
$REALWORLDSCALE
290
     1
  9
$INTERFERECOLOR
 62
   256
  9
$CSHADOW
280
     0
  9
$SHADOWPLANELOCATION
 40
0.0
  0
ENDSEC
  0
SECTION
  2
CLASSES
  0
CLASS
  1
ACDBDICTIONARYWDFLT
  2
AcDbDictionaryWithDefault
  3
ObjectDBX Classes
 90
        0
 91
        4
280
     0
281
     0
  0
CLASS
  1
VISUALSTYLE
  2
AcDbVisualStyle
  3
ObjectDBX Classes
 90
     4095
 91
        4
280
     0
281
     0
  0
CLASS
  1
MATERIAL
  2
AcDbMaterial
  3
ObjectDBX Classes
 90
     1153
 91
        4
280
     0
281
     0
  0
CLASS
  1
SCALE
  2
AcDbScale
  3
ObjectDBX Classes
 90
     1153
 91
        4
280
     0
281
     0
  0
CLASS
  1
TABLESTYLE
  2
AcDbTableStyle
  3
ObjectDBX Classes
 90
     4095
 91
        4
280
     0
281
     0
  0
CLASS
  1
MLEADERSTYLE
  2
AcDbMLeaderStyle
  3
ACDB_MLEADERSTYLE_CLASS
 90
     4095
 91
        4
280
     0
281
     0
  0
CLASS
  1
SUN
  2
AcDbSun
  3
SCENEOE
 90
     1153
 91
        4
280
     0
281
     0
  0
CLASS
  1
DICTIONARYVAR
  2
AcDbDictionaryVar
  3
ObjectDBX Classes
 90
        0
 91
        4
280
     0
281
     0
  0
CLASS
  1
CELLSTYLEMAP
  2
AcDbCellStyleMap
  3
ObjectDBX Classes
 90
     1152
 91
        4
280
     0
281
     0
  0
ENDSEC
  0
SECTION
  2
TABLES
  0
TABLE
  2
VPORT
  5
8
330
0
100
AcDbSymbolTable
 70
     1
  0
VPORT
  5
29
330
8
100
AcDbSymbolTableRecord
100
AcDbViewportTableRecord
  2
*Active
 70
     0
 10
0.0
 20
0.0
 11
1.0
 21
1.0
 12
0.0
 22
0.0322798841414951
 13
0.0
 23
0.0
 14
0.5
 24
0.5
 15
0.5
 25
0.5
 16
0.0
 26
0.0
 36
1.0
 17
0.0
 27
0.0
 37
0.0
 40
4.789349036351348
 41
1.171349166122552
 42
50.0
 43
0.0
 44
0.0
 50
0.0
 51
0.0
 71
     0
 72
   100
 73
     1
 74
     3
 75
     0
 76
     0
 77
     0
 78
     0
281
     0
 65
     1
110
0.0
120
0.0
130
0.0
111
1.0
121
0.0
131
0.0
112
0.0
122
1.0
132
0.0
 79
     0
146
0.0
348
2F
 60
     3
 61
     5
292
     1
282
     1
141
0.0
142
0.0
 63
   250
361
6D
  0
ENDTAB
  0
TABLE
  2
LTYPE
  5
5
330
0
100
AcDbSymbolTable
 70
     3
  0
LTYPE
  5
14
330
5
100
AcDbSymbolTableRecord
100
AcDbLinetypeTableRecord
  2
ByBlock
 70
     0
  3

 72
    65
 73
     0
 40
0.0
  0
LTYPE
  5
15
330
5
100
AcDbSymbolTableRecord
100
AcDbLinetypeTableRecord
  2
ByLayer
 70
     0
  3

 72
    65
 73
     0
 40
0.0
  0
LTYPE
  5
16
330
5
100
AcDbSymbolTableRecord
100
AcDbLinetypeTableRecord
  2
Continuous
 70
     0
  3
Solid line
 72
    65
 73
     0
 40
0.0
  0
LTYPE
  5
94
330
5
100
AcDbSymbolTableRecord
100
AcDbLinetypeTableRecord
  2
Dashed
 70
     0
  3

 72
    65
 73
     2
 40
2.0
 49
1.0
 74
     0
 49
-1.0
 74
     0
  0
LTYPE
  5
A2
330
5
100
AcDbSymbolTableRecord
100
AcDbLinetypeTableRecord
  2
Center
 70
     0
  3

 72
    65
 73
     4
 40
1.5
 49
0.45
 74
     0
 49
-0.5
 74
     0
 49
0.05
 74
     0
 49
-0.5
 74
     0
  0
ENDTAB
  0
TABLE
  2
LAYER
  5
2
330
0
100
AcDbSymbolTable
 70
     7
  0
LAYER
  5
10
330
2
100
AcDbSymbolTableRecord
100
AcDbLayerTableRecord
  2
0
 70
     0
 62
     7
  6
Continuous
370
    -3
390
F
347
46
348
0
  0
LAYER
  5
72
330
2
100
AcDbSymbolTableRecord
100
AcDbLayerTableRecord
  2
AM_6
 70
     0
 62
    -2
  6
Continuous
370
    35
390
F
347
46
348
0
  0
LAYER
  5
95
330
2
100
AcDbSymbolTableRecord
100
AcDbLayerTableRecord
  2
AM_9
 70
     0
 62
     6
  6
Dashed
370
    25
390
F
347
46
348
0
  0
LAYER
  5
9C
330
2
100
AcDbSymbolTableRecord
100
AcDbLayerTableRecord
  2
AM_5
 70
     0
 62
     3
  6
Continuous
370
    25
390
F
347
46
348
0
  0
LAYER
  5
A3
330
2
100
AcDbSymbolTableRecord
100
AcDbLayerTableRecord
  2
AM_7
 70
     0
 62
     7
  6
Center
370
    25
390
F
347
46
348
0
  0
LAYER
  5
A5
330
2
100
AcDbSymbolTableRecord
100
AcDbLayerTableRecord
  2
AM_4
 70
     0
 62
     7
  6
Continuous
370
    50
390
F
347
46
348
0
  0
LAYER
  5
162
330
2
100
AcDbSymbolTableRecord
100
AcDbLayerTableRecord
  2
ConnectionPoints
 70
     0
 62
     7
  6
Continuous
370
    50
390
F
347
46
348
0
  0
ENDTAB
  0
TABLE
  2
STYLE
  5
3
330
0
100
AcDbSymbolTable
 70
     1
  0
STYLE
  5
11
330
3
100
AcDbSymbolTableRecord
100
AcDbTextStyleTableRecord
  2
Standard
 70
     0
 40
0.0
 41
1.0
 50
0.0
 71
     0
 42
0.2
  3
txt
  4

  0
ENDTAB
  0
TABLE
  2
VIEW
  5
6
330
0
100
AcDbSymbolTable
 70
     0
  0
ENDTAB
  0
TABLE
  2
UCS
  5
7
330
0
100
AcDbSymbolTable
 70
     0
  0
ENDTAB
  0
TABLE
  2
APPID
  5
9
330
0
100
AcDbSymbolTable
 70
     1
  0
APPID
  5
12
330
9
100
AcDbSymbolTableRecord
100
AcDbRegAppTableRecord
  2
ACAD
 70
     0
  0
ENDTAB
  0
TABLE
  2
DIMSTYLE
  5
A
330
0
100
AcDbSymbolTable
 70
     1
100
AcDbDimStyleTable
  0
DIMSTYLE
105
27
330
A
100
AcDbSymbolTableRecord
100
AcDbDimStyleTableRecord
  2
Standard
 70
     0
178
     0
340
11
  0
ENDTAB
  0
TABLE
  2
BLOCK_RECORD
  5
1
330
0
100
AcDbSymbolTable
 70
     5
  0
BLOCK_RECORD
  5
1F
330
1
100
AcDbSymbolTableRecord
100
AcDbBlockTableRecord
  2
*Model_Space
340
22
 70
     0
280
     1
281
     0
  0
BLOCK_RECORD
  5
1B
330
1
100
AcDbSymbolTableRecord
100
AcDbBlockTableRecord
  2
*Paper_Space
340
1E
 70
     0
280
     1
281
     0
  0
BLOCK_RECORD
  5
23
330
1
100
AcDbSymbolTableRecord
100
AcDbBlockTableRecord
  2
*Paper_Space0
340
26
 70
     0
280
     1
281
     0
  0
BLOCK_RECORD
  5
6E
330
1
100
AcDbSymbolTableRecord
100
AcDbBlockTableRecord
  2
1_124480_0
340
0
102
{BLKREFS
331
6F
102
}
 70
     0
280
     1
281
     0
  0
BLOCK_RECORD
  5
88
330
1
100
AcDbSymbolTableRecord
100
AcDbBlockTableRecord
  2
2_405015E_Inch_0_in_124480_0
340
0
102
{BLKREFS
331
89
102
}
 70
     0
280
     1
281
     0
  0
BLOCK_RECORD
  5
C8
330
1
100
AcDbSymbolTableRecord
100
AcDbBlockTableRecord
  2
3_123358_0_in_124480_0
340
0
102
{BLKREFS
331
C9
102
}
 70
     0
280
     1
281
     0
  0
BLOCK_RECORD
  5
109
330
1
100
AcDbSymbolTableRecord
100
AcDbBlockTableRecord
  2
4_124480H_0_in_124480_0
340
0
102
{BLKREFS
331
10A
102
}
 70
     0
280
     1
281
     0
  0
ENDTAB
  0
ENDSEC
  0
SECTION
  2
BLOCKS
  0
BLOCK
  5
20
330
1F
100
AcDbEntity
  8
0
100
AcDbBlockBegin
  2
*Model_Space
 70
     0
 10
0.0
 20
0.0
 30
0.0
  3
*Model_Space
  1

  0
ENDBLK
  5
21
330
1F
100
AcDbEntity
  8
0
100
AcDbBlockEnd
  0
BLOCK
  5
1C
330
1B
100
AcDbEntity
 67
     1
  8
0
100
AcDbBlockBegin
  2
*Paper_Space
 70
     0
 10
0.0
 20
0.0
 30
0.0
  3
*Paper_Space
  1

  0
ENDBLK
  5
1D
330
1B
100
AcDbEntity
 67
     1
  8
0
100
AcDbBlockEnd
  0
BLOCK
  5
24
330
23
100
AcDbEntity
  8
0
100
AcDbBlockBegin
  2
*Paper_Space0
 70
     0
 10
0.0
 20
0.0
 30
0.0
  3
*Paper_Space0
  1

  0
ENDBLK
  5
25
330
23
100
AcDbEntity
  8
0
100
AcDbBlockEnd
  0
BLOCK
  5
70
330
6E
100
AcDbEntity
  8
0
100
AcDbBlockBegin
  2
1_124480_0
 70
     2
 10
0.0
 20
0.0
 30
0.0
  3
1_124480_0
  1

  0
ATTDEF
  5
73
330
6E
100
AcDbEntity
  8
AM_6
100
AcDbText
 10
7.75
 20
2.38
 30
0.0
 40
0.5
  1
Set Screw Tapped Base Inch Bore
100
AcDbAttributeDefinition
  3

  2
NN
 70
     8
280
     0
  0
ATTDEF
  5
74
330
6E
100
AcDbEntity
  8
AM_6
100
AcDbText
 10
7.75
 20
1.88
 30
0.0
 40
0.5
  1
SC Pillow Block Bearings -(Normal Duty) -Tapped Base Housing
100
AcDbAttributeDefinition
  3

  2
NT
 70
     8
280
     0
  0
ATTDEF
  5
75
330
6E
100
AcDbEntity
  8
AM_6
100
AcDbText
 10
7.75
 20
1.38
 30
0.0
 40
0.5
  1
124480
100
AcDbAttributeDefinition
  3

  2
NB
 70
     8
280
     0
  0
ATTDEF
  5
76
330
6E
100
AcDbEntity
  8
AM_6
100
AcDbText
 10
7.75
 20
0.8799999999999999
 30
0.0
 40
0.5
  1
$PN.
100
AcDbAttributeDefinition
  3

  2
NBSYN
 70
     8
280
     0
  0
ATTDEF
  5
77
330
6E
100
AcDbEntity
  8
AM_6
100
AcDbText
 10
7.75
 20
0.3799999999999999
 30
0.0
 40
0.5
  1
124480
100
AcDbAttributeDefinition
  3

  2
LINA
 70
     8
280
     0
  0
ATTDEF
  5
78
330
6E
100
AcDbEntity
  8
AM_6
100
AcDbText
 10
7.75
 20
-0.1200000000000001
 30
0.0
 40
0.5
  1
211
100
AcDbAttributeDefinition
  3

  2
SERIES
 70
     8
280
     0
  0
ATTDEF
  5
79
330
6E
100
AcDbEntity
  8
AM_6
100
AcDbText
 10
7.75
 20
-0.6200000000000001
 30
0.0
 40
0.5
  1
2
100
AcDbAttributeDefinition
  3

  2
SS
 70
     8
280
     0
  0
ATTDEF
  5
7A
330
6E
100
AcDbEntity
  8
AM_6
100
AcDbText
 10
7.75
 20
-1.12
 30
0.0
 40
0.5
  1
124480
100
AcDbAttributeDefinition
  3

  2
PN
 70
     8
280
     0
  0
ATTDEF
  5
7B
330
6E
100
AcDbEntity
  8
AM_6
100
AcDbText
 10
7.75
 20
-1.62
 30
0.0
 40
0.5
  1
TB-SC-200L
100
AcDbAttributeDefinition
  3

  2
DESCRIPTION
 70
     8
280
     0
  0
ATTDEF
  5
7C
330
6E
100
AcDbEntity
  8
AM_6
100
AcDbText
 10
7.75
 20
-2.12
 30
0.0
 40
0.5
  1
6.70
100
AcDbAttributeDefinition
  3

  2
WEIGHT
 70
     8
280
     0
  0
ATTDEF
  5
7D
330
6E
100
AcDbEntity
  8
AM_6
100
AcDbText
 10
7.75
 20
-2.62
 30
0.0
 40
0.5
  1
2.22
100
AcDbAttributeDefinition
  3

  2
A
 70
     8
280
     0
  0
ATTDEF
  5
7E
330
6E
100
AcDbEntity
  8
AM_6
100
AcDbText
 10
7.75
 20
-3.12
 30
0.0
 40
0.5
  1
5.50
100
AcDbAttributeDefinition
  3

  2
B
 70
     8
280
     0
  0
ATTDEF
  5
7F
330
6E
100
AcDbEntity
  8
AM_6
100
AcDbText
 10
7.75
 20
-3.62
 30
0.0
 40
0.5
  1
2.00
100
AcDbAttributeDefinition
  3

  2
C
 70
     8
280
     0
  0
ATTDEF
  5
80
330
6E
100
AcDbEntity
  8
AM_6
100
AcDbText
 10
7.75
 20
-4.12
 30
0.0
 40
0.5
  1
4.00
100
AcDbAttributeDefinition
  3

  2
D
 70
     8
280
     0
  0
ATTDEF
  5
81
330
6E
100
AcDbEntity
  8
AM_6
100
AcDbText
 10
7.75
 20
-4.62
 30
0.0
 40
0.5
  1
4.63
100
AcDbAttributeDefinition
  3

  2
J
 70
     8
280
     0
  0
ATTDEF
  5
82
330
6E
100
AcDbEntity
  8
AM_6
100
AcDbText
 10
7.75
 20
-5.12
 30
0.0
 40
0.5
  1
2.71
100
AcDbAttributeDefinition
  3

  2
L
 70
     8
280
     0
  0
ATTDEF
  5
83
330
6E
100
AcDbEntity
  8
AM_6
100
AcDbText
 10
7.75
 20
-5.62
 30
0.0
 40
0.5
  1
2.25
100
AcDbAttributeDefinition
  3

  2
M
 70
     8
280
     0
  0
ATTDEF
  5
84
330
6E
100
AcDbEntity
  8
AM_6
100
AcDbText
 10
7.75
 20
-6.12
 30
0.0
 40
0.5
  1
0.88
100
AcDbAttributeDefinition
  3

  2
N
 70
     8
280
     0
  0
ATTDEF
  5
85
330
6E
100
AcDbEntity
  8
AM_6
100
AcDbText
 10
7.75
 20
-6.62
 30
0.0
 40
0.5
  1
5/8-11
100
AcDbAttributeDefinition
  3

  2
R
 70
     8
280
     0
  0
ATTDEF
  5
86
330
6E
100
AcDbEntity
  8
AM_6
100
AcDbText
 10
7.75
 20
-7.12
 30
0.0
 40
0.5
  1
1.35
100
AcDbAttributeDefinition
  3

  2
S
 70
     8
280
     0
  0
ATTDEF
  5
87
330
6E
100
AcDbEntity
  8
AM_6
100
AcDbText
 10
7.75
 20
-7.62
 30
0.0
 40
0.5
  1
baldor
100
AcDbAttributeDefinition
  3

  2
COMPANY
 70
     8
280
     0
  0
INSERT
  5
89
330
6E
100
AcDbEntity
  8
0
100
AcDbBlockReference
  2
2_405015E_Inch_0_in_124480_0
 10
0.0
 20
0.0
 30
0.0
  0
INSERT
  5
C9
330
6E
100
AcDbEntity
  8
0
100
AcDbBlockReference
  2
3_123358_0_in_124480_0
 10
0.0
 20
0.0
 30
0.0
  0
INSERT
  5
10A
330
6E
100
AcDbEntity
  8
0
100
AcDbBlockReference
  2
4_124480H_0_in_124480_0
 10
0.0
 20
0.0
 30
0.0
  0
ENDBLK
  5
71
330
6E
100
AcDbEntity
  8
0
100
AcDbBlockEnd
  0
BLOCK
  5
8A
330
88
100
AcDbEntity
  8
0
100
AcDbBlockBegin
  2
2_405015E_Inch_0_in_124480_0
 70
     2
 10
0.0
 20
0.0
 30
0.0
  3
2_405015E_Inch_0_in_124480_0
  1

  0
ATTDEF
  5
8C
330
88
100
AcDbEntity
  8
AM_6
100
AcDbText
 10
7.282312931942926
 20
1.912312931942925
 30
0.0
 40
0.5
  1
405015E -Inch
100
AcDbAttributeDefinition
  3

  2
NN
 70
     8
280
     0
  0
ATTDEF
  5
8D
330
88
100
AcDbEntity
  8
AM_6
100
AcDbText
 10
7.282312931942926
 20
1.412312931942925
 30
0.0
 40
0.5
  1
Grease Fitting
100
AcDbAttributeDefinition
  3

  2
NT
 70
     8
280
     0
  0
ATTDEF
  5
8E
330
88
100
AcDbEntity
  8
AM_6
100
AcDbText
 10
7.282312931942926
 20
0.9123129319429246
 30
0.0
 40
0.5
  1
405015E-Inch
100
AcDbAttributeDefinition
  3

  2
NB
 70
     8
280
     0
  0
ATTDEF
  5
8F
330
88
100
AcDbEntity
  8
AM_6
100
AcDbText
 10
7.282312931942926
 20
0.4123129319429246
 30
0.0
 40
0.5
  1
$MN.-Inch
100
AcDbAttributeDefinition
  3

  2
NBSYN
 70
     8
280
     0
  0
ATTDEF
  5
90
330
88
100
AcDbEntity
  8
AM_6
100
AcDbText
 10
7.282312931942926
 20
-0.0876870680570754
 30
0.0
 40
0.5
  1
405015E
100
AcDbAttributeDefinition
  3

  2
LINA
 70
     8
280
     0
  0
ATTDEF
  5
91
330
88
100
AcDbEntity
  8
AM_6
100
AcDbText
 10
7.282312931942926
 20
-0.5876870680570754
 30
0.0
 40
0.5
  1
405015E
100
AcDbAttributeDefinition
  3

  2
MN
 70
     8
280
     0
  0
ATTDEF
  5
92
330
88
100
AcDbEntity
  8
AM_6
100
AcDbText
 10
7.282312931942926
 20
-1.087687068057075
 30
0.0
 40
0.5
  1
1/8 x 27PTF
100
AcDbAttributeDefinition
  3

  2
T
 70
     8
280
     0
  0
ATTDEF
  5
93
330
88
100
AcDbEntity
  8
AM_6
100
AcDbText
 10
7.282312931942926
 20
-1.587687068057075
 30
0.0
 40
0.5
  1
baldor
100
AcDbAttributeDefinition
  3

  2
COMPANY
 70
     8
280
     0
  0
LINE
  5
96
330
88
100
AcDbEntity
  8
AM_9
100
AcDbLine
 10
1.871642970267293
 20
1.272677732229848
 30
0.0
 11
1.923565473750201
 21
1.272677732229848
 31
0.0
  0
LINE
  5
97
330
88
100
AcDbEntity
  8
AM_9
100
AcDbLine
 10
1.642677732229849
 20
1.5535654737502
 30
0.0
 11
1.642677732229849
 21
1.501642970267292
 31
0.0
  0
LINE
  5
98
330
88
100
AcDbEntity
  8
AM_9
100
AcDbLine
 10
1.642677732229849
 20
1.501642970267292
 30
0.0
 11
1.871642970267293
 21
1.272677732229848
 31
0.0
  0
LINE
  5
99
330
88
100
AcDbEntity
  8
AM_9
100
AcDbLine
 10
1.923565473750201
 20
1.272677732229848
 30
0.0
 11
2.084424737520047
 21
1.423787477271062
 31
0.0
  0
LINE
  5
9A
330
88
100
AcDbEntity
  8
AM_9
100
AcDbLine
 10
1.793787477271063
 20
1.714424737520047
 30
0.0
 11
1.642677732229849
 21
1.5535654737502
 31
0.0
  0
LINE
  5
9B
330
88
100
AcDbEntity
  8
AM_9
100
AcDbLine
 10
1.642677732229849
 20
1.5535654737502
 30
0.0
 11
1.923565473750201
 21
1.272677732229848
 31
0.0
  0
LINE
  5
9D
330
88
100
AcDbEntity
  8
AM_5
100
AcDbLine
 10
2.017389232085538
 20
1.40959045921818
 30
0.0
 11
1.871642970267293
 21
1.272677732229848
 31
0.0
  0
LINE
  5
9E
330
88
100
AcDbEntity
  8
AM_5
100
AcDbLine
 10
2.081788579387511
 20
1.426846212320835
 30
0.0
 11
2.017389232085538
 21
1.40959045921818
 31
0.0
  0
LINE
  5
9F
330
88
100
AcDbEntity
  8
AM_5
100
AcDbLine
 10
1.754440537137441
 20
1.672539154166277
 30
0.0
 11
2.042539154166278
 21
1.38444053713744
 31
0.0
  0
LINE
  5
A0
330
88
100
AcDbEntity
  8
AM_5
100
AcDbLine
 10
1.779590459218181
 20
1.647389232085537
 30
0.0
 11
1.642677732229849
 21
1.501642970267292
 31
0.0
  0
LINE
  5
A1
330
88
100
AcDbEntity
  8
AM_5
100
AcDbLine
 10
1.796846212320836
 20
1.71178857938751
 30
0.0
 11
1.779590459218181
 21
1.647389232085537
 31
0.0
  0
LINE
  5
A4
330
88
100
AcDbEntity
  8
AM_7
100
AcDbLine
 10
2.232336108205931
 20
1.86233610820593
 30
0.0
 11
1.734532934250601
 21
1.364532934250601
 31
0.0
  0
LINE
  5
A6
330
88
100
AcDbEntity
  8
AM_4
100
AcDbLine
 10
2.163746750430836
 20
1.64525432638166
 30
0.0
 11
2.184959953866432
 21
1.666467529817256
 31
0.0
  0
LINE
  5
A7
330
88
100
AcDbEntity
  8
AM_4
100
AcDbLine
 10
2.036467529817257
 20
1.814959953866431
 30
0.0
 11
2.01525432638166
 21
1.793746750430835
 31
0.0
  0
LINE
  5
A8
330
88
100
AcDbEntity
  8
AM_4
100
AcDbLine
 10
2.01525432638166
 20
1.793746750430835
 30
0.0
 11
1.982680060130796
 21
1.780717043930489
 31
0.0
  0
LINE
  5
A9
330
88
100
AcDbEntity
  8
AM_4
100
AcDbLine
 10
2.15071704393049
 20
1.612680060130795
 30
0.0
 11
2.163746750430836
 21
1.64525432638166
 31
0.0
  0
LINE
  5
AA
330
88
100
AcDbEntity
  8
AM_4
100
AcDbLine
 10
2.01525432638166
 20
1.793746750430835
 30
0.0
 11
2.163746750430836
 21
1.64525432638166
 31
0.0
  0
LINE
  5
AB
330
88
100
AcDbEntity
  8
AM_4
100
AcDbLine
 10
2.137104450472997
 20
1.912312931942925
 30
0.0
 11
2.057680733252853
 21
1.878599564173221
 31
0.0
  0
LINE
  5
AC
330
88
100
AcDbEntity
  8
AM_4
100
AcDbLine
 10
2.248599564173221
 20
1.687680733252853
 30
0.0
 11
2.282312931942925
 21
1.767104450472996
 31
0.0
  0
LINE
  5
AD
330
88
100
AcDbEntity
  8
AM_4
100
AcDbLine
 10
2.137104450472997
 20
1.912312931942925
 30
0.0
 11
2.282312931942925
 21
1.767104450472996
 31
0.0
  0
LINE
  5
AE
330
88
100
AcDbEntity
  8
AM_4
100
AcDbLine
 10
2.184959953866432
 20
1.666467529817256
 30
0.0
 11
2.248599564173221
 21
1.687680733252853
 31
0.0
  0
LINE
  5
AF
330
88
100
AcDbEntity
  8
AM_4
100
AcDbLine
 10
2.057680733252853
 20
1.878599564173221
 30
0.0
 11
2.036467529817257
 21
1.814959953866431
 31
0.0
  0
LINE
  5
B0
330
88
100
AcDbEntity
  8
AM_4
100
AcDbLine
 10
2.057680733252853
 20
1.878599564173221
 30
0.0
 11
2.248599564173221
 21
1.687680733252853
 31
0.0
  0
LINE
  5
B1
330
88
100
AcDbEntity
  8
AM_4
100
AcDbLine
 10
2.036467529817257
 20
1.814959953866431
 30
0.0
 11
2.184959953866432
 21
1.666467529817256
 31
0.0
  0
LINE
  5
B2
330
88
100
AcDbEntity
  8
AM_4
100
AcDbLine
 10
1.982680060130796
 20
1.780717043930489
 30
0.0
 11
1.906207249727018
 21
1.78020724785106
 31
0.0
  0
LINE
  5
B3
330
88
100
AcDbEntity
  8
AM_4
100
AcDbLine
 10
2.150207247851061
 20
1.536207249727018
 30
0.0
 11
2.15071704393049
 21
1.612680060130795
 31
0.0
  0
LINE
  5
B4
330
88
100
AcDbEntity
  8
AM_4
100
AcDbLine
 10
1.982680060130796
 20
1.780717043930489
 30
0.0
 11
2.15071704393049
 21
1.612680060130795
 31
0.0
  0
LINE
  5
B5
330
88
100
AcDbEntity
  8
AM_4
100
AcDbLine
 10
1.789864039878449
 20
1.729223256647562
 30
0.0
 11
2.099223256647563
 21
1.419864039878448
 31
0.0
  0
LINE
  5
B6
330
88
100
AcDbEntity
  8
AM_4
100
AcDbLine
 10
1.860574717997103
 20
1.799933934766217
 30
0.0
 11
1.789864039878449
 21
1.729223256647562
 31
0.0
  0
LINE
  5
B7
330
88
100
AcDbEntity
  8
AM_4
100
AcDbLine
 10
1.860574717997103
 20
1.799933934766217
 30
0.0
 11
2.169933934766218
 21
1.490574717997103
 31
0.0
  0
LINE
  5
B8
330
88
100
AcDbEntity
  8
AM_4
100
AcDbLine
 10
2.099223256647563
 20
1.419864039878448
 30
0.0
 11
2.169933934766218
 21
1.490574717997103
 31
0.0
  0
LINE
  5
B9
330
88
100
AcDbEntity
  8
AM_4
100
AcDbLine
 10
2.084424737520047
 20
1.423787477271062
 30
0.0
 11
2.090032210031436
 21
1.429055086494575
 31
0.0
  0
LINE
  5
BA
330
88
100
AcDbEntity
  8
AM_4
100
AcDbLine
 10
1.799055086494576
 20
1.720032210031435
 30
0.0
 11
1.793787477271063
 21
1.714424737520047
 31
0.0
  0
LINE
  5
BB
330
88
100
AcDbEntity
  8
AM_4
100
AcDbLine
 10
1.906207249727018
 20
1.78020724785106
 30
0.0
 11
1.864110251903036
 21
1.796398400860284
 31
0.0
  0
LINE
  5
BC
330
88
100
AcDbEntity
  8
AM_4
100
AcDbLine
 10
2.166398400860285
 20
1.494110251903035
 30
0.0
 11
2.150207247851061
 21
1.536207249727018
 31
0.0
  0
LINE
  5
BD
330
88
100
AcDbEntity
  8
AM_4
100
AcDbLine
 10
1.906207249727018
 20
1.78020724785106
 30
0.0
 11
2.150207247851061
 21
1.536207249727018
 31
0.0
  0
LWPOLYLINE
  5
BE
330
88
100
AcDbEntity
  8
AM_4
100
AcDbPolyline
 90
        4
 70
     0
 43
0.0
 10
1.937914522189382
 20
1.722594130573939
 10
1.956819966676236
 20
1.702829672964653
 10
1.974892048502462
 20
1.68223185269474
 10
2.008842565147099
 20
1.638842565147099
  0
LWPOLYLINE
  5
BF
330
88
100
AcDbEntity
  8
AM_4
100
AcDbPolyline
 90
        4
 70
     0
 43
0.0
 10
1.854162956762542
 20
1.793522173531656
 10
1.897363422835449
 20
1.75973057599743
 10
1.918030990117835
 20
1.741608540992889
 10
1.937914522189382
 20
1.722594130573939
  0
LWPOLYLINE
  5
C0
330
88
100
AcDbEntity
  8
AM_4
100
AcDbPolyline
 90
        4
 70
     0
 43
0.0
 10
1.867203844070727
 20
1.651883452455284
 10
1.848298399583873
 20
1.671647910064569
 10
1.830226317757648
 20
1.692245730334483
 10
1.79627580111301
 20
1.735635017882124
  0
LWPOLYLINE
  5
C1
330
88
100
AcDbEntity
  8
AM_4
100
AcDbPolyline
 90
        3
 70
     0
 43
0.0
 10
1.889600697338852
 20
1.630581986093463
 10
1.887087376142274
 20
1.632869042036334
 10
1.867203844070727
 20
1.651883452455284
  0
LWPOLYLINE
  5
C2
330
88
100
AcDbEntity
  8
AM_4
100
AcDbPolyline
 90
        3
 70
     0
 43
0.0
 10
1.950955409497567
 20
1.580955409497566
 10
1.90775494342466
 20
1.614747007031792
 10
1.889600697338852
 20
1.630581986093463
  0
LWPOLYLINE
  5
C3
330
88
100
AcDbEntity
  8
AM_4
100
AcDbPolyline
 90
        4
 70
     0
 43
0.0
 10
2.092594130573939
 20
1.567914522189381
 10
2.111499575060793
 20
1.548150064580096
 10
2.129571656887019
 20
1.527552244310183
 10
2.163522173531657
 20
1.484162956762541
  0
LWPOLYLINE
  5
C4
330
88
100
AcDbEntity
  8
AM_4
100
AcDbPolyline
 90
        4
 70
     0
 43
0.0
 10
2.008842565147099
 20
1.638842565147099
 10
2.052043031220006
 20
1.605050967612873
 10
2.072710598502392
 20
1.586928932608332
 10
2.092594130573939
 20
1.567914522189381
  0
LINE
  5
C5
330
88
100
AcDbEntity
  8
AM_4
100
AcDbLine
 10
2.008842565147099
 20
1.638842565147099
 30
0.0
 11
1.950955409497567
 21
1.580955409497566
 31
0.0
  0
LWPOLYLINE
  5
C6
330
88
100
AcDbEntity
  8
AM_4
100
AcDbPolyline
 90
        4
 70
     0
 43
0.0
 10
2.021883452455284
 20
1.497203844070726
 10
2.002978007968431
 20
1.516968301680012
 10
1.984905926142205
 20
1.537566121949925
 10
1.950955409497567
 20
1.580955409497566
  0
LWPOLYLINE
  5
C7
330
88
100
AcDbEntity
  8
AM_4
100
AcDbPolyline
 90
        4
 70
     0
 43
0.0
 10
2.105635017882124
 20
1.426275801113009
 10
2.062434551809217
 20
1.460067398647235
 10
2.041766984526832
 20
1.478189433651776
 10
2.021883452455284
 20
1.497203844070726
  0
ENDBLK
  5
8B
330
88
100
AcDbEntity
  8
0
100
AcDbBlockEnd
  0
BLOCK
  5
CA
330
C8
100
AcDbEntity
  8
0
100
AcDbBlockBegin
  2
3_123358_0_in_124480_0
 70
     2
 10
0.0
 20
0.0
 30
0.0
  3
3_123358_0_in_124480_0
  1

  0
ATTDEF
  5
CC
330
C8
100
AcDbEntity
  8
AM_6
100
AcDbText
 10
7.066924999999999
 20
1.958313624014294
 30
0.0
 40
0.5
  1
Set Screw Medium Duty Insert Inch Bore
100
AcDbAttributeDefinition
  3

  2
NN
 70
     8
280
     0
  0
ATTDEF
  5
CD
330
C8
100
AcDbEntity
  8
AM_6
100
AcDbText
 10
7.066924999999999
 20
1.458313624014294
 30
0.0
 40
0.5
  1
SC Medium Duty Bearing Inserts (Standard Insert)
100
AcDbAttributeDefinition
  3

  2
NT
 70
     8
280
     0
  0
ATTDEF
  5
CE
330
C8
100
AcDbEntity
  8
AM_6
100
AcDbText
 10
7.066924999999999
 20
0.9583136240142944
 30
0.0
 40
0.5
  1
123358
100
AcDbAttributeDefinition
  3

  2
NB
 70
     8
280
     0
  0
ATTDEF
  5
CF
330
C8
100
AcDbEntity
  8
AM_6
100
AcDbText
 10
7.066924999999999
 20
0.4583136240142944
 30
0.0
 40
0.5
  1
$PN.
100
AcDbAttributeDefinition
  3

  2
NBSYN
 70
     8
280
     0
  0
ATTDEF
  5
D0
330
C8
100
AcDbEntity
  8
AM_6
100
AcDbText
 10
7.066924999999999
 20
-0.0416863759857056
 30
0.0
 40
0.5
  1
123358
100
AcDbAttributeDefinition
  3

  2
LINA
 70
     8
280
     0
  0
ATTDEF
  5
D1
330
C8
100
AcDbEntity
  8
AM_6
100
AcDbText
 10
7.066924999999999
 20
-0.5416863759857056
 30
0.0
 40
0.5
  1
211
100
AcDbAttributeDefinition
  3

  2
SERIES
 70
     8
280
     0
  0
ATTDEF
  5
D2
330
C8
100
AcDbEntity
  8
AM_6
100
AcDbText
 10
7.066924999999999
 20
-1.041686375985706
 30
0.0
 40
0.5
  1
2
100
AcDbAttributeDefinition
  3

  2
SS
 70
     8
280
     0
  0
ATTDEF
  5
D3
330
C8
100
AcDbEntity
  8
AM_6
100
AcDbText
 10
7.066924999999999
 20
-1.541686375985706
 30
0.0
 40
0.5
  1
123358
100
AcDbAttributeDefinition
  3

  2
PN
 70
     8
280
     0
  0
ATTDEF
  5
D4
330
C8
100
AcDbEntity
  8
AM_6
100
AcDbText
 10
7.066924999999999
 20
-2.041686375985706
 30
0.0
 40
0.5
  1
INS-SCM-200
100
AcDbAttributeDefinition
  3

  2
DESCRIPTION
 70
     8
280
     0
  0
ATTDEF
  5
D5
330
C8
100
AcDbEntity
  8
AM_6
100
AcDbText
 10
7.066924999999999
 20
-2.541686375985706
 30
0.0
 40
0.5
  1
2.26
100
AcDbAttributeDefinition
  3

  2
WEIGHT
 70
     8
280
     0
  0
ATTDEF
  5
D6
330
C8
100
AcDbEntity
  8
AM_6
100
AcDbText
 10
7.066924999999999
 20
-3.041686375985706
 30
0.0
 40
0.5
  1
2.22
100
AcDbAttributeDefinition
  3

  2
A
 70
     8
280
     0
  0
ATTDEF
  5
D7
330
C8
100
AcDbEntity
  8
AM_6
100
AcDbText
 10
7.066924999999999
 20
-3.541686375985706
 30
0.0
 40
0.5
  1
0.94
100
AcDbAttributeDefinition
  3

  2
C
 70
     8
280
     0
  0
ATTDEF
  5
D8
330
C8
100
AcDbEntity
  8
AM_6
100
AcDbText
 10
7.066924999999999
 20
-4.041686375985705
 30
0.0
 40
0.5
  1
3.9370
100
AcDbAttributeDefinition
  3

  2
D
 70
     8
280
     0
  0
ATTDEF
  5
D9
330
C8
100
AcDbEntity
  8
AM_6
100
AcDbText
 10
7.066924999999999
 20
-4.541686375985705
 30
0.0
 40
0.5
  1
0.25
100
AcDbAttributeDefinition
  3

  2
J
 70
     8
280
     0
  0
ATTDEF
  5
DA
330
C8
100
AcDbEntity
  8
AM_6
100
AcDbText
 10
7.066924999999999
 20
-5.041686375985705
 30
0.0
 40
0.5
  1
2.71
100
AcDbAttributeDefinition
  3

  2
L
 70
     8
280
     0
  0
ATTDEF
  5
DB
330
C8
100
AcDbEntity
  8
AM_6
100
AcDbText
 10
7.066924999999999
 20
-5.541686375985705
 30
0.0
 40
0.5
  1
3/8 - 24
100
AcDbAttributeDefinition
  3

  2
N
 70
     8
280
     0
  0
ATTDEF
  5
DC
330
C8
100
AcDbEntity
  8
AM_6
100
AcDbText
 10
7.066924999999999
 20
-6.041686375985705
 30
0.0
 40
0.5
  1
0.87
100
AcDbAttributeDefinition
  3

  2
W
 70
     8
280
     0
  0
ATTDEF
  5
DD
330
C8
100
AcDbEntity
  8
AM_6
100
AcDbText
 10
7.066924999999999
 20
-6.541686375985705
 30
0.0
 40
0.5
  1
1.35
100
AcDbAttributeDefinition
  3

  2
Y
 70
     8
280
     0
  0
ATTDEF
  5
DE
330
C8
100
AcDbEntity
  8
AM_6
100
AcDbText
 10
7.066924999999999
 20
-7.041686375985705
 30
0.0
 40
0.5
  1
baldor
100
AcDbAttributeDefinition
  3

  2
COMPANY
 70
     8
280
     0
  0
LINE
  5
DF
330
C8
100
AcDbEntity
  8
AM_9
100
AcDbLine
 10
-1.983045454545454
 20
-0.1250000000000001
 30
0.0
 11
-1.948542231307908
 21
-0.1250000000000001
 31
0.0
  0
LINE
  5
E0
330
C8
100
AcDbEntity
  8
AM_9
100
AcDbLine
 10
-1.948558777293289
 20
0.1249999999999999
 30
0.0
 11
-1.983045454545454
 21
0.1249999999999999
 31
0.0
  0
LWPOLYLINE
  5
E1
330
C8
100
AcDbEntity
  8
AM_9
100
AcDbPolyline
 90
       14
 70
     0
 43
0.0
 10
-1.948560663087699
 20
0.1249999926673432
 10
-1.950876479513377
 20
0.1236820945526887
 10
-1.953524012433859
 20
0.118819625920388
 10
-1.956027834599283
 20
0.1105425771356185
 10
-1.958309239034934
 20
0.0990602133618657
 10
-1.960311899858452
 20
0.0847193603474149
 10
-1.961963748533537
 20
0.0680017836501964
 10
-1.963235862442033
 20
0.0493273800580038
 10
-1.964489769716748
 20
0.0085738365957013
 10
-1.963965564004178
 20
-0.0329208428990303
 10
-1.961739715974272
 20
-0.0706621316135844
 10
-1.958048540889754
 20
-0.1006144405443492
 10
-1.953272610735865
 20
-0.1194561934060906
 10
-1.948542900855383
 20
-0.1249999634218628
  0
LWPOLYLINE
  5
E2
330
C8
100
AcDbEntity
  8
AM_9
100
AcDbPolyline
 90
        4
 70
     0
 43
0.0
 10
-1.948542900855383
 20
-0.1249999634218628
 10
-1.947922689358315
 20
-0.1249027862702583
 10
-1.942605226534643
 20
-0.1161073018105403
 10
-1.939531267826088
 20
-0.1034455001412128
  0
LINE
  5
E3
330
C8
100
AcDbEntity
  8
AM_9
100
AcDbLine
 10
-2.0685
 20
0.0395454545454535
 30
0.0
 11
-2.0685
 21
0.0
 31
0.0
  0
LINE
  5
E4
330
C8
100
AcDbEntity
  8
AM_9
100
AcDbLine
 10
-1.983045454545454
 20
0.1249999999999999
 30
0.0
 11
-1.983045454545454
 21
-0.1250000000000001
 31
0.0
  0
ARC
  5
E5
330
C8
100
AcDbEntity
  8
AM_9
100
AcDbCircle
 10
-1.983045454545455
 20
-0.0395454545454547
 30
0.0
 40
0.0854545454545452
100
AcDbArc
 50
180.0
 51
270.0
  0
ARC
  5
E6
330
C8
100
AcDbEntity
  8
AM_9
100
AcDbCircle
 10
-1.983045454545455
 20
0.0395454545454546
 30
0.0
 40
0.0854545454545452
100
AcDbArc
 50
90.0
 51
180.0
  0
LWPOLYLINE
  5
E7
330
C8
100
AcDbEntity
  8
AM_9
100
AcDbPolyline
 90
        9
 70
     0
 43
0.0
 10
-1.939531267826088
 20
-0.1034455001412128
 10
-1.935629348018492
 20
-0.074446752536917
 10
-1.933174345829997
 20
-0.0369680222131658
 10
-1.932461644702304
 20
0.0045135881384255
 10
-1.933549722652979
 20
0.045293293511681
 10
-1.936301999629058
 20
0.0810016565602586
 10
-1.940420745604439
 20
0.1078054422831103
 10
-1.945465369077135
 20
0.1226619263955536
 10
-1.948560663087699
 20
0.1249999926673432
  0
CIRCLE
  5
E8
330
C8
100
AcDbEntity
  8
AM_9
100
AcDbCircle
 10
0.0
 20
0.0
 30
0.0
 40
1.885166666666667
  0
LINE
  5
E9
330
C8
100
AcDbEntity
  8
AM_9
100
AcDbLine
 10
0.8355400405649064
 20
0.5591527368591409
 30
0.0
 11
0.8272370201762367
 21
0.5621747891351222
 31
0.0
  0
LINE
  5
EA
330
C8
100
AcDbEntity
  8
AM_9
100
AcDbLine
 10
0.1598248986819757
 20
0.9873897041618822
 30
0.0
 11
0.15365
 21
0.9935646028438578
 31
0.0
  0
LINE
  5
EB
330
C8
100
AcDbEntity
  8
AM_9
100
AcDbLine
 10
-0.15365
 20
0.9935646028438578
 30
0.0
 11
-0.1598248986819757
 21
0.9873897041618822
 31
0.0
  0
LINE
  5
EC
330
C8
100
AcDbEntity
  8
AM_9
100
AcDbLine
 10
0.962423129354223
 20
0.2724362567499345
 30
0.0
 11
0.9654106323978233
 21
0.2806443539027783
 31
0.0
  0
LINE
  5
ED
330
C8
100
AcDbEntity
  8
AM_9
100
AcDbLine
 10
0.1132668529435115
 20
0.9935646028438578
 30
0.0
 11
0.15365
 21
0.9935646028438578
 31
0.0
  0
LINE
  5
EE
330
C8
100
AcDbEntity
  8
AM_9
100
AcDbLine
 10
0.15365
 20
0.9935646028438578
 30
0.0
 11
0.15365
 21
1.330664511453265
 31
0.0
  0
LINE
  5
EF
330
C8
100
AcDbEntity
  8
AM_9
100
AcDbLine
 10
-0.15365
 20
1.330664511453265
 30
0.0
 11
-0.15365
 21
0.9935646028438578
 31
0.0
  0
LINE
  5
F0
330
C8
100
AcDbEntity
  8
AM_9
100
AcDbLine
 10
-0.15365
 20
0.9935646028438578
 30
0.0
 11
-0.1132668529435115
 21
0.9935646028438578
 31
0.0
  0
LINE
  5
F1
330
C8
100
AcDbEntity
  8
AM_9
100
AcDbLine
 10
0.9483439769851911
 20
0.3172439145451201
 30
0.0
 11
0.9654106323978233
 21
0.2806443539027784
 31
0.0
  0
LINE
  5
F2
330
C8
100
AcDbEntity
  8
AM_9
100
AcDbLine
 10
0.9654106323978233
 20
0.2806443539027784
 30
0.0
 11
1.270926904579872
 21
0.4231089313122347
 31
0.0
  0
LINE
  5
F3
330
C8
100
AcDbEntity
  8
AM_9
100
AcDbLine
 10
1.141056312746955
 20
0.7016173142685973
 30
0.0
 11
0.8355400405649064
 21
0.5591527368591409
 31
0.0
  0
LINE
  5
F4
330
C8
100
AcDbEntity
  8
AM_9
100
AcDbLine
 10
0.8355400405649064
 20
0.5591527368591409
 30
0.0
 11
0.8526066959775387
 21
0.5225531762167993
 31
0.0
  0
LINE
  5
F5
330
C8
100
AcDbEntity
  8
AM_9
100
AcDbLine
 10
1.141056312746955
 20
0.7016173142685971
 30
0.0
 11
1.270926904579872
 21
0.4231089313122347
 31
0.0
  0
LINE
  5
F6
330
C8
100
AcDbEntity
  8
AM_9
100
AcDbLine
 10
1.270926904579872
 20
0.4231089313122347
 30
0.0
 11
1.289092180200826
 21
0.4164973116889658
 31
0.0
  0
LINE
  5
F7
330
C8
100
AcDbEntity
  8
AM_9
100
AcDbLine
 10
1.147776907048494
 20
0.7200819953573899
 30
0.0
 11
1.141056312746955
 21
0.7016173142685971
 31
0.0
  0
LINE
  5
F8
330
C8
100
AcDbEntity
  8
AM_9
100
AcDbLine
 10
-0.15365
 20
1.330664511453265
 30
0.0
 11
0.15365
 21
1.330664511453265
 31
0.0
  0
LINE
  5
F9
330
C8
100
AcDbEntity
  8
AM_9
100
AcDbLine
 10
0.15365
 20
1.330664511453265
 30
0.0
 11
0.1673385476553972
 21
1.344353059108662
 31
0.0
  0
LINE
  5
FA
330
C8
100
AcDbEntity
  8
AM_9
100
AcDbLine
 10
-0.1673267259064437
 20
1.344341237359709
 30
0.0
 11
-0.15365
 21
1.330664511453265
 31
0.0
  0
LINE
  5
FB
330
C8
100
AcDbEntity
  8
AM_5
100
AcDbLine
 10
-0.1875
 20
0.9822646028438569
 30
0.0
 11
-0.1875
 21
1.341964511453265
 31
0.0
  0
LINE
  5
FC
330
C8
100
AcDbEntity
  8
AM_5
100
AcDbLine
 10
0.1875
 20
0.9822646028438569
 30
0.0
 11
0.1875
 21
1.341964511453265
 31
0.0
  0
LINE
  5
FD
330
C8
100
AcDbEntity
  8
AM_5
100
AcDbLine
 10
0.8109931344114689
 20
0.5850556690926613
 30
0.0
 11
1.136991962580547
 21
0.7370714192174578
 31
0.0
  0
LINE
  5
FE
330
C8
100
AcDbEntity
  8
AM_5
100
AcDbLine
 10
0.9694749825642311
 20
0.2451902489539176
 30
0.0
 11
1.295473810733309
 21
0.3972059990787141
 31
0.0
  0
LINE
  5
FF
330
C8
100
AcDbEntity
  8
AM_7
100
AcDbLine
 10
-2.104175
 20
-0.0000000000000001
 30
0.0
 11
2.066925
 21
0.0000000000000001
 31
0.0
  0
LINE
  5
100
330
C8
100
AcDbEntity
  8
AM_7
100
AcDbLine
 10
0.7798563478829178
 20
0.3636529872785933
 30
0.0
 11
1.32661059726186
 21
0.6186086808927822
 31
0.0
  0
CIRCLE
  5
101
330
C8
100
AcDbEntity
  8
AM_4
100
AcDbCircle
 10
0.0
 20
0.0
 30
0.0
 40
1.958313624014294
  0
CIRCLE
  5
102
330
C8
100
AcDbEntity
  8
AM_4
100
AcDbCircle
 10
0.0
 20
0.0
 30
0.0
 40
1.945505654065287
  0
CIRCLE
  5
103
330
C8
100
AcDbEntity
  8
AM_4
100
AcDbCircle
 10
0.0
 20
0.0
 30
0.0
 40
1.87196213904021
  0
CIRCLE
  5
104
330
C8
100
AcDbEntity
  8
AM_4
100
AcDbCircle
 10
0.0
 20
0.0
 30
0.0
 40
1.920749268022233
  0
CIRCLE
  5
105
330
C8
100
AcDbEntity
  8
AM_4
100
AcDbCircle
 10
0.0
 20
0.0
 30
0.0
 40
1.0
  0
CIRCLE
  5
106
330
C8
100
AcDbEntity
  8
AM_4
100
AcDbCircle
 10
0.0
 20
0.0
 30
0.0
 40
1.0542
  0
CIRCLE
  5
107
330
C8
100
AcDbEntity
  8
AM_4
100
AcDbCircle
 10
0.0
 20
0.0
 30
0.0
 40
1.3008
  0
CIRCLE
  5
108
330
C8
100
AcDbEntity
  8
AM_4
100
AcDbCircle
 10
0.0
 20
0.0
 30
0.0
 40
1.355
  0
ENDBLK
  5
CB
330
C8
100
AcDbEntity
  8
0
100
AcDbBlockEnd
  0
BLOCK
  5
10B
330
109
100
AcDbEntity
  8
0
100
AcDbBlockBegin
  2
4_124480H_0_in_124480_0
 70
     2
 10
0.0
 20
0.0
 30
0.0
  3
4_124480H_0_in_124480_0
  1

  0
ATTDEF
  5
10D
330
109
100
AcDbEntity
  8
AM_6
100
AcDbText
 10
7.75
 20
2.38
 30
0.0
 40
0.5
  1
TB-SC -I-Housing
100
AcDbAttributeDefinition
  3

  2
NN
 70
     8
280
     0
  0
ATTDEF
  5
10E
330
109
100
AcDbEntity
  8
AM_6
100
AcDbText
 10
7.75
 20
1.88
 30
0.0
 40
0.5
  1
SC Pillow Block Bearings -(Normal Duty) -Tapped Base Housing
100
AcDbAttributeDefinition
  3

  2
NT
 70
     8
280
     0
  0
ATTDEF
  5
10F
330
109
100
AcDbEntity
  8
AM_6
100
AcDbText
 10
7.75
 20
1.38
 30
0.0
 40
0.5
  1
124480H
100
AcDbAttributeDefinition
  3

  2
NB
 70
     8
280
     0
  0
ATTDEF
  5
110
330
109
100
AcDbEntity
  8
AM_6
100
AcDbText
 10
7.75
 20
0.8799999999999999
 30
0.0
 40
0.5
  1
$PN.H
100
AcDbAttributeDefinition
  3

  2
NBSYN
 70
     8
280
     0
  0
ATTDEF
  5
111
330
109
100
AcDbEntity
  8
AM_6
100
AcDbText
 10
7.75
 20
0.3799999999999999
 30
0.0
 40
0.5
  1
124480
100
AcDbAttributeDefinition
  3

  2
LINA
 70
     8
280
     0
  0
ATTDEF
  5
112
330
109
100
AcDbEntity
  8
AM_6
100
AcDbText
 10
7.75
 20
-0.1200000000000001
 30
0.0
 40
0.5
  1
211
100
AcDbAttributeDefinition
  3

  2
SERIES
 70
     8
280
     0
  0
ATTDEF
  5
113
330
109
100
AcDbEntity
  8
AM_6
100
AcDbText
 10
7.75
 20
-0.6200000000000001
 30
0.0
 40
0.5
  1
2
100
AcDbAttributeDefinition
  3

  2
SS
 70
     8
280
     0
  0
ATTDEF
  5
114
330
109
100
AcDbEntity
  8
AM_6
100
AcDbText
 10
7.75
 20
-1.12
 30
0.0
 40
0.5
  1
124480
100
AcDbAttributeDefinition
  3

  2
PN
 70
     8
280
     0
  0
ATTDEF
  5
115
330
109
100
AcDbEntity
  8
AM_6
100
AcDbText
 10
7.75
 20
-1.62
 30
0.0
 40
0.5
  1
TB-SC-200L
100
AcDbAttributeDefinition
  3

  2
DESCRIPTION
 70
     8
280
     0
  0
ATTDEF
  5
116
330
109
100
AcDbEntity
  8
AM_6
100
AcDbText
 10
7.75
 20
-2.12
 30
0.0
 40
0.5
  1
2.22
100
AcDbAttributeDefinition
  3

  2
A
 70
     8
280
     0
  0
ATTDEF
  5
117
330
109
100
AcDbEntity
  8
AM_6
100
AcDbText
 10
7.75
 20
-2.62
 30
0.0
 40
0.5
  1
5.50
100
AcDbAttributeDefinition
  3

  2
B
 70
     8
280
     0
  0
ATTDEF
  5
118
330
109
100
AcDbEntity
  8
AM_6
100
AcDbText
 10
7.75
 20
-3.12
 30
0.0
 40
0.5
  1
2.00
100
AcDbAttributeDefinition
  3

  2
C
 70
     8
280
     0
  0
ATTDEF
  5
119
330
109
100
AcDbEntity
  8
AM_6
100
AcDbText
 10
7.75
 20
-3.62
 30
0.0
 40
0.5
  1
4.00
100
AcDbAttributeDefinition
  3

  2
D
 70
     8
280
     0
  0
ATTDEF
  5
11A
330
109
100
AcDbEntity
  8
AM_6
100
AcDbText
 10
7.75
 20
-4.12
 30
0.0
 40
0.5
  1
4.63
100
AcDbAttributeDefinition
  3

  2
J
 70
     8
280
     0
  0
ATTDEF
  5
11B
330
109
100
AcDbEntity
  8
AM_6
100
AcDbText
 10
7.75
 20
-4.62
 30
0.0
 40
0.5
  1
2.71
100
AcDbAttributeDefinition
  3

  2
L
 70
     8
280
     0
  0
ATTDEF
  5
11C
330
109
100
AcDbEntity
  8
AM_6
100
AcDbText
 10
7.75
 20
-5.12
 30
0.0
 40
0.5
  1
2.25
100
AcDbAttributeDefinition
  3

  2
M
 70
     8
280
     0
  0
ATTDEF
  5
11D
330
109
100
AcDbEntity
  8
AM_6
100
AcDbText
 10
7.75
 20
-5.62
 30
0.0
 40
0.5
  1
0.88
100
AcDbAttributeDefinition
  3

  2
N
 70
     8
280
     0
  0
ATTDEF
  5
11E
330
109
100
AcDbEntity
  8
AM_6
100
AcDbText
 10
7.75
 20
-6.12
 30
0.0
 40
0.5
  1
5/8-11
100
AcDbAttributeDefinition
  3

  2
R
 70
     8
280
     0
  0
ATTDEF
  5
11F
330
109
100
AcDbEntity
  8
AM_6
100
AcDbText
 10
7.75
 20
-6.62
 30
0.0
 40
0.5
  1
1.35
100
AcDbAttributeDefinition
  3

  2
S
 70
     8
280
     0
  0
ATTDEF
  5
120
330
109
100
AcDbEntity
  8
AM_6
100
AcDbText
 10
7.75
 20
-7.12
 30
0.0
 40
0.5
  1
baldor
100
AcDbAttributeDefinition
  3

  2
COMPANY
 70
     8
280
     0
  0
ARC
  5
121
330
109
100
AcDbEntity
  8
AM_9
100
AcDbCircle
 10
-1.602000000000007
 20
-1.458000000000022
 30
0.0
 40
0.1760000000000226
100
AcDbArc
 50
66.79221189444705
 51
73.15564997244556
  0
ARC
  5
122
330
109
100
AcDbEntity
  8
AM_9
100
AcDbCircle
 10
1.601999999999993
 20
-1.457999999999983
 30
0.0
 40
0.1759999999999815
100
AcDbArc
 50
106.8443500275537
 51
122.1077884947651
  0
ARC
  5
123
330
109
100
AcDbEntity
  8
AM_9
100
AcDbCircle
 10
0.0000000000000038
 20
-0.0000000000000001
 30
0.0
 40
2.068500000000003
100
AcDbArc
 50
151.5867321418205
 51
208.4132678581795
  0
LINE
  5
124
330
109
100
AcDbEntity
  8
AM_9
100
AcDbLine
 10
-1.704771007349667
 20
0.9842499999999998
 30
0.0
 11
-1.819325201139148
 21
0.9842499999999986
 31
0.0
  0
LINE
  5
125
330
109
100
AcDbEntity
  8
AM_9
100
AcDbLine
 10
1.819325201139147
 20
0.9842499999999997
 30
0.0
 11
1.704771007349667
 21
0.9842499999999998
 31
0.0
  0
LINE
  5
126
330
109
100
AcDbEntity
  8
AM_9
100
AcDbLine
 10
-1.819325201139148
 20
-0.9842499999999992
 30
0.0
 11
-1.704771007349667
 21
-0.9842499999999998
 31
0.0
  0
LINE
  5
127
330
109
100
AcDbEntity
  8
AM_9
100
AcDbLine
 10
1.704771007349667
 20
-0.9842499999999998
 30
0.0
 11
1.819325201139147
 21
-0.9842499999999998
 31
0.0
  0
ARC
  5
128
330
109
100
AcDbEntity
  8
AM_9
100
AcDbCircle
 10
0.0000000000000024
 20
-0.0000000000000001
 30
0.0
 40
2.068499999999998
100
AcDbArc
 50
331.5867321418204
 51
28.4132678581796
  0
LINE
  5
129
330
109
100
AcDbEntity
  8
AM_9
100
AcDbLine
 10
2.28545
 20
-2.22295
 30
0.0
 11
2.28545
 21
-1.106
 31
0.0
  0
LINE
  5
12A
330
109
100
AcDbEntity
  8
AM_9
100
AcDbLine
 10
1.71455
 20
-1.106
 30
0.0
 11
1.71455
 21
-2.22295
 31
0.0
  0
LINE
  5
12B
330
109
100
AcDbEntity
  8
AM_9
100
AcDbLine
 10
-2.0
 20
-0.9411953656598245
 30
0.0
 11
-2.28545
 21
-1.106000000000018
 31
0.0
  0
LINE
  5
12C
330
109
100
AcDbEntity
  8
AM_9
100
AcDbLine
 10
-1.71455
 20
-1.106000000000018
 30
0.0
 11
-2.0
 21
-0.9411953656598245
 31
0.0
  0
LINE
  5
12D
330
109
100
AcDbEntity
  8
AM_9
100
AcDbLine
 10
1.71455
 20
-1.106
 30
0.0
 11
2.28545
 21
-1.106
 31
0.0
  0
LINE
  5
12E
330
109
100
AcDbEntity
  8
AM_9
100
AcDbLine
 10
2.0
 20
-0.9411953656598212
 30
0.0
 11
1.71455
 21
-1.106
 31
0.0
  0
LINE
  5
12F
330
109
100
AcDbEntity
  8
AM_9
100
AcDbLine
 10
2.28545
 20
-1.106
 30
0.0
 11
2.0
 21
-0.9411953656598212
 31
0.0
  0
LINE
  5
130
330
109
100
AcDbEntity
  8
AM_9
100
AcDbLine
 10
-2.28545
 20
-1.106000000000018
 30
0.0
 11
-2.28545
 21
-2.222949999999995
 31
0.0
  0
LINE
  5
131
330
109
100
AcDbEntity
  8
AM_9
100
AcDbLine
 10
-1.71455
 20
-2.222949999999995
 30
0.0
 11
-1.71455
 21
-1.106000000000018
 31
0.0
  0
LINE
  5
132
330
109
100
AcDbEntity
  8
AM_9
100
AcDbLine
 10
-1.71455
 20
-1.106000000000018
 30
0.0
 11
-2.28545
 21
-1.106000000000018
 31
0.0
  0
LINE
  5
133
330
109
100
AcDbEntity
  8
AM_9
100
AcDbLine
 10
-2.28545
 20
-2.222949999999995
 30
0.0
 11
-2.3125
 21
-2.25
 31
0.0
  0
LINE
  5
134
330
109
100
AcDbEntity
  8
AM_9
100
AcDbLine
 10
-1.6875
 20
-2.25
 30
0.0
 11
-1.71455
 21
-2.222949999999995
 31
0.0
  0
LINE
  5
135
330
109
100
AcDbEntity
  8
AM_9
100
AcDbLine
 10
-1.71455
 20
-2.222949999999995
 30
0.0
 11
-2.28545
 21
-2.222949999999995
 31
0.0
  0
LINE
  5
136
330
109
100
AcDbEntity
  8
AM_9
100
AcDbLine
 10
1.71455
 20
-2.22295
 30
0.0
 11
2.28545
 21
-2.22295
 31
0.0
  0
LINE
  5
137
330
109
100
AcDbEntity
  8
AM_9
100
AcDbLine
 10
1.71455
 20
-2.22295
 30
0.0
 11
1.6875
 21
-2.25
 31
0.0
  0
LINE
  5
138
330
109
100
AcDbEntity
  8
AM_9
100
AcDbLine
 10
2.3125
 20
-2.25
 30
0.0
 11
2.28545
 21
-2.22295
 31
0.0
  0
LINE
  5
139
330
109
100
AcDbEntity
  8
AM_5
100
AcDbLine
 10
1.6875
 20
-2.25
 30
0.0
 11
1.6875
 21
-1.37
 31
0.0
  0
LINE
  5
13A
330
109
100
AcDbEntity
  8
AM_5
100
AcDbLine
 10
1.6875
 20
-1.37
 30
0.0
 11
2.3125
 21
-1.37
 31
0.0
  0
LINE
  5
13B
330
109
100
AcDbEntity
  8
AM_5
100
AcDbLine
 10
2.3125
 20
-2.25
 30
0.0
 11
2.3125
 21
-1.37
 31
0.0
  0
LINE
  5
13C
330
109
100
AcDbEntity
  8
AM_5
100
AcDbLine
 10
-1.6875
 20
-2.25
 30
0.0
 11
-1.6875
 21
-1.369999999999995
 31
0.0
  0
LINE
  5
13D
330
109
100
AcDbEntity
  8
AM_5
100
AcDbLine
 10
-1.6875
 20
-1.369999999999995
 30
0.0
 11
-2.3125
 21
-1.369999999999995
 31
0.0
  0
LINE
  5
13E
330
109
100
AcDbEntity
  8
AM_5
100
AcDbLine
 10
-2.3125
 20
-2.25
 30
0.0
 11
-2.3125
 21
-1.369999999999995
 31
0.0
  0
LINE
  5
13F
330
109
100
AcDbEntity
  8
AM_7
100
AcDbLine
 10
2.0
 20
-0.8757551339428121
 30
0.0
 11
2.0
 21
-2.315440231717009
 31
0.0
  0
LINE
  5
140
330
109
100
AcDbEntity
  8
AM_7
100
AcDbLine
 10
-2.0
 20
-0.8757551339428158
 30
0.0
 11
-2.0
 21
-2.315440231717009
 31
0.0
  0
LINE
  5
141
330
109
100
AcDbEntity
  8
AM_7
100
AcDbLine
 10
-0.0000000000000001
 20
-2.066925
 30
0.0
 11
-0.0000000000000001
 21
2.066925
 31
0.0
  0
ARC
  5
142
330
109
100
AcDbEntity
  8
AM_4
100
AcDbCircle
 10
1.352666666666668
 20
-2.235333333333332
 30
0.0
 40
0.0733333333333324
100
AcDbArc
 50
0.0000008537736463
 51
90.0
  0
LINE
  5
143
330
109
100
AcDbEntity
  8
AM_4
100
AcDbLine
 10
-1.352666666666666
 20
-2.161999999999999
 30
0.0
 11
1.352666666666667
 21
-2.162
 31
0.0
  0
ARC
  5
144
330
109
100
AcDbEntity
  8
AM_4
100
AcDbCircle
 10
-1.352666666666666
 20
-2.235333333333334
 30
0.0
 40
0.0733333333333341
100
AcDbArc
 50
90.0
 51
180.0
  0
ARC
  5
145
330
109
100
AcDbEntity
  8
AM_4
100
AcDbCircle
 10
0.0000000000000002
 20
0.0000000000000002
 30
0.0
 40
1.9685
100
AcDbArc
 50
180.0
 51
0.0
  0
LINE
  5
146
330
109
100
AcDbEntity
  8
AM_4
100
AcDbLine
 10
2.75
 20
-0.3700000000000003
 30
0.0
 11
2.75
 21
-2.25
 31
0.0
  0
LWPOLYLINE
  5
147
330
109
100
AcDbEntity
  8
AM_4
100
AcDbPolyline
 90
       37
 70
     0
 43
0.0
 10
-2.75
 20
-0.3700000000000028
 10
-2.7395354197523
 20
-0.1303217074439431
 10
-2.708221320783573
 20
0.1075324885840551
 10
-2.656296022294939
 20
0.3417523740319285
 10
-2.584154707161249
 20
0.5705553941455853
 10
-2.492346414350789
 20
0.7922002197869197
 10
-2.381569860407208
 20
1.004999999999996
 10
-2.25266812179473
 20
1.207335199965373
 10
-2.106622218577193
 20
1.39766592663798
 10
-1.94454364826301
 20
1.574543648263002
 10
-1.767665926637987
 20
1.736622218577186
 10
-1.577335199965381
 20
1.882668121794724
 10
-1.375000000000005
 20
2.011569860407203
 10
-1.162200219786929
 20
2.122346414350785
 10
-0.9405553941455956
 20
2.214154707161246
 10
-0.7117523740319391
 20
2.286296022294937
 10
-0.4775324885840659
 20
2.338221320783571
 10
-0.2396782925560678
 20
2.369535419752299
 10
-0.0000000000000081
 20
2.38
 10
0.2396782925560516
 20
2.369535419752301
 10
0.4775324885840498
 20
2.338221320783574
 10
0.7117523740319233
 20
2.28629602229494
 10
0.9405553941455802
 20
2.214154707161252
 10
1.162200219786915
 20
2.122346414350791
 10
1.374999999999991
 20
2.011569860407211
 10
1.577335199965368
 20
1.882668121794733
 10
1.767665926637975
 20
1.736622218577196
 10
1.944543648262998
 20
1.574543648263013
 10
2.106622218577182
 20
1.397665926637992
 10
2.252668121794721
 20
1.207335199965386
 10
2.3815698604072
 20
1.00500000000001
 10
2.492346414350783
 20
0.792200219786934
 10
2.584154707161244
 20
0.5705553941456003
 10
2.656296022294934
 20
0.3417523740319442
 10
2.708221320783569
 20
0.1075324885840709
 10
2.739535419752299
 20
-0.1303217074439272
 10
2.75
 20
-0.3699999999999868
  0
LINE
  5
148
330
109
100
AcDbEntity
  8
AM_4
100
AcDbLine
 10
-2.75
 20
-0.3700000000000012
 30
0.0
 11
-2.75
 21
-2.25
 31
0.0
  0
LINE
  5
149
330
109
100
AcDbEntity
  8
AM_4
100
AcDbLine
 10
-2.0685
 20
0.0
 30
0.0
 11
-2.0685
 21
-1.282
 31
0.0
  0
LINE
  5
14A
330
109
100
AcDbEntity
  8
AM_4
100
AcDbLine
 10
-1.9685
 20
0.0
 30
0.0
 11
-2.0685
 21
0.0
 31
0.0
  0
LWPOLYLINE
  5
14B
330
109
100
AcDbEntity
  8
AM_4
100
AcDbPolyline
 90
       37
 70
     0
 43
0.0
 10
-1.9685
 20
-0.0000000000000004
 10
-1.961009263193601
 20
0.1715660795987645
 10
-1.938594061804531
 20
0.3418264377373517
 10
-1.901424989050031
 20
0.5094852902843111
 10
-1.849784924017061
 20
0.6732666521365777
 10
-1.784066878781646
 20
0.8319240482365656
 10
-1.704771007349668
 20
0.9842499999999985
 10
-1.612500799182881
 20
1.129085214957033
 10
-1.507958486279709
 20
1.265327409667951
 10
-1.39193969876572
 20
1.391939698765717
 10
-1.265327409667954
 20
1.507958486279707
 10
-1.129085214957036
 20
1.612500799182879
 10
-0.9842500000000024
 20
1.704771007349666
 10
-0.8319240482365695
 20
1.784066878781644
 10
-0.6732666521365818
 20
1.849784924017059
 10
-0.5094852902843153
 20
1.90142498905003
 10
-0.3418264377373559
 20
1.938594061804531
 10
-0.1715660795987689
 20
1.9610092631936
 10
-0.000000000000004
 20
1.9685
 10
0.1715660795987609
 20
1.961009263193601
 10
0.341826437737348
 20
1.938594061804532
 10
0.5094852902843077
 20
1.901424989050032
 10
0.6732666521365743
 20
1.849784924017062
 10
0.8319240482365623
 20
1.784066878781648
 10
0.9842499999999954
 20
1.70477100734967
 10
1.12908521495703
 20
1.612500799182883
 10
1.265327409667948
 20
1.507958486279712
 10
1.391939698765714
 20
1.391939698765723
 10
1.507958486279704
 20
1.265327409667957
 10
1.612500799182877
 20
1.129085214957039
 10
1.704771007349664
 20
0.9842500000000054
 10
1.784066878781642
 20
0.8319240482365728
 10
1.849784924017058
 20
0.6732666521365852
 10
1.901424989050029
 20
0.5094852902843188
 10
1.93859406180453
 20
0.3418264377373594
 10
1.9610092631936
 20
0.1715660795987725
 10
1.9685
 20
0.0000000000000076
  0
LINE
  5
14C
330
109
100
AcDbEntity
  8
AM_4
100
AcDbLine
 10
2.0685
 20
0.0
 30
0.0
 11
1.9685
 21
0.0
 31
0.0
  0
LINE
  5
14D
330
109
100
AcDbEntity
  8
AM_4
100
AcDbLine
 10
2.0685
 20
0.0
 30
0.0
 11
2.0685
 21
-1.282
 31
0.0
  0
LWPOLYLINE
  5
14E
330
109
100
AcDbEntity
  8
AM_4
100
AcDbPolyline
 90
       10
 70
     0
 43
0.0
 10
-1.551
 20
-1.28955119472077
 10
-1.531144276019539
 20
-1.296908795693799
 10
-1.512632879931352
 20
-1.306377053680401
 10
-1.481295370598913
 20
-1.329912559393412
 10
-1.461668490800888
 20
-1.351785965330967
 10
-1.446595684630971
 20
-1.375383423184671
 10
-1.432958560185419
 20
-1.409002014839194
 10
-1.426587364538454
 20
-1.443633117232937
 10
-1.42600046040827
 20
-1.457597428889595
 10
-1.426
 20
-1.458
  0
LINE
  5
14F
330
109
100
AcDbEntity
  8
AM_4
100
AcDbLine
 10
-1.426
 20
-1.458
 30
0.0
 11
-1.426
 21
-2.25
 31
0.0
  0
LINE
  5
150
330
109
100
AcDbEntity
  8
AM_4
100
AcDbLine
 10
-1.602
 20
-1.282
 30
0.0
 11
-2.734837945903026
 21
-1.282
 31
0.0
  0
ARC
  5
151
330
109
100
AcDbEntity
  8
AM_4
100
AcDbCircle
 10
-1.601999999999998
 20
-1.457999999999991
 30
0.0
 40
0.1759999999999911
100
AcDbArc
 50
73.15564997244552
 51
90.0
  0
LINE
  5
152
330
109
100
AcDbEntity
  8
AM_4
100
AcDbLine
 10
-1.551
 20
-2.25
 30
0.0
 11
-1.551
 21
-1.28955119472077
 31
0.0
  0
LINE
  5
153
330
109
100
AcDbEntity
  8
AM_4
100
AcDbLine
 10
2.734837945903025
 20
-1.282
 30
0.0
 11
1.602
 21
-1.282
 31
0.0
  0
ARC
  5
154
330
109
100
AcDbEntity
  8
AM_4
100
AcDbCircle
 10
1.601999999999997
 20
-1.457999999999987
 30
0.0
 40
0.1759999999999866
100
AcDbArc
 50
90.0
 51
106.8443500275547
  0
LINE
  5
155
330
109
100
AcDbEntity
  8
AM_4
100
AcDbLine
 10
1.426
 20
-2.25
 30
0.0
 11
2.75
 21
-2.25
 31
0.0
  0
LINE
  5
156
330
109
100
AcDbEntity
  8
AM_4
100
AcDbLine
 10
2.574
 20
-2.25
 30
0.0
 11
2.574
 21
-1.282
 31
0.0
  0
LWPOLYLINE
  5
157
330
109
100
AcDbEntity
  8
AM_4
100
AcDbPolyline
 90
        6
 70
     0
 43
0.0
 10
2.734837945903026
 20
-1.282000000000001
 10
2.740454438584826
 20
-1.149675580508853
 10
2.744804112481057
 20
-1.01332183656809
 10
2.747853863946965
 20
-0.8739765025017406
 10
2.749580482532403
 20
-0.7327000804410643
 10
2.75
 20
-0.6202400000000021
  0
LINE
  5
158
330
109
100
AcDbEntity
  8
AM_4
100
AcDbLine
 10
1.426
 20
-1.458
 30
0.0
 11
1.426
 21
-2.25
 31
0.0
  0
LINE
  5
159
330
109
100
AcDbEntity
  8
AM_4
100
AcDbLine
 10
1.551
 20
-2.25
 30
0.0
 11
1.551
 21
-1.28955119472077
 31
0.0
  0
LWPOLYLINE
  5
15A
330
109
100
AcDbEntity
  8
AM_4
100
AcDbPolyline
 90
       10
 70
     0
 43
0.0
 10
1.426
 20
-1.458
 10
1.42600046040827
 20
-1.45759742888962
 10
1.426587364538454
 20
-1.443633117232938
 10
1.432824162394262
 20
-1.409466135839014
 10
1.446595684630971
 20
-1.37538342318467
 10
1.46143844159491
 20
-1.352082823400864
 10
1.481295370598914
 20
-1.329912559393412
 10
1.512632879931353
 20
-1.306377053680401
 10
1.530823997410006
 20
-1.297034237630143
 10
1.551
 20
-1.28955119472077
  0
LINE
  5
15B
330
109
100
AcDbEntity
  8
AM_4
100
AcDbLine
 10
-2.75
 20
-2.25
 30
0.0
 11
-1.426
 21
-2.25
 31
0.0
  0
LINE
  5
15C
330
109
100
AcDbEntity
  8
AM_4
100
AcDbLine
 10
-2.574
 20
-2.25
 30
0.0
 11
-2.574
 21
-1.282
 31
0.0
  0
LWPOLYLINE
  5
15D
330
109
100
AcDbEntity
  8
AM_4
100
AcDbPolyline
 90
        6
 70
     0
 43
0.0
 10
-2.75
 20
-0.6202400000000026
 10
-2.749330266864147
 20
-0.7622829433004258
 10
-2.747326164530149
 20
-0.9032448540344588
 10
-2.744002945426876
 20
-1.042052926946286
 10
-2.73938590125832
 20
-1.177650748786444
 10
-2.734837945903026
 20
-1.282000000000001
  0
LINE
  5
15E
330
109
100
AcDbEntity
  8
AM_5
100
AcDbLine
 10
1.6875
 20
-1.37
 30
0.0
 11
1.71455
 21
-1.323148025655262
 31
0.0
  0
LINE
  5
15F
330
109
100
AcDbEntity
  8
AM_5
100
AcDbLine
 10
2.3125
 20
-1.37
 30
0.0
 11
2.28545
 21
-1.323148025655262
 31
0.0
  0
LINE
  5
160
330
109
100
AcDbEntity
  8
AM_5
100
AcDbLine
 10
-1.6875
 20
-1.369999999999995
 30
0.0
 11
-1.71455
 21
-1.323148025655267
 31
0.0
  0
LINE
  5
161
330
109
100
AcDbEntity
  8
AM_5
100
AcDbLine
 10
-2.3125
 20
-1.369999999999995
 30
0.0
 11
-2.28545
 21
-1.323148025655267
 31
0.0
  0
ENDBLK
  5
10C
330
109
100
AcDbEntity
  8
0
100
AcDbBlockEnd
  0
ENDSEC
  0
SECTION
  2
ENTITIES
  0
INSERT
  5
6F
330
1F
100
AcDbEntity
  8
0
100
AcDbBlockReference
  2
1_124480_0
 10
0.0
 20
0.0
 30
0.0
  0
POINT
  5
163
330
1F
100
AcDbEntity
  8
ConnectionPoints
100
AcDbPoint
 10
0.0
 20
0.0
 30
-0.87
  0
POINT
  5
164
330
1F
100
AcDbEntity
  8
ConnectionPoints
100
AcDbPoint
 10
0.0
 20
0.0
 30
1.35
  0
POINT
  5
165
330
1F
100
AcDbEntity
  8
ConnectionPoints
100
AcDbPoint
 10
1.944543648263006
 20
1.574543648263005
 30
0.0
  0
POINT
  5
166
330
1F
100
AcDbEntity
  8
ConnectionPoints
100
AcDbPoint
 10
0.0
 20
0.0
 30
1.35
  0
ENDSEC
  0
SECTION
  2
OBJECTS
  0
DICTIONARY
  5
C
330
0
100
AcDbDictionary
281
     1
  3
ACAD_DETAILVIEWSTYLE
350
16E
  3
ACAD_GROUP
350
D
  3
ACAD_LAYOUT
350
1A
  3
ACAD_MATERIAL
350
43
  3
ACAD_MLEADERSTYLE
350
6B
  3
ACAD_MLINESTYLE
350
17
  3
ACAD_PLOTSETTINGS
350
19
  3
ACAD_PLOTSTYLENAME
350
E
  3
ACAD_SCALELIST
350
47
  3
ACAD_SECTIONVIEWSTYLE
350
16F
  3
ACAD_TABLESTYLE
350
69
  3
ACAD_VISUALSTYLE
350
2A
  3
ACDB_RECOMPOSE_DATA
350
16B
  3
AcDbVariableDictionary
350
167
  0
SUN
  5
6D
330
29
100
AcDbSun
 90
        1
290
     0
 63
     7
421
 16777215
 40
1.0
291
     1
 91
  2455826
 92
 54000000
292
     0
 70
     2
 71
   256
280
     1
  0
DICTIONARY
  5
16E
102
{ACAD_REACTORS
330
C
102
}
330
C
100
AcDbDictionary
281
     1
  0
DICTIONARY
  5
D
102
{ACAD_REACTORS
330
C
102
}
330
C
100
AcDbDictionary
281
     1
  0
DICTIONARY
  5
1A
102
{ACAD_REACTORS
330
C
102
}
330
C
100
AcDbDictionary
281
     1
  3
Layout1
350
1E
  3
Layout2
350
26
  3
Model
350
22
  0
DICTIONARY
  5
43
102
{ACAD_REACTORS
330
C
102
}
330
C
100
AcDbDictionary
281
     1
  3
ByBlock
350
45
  3
ByLayer
350
44
  3
Global
350
46
  0
DICTIONARY
  5
6B
102
{ACAD_REACTORS
330
C
102
}
330
C
100
AcDbDictionary
281
     1
  3
Standard
350
6C
  0
DICTIONARY
  5
17
102
{ACAD_REACTORS
330
C
102
}
330
C
100
AcDbDictionary
281
     1
  3
Standard
350
18
  0
DICTIONARY
  5
19
102
{ACAD_REACTORS
330
C
102
}
330
C
100
AcDbDictionary
281
     1
  0
ACDBDICTIONARYWDFLT
  5
E
102
{ACAD_REACTORS
330
C
102
}
330
C
100
AcDbDictionary
281
     1
  3
Normal
350
F
100
AcDbDictionaryWithDefault
340
F
  0
DICTIONARY
  5
47
102
{ACAD_REACTORS
330
C
102
}
330
C
100
AcDbDictionary
281
     1
  3
A0
350
48
  3
A1
350
49
  3
A2
350
4A
  3
A3
350
4B
  3
A4
350
4C
  3
A5
350
4D
  3
A6
350
4E
  3
A7
350
4F
  3
A8
350
50
  3
A9
350
51
  3
B0
350
52
  3
B1
350
53
  3
B2
350
54
  3
B3
350
55
  3
B4
350
56
  3
B5
350
57
  3
B6
350
58
  3
B7
350
59
  3
B8
350
5A
  3
B9
350
5B
  3
C0
350
5C
  3
C1
350
5D
  3
C2
350
5E
  3
C3
350
5F
  3
C4
350
60
  3
C5
350
61
  3
C6
350
62
  3
C7
350
63
  3
C8
350
64
  3
C9
350
65
  3
D0
350
66
  3
D1
350
67
  3
D2
350
68
  0
DICTIONARY
  5
16F
102
{ACAD_REACTORS
330
C
102
}
330
C
100
AcDbDictionary
281
     1
  0
DICTIONARY
  5
69
102
{ACAD_REACTORS
330
C
102
}
330
C
100
AcDbDictionary
281
     1
  3
Standard
350
6A
  0
DICTIONARY
  5
2A
102
{ACAD_REACTORS
330
C
102
}
330
C
100
AcDbDictionary
281
     1
  3
2dWireframe
350
2F
  3
Basic
350
32
  3
Brighten
350
36
  3
ColorChange
350
3A
  3
Conceptual
350
34
  3
Dim
350
35
  3
EdgeColorOff
350
3D
  3
Facepattern
350
39
  3
Flat
350
2B
  3
FlatWithEdges
350
2C
  3
Gouraud
350
2D
  3
GouraudWithEdges
350
2E
  3
Hidden
350
31
  3
JitterOff
350
3B
  3
Linepattern
350
38
  3
OverhangOff
350
3C
  3
Realistic
350
33
  3
Shaded
350
42
  3
Shaded with edges
350
41
  3
Shades of Gray
350
3E
  3
Sketchy
350
3F
  3
Thicken
350
37
  3
Wireframe
350
30
  3
X-Ray
350
40
  0
XRECORD
  5
16B
102
{ACAD_REACTORS
330
C
102
}
330
C
100
AcDbXrecord
280
     1
 90
        1
330
6A
  0
DICTIONARY
  5
167
102
{ACAD_REACTORS
330
C
102
}
330
C
100
AcDbDictionary
281
     1
  3
CANNOSCALE
350
168
  3
CMLEADERSTYLE
350
16D
  3
CTABLESTYLE
350
16C
  0
LAYOUT
  5
1E
102
{ACAD_REACTORS
330
1A
102
}
330
1A
100
AcDbPlotSettings
  1

  2
none_device
  4

  6

 40
0.0
 41
0.0
 42
0.0
 43
0.0
 44
0.0
 45
0.0
 46
0.0
 47
0.0
 48
0.0
 49
0.0
140
0.0
141
0.0
142
1.0
143
1.0
 70
   688
 72
     0
 73
     0
 74
     5
  7

 75
    16
 76
     0
 77
     2
 78
   300
147
1.0
148
0.0
149
0.0
100
AcDbLayout
  1
Layout1
 70
     1
 71
     1
 10
0.0
 20
0.0
 11
12.0
 21
9.0
 12
0.0
 22
0.0
 32
0.0
 14
1.000000000000000E+20
 24
1.000000000000000E+20
 34
1.000000000000000E+20
 15
-1.000000000000000E+20
 25
-1.000000000000000E+20
 35
-1.000000000000000E+20
146
0.0
 13
0.0
 23
0.0
 33
0.0
 16
1.0
 26
0.0
 36
0.0
 17
0.0
 27
1.0
 37
0.0
 76
     0
330
1B
  0
LAYOUT
  5
26
102
{ACAD_REACTORS
330
1A
102
}
330
1A
100
AcDbPlotSettings
  1

  2
none_device
  4

  6

 40
0.0
 41
0.0
 42
0.0
 43
0.0
 44
0.0
 45
0.0
 46
0.0
 47
0.0
 48
0.0
 49
0.0
140
0.0
141
0.0
142
1.0
143
1.0
 70
   688
 72
     0
 73
     0
 74
     5
  7

 75
    16
 76
     0
 77
     2
 78
   300
147
1.0
148
0.0
149
0.0
100
AcDbLayout
  1
Layout2
 70
     1
 71
     2
 10
0.0
 20
0.0
 11
0.0
 21
0.0
 12
0.0
 22
0.0
 32
0.0
 14
0.0
 24
0.0
 34
0.0
 15
0.0
 25
0.0
 35
0.0
146
0.0
 13
0.0
 23
0.0
 33
0.0
 16
1.0
 26
0.0
 36
0.0
 17
0.0
 27
1.0
 37
0.0
 76
     0
330
23
  0
LAYOUT
  5
22
102
{ACAD_REACTORS
330
1A
102
}
330
1A
100
AcDbPlotSettings
  1

  2
none_device
  4
Letter_(8.50_x_11.00_Inches)
  6

 40
6.35
 41
6.35
 42
6.35000508
 43
6.35000508
 44
215.9
 45
279.4
 46
0.0
 47
0.0
 48
0.0
 49
0.0
140
0.0
141
0.0
142
1.0
143
1.0
 70
  1712
 72
     0
 73
     0
 74
     0
  7

 75
     0
 76
     0
 77
     2
 78
   300
147
1.0
148
0.0
149
0.0
100
AcDbLayout
  1
Model
 70
     1
 71
     0
 10
0.0
 20
0.0
 11
12.0
 21
9.0
 12
0.0
 22
0.0
 32
0.0
 14
1.000000000000000E+20
 24
1.000000000000000E+20
 34
1.000000000000000E+20
 15
-1.000000000000000E+20
 25
-1.000000000000000E+20
 35
-1.000000000000000E+20
146
0.0
 13
0.0
 23
0.0
 33
0.0
 16
1.0
 26
0.0
 36
0.0
 17
0.0
 27
1.0
 37
0.0
 76
     0
330
1F
331
29
  0
MATERIAL
  5
45
102
{ACAD_REACTORS
330
43
102
}
330
43
100
AcDbMaterial
  1
ByBlock
 72
     1
 94
      127
  0
MATERIAL
  5
44
102
{ACAD_REACTORS
330
43
102
}
330
43
100
AcDbMaterial
  1
ByLayer
 72
     1
 94
      127
  0
MATERIAL
  5
46
102
{ACAD_REACTORS
330
43
102
}
330
43
100
AcDbMaterial
  1
Global
 72
     1
 94
      127
  0
MLEADERSTYLE
  5
6C
102
{ACAD_REACTORS
330
6B
102
}
330
6B
100
AcDbMLeaderStyle
179
     2
170
     2
171
     1
172
     0
 90
        2
 40
0.0
 41
0.0
173
     1
 91
-1056964608
340
14
 92
       -2
290
     1
 42
0.09
291
     1
 43
0.36
  3
Standard
341
0
 44
0.18
300

342
11
174
     1
178
     6
175
     1
176
     0
 93
-1056964608
 45
0.18
292
     0
297
     0
 46
0.18
343
0
 94
-1056964608
 47
1.0
 49
1.0
140
1.0
293
     1
141
0.0
294
     1
177
     0
142
1.0
295
     0
296
     0
143
0.125
271
     0
272
     9
273
     9
298
     0
  0
MLINESTYLE
  5
18
102
{ACAD_REACTORS
330
17
102
}
330
17
100
AcDbMlineStyle
  2
Standard
 70
     0
  3

 62
   256
 51
90.0
 52
90.0
 71
     2
 49
0.5
 62
   256
  6
BYLAYER
 49
-0.5
 62
   256
  6
BYLAYER
  0
ACDBPLACEHOLDER
  5
F
102
{ACAD_REACTORS
330
E
102
}
330
E
  0
SCALE
  5
48
102
{ACAD_REACTORS
330
47
102
}
330
47
100
AcDbScale
 70
     0
300
1:1
140
1.0
141
1.0
290
     1
  0
SCALE
  5
49
102
{ACAD_REACTORS
330
47
102
}
330
47
100
AcDbScale
 70
     0
300
1:2
140
1.0
141
2.0
290
     0
  0
SCALE
  5
4A
102
{ACAD_REACTORS
330
47
102
}
330
47
100
AcDbScale
 70
     0
300
1:4
140
1.0
141
4.0
290
     0
  0
SCALE
  5
4B
102
{ACAD_REACTORS
330
47
102
}
330
47
100
AcDbScale
 70
     0
300
1:5
140
1.0
141
5.0
290
     0
  0
SCALE
  5
4C
102
{ACAD_REACTORS
330
47
102
}
330
47
100
AcDbScale
 70
     0
300
1:8
140
1.0
141
8.0
290
     0
  0
SCALE
  5
4D
102
{ACAD_REACTORS
330
47
102
}
330
47
100
AcDbScale
 70
     0
300
1:10
140
1.0
141
10.0
290
     0
  0
SCALE
  5
4E
102
{ACAD_REACTORS
330
47
102
}
330
47
100
AcDbScale
 70
     0
300
1:16
140
1.0
141
16.0
290
     0
  0
SCALE
  5
4F
102
{ACAD_REACTORS
330
47
102
}
330
47
100
AcDbScale
 70
     0
300
1:20
140
1.0
141
20.0
290
     0
  0
SCALE
  5
50
102
{ACAD_REACTORS
330
47
102
}
330
47
100
AcDbScale
 70
     0
300
1:30
140
1.0
141
30.0
290
     0
  0
SCALE
  5
51
102
{ACAD_REACTORS
330
47
102
}
330
47
100
AcDbScale
 70
     0
300
1:40
140
1.0
141
40.0
290
     0
  0
SCALE
  5
52
102
{ACAD_REACTORS
330
47
102
}
330
47
100
AcDbScale
 70
     0
300
1:50
140
1.0
141
50.0
290
     0
  0
SCALE
  5
53
102
{ACAD_REACTORS
330
47
102
}
330
47
100
AcDbScale
 70
     0
300
1:100
140
1.0
141
100.0
290
     0
  0
SCALE
  5
54
102
{ACAD_REACTORS
330
47
102
}
330
47
100
AcDbScale
 70
     0
300
2:1
140
2.0
141
1.0
290
     0
  0
SCALE
  5
55
102
{ACAD_REACTORS
330
47
102
}
330
47
100
AcDbScale
 70
     0
300
4:1
140
4.0
141
1.0
290
     0
  0
SCALE
  5
56
102
{ACAD_REACTORS
330
47
102
}
330
47
100
AcDbScale
 70
     0
300
8:1
140
8.0
141
1.0
290
     0
  0
SCALE
  5
57
102
{ACAD_REACTORS
330
47
102
}
330
47
100
AcDbScale
 70
     0
300
10:1
140
10.0
141
1.0
290
     0
  0
SCALE
  5
58
102
{ACAD_REACTORS
330
47
102
}
330
47
100
AcDbScale
 70
     0
300
100:1
140
100.0
141
1.0
290
     0
  0
SCALE
  5
59
102
{ACAD_REACTORS
330
47
102
}
330
47
100
AcDbScale
 70
     0
300
1/128" = 1'-0"
140
0.0078125
141
12.0
290
     0
  0
SCALE
  5
5A
102
{ACAD_REACTORS
330
47
102
}
330
47
100
AcDbScale
 70
     0
300
1/64" = 1'-0"
140
0.015625
141
12.0
290
     0
  0
SCALE
  5
5B
102
{ACAD_REACTORS
330
47
102
}
330
47
100
AcDbScale
 70
     0
300
1/32" = 1'-0"
140
0.03125
141
12.0
290
     0
  0
SCALE
  5
5C
102
{ACAD_REACTORS
330
47
102
}
330
47
100
AcDbScale
 70
     0
300
1/16" = 1'-0"
140
0.0625
141
12.0
290
     0
  0
SCALE
  5
5D
102
{ACAD_REACTORS
330
47
102
}
330
47
100
AcDbScale
 70
     0
300
3/32" = 1'-0"
140
0.09375
141
12.0
290
     0
  0
SCALE
  5
5E
102
{ACAD_REACTORS
330
47
102
}
330
47
100
AcDbScale
 70
     0
300
1/8" = 1'-0"
140
0.125
141
12.0
290
     0
  0
SCALE
  5
5F
102
{ACAD_REACTORS
330
47
102
}
330
47
100
AcDbScale
 70
     0
300
3/16" = 1'-0"
140
0.1875
141
12.0
290
     0
  0
SCALE
  5
60
102
{ACAD_REACTORS
330
47
102
}
330
47
100
AcDbScale
 70
     0
300
1/4" = 1'-0"
140
0.25
141
12.0
290
     0
  0
SCALE
  5
61
102
{ACAD_REACTORS
330
47
102
}
330
47
100
AcDbScale
 70
     0
300
3/8" = 1'-0"
140
0.375
141
12.0
290
     0
  0
SCALE
  5
62
102
{ACAD_REACTORS
330
47
102
}
330
47
100
AcDbScale
 70
     0
300
1/2" = 1'-0"
140
0.5
141
12.0
290
     0
  0
SCALE
  5
63
102
{ACAD_REACTORS
330
47
102
}
330
47
100
AcDbScale
 70
     0
300
3/4" = 1'-0"
140
0.75
141
12.0
290
     0
  0
SCALE
  5
64
102
{ACAD_REACTORS
330
47
102
}
330
47
100
AcDbScale
 70
     0
300
1" = 1'-0"
140
1.0
141
12.0
290
     0
  0
SCALE
  5
65
102
{ACAD_REACTORS
330
47
102
}
330
47
100
AcDbScale
 70
     0
300
1-1/2" = 1'-0"
140
1.5
141
12.0
290
     0
  0
SCALE
  5
66
102
{ACAD_REACTORS
330
47
102
}
330
47
100
AcDbScale
 70
     0
300
3" = 1'-0"
140
3.0
141
12.0
290
     0
  0
SCALE
  5
67
102
{ACAD_REACTORS
330
47
102
}
330
47
100
AcDbScale
 70
     0
300
6" = 1'-0"
140
6.0
141
12.0
290
     0
  0
SCALE
  5
68
102
{ACAD_REACTORS
330
47
102
}
330
47
100
AcDbScale
 70
     0
300
1'-0" = 1'-0"
140
12.0
141
12.0
290
     0
  0
TABLESTYLE
  5
6A
102
{ACAD_REACTORS
330
69
102
}
102
{ACAD_XDICTIONARY
360
169
102
}
330
69
100
AcDbTableStyle
  3
Standard
 70
     0
 71
     0
 40
0.06
 41
0.06
280
     0
281
     0
  7
Standard
140
0.18
170
     2
 62
     0
 63
   257
283
     0
 90
        4
 91
        0
  1

274
    -2
284
     1
 64
     0
275
    -2
285
     1
 65
     0
276
    -2
286
     1
 66
     0
277
    -2
287
     1
 67
     0
278
    -2
288
     1
 68
     0
279
    -2
289
     1
 69
     0
  7
Standard
140
0.25
170
     5
 62
     0
 63
   257
283
     0
 90
        4
 91
        0
  1

274
    -2
284
     1
 64
     0
275
    -2
285
     1
 65
     0
276
    -2
286
     1
 66
     0
277
    -2
287
     1
 67
     0
278
    -2
288
     1
 68
     0
279
    -2
289
     1
 69
     0
  7
Standard
140
0.18
170
     5
 62
     0
 63
   257
283
     0
 90
        4
 91
        0
  1

274
    -2
284
     1
 64
     0
275
    -2
285
     1
 65
     0
276
    -2
286
     1
 66
     0
277
    -2
287
     1
 67
     0
278
    -2
288
     1
 68
     0
279
    -2
289
     1
 69
     0
  0
VISUALSTYLE
  5
2F
102
{ACAD_REACTORS
330
2A
102
}
330
2A
100
AcDbVisualStyle
  2
2dWireframe
 70
     4
177
     3
291
     0
 70
    58
 90
        0
176
     1
 90
        2
176
     1
 90
        0
176
     1
 90
        0
176
     1
 40
0.6
176
     1
 40
30.0
176
     1
 62
     7
420
 16777215
176
     1
 90
        1
176
     1
 90
        4
176
     1
 62
     7
176
     1
 62
   257
176
     1
 90
        1
176
     1
 90
        1
176
     1
 40
1.0
176
     1
 90
        0
176
     1
 62
   257
176
     1
 40
1.0
176
     1
 90
        1
176
     1
 90
        6
176
     1
 90
        2
176
     1
 62
     7
176
     1
 90
        5
176
     1
 90
        0
176
     1
 90
        0
176
     1
290
     0
176
     1
 90
        1
176
     1
 40
0.0
176
     1
 90
        0
176
     1
290
     1
176
     1
290
     1
176
     1
290
     0
176
     1
290
     0
176
     1
290
     0
176
     1
290
     0
176
     1
290
     0
176
     1
290
     0
176
     1
290
     0
176
     1
 90
       50
176
     1
 40
0.0
176
     1
 40
1.0
176
     1
 90
        0
176
     1
 62
    18
420
        0
176
     1
 90
       50
176
     1
 90
        3
176
     1
 62
     5
420
      255
176
     1
290
     0
176
     1
 90
       50
176
     1
 90
       50
176
     1
 90
       50
176
     1
290
     0
176
     1
 90
       50
176
     1
 62
   256
176
     0
 40
1.0
176
     0
 90
        2
176
     1
  1
strokes_ogs.tif
176
     1
290
     0
176
     1
 40
1.0
176
     1
 40
1.0
176
     1
  0
VISUALSTYLE
  5
32
102
{ACAD_REACTORS
330
2A
102
}
330
2A
100
AcDbVisualStyle
  2
Basic
 70
     7
177
     3
291
     1
 70
    58
 90
        1
176
     1
 90
        0
176
     1
 90
        1
176
     1
 90
        0
176
     1
 40
0.6
176
     1
 40
30.0
176
     1
 62
     7
420
 16777215
176
     1
 90
        0
176
     1
 90
        4
176
     1
 62
     7
176
     1
 62
   257
176
     1
 90
        1
176
     1
 90
        1
176
     1
 40
1.0
176
     1
 90
        8
176
     1
 62
     7
176
     1
 40
1.0
176
     1
 90
        1
176
     1
 90
        6
176
     1
 90
        2
176
     1
 62
     7
176
     1
 90
        5
176
     1
 90
        0
176
     1
 90
        0
176
     1
290
     0
176
     1
 90
        1
176
     1
 40
0.0
176
     1
 90
        0
176
     1
290
     0
176
     1
290
     1
176
     1
290
     1
176
     1
290
     0
176
     1
290
     0
176
     1
290
     0
176
     1
290
     0
176
     1
290
     0
176
     1
290
     0
176
     1
 90
       50
176
     1
 40
0.0
176
     1
 40
1.0
176
     1
 90
        0
176
     1
 62
    18
420
        0
176
     1
 90
       50
176
     1
 90
        3
176
     1
 62
     5
420
      255
176
     1
290
     0
176
     1
 90
       50
176
     1
 90
       50
176
     1
 90
       50
176
     1
290
     0
176
     1
 90
       50
176
     1
 62
   256
176
     0
 40
1.0
176
     0
 90
        2
176
     1
  1
strokes_ogs.tif
176
     1
290
     0
176
     1
 40
1.0
176
     1
 40
1.0
176
     1
  0
VISUALSTYLE
  5
36
102
{ACAD_REACTORS
330
2A
102
}
330
2A
100
AcDbVisualStyle
  2
Brighten
 70
    12
177
     3
291
     1
 70
    58
 90
        2
176
     1
 90
        2
176
     1
 90
        0
176
     1
 90
        0
176
     1
 40
0.6
176
     1
 40
30.0
176
     1
 62
     7
420
 16777215
176
     1
 90
        1
176
     1
 90
        4
176
     1
 62
     7
176
     1
 62
   257
176
     1
 90
        1
176
     1
 90
        1
176
     1
 40
1.0
176
     1
 90
        8
176
     1
 62
     7
176
     1
 40
1.0
176
     1
 90
        1
176
     1
 90
        6
176
     1
 90
        2
176
     1
 62
     7
176
     1
 90
        5
176
     1
 90
        0
176
     1
 90
        0
176
     1
290
     0
176
     1
 90
        1
176
     1
 40
50.0
176
     1
 90
        0
176
     1
290
     0
176
     1
290
     1
176
     1
290
     1
176
     1
290
     0
176
     1
290
     0
176
     1
290
     0
176
     1
290
     0
176
     1
290
     0
176
     1
290
     0
176
     1
 90
       50
176
     1
 40
0.0
176
     1
 40
1.0
176
     1
 90
        0
176
     1
 62
    18
420
        0
176
     1
 90
       50
176
     1
 90
        3
176
     1
 62
     5
420
      255
176
     1
290
     0
176
     1
 90
       50
176
     1
 90
       50
176
     1
 90
       50
176
     1
290
     0
176
     1
 90
       50
176
     1
 62
   256
176
     0
 40
1.0
176
     0
 90
        2
176
     1
  1
strokes_ogs.tif
176
     1
290
     0
176
     1
 40
1.0
176
     1
 40
1.0
176
     1
  0
VISUALSTYLE
  5
3A
102
{ACAD_REACTORS
330
2A
102
}
330
2A
100
AcDbVisualStyle
  2
ColorChange
 70
    16
177
     3
291
     1
 70
    58
 90
        2
176
     1
 90
        2
176
     1
 90
        3
176
     1
 90
        0
176
     1
 40
0.6
176
     1
 40
30.0
176
     1
 62
     8
420
  8421504
176
     1
 90
        1
176
     1
 90
        4
176
     1
 62
     7
176
     1
 62
   257
176
     1
 90
        1
176
     1
 90
        1
176
     1
 40
1.0
176
     1
 90
        8
176
     1
 62
     8
420
  8421504
176
     1
 40
1.0
176
     1
 90
        1
176
     1
 90
        6
176
     1
 90
        2
176
     1
 62
     7
176
     1
 90
        5
176
     1
 90
        0
176
     1
 90
        0
176
     1
290
     0
176
     1
 90
        1
176
     1
 40
0.0
176
     1
 90
        0
176
     1
290
     0
176
     1
290
     1
176
     1
290
     1
176
     1
290
     0
176
     1
290
     0
176
     1
290
     0
176
     1
290
     0
176
     1
290
     0
176
     1
290
     0
176
     1
 90
       50
176
     1
 40
0.0
176
     1
 40
1.0
176
     1
 90
        0
176
     1
 62
    18
420
        0
176
     1
 90
       50
176
     1
 90
        3
176
     1
 62
     5
420
      255
176
     1
290
     0
176
     1
 90
       50
176
     1
 90
       50
176
     1
 90
       50
176
     1
290
     0
176
     1
 90
       50
176
     1
 62
   256
176
     0
 40
1.0
176
     0
 90
        2
176
     1
  1
strokes_ogs.tif
176
     1
290
     0
176
     1
 40
1.0
176
     1
 40
1.0
176
     1
  0
VISUALSTYLE
  5
34
102
{ACAD_REACTORS
330
2A
102
}
330
2A
100
AcDbVisualStyle
  2
Conceptual
 70
     9
177
     3
291
     0
 70
    58
 90
        3
176
     1
 90
        2
176
     1
 90
        0
176
     1
 90
        0
176
     1
 40
0.6
176
     1
 40
30.0
176
     1
 62
     7
420
 16777215
176
     1
 90
        2
176
     1
 90
        2
176
     1
 62
     7
176
     1
 62
   257
176
     1
 90
        1
176
     1
 90
        1
176
     1
 40
179.0
176
     1
 90
        8
176
     1
 62
     7
176
     1
 40
1.0
176
     1
 90
        1
176
     1
 90
        6
176
     1
 90
        2
176
     1
 62
     7
176
     1
 90
        3
176
     1
 90
        0
176
     1
 90
        0
176
     1
290
     0
176
     1
 90
        1
176
     1
 40
0.0
176
     1
 90
        0
176
     1
290
     0
176
     1
290
     1
176
     1
290
     1
176
     1
290
     0
176
     1
290
     0
176
     1
290
     0
176
     1
290
     0
176
     1
290
     0
176
     1
290
     0
176
     1
 90
       50
176
     1
 40
0.0
176
     1
 40
1.0
176
     1
 90
        0
176
     1
 62
    18
420
        0
176
     1
 90
       50
176
     1
 90
        3
176
     1
 62
     5
420
      255
176
     1
290
     0
176
     1
 90
       50
176
     1
 90
       50
176
     1
 90
       50
176
     1
290
     0
176
     1
 90
       50
176
     1
 62
   256
176
     0
 40
1.0
176
     0
 90
        2
176
     1
  1
strokes_ogs.tif
176
     1
290
     0
176
     1
 40
1.0
176
     1
 40
1.0
176
     1
  0
VISUALSTYLE
  5
35
102
{ACAD_REACTORS
330
2A
102
}
330
2A
100
AcDbVisualStyle
  2
Dim
 70
    11
177
     3
291
     1
 70
    58
 90
        2
176
     1
 90
        2
176
     1
 90
        0
176
     1
 90
        0
176
     1
 40
0.6
176
     1
 40
30.0
176
     1
 62
     7
420
 16777215
176
     1
 90
        1
176
     1
 90
        4
176
     1
 62
     7
176
     1
 62
   257
176
     1
 90
        1
176
     1
 90
        1
176
     1
 40
1.0
176
     1
 90
        8
176
     1
 62
     7
176
     1
 40
1.0
176
     1
 90
        1
176
     1
 90
        6
176
     1
 90
        2
176
     1
 62
     7
176
     1
 90
        5
176
     1
 90
        0
176
     1
 90
        0
176
     1
290
     0
176
     1
 90
        1
176
     1
 40
-50.0
176
     1
 90
        0
176
     1
290
     0
176
     1
290
     1
176
     1
290
     1
176
     1
290
     0
176
     1
290
     0
176
     1
290
     0
176
     1
290
     0
176
     1
290
     0
176
     1
290
     0
176
     1
 90
       50
176
     1
 40
0.0
176
     1
 40
1.0
176
     1
 90
        0
176
     1
 62
    18
420
        0
176
     1
 90
       50
176
     1
 90
        3
176
     1
 62
     5
420
      255
176
     1
290
     0
176
     1
 90
       50
176
     1
 90
       50
176
     1
 90
       50
176
     1
290
     0
176
     1
 90
       50
176
     1
 62
   256
176
     0
 40
1.0
176
     0
 90
        2
176
     1
  1
strokes_ogs.tif
176
     1
290
     0
176
     1
 40
1.0
176
     1
 40
1.0
176
     1
  0
VISUALSTYLE
  5
3D
102
{ACAD_REACTORS
330
2A
102
}
330
2A
100
AcDbVisualStyle
  2
EdgeColorOff
 70
    22
177
     3
291
     1
 70
    58
 90
        2
176
     0
 90
        2
176
     0
 90
        0
176
     0
 90
        0
176
     0
 40
0.6
176
     0
 40
30.0
176
     0
 62
     7
420
 16777215
176
     0
 90
        1
176
     0
 90
        4
176
     0
 62
     7
176
     0
 62
   257
176
     0
 90
        1
176
     0
 90
        1
176
     0
 40
1.0
176
     0
 90
        8
176
     2
 62
     7
176
     0
 40
1.0
176
     0
 90
        1
176
     0
 90
        6
176
     0
 90
        2
176
     0
 62
     7
176
     0
 90
        5
176
     0
 90
        0
176
     0
 90
        0
176
     0
290
     0
176
     0
 90
        1
176
     0
 40
0.0
176
     0
 90
        0
176
     0
290
     0
176
     0
290
     1
176
     0
290
     1
176
     0
290
     0
176
     0
290
     0
176
     0
290
     0
176
     0
290
     0
176
     0
290
     0
176
     0
290
     0
176
     0
 90
       50
176
     0
 40
0.0
176
     0
 40
1.0
176
     0
 90
        0
176
     0
 62
    18
420
        0
176
     0
 90
       50
176
     0
 90
        3
176
     0
 62
     5
420
      255
176
     0
290
     0
176
     0
 90
       50
176
     0
 90
       50
176
     0
 90
       50
176
     0
290
     0
176
     0
 90
       50
176
     0
 62
   256
176
     0
 40
1.0
176
     0
 90
        2
176
     0
  1
strokes_ogs.tif
176
     0
290
     0
176
     0
 40
1.0
176
     0
 40
1.0
176
     0
  0
VISUALSTYLE
  5
39
102
{ACAD_REACTORS
330
2A
102
}
330
2A
100
AcDbVisualStyle
  2
Facepattern
 70
    15
177
     3
291
     1
 70
    58
 90
        2
176
     1
 90
        2
176
     1
 90
        0
176
     1
 90
        0
176
     1
 40
0.6
176
     1
 40
30.0
176
     1
 62
     7
420
 16777215
176
     1
 90
        1
176
     1
 90
        4
176
     1
 62
     7
176
     1
 62
   257
176
     1
 90
        1
176
     1
 90
        1
176
     1
 40
1.0
176
     1
 90
        8
176
     1
 62
     7
176
     1
 40
1.0
176
     1
 90
        1
176
     1
 90
        6
176
     1
 90
        2
176
     1
 62
     7
176
     1
 90
        5
176
     1
 90
        0
176
     1
 90
        0
176
     1
290
     0
176
     1
 90
        1
176
     1
 40
0.0
176
     1
 90
        0
176
     1
290
     0
176
     1
290
     1
176
     1
290
     1
176
     1
290
     0
176
     1
290
     0
176
     1
290
     0
176
     1
290
     0
176
     1
290
     0
176
     1
290
     0
176
     1
 90
       50
176
     1
 40
0.0
176
     1
 40
1.0
176
     1
 90
        0
176
     1
 62
    18
420
        0
176
     1
 90
       50
176
     1
 90
        3
176
     1
 62
     5
420
      255
176
     1
290
     0
176
     1
 90
       50
176
     1
 90
       50
176
     1
 90
       50
176
     1
290
     0
176
     1
 90
       50
176
     1
 62
   256
176
     0
 40
1.0
176
     0
 90
        2
176
     1
  1
strokes_ogs.tif
176
     1
290
     0
176
     1
 40
1.0
176
     1
 40
1.0
176
     1
  0
VISUALSTYLE
  5
2B
102
{ACAD_REACTORS
330
2A
102
}
330
2A
100
AcDbVisualStyle
  2
Flat
 70
     0
177
     3
291
     1
 70
    58
 90
        2
176
     1
 90
        1
176
     1
 90
        1
176
     1
 90
        2
176
     1
 40
0.6
176
     1
 40
30.0
176
     1
 62
     7
420
 16777215
176
     1
 90
        0
176
     1
 90
        0
176
     1
 62
     7
176
     1
 62
   257
176
     1
 90
        1
176
     1
 90
        1
176
     1
 40
1.0
176
     1
 90
        8
176
     1
 62
     7
176
     1
 40
1.0
176
     1
 90
        1
176
     1
 90
        6
176
     1
 90
        2
176
     1
 62
     7
176
     1
 90
        5
176
     1
 90
        0
176
     1
 90
        0
176
     1
290
     0
176
     1
 90
       13
176
     1
 40
0.0
176
     1
 90
        0
176
     1
290
     0
176
     1
290
     1
176
     1
290
     1
176
     1
290
     0
176
     1
290
     0
176
     1
290
     0
176
     1
290
     0
176
     1
290
     0
176
     1
290
     0
176
     1
 90
       50
176
     1
 40
0.0
176
     1
 40
1.0
176
     1
 90
        0
176
     1
 62
    18
420
        0
176
     1
 90
       50
176
     1
 90
        3
176
     1
 62
     5
420
      255
176
     1
290
     0
176
     1
 90
       50
176
     1
 90
       50
176
     1
 90
       50
176
     1
290
     0
176
     1
 90
       50
176
     1
 62
   256
176
     0
 40
1.0
176
     0
 90
        2
176
     1
  1
strokes_ogs.tif
176
     1
290
     0
176
     1
 40
1.0
176
     1
 40
1.0
176
     1
  0
VISUALSTYLE
  5
2C
102
{ACAD_REACTORS
330
2A
102
}
330
2A
100
AcDbVisualStyle
  2
FlatWithEdges
 70
     1
177
     3
291
     1
 70
    58
 90
        2
176
     1
 90
        1
176
     1
 90
        1
176
     1
 90
        2
176
     1
 40
0.6
176
     1
 40
30.0
176
     1
 62
     7
420
 16777215
176
     1
 90
        1
176
     1
 90
        0
176
     1
 62
     7
176
     1
 62
   257
176
     1
 90
        1
176
     1
 90
        1
176
     1
 40
1.0
176
     1
 90
        0
176
     1
 62
   257
176
     1
 40
1.0
176
     1
 90
        1
176
     1
 90
        6
176
     1
 90
        2
176
     1
 62
     7
176
     1
 90
        5
176
     1
 90
        0
176
     1
 90
        0
176
     1
290
     0
176
     1
 90
       13
176
     1
 40
0.0
176
     1
 90
        0
176
     1
290
     0
176
     1
290
     1
176
     1
290
     1
176
     1
290
     0
176
     1
290
     0
176
     1
290
     0
176
     1
290
     0
176
     1
290
     0
176
     1
290
     0
176
     1
 90
       50
176
     1
 40
0.0
176
     1
 40
1.0
176
     1
 90
        0
176
     1
 62
    18
420
        0
176
     1
 90
       50
176
     1
 90
        3
176
     1
 62
     5
420
      255
176
     1
290
     0
176
     1
 90
       50
176
     1
 90
       50
176
     1
 90
       50
176
     1
290
     0
176
     1
 90
       50
176
     1
 62
   256
176
     0
 40
1.0
176
     0
 90
        2
176
     1
  1
strokes_ogs.tif
176
     1
290
     0
176
     1
 40
1.0
176
     1
 40
1.0
176
     1
  0
VISUALSTYLE
  5
2D
102
{ACAD_REACTORS
330
2A
102
}
330
2A
100
AcDbVisualStyle
  2
Gouraud
 70
     2
177
     3
291
     1
 70
    58
 90
        2
176
     1
 90
        2
176
     1
 90
        1
176
     1
 90
        2
176
     1
 40
0.6
176
     1
 40
30.0
176
     1
 62
     7
420
 16777215
176
     1
 90
        0
176
     1
 90
        0
176
     1
 62
     7
176
     1
 62
   257
176
     1
 90
        1
176
     1
 90
        1
176
     1
 40
1.0
176
     1
 90
        0
176
     1
 62
     7
176
     1
 40
1.0
176
     1
 90
        1
176
     1
 90
        6
176
     1
 90
        2
176
     1
 62
     7
176
     1
 90
        5
176
     1
 90
        0
176
     1
 90
        0
176
     1
290
     0
176
     1
 90
       13
176
     1
 40
0.0
176
     1
 90
        0
176
     1
290
     0
176
     1
290
     1
176
     1
290
     1
176
     1
290
     0
176
     1
290
     0
176
     1
290
     0
176
     1
290
     0
176
     1
290
     0
176
     1
290
     0
176
     1
 90
       50
176
     1
 40
0.0
176
     1
 40
1.0
176
     1
 90
        0
176
     1
 62
    18
420
        0
176
     1
 90
       50
176
     1
 90
        3
176
     1
 62
     5
420
      255
176
     1
290
     0
176
     1
 90
       50
176
     1
 90
       50
176
     1
 90
       50
176
     1
290
     0
176
     1
 90
       50
176
     1
 62
   256
176
     0
 40
1.0
176
     0
 90
        2
176
     1
  1
strokes_ogs.tif
176
     1
290
     0
176
     1
 40
1.0
176
     1
 40
1.0
176
     1
  0
VISUALSTYLE
  5
2E
102
{ACAD_REACTORS
330
2A
102
}
330
2A
100
AcDbVisualStyle
  2
GouraudWithEdges
 70
     3
177
     3
291
     1
 70
    58
 90
        2
176
     1
 90
        2
176
     1
 90
        1
176
     1
 90
        2
176
     1
 40
0.6
176
     1
 40
30.0
176
     1
 62
     7
420
 16777215
176
     1
 90
        1
176
     1
 90
        0
176
     1
 62
     7
176
     1
 62
   257
176
     1
 90
        1
176
     1
 90
        1
176
     1
 40
1.0
176
     1
 90
        0
176
     1
 62
   257
176
     1
 40
1.0
176
     1
 90
        1
176
     1
 90
        6
176
     1
 90
        2
176
     1
 62
     7
176
     1
 90
        5
176
     1
 90
        0
176
     1
 90
        0
176
     1
290
     0
176
     1
 90
       13
176
     1
 40
0.0
176
     1
 90
        0
176
     1
290
     0
176
     1
290
     1
176
     1
290
     1
176
     1
290
     0
176
     1
290
     0
176
     1
290
     0
176
     1
290
     0
176
     1
290
     0
176
     1
290
     0
176
     1
 90
       50
176
     1
 40
0.0
176
     1
 40
1.0
176
     1
 90
        0
176
     1
 62
    18
420
        0
176
     1
 90
       50
176
     1
 90
        3
176
     1
 62
     5
420
      255
176
     1
290
     0
176
     1
 90
       50
176
     1
 90
       50
176
     1
 90
       50
176
     1
290
     0
176
     1
 90
       50
176
     1
 62
   256
176
     0
 40
1.0
176
     0
 90
        2
176
     1
  1
strokes_ogs.tif
176
     1
290
     0
176
     1
 40
1.0
176
     1
 40
1.0
176
     1
  0
VISUALSTYLE
  5
31
102
{ACAD_REACTORS
330
2A
102
}
330
2A
100
AcDbVisualStyle
  2
Hidden
 70
     6
177
     3
291
     0
 70
    58
 90
        1
176
     1
 90
        2
176
     1
 90
        2
176
     1
 90
        0
176
     1
 40
0.6
176
     1
 40
30.0
176
     1
 62
     7
420
 16777215
176
     1
 90
        2
176
     1
 90
        2
176
     1
 62
     7
176
     1
 62
   257
176
     1
 90
        2
176
     1
 90
        1
176
     1
 40
40.0
176
     1
 90
        0
176
     1
 62
   257
176
     1
 40
1.0
176
     1
 90
        1
176
     1
 90
        6
176
     1
 90
        2
176
     1
 62
     7
176
     1
 90
        3
176
     1
 90
        0
176
     1
 90
        0
176
     1
290
     0
176
     1
 90
        1
176
     1
 40
0.0
176
     1
 90
        0
176
     1
290
     0
176
     1
290
     1
176
     1
290
     1
176
     1
290
     0
176
     1
290
     0
176
     1
290
     0
176
     1
290
     0
176
     1
290
     0
176
     1
290
     0
176
     1
 90
       50
176
     1
 40
0.0
176
     1
 40
1.0
176
     1
 90
        0
176
     1
 62
    18
420
        0
176
     1
 90
       50
176
     1
 90
        3
176
     1
 62
     5
420
      255
176
     1
290
     0
176
     1
 90
       50
176
     1
 90
       50
176
     1
 90
       50
176
     1
290
     0
176
     1
 90
       50
176
     1
 62
   256
176
     0
 40
1.0
176
     0
 90
        2
176
     1
  1
strokes_ogs.tif
176
     1
290
     0
176
     1
 40
1.0
176
     1
 40
1.0
176
     1
  0
VISUALSTYLE
  5
3B
102
{ACAD_REACTORS
330
2A
102
}
330
2A
100
AcDbVisualStyle
  2
JitterOff
 70
    20
177
     3
291
     1
 70
    58
 90
        2
176
     0
 90
        2
176
     0
 90
        0
176
     0
 90
        0
176
     0
 40
0.6
176
     0
 40
30.0
176
     0
 62
     7
420
 16777215
176
     0
 90
        1
176
     0
 90
        4
176
     0
 62
     7
176
     0
 62
   257
176
     0
 90
        1
176
     0
 90
        1
176
     0
 40
1.0
176
     0
 90
       10
176
     2
 62
     7
176
     0
 40
1.0
176
     0
 90
        1
176
     0
 90
        6
176
     0
 90
        2
176
     0
 62
     7
176
     0
 90
        5
176
     0
 90
        0
176
     0
 90
        0
176
     0
290
     0
176
     0
 90
        1
176
     0
 40
0.0
176
     0
 90
        0
176
     0
290
     0
176
     0
290
     1
176
     0
290
     1
176
     0
290
     0
176
     0
290
     0
176
     0
290
     0
176
     0
290
     0
176
     0
290
     0
176
     0
290
     0
176
     0
 90
       50
176
     0
 40
0.0
176
     0
 40
1.0
176
     0
 90
        0
176
     0
 62
    18
420
        0
176
     0
 90
       50
176
     0
 90
        3
176
     0
 62
     5
420
      255
176
     0
290
     0
176
     0
 90
       50
176
     0
 90
       50
176
     0
 90
       50
176
     0
290
     0
176
     0
 90
       50
176
     0
 62
   256
176
     0
 40
1.0
176
     0
 90
        2
176
     0
  1
strokes_ogs.tif
176
     0
290
     0
176
     0
 40
1.0
176
     0
 40
1.0
176
     0
  0
VISUALSTYLE
  5
38
102
{ACAD_REACTORS
330
2A
102
}
330
2A
100
AcDbVisualStyle
  2
Linepattern
 70
    14
177
     3
291
     1
 70
    58
 90
        2
176
     1
 90
        2
176
     1
 90
        0
176
     1
 90
        0
176
     1
 40
0.6
176
     1
 40
30.0
176
     1
 62
     7
420
 16777215
176
     1
 90
        1
176
     1
 90
        4
176
     1
 62
     7
176
     1
 62
   257
176
     1
 90
        7
176
     1
 90
        7
176
     1
 40
1.0
176
     1
 90
        8
176
     1
 62
     7
176
     1
 40
1.0
176
     1
 90
        1
176
     1
 90
        6
176
     1
 90
        2
176
     1
 62
     7
176
     1
 90
        5
176
     1
 90
        0
176
     1
 90
        0
176
     1
290
     0
176
     1
 90
        1
176
     1
 40
0.0
176
     1
 90
        0
176
     1
290
     0
176
     1
290
     1
176
     1
290
     1
176
     1
290
     0
176
     1
290
     0
176
     1
290
     0
176
     1
290
     0
176
     1
290
     0
176
     1
290
     0
176
     1
 90
       50
176
     1
 40
0.0
176
     1
 40
1.0
176
     1
 90
        0
176
     1
 62
    18
420
        0
176
     1
 90
       50
176
     1
 90
        3
176
     1
 62
     5
420
      255
176
     1
290
     0
176
     1
 90
       50
176
     1
 90
       50
176
     1
 90
       50
176
     1
290
     0
176
     1
 90
       50
176
     1
 62
   256
176
     0
 40
1.0
176
     0
 90
        2
176
     1
  1
strokes_ogs.tif
176
     1
290
     0
176
     1
 40
1.0
176
     1
 40
1.0
176
     1
  0
VISUALSTYLE
  5
3C
102
{ACAD_REACTORS
330
2A
102
}
330
2A
100
AcDbVisualStyle
  2
OverhangOff
 70
    21
177
     3
291
     1
 70
    58
 90
        2
176
     0
 90
        2
176
     0
 90
        0
176
     0
 90
        0
176
     0
 40
0.6
176
     0
 40
30.0
176
     0
 62
     7
420
 16777215
176
     0
 90
        1
176
     0
 90
        4
176
     0
 62
     7
176
     0
 62
   257
176
     0
 90
        1
176
     0
 90
        1
176
     0
 40
1.0
176
     0
 90
        9
176
     2
 62
     7
176
     0
 40
1.0
176
     0
 90
        1
176
     0
 90
        6
176
     0
 90
        2
176
     0
 62
     7
176
     0
 90
        5
176
     0
 90
        0
176
     0
 90
        0
176
     0
290
     0
176
     0
 90
        1
176
     0
 40
0.0
176
     0
 90
        0
176
     0
290
     0
176
     0
290
     1
176
     0
290
     1
176
     0
290
     0
176
     0
290
     0
176
     0
290
     0
176
     0
290
     0
176
     0
290
     0
176
     0
290
     0
176
     0
 90
       50
176
     0
 40
0.0
176
     0
 40
1.0
176
     0
 90
        0
176
     0
 62
    18
420
        0
176
     0
 90
       50
176
     0
 90
        3
176
     0
 62
     5
420
      255
176
     0
290
     0
176
     0
 90
       50
176
     0
 90
       50
176
     0
 90
       50
176
     0
290
     0
176
     0
 90
       50
176
     0
 62
   256
176
     0
 40
1.0
176
     0
 90
        2
176
     0
  1
strokes_ogs.tif
176
     0
290
     0
176
     0
 40
1.0
176
     0
 40
1.0
176
     0
  0
VISUALSTYLE
  5
33
102
{ACAD_REACTORS
330
2A
102
}
330
2A
100
AcDbVisualStyle
  2
Realistic
 70
     8
177
     3
291
     0
 70
    58
 90
        2
176
     1
 90
        3
176
     1
 90
        0
176
     1
 90
        2
176
     1
 40
0.6
176
     1
 40
30.0
176
     1
 62
     7
420
 16777215
176
     1
 90
        0
176
     1
 90
        0
176
     1
 62
     7
176
     1
 62
   257
176
     1
 90
        1
176
     1
 90
        1
176
     1
 40
1.0
176
     1
 90
        8
176
     1
 62
   257
176
     1
 40
1.0
176
     1
 90
        1
176
     1
 90
        6
176
     1
 90
        2
176
     1
 62
     7
176
     1
 90
        3
176
     1
 90
        0
176
     1
 90
        0
176
     1
290
     0
176
     1
 90
       13
176
     1
 40
0.0
176
     1
 90
        0
176
     1
290
     0
176
     1
290
     1
176
     1
290
     1
176
     1
290
     0
176
     1
290
     0
176
     1
290
     0
176
     1
290
     0
176
     1
290
     0
176
     1
290
     0
176
     1
 90
       50
176
     1
 40
0.0
176
     1
 40
1.0
176
     1
 90
        0
176
     1
 62
    18
420
        0
176
     1
 90
       50
176
     1
 90
        3
176
     1
 62
     5
420
      255
176
     1
290
     0
176
     1
 90
       50
176
     1
 90
       50
176
     1
 90
       50
176
     1
290
     0
176
     1
 90
       50
176
     1
 62
   256
176
     0
 40
1.0
176
     0
 90
        2
176
     1
  1
strokes_ogs.tif
176
     1
290
     0
176
     1
 40
1.0
176
     1
 40
1.0
176
     1
  0
VISUALSTYLE
  5
42
102
{ACAD_REACTORS
330
2A
102
}
330
2A
100
AcDbVisualStyle
  2
Shaded
 70
    27
177
     3
291
     0
 70
    58
 90
        2
176
     1
 90
        2
176
     1
 90
        1
176
     1
 90
        2
176
     1
 40
0.6
176
     1
 40
30.0
176
     1
 62
     7
420
 16777215
176
     1
 90
        0
176
     1
 90
        4
176
     1
 62
     7
176
     1
 62
   257
176
     1
 90
        1
176
     1
 90
        1
176
     1
 40
1.0
176
     1
 90
        8
176
     1
 62
   257
176
     1
 40
1.0
176
     1
 90
        1
176
     1
 90
        6
176
     1
 90
        2
176
     1
 62
     8
420
  7895160
176
     1
 90
        3
176
     1
 90
        0
176
     1
 90
        0
176
     1
290
     0
176
     1
 90
        5
176
     1
 40
0.0
176
     1
 90
        0
176
     1
290
     0
176
     1
290
     1
176
     1
290
     1
176
     1
290
     0
176
     1
290
     0
176
     1
290
     0
176
     1
290
     0
176
     1
290
     0
176
     1
290
     0
176
     1
 90
       50
176
     1
 40
0.0
176
     1
 40
1.0
176
     1
 90
        0
176
     1
 62
    18
420
        0
176
     1
 90
       50
176
     1
 90
        3
176
     1
 62
     5
420
      255
176
     1
290
     0
176
     1
 90
       50
176
     1
 90
       50
176
     1
 90
       50
176
     1
290
     0
176
     1
 90
       50
176
     1
 62
   256
176
     0
 40
1.0
176
     0
 90
        2
176
     1
  1
strokes_ogs.tif
176
     1
290
     0
176
     1
 40
1.0
176
     1
 40
1.0
176
     1
  0
VISUALSTYLE
  5
41
102
{ACAD_REACTORS
330
2A
102
}
330
2A
100
AcDbVisualStyle
  2
Shaded with edges
 70
    26
177
     3
291
     0
 70
    58
 90
        2
176
     1
 90
        2
176
     1
 90
        1
176
     1
 90
        2
176
     1
 40
0.6
176
     1
 40
30.0
176
     1
 62
     7
420
 16777215
176
     1
 90
        1
176
     1
 90
       10
176
     1
 62
     7
176
     1
 62
   257
176
     1
 90
        2
176
     1
 90
        1
176
     1
 40
1.0
176
     1
 90
        8
176
     1
 62
   257
176
     1
 40
1.0
176
     1
 90
        1
176
     1
 90
        6
176
     1
 90
        2
176
     1
 62
     7
176
     1
 90
        3
176
     1
 90
        0
176
     1
 90
        0
176
     1
290
     0
176
     1
 90
        5
176
     1
 40
0.0
176
     1
 90
        0
176
     1
290
     0
176
     1
290
     1
176
     1
290
     1
176
     1
290
     0
176
     1
290
     0
176
     1
290
     0
176
     1
290
     0
176
     1
290
     0
176
     1
290
     0
176
     1
 90
       50
176
     1
 40
0.0
176
     1
 40
1.0
176
     1
 90
        0
176
     1
 62
    18
420
        0
176
     1
 90
       50
176
     1
 90
        3
176
     1
 62
     5
420
      255
176
     1
290
     0
176
     1
 90
       50
176
     1
 90
       50
176
     1
 90
       50
176
     1
290
     0
176
     1
 90
       50
176
     1
 62
   256
176
     0
 40
1.0
176
     0
 90
        2
176
     1
  1
strokes_ogs.tif
176
     1
290
     0
176
     1
 40
1.0
176
     1
 40
1.0
176
     1
  0
VISUALSTYLE
  5
3E
102
{ACAD_REACTORS
330
2A
102
}
330
2A
100
AcDbVisualStyle
  2
Shades of Gray
 70
    23
177
     3
291
     0
 70
    58
 90
        2
176
     1
 90
        2
176
     1
 90
        3
176
     1
 90
        0
176
     1
 40
0.6
176
     1
 40
30.0
176
     1
 62
     7
420
 16777215
176
     1
 90
        2
176
     1
 90
        2
176
     1
 62
     7
176
     1
 62
     7
176
     1
 90
        1
176
     1
 90
        1
176
     1
 40
40.0
176
     1
 90
        8
176
     1
 62
     7
176
     1
 40
1.0
176
     1
 90
        1
176
     1
 90
        6
176
     1
 90
        2
176
     1
 62
     7
176
     1
 90
        3
176
     1
 90
        0
176
     1
 90
        0
176
     1
290
     0
176
     1
 90
        1
176
     1
 40
0.0
176
     1
 90
        0
176
     1
290
     0
176
     1
290
     1
176
     1
290
     1
176
     1
290
     0
176
     1
290
     0
176
     1
290
     0
176
     1
290
     0
176
     1
290
     0
176
     1
290
     0
176
     1
 90
       50
176
     1
 40
0.0
176
     1
 40
1.0
176
     1
 90
        0
176
     1
 62
    18
420
        0
176
     1
 90
       50
176
     1
 90
        3
176
     1
 62
     5
420
      255
176
     1
290
     0
176
     1
 90
       50
176
     1
 90
       50
176
     1
 90
       50
176
     1
290
     0
176
     1
 90
       50
176
     1
 62
   256
176
     0
 40
1.0
176
     0
 90
        2
176
     1
  1
strokes_ogs.tif
176
     1
290
     0
176
     1
 40
1.0
176
     1
 40
1.0
176
     1
  0
VISUALSTYLE
  5
3F
102
{ACAD_REACTORS
330
2A
102
}
330
2A
100
AcDbVisualStyle
  2
Sketchy
 70
    24
177
     3
291
     0
 70
    58
 90
        1
176
     1
 90
        2
176
     1
 90
        2
176
     1
 90
        0
176
     1
 40
0.6
176
     1
 40
30.0
176
     1
 62
     7
420
 16777215
176
     1
 90
        2
176
     1
 90
        2
176
     1
 62
     7
176
     1
 62
     7
176
     1
 90
        1
176
     1
 90
        1
176
     1
 40
40.0
176
     1
 90
       11
176
     1
 62
     7
176
     1
 40
1.0
176
     1
 90
        1
176
     1
 90
        6
176
     1
 90
        2
176
     1
 62
     7
176
     1
 90
        6
176
     1
 90
        0
176
     1
 90
        0
176
     1
290
     0
176
     1
 90
        1
176
     1
 40
0.0
176
     1
 90
        0
176
     1
290
     0
176
     1
290
     1
176
     1
290
     1
176
     1
290
     0
176
     1
290
     0
176
     1
290
     0
176
     1
290
     0
176
     1
290
     0
176
     1
290
     0
176
     1
 90
       50
176
     1
 40
0.0
176
     1
 40
1.0
176
     1
 90
        0
176
     1
 62
    18
420
        0
176
     1
 90
       50
176
     1
 90
        3
176
     1
 62
     5
420
      255
176
     1
290
     0
176
     1
 90
       50
176
     1
 90
       50
176
     1
 90
       50
176
     1
290
     0
176
     1
 90
       50
176
     1
 62
   256
176
     0
 40
1.0
176
     0
 90
        2
176
     1
  1
strokes_ogs.tif
176
     1
290
     0
176
     1
 40
1.0
176
     1
 40
1.0
176
     1
  0
VISUALSTYLE
  5
37
102
{ACAD_REACTORS
330
2A
102
}
330
2A
100
AcDbVisualStyle
  2
Thicken
 70
    13
177
     3
291
     1
 70
    58
 90
        2
176
     1
 90
        2
176
     1
 90
        0
176
     1
 90
        0
176
     1
 40
0.6
176
     1
 40
30.0
176
     1
 62
     7
420
 16777215
176
     1
 90
        1
176
     1
 90
        4
176
     1
 62
     7
176
     1
 62
   257
176
     1
 90
        1
176
     1
 90
        1
176
     1
 40
1.0
176
     1
 90
       12
176
     1
 62
     7
176
     1
 40
1.0
176
     1
 90
        1
176
     1
 90
        6
176
     1
 90
        2
176
     1
 62
     7
176
     1
 90
        5
176
     1
 90
        0
176
     1
 90
        0
176
     1
290
     0
176
     1
 90
        1
176
     1
 40
0.0
176
     1
 90
        0
176
     1
290
     0
176
     1
290
     1
176
     1
290
     1
176
     1
290
     0
176
     1
290
     0
176
     1
290
     0
176
     1
290
     0
176
     1
290
     0
176
     1
290
     0
176
     1
 90
       50
176
     1
 40
0.0
176
     1
 40
1.0
176
     1
 90
        0
176
     1
 62
    18
420
        0
176
     1
 90
       50
176
     1
 90
        3
176
     1
 62
     5
420
      255
176
     1
290
     0
176
     1
 90
       50
176
     1
 90
       50
176
     1
 90
       50
176
     1
290
     0
176
     1
 90
       50
176
     1
 62
   256
176
     0
 40
1.0
176
     0
 90
        2
176
     1
  1
strokes_ogs.tif
176
     1
290
     0
176
     1
 40
1.0
176
     1
 40
1.0
176
     1
  0
VISUALSTYLE
  5
30
102
{ACAD_REACTORS
330
2A
102
}
330
2A
100
AcDbVisualStyle
  2
Wireframe
 70
     5
177
     3
291
     0
 70
    58
 90
        0
176
     1
 90
        2
176
     1
 90
        0
176
     1
 90
        0
176
     1
 40
0.6
176
     1
 40
30.0
176
     1
 62
     7
420
 16777215
176
     1
 90
        1
176
     1
 90
        4
176
     1
 62
     7
176
     1
 62
   257
176
     1
 90
        1
176
     1
 90
        1
176
     1
 40
1.0
176
     1
 90
        0
176
     1
 62
   257
176
     1
 40
1.0
176
     1
 90
        1
176
     1
 90
        6
176
     1
 90
        2
176
     1
 62
     7
176
     1
 90
        3
176
     1
 90
        0
176
     1
 90
        0
176
     1
290
     0
176
     1
 90
        1
176
     1
 40
0.0
176
     1
 90
        0
176
     1
290
     0
176
     1
290
     1
176
     1
290
     1
176
     1
290
     0
176
     1
290
     0
176
     1
290
     0
176
     1
290
     0
176
     1
290
     0
176
     1
290
     0
176
     1
 90
       50
176
     1
 40
0.0
176
     1
 40
1.0
176
     1
 90
        0
176
     1
 62
    18
420
        0
176
     1
 90
       50
176
     1
 90
        3
176
     1
 62
     5
420
      255
176
     1
290
     0
176
     1
 90
       50
176
     1
 90
       50
176
     1
 90
       50
176
     1
290
     0
176
     1
 90
       50
176
     1
 62
   256
176
     0
 40
1.0
176
     0
 90
        2
176
     1
  1
strokes_ogs.tif
176
     1
290
     0
176
     1
 40
1.0
176
     1
 40
1.0
176
     1
  0
VISUALSTYLE
  5
40
102
{ACAD_REACTORS
330
2A
102
}
330
2A
100
AcDbVisualStyle
  2
X-Ray
 70
    25
177
     3
291
     0
 70
    58
 90
        2
176
     1
 90
        2
176
     1
 90
        1
176
     1
 90
        1
176
     1
 40
0.5
176
     1
 40
30.0
176
     1
 62
     7
420
 16777215
176
     1
 90
        1
176
     1
 90
        0
176
     1
 62
     7
176
     1
 62
   257
176
     1
 90
        1
176
     1
 90
        1
176
     1
 40
1.0
176
     1
 90
        8
176
     1
 62
     7
176
     1
 40
1.0
176
     1
 90
        1
176
     1
 90
        6
176
     1
 90
        2
176
     1
 62
     7
176
     1
 90
        3
176
     1
 90
        0
176
     1
 90
        0
176
     1
290
     0
176
     1
 90
       13
176
     1
 40
0.0
176
     1
 90
        0
176
     1
290
     0
176
     1
290
     1
176
     1
290
     1
176
     1
290
     0
176
     1
290
     0
176
     1
290
     0
176
     1
290
     0
176
     1
290
     0
176
     1
290
     0
176
     1
 90
       50
176
     1
 40
0.0
176
     1
 40
1.0
176
     1
 90
        0
176
     1
 62
    18
420
        0
176
     1
 90
       50
176
     1
 90
        3
176
     1
 62
     5
420
      255
176
     1
290
     0
176
     1
 90
       50
176
     1
 90
       50
176
     1
 90
       50
176
     1
290
     0
176
     1
 90
       50
176
     1
 62
   256
176
     0
 40
1.0
176
     0
 90
        2
176
     1
  1
strokes_ogs.tif
176
     1
290
     0
176
     1
 40
1.0
176
     1
 40
1.0
176
     1
  0
DICTIONARYVAR
  5
168
102
{ACAD_REACTORS
330
167
102
}
330
167
100
DictionaryVariables
280
     0
  1
1:1
  0
DICTIONARYVAR
  5
16D
102
{ACAD_REACTORS
330
167
102
}
330
167
100
DictionaryVariables
280
     0
  1
Standard
  0
DICTIONARYVAR
  5
16C
102
{ACAD_REACTORS
330
167
102
}
330
167
100
DictionaryVariables
280
     0
  1
Standard
  0
DICTIONARY
  5
169
330
6A
100
AcDbDictionary
280
     1
281
     1
  3
ACAD_ROUNDTRIP_2008_TABLESTYLE_CELLSTYLEMAP
360
16A
  0
CELLSTYLEMAP
  5
16A
102
{ACAD_REACTORS
330
169
102
}
330
169
100
AcDbCellStyleMap
 90
        3
300
CELLSTYLE
  1
TABLEFORMAT_BEGIN
 90
        5
170
     1
 91
        0
 92
    32768
 62
   257
 93
        1
300
CONTENTFORMAT
  1
CONTENTFORMAT_BEGIN
 90
        0
 91
        0
 92
        4
 93
        0
300

 40
0.0
140
1.0
 94
        5
 62
     0
340
11
144
0.25
309
CONTENTFORMAT_END
171
     1
301
MARGIN
  1
CELLMARGIN_BEGIN
 40
0.06
 40
0.06
 40
0.06
 40
0.06
 40
0.06
 40
0.06
309
CELLMARGIN_END
 94
        6
 95
        1
302
GRIDFORMAT
  1
GRIDFORMAT_BEGIN
 90
        0
 91
        1
 62
     0
 92
       -2
340
14
 93
        0
 40
0.045
309
GRIDFORMAT_END
 95
        2
302
GRIDFORMAT
  1
GRIDFORMAT_BEGIN
 90
        0
 91
        1
 62
     0
 92
       -2
340
14
 93
        0
 40
0.045
309
GRIDFORMAT_END
 95
        4
302
GRIDFORMAT
  1
GRIDFORMAT_BEGIN
 90
        0
 91
        1
 62
     0
 92
       -2
340
14
 93
        0
 40
0.045
309
GRIDFORMAT_END
 95
        8
302
GRIDFORMAT
  1
GRIDFORMAT_BEGIN
 90
        0
 91
        1
 62
     0
 92
       -2
340
14
 93
        0
 40
0.045
309
GRIDFORMAT_END
 95
       16
302
GRIDFORMAT
  1
GRIDFORMAT_BEGIN
 90
        0
 91
        1
 62
     0
 92
       -2
340
14
 93
        0
 40
0.045
309
GRIDFORMAT_END
 95
       32
302
GRIDFORMAT
  1
GRIDFORMAT_BEGIN
 90
        0
 91
        1
 62
     0
 92
       -2
340
14
 93
        0
 40
0.045
309
GRIDFORMAT_END
309
TABLEFORMAT_END
  1
CELLSTYLE_BEGIN
 90
        1
 91
        1
300
_TITLE
309
CELLSTYLE_END
300
CELLSTYLE
  1
TABLEFORMAT_BEGIN
 90
        5
170
     1
 91
        0
 92
        0
 62
   257
 93
        1
300
CONTENTFORMAT
  1
CONTENTFORMAT_BEGIN
 90
        0
 91
        0
 92
        4
 93
        0
300

 40
0.0
140
1.0
 94
        5
 62
     0
340
11
144
0.18
309
CONTENTFORMAT_END
171
     1
301
MARGIN
  1
CELLMARGIN_BEGIN
 40
0.06
 40
0.06
 40
0.06
 40
0.06
 40
0.06
 40
0.06
309
CELLMARGIN_END
 94
        6
 95
        1
302
GRIDFORMAT
  1
GRIDFORMAT_BEGIN
 90
        0
 91
        1
 62
     0
 92
       -2
340
14
 93
        0
 40
0.045
309
GRIDFORMAT_END
 95
        2
302
GRIDFORMAT
  1
GRIDFORMAT_BEGIN
 90
        0
 91
        1
 62
     0
 92
       -2
340
14
 93
        0
 40
0.045
309
GRIDFORMAT_END
 95
        4
302
GRIDFORMAT
  1
GRIDFORMAT_BEGIN
 90
        0
 91
        1
 62
     0
 92
       -2
340
14
 93
        0
 40
0.045
309
GRIDFORMAT_END
 95
        8
302
GRIDFORMAT
  1
GRIDFORMAT_BEGIN
 90
        0
 91
        1
 62
     0
 92
       -2
340
14
 93
        0
 40
0.045
309
GRIDFORMAT_END
 95
       16
302
GRIDFORMAT
  1
GRIDFORMAT_BEGIN
 90
        0
 91
        1
 62
     0
 92
       -2
340
14
 93
        0
 40
0.045
309
GRIDFORMAT_END
 95
       32
302
GRIDFORMAT
  1
GRIDFORMAT_BEGIN
 90
        0
 91
        1
 62
     0
 92
       -2
340
14
 93
        0
 40
0.045
309
GRIDFORMAT_END
309
TABLEFORMAT_END
  1
CELLSTYLE_BEGIN
 90
        2
 91
        1
300
_HEADER
309
CELLSTYLE_END
300
CELLSTYLE
  1
TABLEFORMAT_BEGIN
 90
        5
170
     1
 91
        0
 92
        0
 62
   257
 93
        1
300
CONTENTFORMAT
  1
CONTENTFORMAT_BEGIN
 90
        0
 91
        0
 92
        4
 93
        0
300

 40
0.0
140
1.0
 94
        2
 62
     0
340
11
144
0.18
309
CONTENTFORMAT_END
171
     1
301
MARGIN
  1
CELLMARGIN_BEGIN
 40
0.06
 40
0.06
 40
0.06
 40
0.06
 40
0.06
 40
0.06
309
CELLMARGIN_END
 94
        6
 95
        1
302
GRIDFORMAT
  1
GRIDFORMAT_BEGIN
 90
        0
 91
        1
 62
     0
 92
       -2
340
14
 93
        0
 40
0.045
309
GRIDFORMAT_END
 95
        2
302
GRIDFORMAT
  1
GRIDFORMAT_BEGIN
 90
        0
 91
        1
 62
     0
 92
       -2
340
14
 93
        0
 40
0.045
309
GRIDFORMAT_END
 95
        4
302
GRIDFORMAT
  1
GRIDFORMAT_BEGIN
 90
        0
 91
        1
 62
     0
 92
       -2
340
14
 93
        0
 40
0.045
309
GRIDFORMAT_END
 95
        8
302
GRIDFORMAT
  1
GRIDFORMAT_BEGIN
 90
        0
 91
        1
 62
     0
 92
       -2
340
14
 93
        0
 40
0.045
309
GRIDFORMAT_END
 95
       16
302
GRIDFORMAT
  1
GRIDFORMAT_BEGIN
 90
        0
 91
        1
 62
     0
 92
       -2
340
14
 93
        0
 40
0.045
309
GRIDFORMAT_END
 95
       32
302
GRIDFORMAT
  1
GRIDFORMAT_BEGIN
 90
        0
 91
        1
 62
     0
 92
       -2
340
14
 93
        0
 40
0.045
309
GRIDFORMAT_END
309
TABLEFORMAT_END
  1
CELLSTYLE_BEGIN
 90
        3
 91
        2
300
_DATA
309
CELLSTYLE_END
  0
ENDSEC
  0
EOF