0
SECTION
  2
HEADER
  9
$ACADVER
  1
AC1027
  9
$ACADMAINTVER
 70
     8
  9
$DWGCODEPAGE
  3
ANSI_1252
  9
$REQUIREDVERSIONS
160
                 0
  9
$COMMENTS
  1
File was created by Cadenas
  9
$CUSTOMPROPERTYTAG
  1
NN
  9
$CUSTOMPROPERTY
  1
Set Screw Tapped Base Inch Bore
  9
$CUSTOMPROPERTYTAG
  1
NT
  9
$CUSTOMPROPERTY
  1
SC Pillow Block Bearings -(Normal Duty) -Tapped Base Housing
  9
$CUSTOMPROPERTYTAG
  1
NB
  9
$CUSTOMPROPERTY
  1
124473
  9
$CUSTOMPROPERTYTAG
  1
NBSYN
  9
$CUSTOMPROPERTY
  1
$PN.
  9
$CUSTOMPROPERTYTAG
  1
LINA
  9
$CUSTOMPROPERTY
  1
124473
  9
$CUSTOMPROPERTYTAG
  1
SERIES
  9
$CUSTOMPROPERTY
  1
207
  9
$CUSTOMPROPERTYTAG
  1
SS
  9
$CUSTOMPROPERTY
  1
1-7/16
  9
$CUSTOMPROPERTYTAG
  1
PN
  9
$CUSTOMPROPERTY
  1
124473
  9
$CUSTOMPROPERTYTAG
  1
DESCRIPTION
  9
$CUSTOMPROPERTY
  1
TB-SC-107
  9
$CUSTOMPROPERTYTAG
  1
WEIGHT
  9
$CUSTOMPROPERTY
  1
3.25
  9
$CUSTOMPROPERTYTAG
  1
A
  9
$CUSTOMPROPERTY
  1
1.71
  9
$CUSTOMPROPERTYTAG
  1
B
  9
$CUSTOMPROPERTY
  1
4.25
  9
$CUSTOMPROPERTYTAG
  1
C
  9
$CUSTOMPROPERTY
  1
1.88
  9
$CUSTOMPROPERTYTAG
  1
D
  9
$CUSTOMPROPERTY
  1
3.25
  9
$CUSTOMPROPERTYTAG
  1
J
  9
$CUSTOMPROPERTY
  1
3.75
  9
$CUSTOMPROPERTYTAG
  1
L
  9
$CUSTOMPROPERTY
  1
1.84
  9
$CUSTOMPROPERTYTAG
  1
M
  9
$CUSTOMPROPERTY
  1
1.88
  9
$CUSTOMPROPERTYTAG
  1
N
  9
$CUSTOMPROPERTY
  1
0.75
  9
$CUSTOMPROPERTYTAG
  1
R
  9
$CUSTOMPROPERTY
  1
1/2-13
  9
$CUSTOMPROPERTYTAG
  1
S
  9
$CUSTOMPROPERTY
  1
1.04
  9
$CUSTOMPROPERTYTAG
  1
COMPANY
  9
$CUSTOMPROPERTY
  1
baldor
  9
$INSBASE
 10
0.0
 20
0.0
 30
0.0
  9
$EXTMIN
 10
1.000000000000000E+20
 20
1.000000000000000E+20
 30
1.000000000000000E+20
  9
$EXTMAX
 10
-1.000000000000000E+20
 20
-1.000000000000000E+20
 30
-1.000000000000000E+20
  9
$LIMMIN
 10
0.0
 20
0.0
  9
$LIMMAX
 10
12.0
 20
9.0
  9
$ORTHOMODE
 70
     0
  9
$REGENMODE
 70
     1
  9
$FILLMODE
 70
     1
  9
$QTEXTMODE
 70
     0
  9
$MIRRTEXT
 70
     1
  9
$LTSCALE
 40
1.0
  9
$ATTMODE
 70
     1
  9
$TEXTSIZE
 40
0.2
  9
$TRACEWID
 40
0.05
  9
$TEXTSTYLE
  7
Standard
  9
$CLAYER
  8
0
  9
$CELTYPE
  6
ByLayer
  9
$CECOLOR
 62
   256
  9
$CELTSCALE
 40
1.0
  9
$DISPSILH
 70
     0
  9
$DIMSCALE
 40
1.0
  9
$DIMASZ
 40
0.18
  9
$DIMEXO
 40
0.0625
  9
$DIMDLI
 40
0.38
  9
$DIMRND
 40
0.0
  9
$DIMDLE
 40
0.0
  9
$DIMEXE
 40
0.18
  9
$DIMTP
 40
0.0
  9
$DIMTM
 40
0.0
  9
$DIMTXT
 40
0.18
  9
$DIMCEN
 40
0.09
  9
$DIMTSZ
 40
0.0
  9
$DIMTOL
 70
     0
  9
$DIMLIM
 70
     0
  9
$DIMTIH
 70
     1
  9
$DIMTOH
 70
     1
  9
$DIMSE1
 70
     0
  9
$DIMSE2
 70
     0
  9
$DIMTAD
 70
     0
  9
$DIMZIN
 70
     0
  9
$DIMBLK
  1

  9
$DIMASO
 70
     1
  9
$DIMSHO
 70
     1
  9
$DIMPOST
  1

  9
$DIMAPOST
  1

  9
$DIMALT
 70
     0
  9
$DIMALTD
 70
     2
  9
$DIMALTF
 40
25.4
  9
$DIMLFAC
 40
1.0
  9
$DIMTOFL
 70
     0
  9
$DIMTVP
 40
0.0
  9
$DIMTIX
 70
     0
  9
$DIMSOXD
 70
     0
  9
$DIMSAH
 70
     0
  9
$DIMBLK1
  1

  9
$DIMBLK2
  1

  9
$DIMSTYLE
  2
Standard
  9
$DIMCLRD
 70
     0
  9
$DIMCLRE
 70
     0
  9
$DIMCLRT
 70
     0
  9
$DIMTFAC
 40
1.0
  9
$DIMGAP
 40
0.09
  9
$DIMJUST
 70
     0
  9
$DIMSD1
 70
     0
  9
$DIMSD2
 70
     0
  9
$DIMTOLJ
 70
     1
  9
$DIMTZIN
 70
     0
  9
$DIMALTZ
 70
     0
  9
$DIMALTTZ
 70
     0
  9
$DIMUPT
 70
     0
  9
$DIMDEC
 70
     4
  9
$DIMTDEC
 70
     4
  9
$DIMALTU
 70
     2
  9
$DIMALTTD
 70
     2
  9
$DIMTXSTY
  7
Standard
  9
$DIMAUNIT
 70
     0
  9
$DIMADEC
 70
     0
  9
$DIMALTRND
 40
0.0
  9
$DIMAZIN
 70
     0
  9
$DIMDSEP
 70
    46
  9
$DIMATFIT
 70
     3
  9
$DIMFRAC
 70
     0
  9
$DIMLDRBLK
  1

  9
$DIMLUNIT
 70
     2
  9
$DIMLWD
 70
    -2
  9
$DIMLWE
 70
    -2
  9
$DIMTMOVE
 70
     0
  9
$DIMFXL
 40
1.0
  9
$DIMFXLON
 70
     0
  9
$DIMJOGANG
 40
0.7853981633974483
  9
$DIMTFILL
 70
     0
  9
$DIMTFILLCLR
 70
     0
  9
$DIMARCSYM
 70
     0
  9
$DIMLTYPE
  6

  9
$DIMLTEX1
  6

  9
$DIMLTEX2
  6

  9
$DIMTXTDIRECTION
 70
     0
  9
$LUNITS
 70
     2
  9
$LUPREC
 70
     4
  9
$SKETCHINC
 40
0.1
  9
$FILLETRAD
 40
0.5
  9
$AUNITS
 70
     0
  9
$AUPREC
 70
     0
  9
$MENU
  1
.
  9
$ELEVATION
 40
0.0
  9
$PELEVATION
 40
0.0
  9
$THICKNESS
 40
0.0
  9
$LIMCHECK
 70
     0
  9
$CHAMFERA
 40
0.0
  9
$CHAMFERB
 40
0.0
  9
$CHAMFERC
 40
0.0
  9
$CHAMFERD
 40
0.0
  9
$SKPOLY
 70
     0
  9
$TDCREATE
 40
2458169.004190833
  9
$TDUCREATE
 40
2458168.962524167
  9
$TDUPDATE
 40
2458169.004190833
  9
$TDUUPDATE
 40
2458168.962524167
  9
$TDINDWG
 40
0.0000000116
  9
$TDUSRTIMER
 40
0.0000000116
  9
$USRTIMER
 70
     1
  9
$ANGBASE
 50
0.0
  9
$ANGDIR
 70
     0
  9
$PDMODE
 70
     0
  9
$PDSIZE
 40
0.0
  9
$PLINEWID
 40
0.0
  9
$SPLFRAME
 70
     0
  9
$SPLINETYPE
 70
     6
  9
$SPLINESEGS
 70
     8
  9
$HANDSEED
  5
1A2
  9
$SURFTAB1
 70
     6
  9
$SURFTAB2
 70
     6
  9
$SURFTYPE
 70
     6
  9
$SURFU
 70
     6
  9
$SURFV
 70
     6
  9
$UCSBASE
  2

  9
$UCSNAME
  2

  9
$UCSORG
 10
0.0
 20
0.0
 30
0.0
  9
$UCSXDIR
 10
1.0
 20
0.0
 30
0.0
  9
$UCSYDIR
 10
0.0
 20
1.0
 30
0.0
  9
$UCSORTHOREF
  2

  9
$UCSORTHOVIEW
 70
     0
  9
$UCSORGTOP
 10
0.0
 20
0.0
 30
0.0
  9
$UCSORGBOTTOM
 10
0.0
 20
0.0
 30
0.0
  9
$UCSORGLEFT
 10
0.0
 20
0.0
 30
0.0
  9
$UCSORGRIGHT
 10
0.0
 20
0.0
 30
0.0
  9
$UCSORGFRONT
 10
0.0
 20
0.0
 30
0.0
  9
$UCSORGBACK
 10
0.0
 20
0.0
 30
0.0
  9
$PUCSBASE
  2

  9
$PUCSNAME
  2

  9
$PUCSORG
 10
0.0
 20
0.0
 30
0.0
  9
$PUCSXDIR
 10
1.0
 20
0.0
 30
0.0
  9
$PUCSYDIR
 10
0.0
 20
1.0
 30
0.0
  9
$PUCSORTHOREF
  2

  9
$PUCSORTHOVIEW
 70
     0
  9
$PUCSORGTOP
 10
0.0
 20
0.0
 30
0.0
  9
$PUCSORGBOTTOM
 10
0.0
 20
0.0
 30
0.0
  9
$PUCSORGLEFT
 10
0.0
 20
0.0
 30
0.0
  9
$PUCSORGRIGHT
 10
0.0
 20
0.0
 30
0.0
  9
$PUCSORGFRONT
 10
0.0
 20
0.0
 30
0.0
  9
$PUCSORGBACK
 10
0.0
 20
0.0
 30
0.0
  9
$USERI1
 70
     0
  9
$USERI2
 70
     0
  9
$USERI3
 70
     0
  9
$USERI4
 70
     0
  9
$USERI5
 70
     0
  9
$USERR1
 40
0.0
  9
$USERR2
 40
0.0
  9
$USERR3
 40
0.0
  9
$USERR4
 40
0.0
  9
$USERR5
 40
0.0
  9
$WORLDVIEW
 70
     1
  9
$SHADEDGE
 70
     3
  9
$SHADEDIF
 70
    70
  9
$TILEMODE
 70
     1
  9
$MAXACTVP
 70
    64
  9
$PINSBASE
 10
0.0
 20
0.0
 30
0.0
  9
$PLIMCHECK
 70
     0
  9
$PEXTMIN
 10
1.000000000000000E+20
 20
1.000000000000000E+20
 30
1.000000000000000E+20
  9
$PEXTMAX
 10
-1.000000000000000E+20
 20
-1.000000000000000E+20
 30
-1.000000000000000E+20
  9
$PLIMMIN
 10
0.0
 20
0.0
  9
$PLIMMAX
 10
12.0
 20
9.0
  9
$UNITMODE
 70
     0
  9
$VISRETAIN
 70
     1
  9
$PLINEGEN
 70
     0
  9
$PSLTSCALE
 70
     1
  9
$TREEDEPTH
 70
  3020
  9
$CMLSTYLE
  2
Standard
  9
$CMLJUST
 70
     0
  9
$CMLSCALE
 40
1.0
  9
$PROXYGRAPHICS
 70
     1
  9
$MEASUREMENT
 70
     0
  9
$CELWEIGHT
370
    -1
  9
$ENDCAPS
280
     0
  9
$JOINSTYLE
280
     0
  9
$LWDISPLAY
290
     0
  9
$INSUNITS
 70
     1
  9
$HYPERLINKBASE
  1

  9
$STYLESHEET
  1

  9
$XEDIT
290
     1
  9
$CEPSNTYPE
380
     0
  9
$PSTYLEMODE
290
     1
  9
$FINGERPRINTGUID
  2
{913DEDB5-B4C0-4590-B1D7-C051BD1657BC}
  9
$VERSIONGUID
  2
{FAEB1C32-E019-11D5-929B-00C0DF256EC4}
  9
$EXTNAMES
290
     1
  9
$PSVPSCALE
 40
0.0
  9
$OLESTARTUP
290
     0
  9
$SORTENTS
280
   127
  9
$INDEXCTL
280
     0
  9
$HIDETEXT
280
     1
  9
$XCLIPFRAME
280
     2
  9
$HALOGAP
280
     0
  9
$OBSCOLOR
 70
   257
  9
$OBSLTYPE
280
     0
  9
$INTERSECTIONDISPLAY
280
     0
  9
$INTERSECTIONCOLOR
 70
   257
  9
$DIMASSOC
280
     2
  9
$PROJECTNAME
  1

  9
$CAMERADISPLAY
290
     0
  9
$LENSLENGTH
 40
50.0
  9
$CAMERAHEIGHT
 40
0.0
  9
$STEPSPERSEC
 40
2.0
  9
$STEPSIZE
 40
6.0
  9
$3DDWFPREC
 40
2.0
  9
$PSOLWIDTH
 40
0.25
  9
$PSOLHEIGHT
 40
4.0
  9
$LOFTANG1
 40
1.570796326794897
  9
$LOFTANG2
 40
1.570796326794897
  9
$LOFTMAG1
 40
0.0
  9
$LOFTMAG2
 40
0.0
  9
$LOFTPARAM
 70
     7
  9
$LOFTNORMALS
280
     1
  9
$LATITUDE
 40
37.795
  9
$LONGITUDE
 40
-122.394
  9
$NORTHDIRECTION
 40
0.0
  9
$TIMEZONE
 70
 -8000
  9
$LIGHTGLYPHDISPLAY
280
     1
  9
$TILEMODELIGHTSYNCH
280
     1
  9
$CMATERIAL
347
44
  9
$SOLIDHIST
280
     0
  9
$SHOWHIST
280
     1
  9
$DWFFRAME
280
     2
  9
$DGNFRAME
280
     2
  9
$REALWORLDSCALE
290
     1
  9
$INTERFERECOLOR
 62
   256
  9
$CSHADOW
280
     0
  9
$SHADOWPLANELOCATION
 40
0.0
  0
ENDSEC
  0
SECTION
  2
CLASSES
  0
CLASS
  1
ACDBDICTIONARYWDFLT
  2
AcDbDictionaryWithDefault
  3
ObjectDBX Classes
 90
        0
 91
        4
280
     0
281
     0
  0
CLASS
  1
VISUALSTYLE
  2
AcDbVisualStyle
  3
ObjectDBX Classes
 90
     4095
 91
        4
280
     0
281
     0
  0
CLASS
  1
MATERIAL
  2
AcDbMaterial
  3
ObjectDBX Classes
 90
     1153
 91
        4
280
     0
281
     0
  0
CLASS
  1
SCALE
  2
AcDbScale
  3
ObjectDBX Classes
 90
     1153
 91
        4
280
     0
281
     0
  0
CLASS
  1
TABLESTYLE
  2
AcDbTableStyle
  3
ObjectDBX Classes
 90
     4095
 91
        4
280
     0
281
     0
  0
CLASS
  1
MLEADERSTYLE
  2
AcDbMLeaderStyle
  3
ACDB_MLEADERSTYLE_CLASS
 90
     4095
 91
        4
280
     0
281
     0
  0
CLASS
  1
SUN
  2
AcDbSun
  3
SCENEOE
 90
     1153
 91
        4
280
     0
281
     0
  0
CLASS
  1
DICTIONARYVAR
  2
AcDbDictionaryVar
  3
ObjectDBX Classes
 90
        0
 91
        4
280
     0
281
     0
  0
CLASS
  1
CELLSTYLEMAP
  2
AcDbCellStyleMap
  3
ObjectDBX Classes
 90
     1152
 91
        4
280
     0
281
     0
  0
ENDSEC
  0
SECTION
  2
TABLES
  0
TABLE
  2
VPORT
  5
8
330
0
100
AcDbSymbolTable
 70
     1
  0
VPORT
  5
29
330
8
100
AcDbSymbolTableRecord
100
AcDbViewportTableRecord
  2
*Active
 70
     0
 10
0.0
 20
0.0
 11
1.0
 21
1.0
 12
-0.04575
 22
-0.0325930060628981
 13
0.0
 23
0.0
 14
0.5
 24
0.5
 15
0.5
 25
0.5
 16
0.0
 26
0.0
 36
1.0
 17
0.0
 27
0.0
 37
0.0
 40
3.881289732368314
 41
0.5675149632944171
 42
50.0
 43
0.0
 44
0.0
 50
0.0
 51
0.0
 71
     0
 72
   100
 73
     1
 74
     3
 75
     0
 76
     0
 77
     0
 78
     0
281
     0
 65
     1
110
0.0
120
0.0
130
0.0
111
1.0
121
0.0
131
0.0
112
0.0
122
1.0
132
0.0
 79
     0
146
0.0
348
2F
 60
     3
 61
     5
292
     1
282
     1
141
0.0
142
0.0
 63
   250
361
6D
  0
ENDTAB
  0
TABLE
  2
LTYPE
  5
5
330
0
100
AcDbSymbolTable
 70
     3
  0
LTYPE
  5
14
330
5
100
AcDbSymbolTableRecord
100
AcDbLinetypeTableRecord
  2
ByBlock
 70
     0
  3

 72
    65
 73
     0
 40
0.0
  0
LTYPE
  5
15
330
5
100
AcDbSymbolTableRecord
100
AcDbLinetypeTableRecord
  2
ByLayer
 70
     0
  3

 72
    65
 73
     0
 40
0.0
  0
LTYPE
  5
16
330
5
100
AcDbSymbolTableRecord
100
AcDbLinetypeTableRecord
  2
Continuous
 70
     0
  3
Solid line
 72
    65
 73
     0
 40
0.0
  0
LTYPE
  5
94
330
5
100
AcDbSymbolTableRecord
100
AcDbLinetypeTableRecord
  2
Dashed
 70
     0
  3

 72
    65
 73
     2
 40
2.0
 49
1.0
 74
     0
 49
-1.0
 74
     0
  0
LTYPE
  5
13B
330
5
100
AcDbSymbolTableRecord
100
AcDbLinetypeTableRecord
  2
Center
 70
     0
  3

 72
    65
 73
     4
 40
1.5
 49
0.45
 74
     0
 49
-0.5
 74
     0
 49
0.05
 74
     0
 49
-0.5
 74
     0
  0
ENDTAB
  0
TABLE
  2
LAYER
  5
2
330
0
100
AcDbSymbolTable
 70
     7
  0
LAYER
  5
10
330
2
100
AcDbSymbolTableRecord
100
AcDbLayerTableRecord
  2
0
 70
     0
 62
     7
  6
Continuous
370
    -3
390
F
347
46
348
0
  0
LAYER
  5
72
330
2
100
AcDbSymbolTableRecord
100
AcDbLayerTableRecord
  2
AM_6
 70
     0
 62
    -2
  6
Continuous
370
    35
390
F
347
46
348
0
  0
LAYER
  5
95
330
2
100
AcDbSymbolTableRecord
100
AcDbLayerTableRecord
  2
AM_9
 70
     0
 62
     6
  6
Dashed
370
    25
390
F
347
46
348
0
  0
LAYER
  5
BE
330
2
100
AcDbSymbolTableRecord
100
AcDbLayerTableRecord
  2
AM_4
 70
     0
 62
     7
  6
Continuous
370
    50
390
F
347
46
348
0
  0
LAYER
  5
138
330
2
100
AcDbSymbolTableRecord
100
AcDbLayerTableRecord
  2
AM_5
 70
     0
 62
     3
  6
Continuous
370
    25
390
F
347
46
348
0
  0
LAYER
  5
13C
330
2
100
AcDbSymbolTableRecord
100
AcDbLayerTableRecord
  2
AM_7
 70
     0
 62
     7
  6
Center
370
    25
390
F
347
46
348
0
  0
LAYER
  5
194
330
2
100
AcDbSymbolTableRecord
100
AcDbLayerTableRecord
  2
ConnectionPoints
 70
     0
 62
     7
  6
Continuous
370
    50
390
F
347
46
348
0
  0
ENDTAB
  0
TABLE
  2
STYLE
  5
3
330
0
100
AcDbSymbolTable
 70
     1
  0
STYLE
  5
11
330
3
100
AcDbSymbolTableRecord
100
AcDbTextStyleTableRecord
  2
Standard
 70
     0
 40
0.0
 41
1.0
 50
0.0
 71
     0
 42
0.2
  3
txt
  4

  0
ENDTAB
  0
TABLE
  2
VIEW
  5
6
330
0
100
AcDbSymbolTable
 70
     0
  0
ENDTAB
  0
TABLE
  2
UCS
  5
7
330
0
100
AcDbSymbolTable
 70
     0
  0
ENDTAB
  0
TABLE
  2
APPID
  5
9
330
0
100
AcDbSymbolTable
 70
     1
  0
APPID
  5
12
330
9
100
AcDbSymbolTableRecord
100
AcDbRegAppTableRecord
  2
ACAD
 70
     0
  0
ENDTAB
  0
TABLE
  2
DIMSTYLE
  5
A
330
0
100
AcDbSymbolTable
 70
     1
100
AcDbDimStyleTable
  0
DIMSTYLE
105
27
330
A
100
AcDbSymbolTableRecord
100
AcDbDimStyleTableRecord
  2
Standard
 70
     0
178
     0
340
11
  0
ENDTAB
  0
TABLE
  2
BLOCK_RECORD
  5
1
330
0
100
AcDbSymbolTable
 70
     5
  0
BLOCK_RECORD
  5
1F
330
1
100
AcDbSymbolTableRecord
100
AcDbBlockTableRecord
  2
*Model_Space
340
22
 70
     0
280
     1
281
     0
  0
BLOCK_RECORD
  5
1B
330
1
100
AcDbSymbolTableRecord
100
AcDbBlockTableRecord
  2
*Paper_Space
340
1E
 70
     0
280
     1
281
     0
  0
BLOCK_RECORD
  5
23
330
1
100
AcDbSymbolTableRecord
100
AcDbBlockTableRecord
  2
*Paper_Space0
340
26
 70
     0
280
     1
281
     0
  0
BLOCK_RECORD
  5
6E
330
1
100
AcDbSymbolTableRecord
100
AcDbBlockTableRecord
  2
1_124473_2
340
0
102
{BLKREFS
331
6F
102
}
 70
     0
280
     1
281
     0
  0
BLOCK_RECORD
  5
88
330
1
100
AcDbSymbolTableRecord
100
AcDbBlockTableRecord
  2
2_405015E_Inch_0_in_124473_2
340
0
102
{BLKREFS
331
89
102
}
 70
     0
280
     1
281
     0
  0
BLOCK_RECORD
  5
E5
330
1
100
AcDbSymbolTableRecord
100
AcDbBlockTableRecord
  2
3_123368_0_in_124473_2
340
0
102
{BLKREFS
331
E6
102
}
 70
     0
280
     1
281
     0
  0
BLOCK_RECORD
  5
151
330
1
100
AcDbSymbolTableRecord
100
AcDbBlockTableRecord
  2
4_124473H_0_in_124473_2
340
0
102
{BLKREFS
331
152
102
}
 70
     0
280
     1
281
     0
  0
ENDTAB
  0
ENDSEC
  0
SECTION
  2
BLOCKS
  0
BLOCK
  5
20
330
1F
100
AcDbEntity
  8
0
100
AcDbBlockBegin
  2
*Model_Space
 70
     0
 10
0.0
 20
0.0
 30
0.0
  3
*Model_Space
  1

  0
ENDBLK
  5
21
330
1F
100
AcDbEntity
  8
0
100
AcDbBlockEnd
  0
BLOCK
  5
1C
330
1B
100
AcDbEntity
 67
     1
  8
0
100
AcDbBlockBegin
  2
*Paper_Space
 70
     0
 10
0.0
 20
0.0
 30
0.0
  3
*Paper_Space
  1

  0
ENDBLK
  5
1D
330
1B
100
AcDbEntity
 67
     1
  8
0
100
AcDbBlockEnd
  0
BLOCK
  5
24
330
23
100
AcDbEntity
  8
0
100
AcDbBlockBegin
  2
*Paper_Space0
 70
     0
 10
0.0
 20
0.0
 30
0.0
  3
*Paper_Space0
  1

  0
ENDBLK
  5
25
330
23
100
AcDbEntity
  8
0
100
AcDbBlockEnd
  0
BLOCK
  5
70
330
6E
100
AcDbEntity
  8
0
100
AcDbBlockBegin
  2
1_124473_2
 70
     2
 10
0.0
 20
0.0
 30
0.0
  3
1_124473_2
  1

  0
ATTDEF
  5
73
330
6E
100
AcDbEntity
  8
AM_6
100
AcDbText
 10
6.034
 20
1.87
 30
0.0
 40
0.5
  1
Set Screw Tapped Base Inch Bore
100
AcDbAttributeDefinition
  3

  2
NN
 70
     8
280
     0
  0
ATTDEF
  5
74
330
6E
100
AcDbEntity
  8
AM_6
100
AcDbText
 10
6.034
 20
1.37
 30
0.0
 40
0.5
  1
SC Pillow Block Bearings -(Normal Duty) -Tapped Base Housing
100
AcDbAttributeDefinition
  3

  2
NT
 70
     8
280
     0
  0
ATTDEF
  5
75
330
6E
100
AcDbEntity
  8
AM_6
100
AcDbText
 10
6.034
 20
0.8700000000000003
 30
0.0
 40
0.5
  1
124473
100
AcDbAttributeDefinition
  3

  2
NB
 70
     8
280
     0
  0
ATTDEF
  5
76
330
6E
100
AcDbEntity
  8
AM_6
100
AcDbText
 10
6.034
 20
0.3700000000000003
 30
0.0
 40
0.5
  1
$PN.
100
AcDbAttributeDefinition
  3

  2
NBSYN
 70
     8
280
     0
  0
ATTDEF
  5
77
330
6E
100
AcDbEntity
  8
AM_6
100
AcDbText
 10
6.034
 20
-0.1299999999999997
 30
0.0
 40
0.5
  1
124473
100
AcDbAttributeDefinition
  3

  2
LINA
 70
     8
280
     0
  0
ATTDEF
  5
78
330
6E
100
AcDbEntity
  8
AM_6
100
AcDbText
 10
6.034
 20
-0.6299999999999997
 30
0.0
 40
0.5
  1
207
100
AcDbAttributeDefinition
  3

  2
SERIES
 70
     8
280
     0
  0
ATTDEF
  5
79
330
6E
100
AcDbEntity
  8
AM_6
100
AcDbText
 10
6.034
 20
-1.13
 30
0.0
 40
0.5
  1
1-7/16
100
AcDbAttributeDefinition
  3

  2
SS
 70
     8
280
     0
  0
ATTDEF
  5
7A
330
6E
100
AcDbEntity
  8
AM_6
100
AcDbText
 10
6.034
 20
-1.63
 30
0.0
 40
0.5
  1
124473
100
AcDbAttributeDefinition
  3

  2
PN
 70
     8
280
     0
  0
ATTDEF
  5
7B
330
6E
100
AcDbEntity
  8
AM_6
100
AcDbText
 10
6.034
 20
-2.13
 30
0.0
 40
0.5
  1
TB-SC-107
100
AcDbAttributeDefinition
  3

  2
DESCRIPTION
 70
     8
280
     0
  0
ATTDEF
  5
7C
330
6E
100
AcDbEntity
  8
AM_6
100
AcDbText
 10
6.034
 20
-2.63
 30
0.0
 40
0.5
  1
3.25
100
AcDbAttributeDefinition
  3

  2
WEIGHT
 70
     8
280
     0
  0
ATTDEF
  5
7D
330
6E
100
AcDbEntity
  8
AM_6
100
AcDbText
 10
6.034
 20
-3.13
 30
0.0
 40
0.5
  1
1.71
100
AcDbAttributeDefinition
  3

  2
A
 70
     8
280
     0
  0
ATTDEF
  5
7E
330
6E
100
AcDbEntity
  8
AM_6
100
AcDbText
 10
6.034
 20
-3.63
 30
0.0
 40
0.5
  1
4.25
100
AcDbAttributeDefinition
  3

  2
B
 70
     8
280
     0
  0
ATTDEF
  5
7F
330
6E
100
AcDbEntity
  8
AM_6
100
AcDbText
 10
6.034
 20
-4.13
 30
0.0
 40
0.5
  1
1.88
100
AcDbAttributeDefinition
  3

  2
C
 70
     8
280
     0
  0
ATTDEF
  5
80
330
6E
100
AcDbEntity
  8
AM_6
100
AcDbText
 10
6.034
 20
-4.63
 30
0.0
 40
0.5
  1
3.25
100
AcDbAttributeDefinition
  3

  2
D
 70
     8
280
     0
  0
ATTDEF
  5
81
330
6E
100
AcDbEntity
  8
AM_6
100
AcDbText
 10
6.034
 20
-5.13
 30
0.0
 40
0.5
  1
3.75
100
AcDbAttributeDefinition
  3

  2
J
 70
     8
280
     0
  0
ATTDEF
  5
82
330
6E
100
AcDbEntity
  8
AM_6
100
AcDbText
 10
6.034
 20
-5.63
 30
0.0
 40
0.5
  1
1.84
100
AcDbAttributeDefinition
  3

  2
L
 70
     8
280
     0
  0
ATTDEF
  5
83
330
6E
100
AcDbEntity
  8
AM_6
100
AcDbText
 10
6.034
 20
-6.13
 30
0.0
 40
0.5
  1
1.88
100
AcDbAttributeDefinition
  3

  2
M
 70
     8
280
     0
  0
ATTDEF
  5
84
330
6E
100
AcDbEntity
  8
AM_6
100
AcDbText
 10
6.034
 20
-6.63
 30
0.0
 40
0.5
  1
0.75
100
AcDbAttributeDefinition
  3

  2
N
 70
     8
280
     0
  0
ATTDEF
  5
85
330
6E
100
AcDbEntity
  8
AM_6
100
AcDbText
 10
6.034
 20
-7.13
 30
0.0
 40
0.5
  1
1/2-13
100
AcDbAttributeDefinition
  3

  2
R
 70
     8
280
     0
  0
ATTDEF
  5
86
330
6E
100
AcDbEntity
  8
AM_6
100
AcDbText
 10
6.034
 20
-7.63
 30
0.0
 40
0.5
  1
1.04
100
AcDbAttributeDefinition
  3

  2
S
 70
     8
280
     0
  0
ATTDEF
  5
87
330
6E
100
AcDbEntity
  8
AM_6
100
AcDbText
 10
6.034
 20
-8.129999999999999
 30
0.0
 40
0.5
  1
baldor
100
AcDbAttributeDefinition
  3

  2
COMPANY
 70
     8
280
     0
  0
INSERT
  5
89
330
6E
100
AcDbEntity
  8
0
100
AcDbBlockReference
  2
2_405015E_Inch_0_in_124473_2
 10
0.0
 20
0.0
 30
0.0
  0
INSERT
  5
E6
330
6E
100
AcDbEntity
  8
0
100
AcDbBlockReference
  2
3_123368_0_in_124473_2
 10
0.0
 20
0.0
 30
0.0
  0
INSERT
  5
152
330
6E
100
AcDbEntity
  8
0
100
AcDbBlockReference
  2
4_124473H_0_in_124473_2
 10
0.0
 20
0.0
 30
0.0
  0
ENDBLK
  5
71
330
6E
100
AcDbEntity
  8
0
100
AcDbBlockEnd
  0
BLOCK
  5
8A
330
88
100
AcDbEntity
  8
0
100
AcDbBlockBegin
  2
2_405015E_Inch_0_in_124473_2
 70
     2
 10
0.0
 20
0.0
 30
0.0
  3
2_405015E_Inch_0_in_124473_2
  1

  0
ATTDEF
  5
8C
330
88
100
AcDbEntity
  8
AM_6
100
AcDbText
 10
5.252590742770462
 20
1.585356059677917
 30
0.0
 40
0.5
  1
405015E -Inch
100
AcDbAttributeDefinition
  3

  2
NN
 70
     8
280
     0
  0
ATTDEF
  5
8D
330
88
100
AcDbEntity
  8
AM_6
100
AcDbText
 10
5.252590742770462
 20
1.085356059677917
 30
0.0
 40
0.5
  1
Grease Fitting
100
AcDbAttributeDefinition
  3

  2
NT
 70
     8
280
     0
  0
ATTDEF
  5
8E
330
88
100
AcDbEntity
  8
AM_6
100
AcDbText
 10
5.252590742770462
 20
0.5853560596779173
 30
0.0
 40
0.5
  1
405015E-Inch
100
AcDbAttributeDefinition
  3

  2
NB
 70
     8
280
     0
  0
ATTDEF
  5
8F
330
88
100
AcDbEntity
  8
AM_6
100
AcDbText
 10
5.252590742770462
 20
0.0853560596779173
 30
0.0
 40
0.5
  1
$MN.-Inch
100
AcDbAttributeDefinition
  3

  2
NBSYN
 70
     8
280
     0
  0
ATTDEF
  5
90
330
88
100
AcDbEntity
  8
AM_6
100
AcDbText
 10
5.252590742770462
 20
-0.4146439403220827
 30
0.0
 40
0.5
  1
405015E
100
AcDbAttributeDefinition
  3

  2
LINA
 70
     8
280
     0
  0
ATTDEF
  5
91
330
88
100
AcDbEntity
  8
AM_6
100
AcDbText
 10
5.252590742770462
 20
-0.9146439403220827
 30
0.0
 40
0.5
  1
405015E
100
AcDbAttributeDefinition
  3

  2
MN
 70
     8
280
     0
  0
ATTDEF
  5
92
330
88
100
AcDbEntity
  8
AM_6
100
AcDbText
 10
5.252590742770462
 20
-1.414643940322083
 30
0.0
 40
0.5
  1
1/8 x 27PTF
100
AcDbAttributeDefinition
  3

  2
T
 70
     8
280
     0
  0
ATTDEF
  5
93
330
88
100
AcDbEntity
  8
AM_6
100
AcDbText
 10
5.252590742770462
 20
-1.914643940322083
 30
0.0
 40
0.5
  1
baldor
100
AcDbAttributeDefinition
  3

  2
COMPANY
 70
     8
280
     0
  0
LINE
  5
96
330
88
100
AcDbEntity
  8
AM_9
100
AcDbLine
 10
0.1262953713852308
 20
1.466580435290064
 30
0.0
 11
0.1262953713852307
 21
1.408693279640532
 31
0.0
  0
LINE
  5
97
330
88
100
AcDbEntity
  8
AM_9
100
AcDbLine
 10
-0.1262953713852306
 20
1.466580435290064
 30
0.0
 11
-0.1262953713852306
 21
1.408693279640532
 31
0.0
  0
LWPOLYLINE
  5
98
330
88
100
AcDbEntity
  8
AM_9
100
AcDbPolyline
 90
        3
 70
     0
 43
0.0
 10
0.0000000000000001
 20
1.402281518405971
 10
0.0631476856926154
 20
1.403973894189031
 10
0.1262953713852307
 20
1.408693279640532
  0
LWPOLYLINE
  5
99
330
88
100
AcDbEntity
  8
AM_9
100
AcDbPolyline
 90
        4
 70
     0
 43
0.0
 10
-0.1262953713852306
 20
1.408693279640532
 10
-0.0967996321117977
 20
1.4061581694746
 10
-0.0485424412477543
 20
1.403289731225454
 10
0.0000000000000001
 20
1.402281518405971
  0
ELLIPSE
  5
9A
330
88
100
AcDbEntity
  8
AM_9
100
AcDbEllipse
 10
0.0000000000000001
 20
1.060218613006979
 30
0.0
 11
-0.161902872472269
 21
1.982738345459263E-17
 31
0.0
210
0.0
220
0.0
230
1.0
 40
0.7071067811865478
 41
0.0
 42
6.283185307179586
  0
LWPOLYLINE
  5
9B
330
88
100
AcDbEntity
  8
AM_9
100
AcDbPolyline
 90
        3
 70
     0
 43
0.0
 10
-0.1894430570778459
 20
1.324941714213692
 10
-0.1578692142315382
 20
1.365303992092891
 10
-0.1262953713852306
 20
1.408693279640532
  0
LWPOLYLINE
  5
9C
330
88
100
AcDbEntity
  8
AM_9
100
AcDbPolyline
 90
        3
 70
     0
 43
0.0
 10
0.1262953713852307
 20
1.408693279640532
 10
0.1577272497321277
 20
1.365492813567625
 10
0.1894430570778461
 20
1.324941714213692
  0
LINE
  5
9D
330
88
100
AcDbEntity
  8
AM_9
100
AcDbLine
 10
-0.1262953713852306
 20
1.466580435290064
 30
0.0
 11
-0.134190983843898
 21
1.458333946154143
 31
0.0
  0
LWPOLYLINE
  5
9E
330
88
100
AcDbEntity
  8
AM_9
100
AcDbPolyline
 90
        4
 70
     0
 43
0.0
 10
0.0000000000000001
 20
1.472992196524626
 10
-0.0483998160558988
 20
1.471989829728794
 10
-0.0967996321117977
 20
1.469115545455996
 10
-0.1262953713852306
 20
1.466580435290064
  0
LINE
  5
9F
330
88
100
AcDbEntity
  8
AM_9
100
AcDbLine
 10
0.1347901478085932
 20
1.457702053841135
 30
0.0
 11
0.1262953713852308
 21
1.466580435290064
 31
0.0
  0
LWPOLYLINE
  5
A0
330
88
100
AcDbEntity
  8
AM_9
100
AcDbPolyline
 90
        3
 70
     0
 43
0.0
 10
0.1262953713852308
 20
1.466580435290064
 10
0.0634316146914368
 20
1.471284869559405
 10
0.0000000000000001
 20
1.472992196524626
  0
LWPOLYLINE
  5
A1
330
88
100
AcDbEntity
  8
AM_9
100
AcDbPolyline
 90
        3
 70
     0
 43
0.0
 10
-0.2525907427704611
 20
1.254013671255975
 10
-0.2211588644235642
 20
1.2878052687902
 10
-0.1894430570778459
 20
1.324941714213692
  0
LWPOLYLINE
  5
A2
330
88
100
AcDbEntity
  8
AM_9
100
AcDbPolyline
 90
        3
 70
     0
 43
0.0
 10
0.1894430570778461
 20
1.324941714213692
 10
0.2210168999241537
 20
1.287964187900613
 10
0.2525907427704613
 20
1.254013671255975
  0
ELLIPSE
  5
A3
330
88
100
AcDbEntity
  8
AM_9
100
AcDbEllipse
 10
-0.0000000000000006
 20
1.247601910021414
 30
0.0
 11
0.2187500000000006
 21
0.0
 31
0.0
210
0.0
220
0.0
230
1.0
 40
0.7071067811865481
 41
4.71238898038469
 42
9.948376736367681
  0
LINE
  5
A4
330
88
100
AcDbEntity
  8
AM_9
100
AcDbLine
 10
0.1985206121313389
 20
1.081790774455405
 30
0.0
 11
0.2056510939639163
 21
1.243048292948875
 31
0.0
  0
LINE
  5
A5
330
88
100
AcDbEntity
  8
AM_9
100
AcDbLine
 10
-0.2056510939639161
 20
1.243048292948875
 30
0.0
 11
-0.1985206121313387
 21
1.081790774455405
 31
0.0
  0
ELLIPSE
  5
A6
330
88
100
AcDbEntity
  8
AM_9
100
AcDbEllipse
 10
-0.0000000000000001
 20
1.247601910021412
 30
0.0
 11
0.2187499999999999
 21
0.0
 31
0.0
210
0.0
220
0.0
230
1.0
 40
0.7071067811865425
 41
3.66519142918809
 42
4.71238898038469
  0
ELLIPSE
  5
A7
330
88
100
AcDbEntity
  8
AM_9
100
AcDbEllipse
 10
-0.0000000000000004
 20
1.318312588140067
 30
0.0
 11
0.2187500000000007
 21
0.0
 31
0.0
210
0.0
220
0.0
230
1.0
 40
0.7071067811865521
 41
0.9156936017147075
 42
1.570796326794897
  0
ELLIPSE
  5
A8
330
88
100
AcDbEntity
  8
AM_9
100
AcDbEllipse
 10
0.0000000000000006
 20
1.318312588140067
 30
0.0
 11
0.2187500000000007
 21
0.0
 31
0.0
210
0.0
220
0.0
230
1.0
 40
0.7071067811865521
 41
1.570796326794897
 42
2.225899051875086
  0
LINE
  5
A9
330
88
100
AcDbEntity
  8
AM_9
100
AcDbLine
 10
-0.0948683298050513
 20
1.424378605318051
 30
0.0
 11
-0.1073548910028989
 21
1.405764738888985
 31
0.0
  0
LINE
  5
AA
330
88
100
AcDbEntity
  8
AM_9
100
AcDbLine
 10
0.107354891002899
 20
1.405764738888985
 30
0.0
 11
0.0948683298050515
 21
1.42437860531805
 31
0.0
  0
ELLIPSE
  5
AB
330
88
100
AcDbEntity
  8
AM_9
100
AcDbEllipse
 10
0.0
 20
1.392558800164655
 30
0.0
 11
0.1050000000000003
 21
1.564621925354008E-9
 31
0.0
210
0.0
220
0.0
230
1.0
 40
0.7071067811865497
 41
0.4429110249355306
 42
3.141592638688632
  0
ELLIPSE
  5
AC
330
88
100
AcDbEntity
  8
AM_9
100
AcDbEllipse
 10
0.0
 20
1.36975681378905
 30
0.0
 11
0.1188200907348977
 21
0.0
 31
0.0
210
0.0
220
0.0
230
1.0
 40
0.7071067811865508
 41
0.4429110440736403
 42
1.733730595722524
  0
ELLIPSE
  5
AD
330
88
100
AcDbEntity
  8
AM_9
100
AcDbEllipse
 10
0.0000000000000133
 20
1.369756813789146
 30
0.0
 11
0.1188200907349121
 21
1.770557325108530E-9
 31
0.0
210
0.0
220
0.0
230
1.0
 40
0.7071067811862263
 41
-3.584503716800643
 42
-3.517813299340856
  0
ELLIPSE
  5
AE
330
88
100
AcDbEntity
  8
AM_9
100
AcDbEllipse
 10
0.0000000000000001
 20
1.318312588140069
 30
0.0
 11
0.2137499999999992
 21
0.0
 31
0.0
210
0.0
220
0.0
230
1.0
 40
0.7071067811865481
 41
0.9036552188403757
 42
2.237937434749418
  0
ELLIPSE
  5
AF
330
88
100
AcDbEntity
  8
AM_9
100
AcDbEllipse
 10
0.0000000000000015
 20
1.392558800164654
 30
0.0
 11
0.1049999999999986
 21
0.0
 31
0.0
210
0.0
220
0.0
230
1.0
 40
0.7071067811865506
 41
0.0
 42
0.4429110440736643
  0
LINE
  5
B0
330
88
100
AcDbEntity
  8
AM_9
100
AcDbLine
 10
0.1050000000000001
 20
1.393877791047194
 30
0.0
 11
0.1050000000000001
 21
1.413772003600252
 31
0.0
  0
LINE
  5
B1
330
88
100
AcDbEntity
  8
AM_9
100
AcDbLine
 10
-0.1049999999999999
 20
1.413772003600252
 30
0.0
 11
-0.1049999999999999
 21
1.393877791047194
 31
0.0
  0
ELLIPSE
  5
B2
330
88
100
AcDbEntity
  8
AM_9
100
AcDbEllipse
 10
0.0000000000000013
 20
1.413772003600251
 30
0.0
 11
0.1050000000000012
 21
1.564621925354023E-9
 31
0.0
210
0.0
220
0.0
230
1.0
 40
0.7071067811865411
 41
3.141592638688632
 42
3.665191410748827
  0
ELLIPSE
  5
B3
330
88
100
AcDbEntity
  8
AM_9
100
AcDbEllipse
 10
0.0000000000000175
 20
1.369756813789155
 30
0.0
 11
0.1188200907348789
 21
0.0
 31
0.0
210
0.0
220
0.0
230
1.0
 40
0.7071067811862254
 41
0.3762206260999692
 42
0.4429110440727526
  0
ELLIPSE
  5
B4
330
88
100
AcDbEntity
  8
AM_9
100
AcDbEllipse
 10
0.0000000000000004
 20
1.331265510547445
 30
0.0
 11
0.1725340532830151
 21
0.0
 31
0.0
210
0.0
220
0.0
230
1.0
 40
0.7071067811865602
 41
0.777291343142096
 42
1.733730595722528
  0
LINE
  5
B5
330
88
100
AcDbEntity
  8
AM_9
100
AcDbLine
 10
-0.0192743186691521
 20
1.452662527108729
 30
0.0
 11
-0.0279874918769156
 21
1.451649686917737
 31
0.0
  0
LINE
  5
B6
330
88
100
AcDbEntity
  8
AM_9
100
AcDbLine
 10
0.0279874918769158
 20
1.451649686917737
 30
0.0
 11
0.0192743186691524
 21
1.452662527108729
 31
0.0
  0
ELLIPSE
  5
B7
330
88
100
AcDbEntity
  8
AM_9
100
AcDbEllipse
 10
0.0000000000000003
 20
1.36975681378905
 30
0.0
 11
0.1188200907348978
 21
0.0
 31
0.0
210
0.0
220
0.0
230
1.0
 40
0.7071067811865523
 41
1.733730595722527
 42
2.698681609516151
  0
ELLIPSE
  5
B8
330
88
100
AcDbEntity
  8
AM_9
100
AcDbEllipse
 10
-0.0000000000000002
 20
1.331265510547445
 30
0.0
 11
0.1725340532830151
 21
0.0
 31
0.0
210
0.0
220
0.0
230
1.0
 40
0.7071067811865602
 41
1.733730595722524
 42
2.364301310447697
  0
ELLIPSE
  5
B9
330
88
100
AcDbEntity
  8
AM_9
100
AcDbEllipse
 10
0.0000000000000001
 20
1.413772003600252
 30
0.0
 11
0.1050000000000001
 21
1.564621925354006E-9
 31
0.0
210
0.0
220
0.0
230
1.0
 40
0.7071067811865485
 41
0.0000017304280906
 42
3.141592638688632
  0
ELLIPSE
  5
BA
330
88
100
AcDbEntity
  8
AM_9
100
AcDbEllipse
 10
-0.0000000000000015
 20
1.413772003600251
 30
0.0
 11
0.1050000000000016
 21
0.0
 31
0.0
210
0.0
220
0.0
230
1.0
 40
0.7071067811865427
 41
5.759586531581306
 42
6.283185307179586
  0
ELLIPSE
  5
BB
330
88
100
AcDbEntity
  8
AM_9
100
AcDbEllipse
 10
0.0000000000000001
 20
1.456198410471445
 30
0.0
 11
0.1349999999999998
 21
0.0
 31
0.0
210
0.0
220
0.0
230
1.0
 40
0.7071067811865476
 41
0.4159140521025444
 42
2.72567860148725
  0
ELLIPSE
  5
BC
330
88
100
AcDbEntity
  8
AM_9
100
AcDbEllipse
 10
0.0000000000003234
 20
1.247601910020502
 30
0.0
 11
0.2057518972227463
 21
0.0
 31
0.0
210
0.0
220
0.0
230
1.0
 40
0.7071067811864788
 41
0.0
 42
6.283185307179586
  0
ELLIPSE
  5
BD
330
88
100
AcDbEntity
  8
AM_9
100
AcDbEllipse
 10
-0.0000000000001674
 20
1.086179864748435
 30
0.0
 11
0.1986176267813829
 21
0.0
 31
0.0
210
0.0
220
0.0
230
1.0
 40
0.7071067811865472
 41
0.0
 42
6.283185307179586
  0
LWPOLYLINE
  5
BF
330
88
100
AcDbEntity
  8
AM_4
100
AcDbPolyline
 90
        3
 70
     0
 43
0.0
 10
-0.134190983843898
 20
1.458333946154143
 10
-0.1577272497321275
 20
1.432788837755839
 10
-0.1894430570778459
 20
1.395652392332347
  0
LWPOLYLINE
  5
C0
330
88
100
AcDbEntity
  8
AM_4
100
AcDbPolyline
 90
        3
 70
     0
 43
0.0
 10
0.1894430570778461
 20
1.395652392332347
 10
0.1578692142315384
 20
1.432629918645427
 10
0.1355629682809934
 20
1.456885703722586
  0
LWPOLYLINE
  5
C1
330
88
100
AcDbEntity
  8
AM_4
100
AcDbPolyline
 90
        3
 70
     0
 43
0.0
 10
-0.1894430570778459
 20
1.395652392332347
 10
-0.2210168999241535
 20
1.355290114453148
 10
-0.2525907427704611
 20
1.311900826905507
  0
LWPOLYLINE
  5
C2
330
88
100
AcDbEntity
  8
AM_4
100
AcDbPolyline
 90
        3
 70
     0
 43
0.0
 10
0.2525907427704613
 20
1.311900826905507
 10
0.2211588644235644
 20
1.355101292978414
 10
0.1894430570778461
 20
1.395652392332347
  0
LWPOLYLINE
  5
C3
330
88
100
AcDbEntity
  8
AM_4
100
AcDbPolyline
 90
        3
 70
     0
 43
0.0
 10
-0.2525907427704611
 20
1.311900826905507
 10
-0.2211588644235642
 20
1.278109229371281
 10
-0.1894430570778459
 20
1.24097278394779
  0
LINE
  5
C4
330
88
100
AcDbEntity
  8
AM_4
100
AcDbLine
 10
-0.2525907427704611
 20
1.311900826905507
 30
0.0
 11
-0.2525907427704611
 21
1.254013671255975
 31
0.0
  0
LWPOLYLINE
  5
C5
330
88
100
AcDbEntity
  8
AM_4
100
AcDbPolyline
 90
        3
 70
     0
 43
0.0
 10
-0.1894430570778459
 20
1.170262105829135
 10
-0.2210168999241535
 20
1.210624383708334
 10
-0.2525907427704611
 20
1.254013671255975
  0
LWPOLYLINE
  5
C6
330
88
100
AcDbEntity
  8
AM_4
100
AcDbPolyline
 90
        3
 70
     0
 43
0.0
 10
-0.1262953713852306
 20
1.099334062871417
 10
-0.1577272497321275
 20
1.133125660405643
 10
-0.1894430570778459
 20
1.170262105829135
  0
ELLIPSE
  5
C7
330
88
100
AcDbEntity
  8
AM_4
100
AcDbEllipse
 10
0.0000000000000002
 20
1.318312588140067
 30
0.0
 11
0.2187499999999999
 21
0.0
 31
0.0
210
0.0
220
0.0
230
1.0
 40
0.7071067811865475
 41
4.71238898038469
 42
7.198878908894299
  0
LINE
  5
C8
330
88
100
AcDbEntity
  8
AM_4
100
AcDbLine
 10
0.2525907427704613
 20
1.311900826905507
 30
0.0
 11
0.2525907427704613
 21
1.254013671255975
 31
0.0
  0
LWPOLYLINE
  5
C9
330
88
100
AcDbEntity
  8
AM_4
100
AcDbPolyline
 90
        3
 70
     0
 43
0.0
 10
0.1894430570778461
 20
1.24097278394779
 10
0.2210168999241537
 20
1.277950310260869
 10
0.2525907427704613
 20
1.311900826905507
  0
LWPOLYLINE
  5
CA
330
88
100
AcDbEntity
  8
AM_4
100
AcDbPolyline
 90
        3
 70
     0
 43
0.0
 10
0.1894430570778461
 20
1.170262105829135
 10
0.1578692142315384
 20
1.133284579516055
 10
0.1262953713852308
 20
1.099334062871417
  0
LWPOLYLINE
  5
CB
330
88
100
AcDbEntity
  8
AM_4
100
AcDbPolyline
 90
        3
 70
     0
 43
0.0
 10
0.2525907427704613
 20
1.254013671255975
 10
0.2211588644235644
 20
1.210813205183068
 10
0.1894430570778461
 20
1.170262105829135
  0
LINE
  5
CC
330
88
100
AcDbEntity
  8
AM_4
100
AcDbLine
 10
0.1262953713852308
 20
1.15722121852095
 30
0.0
 11
0.1262953713852308
 21
1.099334062871417
 31
0.0
  0
LINE
  5
CD
330
88
100
AcDbEntity
  8
AM_4
100
AcDbLine
 10
-0.1262953713852306
 20
1.15722121852095
 30
0.0
 11
-0.1262953713852306
 21
1.099334062871417
 31
0.0
  0
LWPOLYLINE
  5
CE
330
88
100
AcDbEntity
  8
AM_4
100
AcDbPolyline
 90
        4
 70
     0
 43
0.0
 10
0.0000000000000001
 20
1.092922301636856
 10
-0.0483998160558988
 20
1.093924668432688
 10
-0.0967996321117977
 20
1.096798952705486
 10
-0.1262953713852306
 20
1.099334062871417
  0
LWPOLYLINE
  5
CF
330
88
100
AcDbEntity
  8
AM_4
100
AcDbPolyline
 90
        3
 70
     0
 43
0.0
 10
0.1262953713852308
 20
1.099334062871417
 10
0.0634316146914368
 20
1.094629628602077
 10
0.0000000000000001
 20
1.092922301636856
  0
LWPOLYLINE
  5
D0
330
88
100
AcDbEntity
  8
AM_4
100
AcDbPolyline
 90
        3
 70
     0
 43
0.0
 10
0.0000000000000001
 20
1.163632979755511
 10
0.0631476856926154
 20
1.161940603972452
 10
0.1262953713852308
 20
1.15722121852095
  0
LWPOLYLINE
  5
D1
330
88
100
AcDbEntity
  8
AM_4
100
AcDbPolyline
 90
        3
 70
     0
 43
0.0
 10
0.1262953713852308
 20
1.15722121852095
 10
0.1577272497321277
 20
1.200421684593857
 10
0.1894430570778461
 20
1.24097278394779
  0
ELLIPSE
  5
D2
330
88
100
AcDbEntity
  8
AM_4
100
AcDbEllipse
 10
0.0000000000000006
 20
1.318312588140069
 30
0.0
 11
0.2187500000000008
 21
0.0
 31
0.0
210
0.0
220
0.0
230
1.0
 40
0.7071067811865475
 41
2.225899051875089
 42
4.71238898038469
  0
LWPOLYLINE
  5
D3
330
88
100
AcDbEntity
  8
AM_4
100
AcDbPolyline
 90
        3
 70
     0
 43
0.0
 10
-0.1894430570778459
 20
1.24097278394779
 10
-0.1578692142315382
 20
1.200610506068591
 10
-0.1262953713852306
 20
1.15722121852095
  0
LWPOLYLINE
  5
D4
330
88
100
AcDbEntity
  8
AM_4
100
AcDbPolyline
 90
        4
 70
     0
 43
0.0
 10
-0.1262953713852306
 20
1.15722121852095
 10
-0.0967996321117977
 20
1.159756328686882
 10
-0.0485424412477543
 20
1.162624766936028
 10
0.0000000000000001
 20
1.163632979755511
  0
ELLIPSE
  5
D5
330
88
100
AcDbEntity
  8
AM_4
100
AcDbEllipse
 10
0.0000000000000002
 20
1.369756813789051
 30
0.0
 11
0.1188200907348974
 21
1.770557325108311E-9
 31
0.0
210
0.0
220
0.0
230
1.0
 40
0.7071067811865474
 41
2.765372007837788
 42
6.659405913629417
  0
ELLIPSE
  5
D6
330
88
100
AcDbEntity
  8
AM_4
100
AcDbEllipse
 10
0.0000000000000001
 20
1.318312588140068
 30
0.0
 11
0.2137500000000001
 21
0.0
 31
0.0
210
0.0
220
0.0
230
1.0
 40
0.7071067811865475
 41
2.237937434749415
 42
6.283185307179586
  0
ELLIPSE
  5
D7
330
88
100
AcDbEntity
  8
AM_4
100
AcDbEllipse
 10
0.0000000000000003
 20
1.318312588140068
 30
0.0
 11
0.2137499999999997
 21
0.0
 31
0.0
210
0.0
220
0.0
230
1.0
 40
0.7071067811865474
 41
0.0
 42
0.9036552188403785
  0
LINE
  5
D8
330
88
100
AcDbEntity
  8
AM_4
100
AcDbLine
 10
0.1050000000000001
 20
1.392558800164656
 30
0.0
 11
0.1050000000000001
 21
1.393877791047194
 31
0.0
  0
LINE
  5
D9
330
88
100
AcDbEntity
  8
AM_4
100
AcDbLine
 10
-0.1049999999999999
 20
1.393877791047194
 30
0.0
 11
-0.1049999999999999
 21
1.392558800164656
 31
0.0
  0
ELLIPSE
  5
DA
330
88
100
AcDbEntity
  8
AM_4
100
AcDbEllipse
 10
0.0000000000000001
 20
1.392558800164656
 30
0.0
 11
0.1050000000000003
 21
1.564621925354008E-9
 31
0.0
210
0.0
220
0.0
230
1.0
 40
0.7071067811865476
 41
3.141592638688632
 42
6.283187037607677
  0
ELLIPSE
  5
DB
330
88
100
AcDbEntity
  8
AM_4
100
AcDbEllipse
 10
0.0000000000000006
 20
1.331265510547446
 30
0.0
 11
0.1725340532830149
 21
0.0
 31
0.0
210
0.0
220
0.0
230
1.0
 40
0.7071067811865509
 41
2.364301310447699
 42
7.060476650321684
  0
LINE
  5
DC
330
88
100
AcDbEntity
  8
AM_4
100
AcDbLine
 10
0.0909326673973662
 20
1.376648897587958
 30
0.0
 11
0.1169134295108993
 21
1.408468702741353
 31
0.0
  0
LINE
  5
DD
330
88
100
AcDbEntity
  8
AM_4
100
AcDbLine
 10
-0.1169134295108991
 20
1.408468702741353
 30
0.0
 11
-0.090932667397366
 21
1.376648897587958
 31
0.0
  0
ELLIPSE
  5
DE
330
88
100
AcDbEntity
  8
AM_4
100
AcDbEllipse
 10
0.0000000000000001
 20
1.456198410471445
 30
0.0
 11
0.1350000000000001
 21
0.0
 31
0.0
210
0.0
220
0.0
230
1.0
 40
0.7071067811865475
 41
2.725678601487247
 42
6.283185307179586
  0
ELLIPSE
  5
DF
330
88
100
AcDbEntity
  8
AM_4
100
AcDbEllipse
 10
0.0000000000000001
 20
1.413772003600252
 30
0.0
 11
0.105
 21
0.0
 31
0.0
210
0.0
220
0.0
230
1.0
 40
0.7071067811865497
 41
3.665191429188091
 42
5.759586531581287
  0
ELLIPSE
  5
E0
330
88
100
AcDbEntity
  8
AM_4
100
AcDbEllipse
 10
-0.0000000000000034
 20
1.512766952966368
 30
0.0
 11
0.102677901933191
 21
0.0
 31
0.0
210
0.0
220
0.0
230
1.0
 40
0.707106781186548
 41
0.0
 42
0.41591405210254
  0
ELLIPSE
  5
E1
330
88
100
AcDbEntity
  8
AM_4
100
AcDbEllipse
 10
-0.0000000000000002
 20
1.456198410471445
 30
0.0
 11
0.1350000000000003
 21
0.0
 31
0.0
210
0.0
220
0.0
230
1.0
 40
0.7071067811865481
 41
0.0
 42
0.4159140521025474
  0
LINE
  5
E2
330
88
100
AcDbEntity
  8
AM_4
100
AcDbLine
 10
-0.0939243440009286
 20
1.542100970330144
 30
0.0
 11
-0.1234908992236334
 21
1.494766517820253
 31
0.0
  0
LINE
  5
E3
330
88
100
AcDbEntity
  8
AM_4
100
AcDbLine
 10
0.1234908992236336
 20
1.494766517820253
 30
0.0
 11
0.0939243440009288
 21
1.542100970330144
 31
0.0
  0
ELLIPSE
  5
E4
330
88
100
AcDbEntity
  8
AM_4
100
AcDbEllipse
 10
0.0000000000000001
 20
1.512766952966369
 30
0.0
 11
0.1026779019331875
 21
0.0
 31
0.0
210
0.0
220
0.0
230
1.0
 40
0.7071067811865488
 41
0.4159140521025479
 42
6.283185307179586
  0
ENDBLK
  5
8B
330
88
100
AcDbEntity
  8
0
100
AcDbBlockEnd
  0
BLOCK
  5
E7
330
E5
100
AcDbEntity
  8
0
100
AcDbBlockBegin
  2
3_123368_0_in_124473_2
 70
     2
 10
0.0
 20
0.0
 30
0.0
  3
3_123368_0_in_124473_2
  1

  0
ATTDEF
  5
E9
330
E5
100
AcDbEntity
  8
AM_6
100
AcDbText
 10
5.67
 20
1.4173
 30
0.0
 40
0.5
  1
Set Screw Insert Inch Bore
100
AcDbAttributeDefinition
  3

  2
NN
 70
     8
280
     0
  0
ATTDEF
  5
EA
330
E5
100
AcDbEntity
  8
AM_6
100
AcDbText
 10
5.67
 20
0.9173
 30
0.0
 40
0.5
  1
SC Normal Duty Bearing Inserts
100
AcDbAttributeDefinition
  3

  2
NT
 70
     8
280
     0
  0
ATTDEF
  5
EB
330
E5
100
AcDbEntity
  8
AM_6
100
AcDbText
 10
5.67
 20
0.4173
 30
0.0
 40
0.5
  1
123368
100
AcDbAttributeDefinition
  3

  2
NB
 70
     8
280
     0
  0
ATTDEF
  5
EC
330
E5
100
AcDbEntity
  8
AM_6
100
AcDbText
 10
5.67
 20
-0.0827
 30
0.0
 40
0.5
  1
$PN.
100
AcDbAttributeDefinition
  3

  2
NBSYN
 70
     8
280
     0
  0
ATTDEF
  5
ED
330
E5
100
AcDbEntity
  8
AM_6
100
AcDbText
 10
5.67
 20
-0.5827
 30
0.0
 40
0.5
  1
123368
100
AcDbAttributeDefinition
  3

  2
LINA
 70
     8
280
     0
  0
ATTDEF
  5
EE
330
E5
100
AcDbEntity
  8
AM_6
100
AcDbText
 10
5.67
 20
-1.0827
 30
0.0
 40
0.5
  1
207
100
AcDbAttributeDefinition
  3

  2
SERIES
 70
     8
280
     0
  0
ATTDEF
  5
EF
330
E5
100
AcDbEntity
  8
AM_6
100
AcDbText
 10
5.67
 20
-1.5827
 30
0.0
 40
0.5
  1
1-7/16
100
AcDbAttributeDefinition
  3

  2
SS
 70
     8
280
     0
  0
ATTDEF
  5
F0
330
E5
100
AcDbEntity
  8
AM_6
100
AcDbText
 10
5.67
 20
-2.0827
 30
0.0
 40
0.5
  1
123368
100
AcDbAttributeDefinition
  3

  2
PN
 70
     8
280
     0
  0
ATTDEF
  5
F1
330
E5
100
AcDbEntity
  8
AM_6
100
AcDbText
 10
5.67
 20
-2.5827
 30
0.0
 40
0.5
  1
INS-SC-107
100
AcDbAttributeDefinition
  3

  2
DESCRIPTION
 70
     8
280
     0
  0
ATTDEF
  5
F2
330
E5
100
AcDbEntity
  8
AM_6
100
AcDbText
 10
5.67
 20
-3.0827
 30
0.0
 40
0.5
  1
1.71
100
AcDbAttributeDefinition
  3

  2
A
 70
     8
280
     0
  0
ATTDEF
  5
F3
330
E5
100
AcDbEntity
  8
AM_6
100
AcDbText
 10
5.67
 20
-3.5827
 30
0.0
 40
0.5
  1
0.75
100
AcDbAttributeDefinition
  3

  2
C
 70
     8
280
     0
  0
ATTDEF
  5
F4
330
E5
100
AcDbEntity
  8
AM_6
100
AcDbText
 10
5.67
 20
-4.0827
 30
0.0
 40
0.5
  1
2.8346
100
AcDbAttributeDefinition
  3

  2
D
 70
     8
280
     0
  0
ATTDEF
  5
F5
330
E5
100
AcDbEntity
  8
AM_6
100
AcDbText
 10
5.67
 20
-4.5827
 30
0.0
 40
0.5
  1
0.2
100
AcDbAttributeDefinition
  3

  2
J
 70
     8
280
     0
  0
ATTDEF
  5
F6
330
E5
100
AcDbEntity
  8
AM_6
100
AcDbText
 10
5.67
 20
-5.0827
 30
0.0
 40
0.5
  1
1.84
100
AcDbAttributeDefinition
  3

  2
L
 70
     8
280
     0
  0
ATTDEF
  5
F7
330
E5
100
AcDbEntity
  8
AM_6
100
AcDbText
 10
5.67
 20
-5.5827
 30
0.0
 40
0.5
  1
5/16 - 24
100
AcDbAttributeDefinition
  3

  2
N
 70
     8
280
     0
  0
ATTDEF
  5
F8
330
E5
100
AcDbEntity
  8
AM_6
100
AcDbText
 10
5.67
 20
-6.0827
 30
0.0
 40
0.5
  1
0.67
100
AcDbAttributeDefinition
  3

  2
W
 70
     8
280
     0
  0
ATTDEF
  5
F9
330
E5
100
AcDbEntity
  8
AM_6
100
AcDbText
 10
5.67
 20
-6.5827
 30
0.0
 40
0.5
  1
1.04
100
AcDbAttributeDefinition
  3

  2
Y
 70
     8
280
     0
  0
ATTDEF
  5
FA
330
E5
100
AcDbEntity
  8
AM_6
100
AcDbText
 10
5.67
 20
-7.0827
 30
0.0
 40
0.5
  1
baldor
100
AcDbAttributeDefinition
  3

  2
COMPANY
 70
     8
280
     0
  0
ARC
  5
FB
330
E5
100
AcDbEntity
  8
AM_9
100
AcDbCircle
 10
0.1999999999999686
 20
0.0000000000000002
 30
0.0
 40
0.1041666666666931
100
AcDbArc
 50
356.9546517971647
 51
0.0
  0
ARC
  5
FC
330
E5
100
AcDbEntity
  8
AM_9
100
AcDbCircle
 10
0.2
 20
-0.0000000000000003
 30
0.0
 40
0.1041666666666616
100
AcDbArc
 50
302.3233567701545
 51
328.5393779902472
  0
LINE
  5
FD
330
E5
100
AcDbEntity
  8
AM_9
100
AcDbLine
 10
0.1999999999999999
 20
0.1041666666666617
 30
0.0
 11
0.1988832725296574
 21
0.1041606805094917
 31
0.0
  0
CIRCLE
  5
FE
330
E5
100
AcDbEntity
  8
AM_9
100
AcDbCircle
 10
0.1999999999999999
 20
-0.0000000000000001
 30
0.0
 40
0.0359848484848541
  0
LINE
  5
FF
330
E5
100
AcDbEntity
  8
AM_9
100
AcDbLine
 10
-0.7532388117500088
 20
0.7090607600201146
 30
0.0
 11
-0.6617611882499913
 21
0.7090607600201146
 31
0.0
  0
LINE
  5
100
330
E5
100
AcDbEntity
  8
AM_9
100
AcDbLine
 10
-0.5813
 20
0.71875
 30
0.0
 11
-0.5813
 21
0.8991344012334845
 31
0.0
  0
LINE
  5
101
330
E5
100
AcDbEntity
  8
AM_9
100
AcDbLine
 10
-0.8337
 20
0.8991344012334845
 30
0.0
 11
-0.8337
 21
0.7187499999999998
 31
0.0
  0
LINE
  5
102
330
E5
100
AcDbEntity
  8
AM_9
100
AcDbLine
 10
-0.8337
 20
0.8991344012334845
 30
0.0
 11
-0.5813
 21
0.8991344012334845
 31
0.0
  0
LINE
  5
103
330
E5
100
AcDbEntity
  8
AM_9
100
AcDbLine
 10
-0.5813
 20
0.8991344012334845
 30
0.0
 11
-0.5604344012334844
 21
0.92
 31
0.0
  0
LINE
  5
104
330
E5
100
AcDbEntity
  8
AM_9
100
AcDbLine
 10
-0.8545655987665156
 20
0.92
 30
0.0
 11
-0.8337
 21
0.8991344012334845
 31
0.0
  0
LWPOLYLINE
  5
105
330
E5
100
AcDbEntity
  8
AM_9
100
AcDbPolyline
 90
        7
 70
     0
 43
0.0
 10
-0.7532388117500088
 20
0.7090607600201146
 10
-0.7522980365439789
 20
0.7089876846752278
 10
-0.7337886658785135
 20
0.7078615288487692
 10
-0.7143774234063237
 20
0.7073013941260886
 10
-0.6964673839492682
 20
0.7073697111592162
 10
-0.6788806511354673
 20
0.707966703103414
 10
-0.6617611882499913
 20
0.7090607600201146
  0
LWPOLYLINE
  5
106
330
E5
100
AcDbEntity
  8
AM_9
100
AcDbPolyline
 90
        9
 70
     0
 43
0.0
 10
-0.6617611882499913
 20
0.7090607600201146
 10
-0.6428889088520914
 20
0.7105277725742488
 10
-0.6253555448991928
 20
0.7123361804680487
 10
-0.610625244619967
 20
0.7141847385165416
 10
-0.5982593610037181
 20
0.7159669264067412
 10
-0.589277164436832
 20
0.7173923343252254
 10
-0.5834607605360905
 20
0.7183737574736322
 10
-0.5813250972481223
 20
0.7187455937843693
 10
-0.5813000000005657
 20
0.7187499999999005
  0
LWPOLYLINE
  5
107
330
E5
100
AcDbEntity
  8
AM_9
100
AcDbPolyline
 90
        6
 70
     0
 43
0.0
 10
-0.7532388117500092
 20
0.1930623478339785
 10
-0.7379935309198246
 20
0.1873293917179373
 10
-0.722027168468339
 20
0.1838862955294862
 10
-0.7041090099038256
 20
0.1829475727307842
 10
-0.6857325654923012
 20
0.1851320449129791
 10
-0.6617611882499909
 20
0.1930623478339785
  0
LWPOLYLINE
  5
108
330
E5
100
AcDbEntity
  8
AM_9
100
AcDbPolyline
 90
        7
 70
     0
 43
0.0
 10
-0.661761188249992
 20
0.4062617039025019
 10
-0.6678236556025641
 20
0.4084748724402392
 10
-0.6865480843500463
 20
0.4131412855587503
 10
-0.7059914863230722
 20
0.4148997949124594
 10
-0.7236936925608438
 20
0.4138552032237178
 10
-0.7409328530230624
 20
0.4103842200507569
 10
-0.7532388117500082
 20
0.4062617039025019
  0
LINE
  5
109
330
E5
100
AcDbEntity
  8
AM_9
100
AcDbLine
 10
-1.0032
 20
-0.71875
 30
0.0
 11
0.6332
 21
-0.71875
 31
0.0
  0
LINE
  5
10A
330
E5
100
AcDbEntity
  8
AM_9
100
AcDbLine
 10
0.6332
 20
0.71875
 30
0.0
 11
-0.5813
 21
0.71875
 31
0.0
  0
LINE
  5
10B
330
E5
100
AcDbEntity
  8
AM_9
100
AcDbLine
 10
-0.8337
 20
0.71875
 30
0.0
 11
-1.0032
 21
0.71875
 31
0.0
  0
LWPOLYLINE
  5
10C
330
E5
100
AcDbEntity
  8
AM_9
100
AcDbPolyline
 90
        9
 70
     0
 43
0.0
 10
-0.8336999999994342
 20
0.7187499999999005
 10
-0.8322763979080061
 20
0.7185014070792742
 10
-0.8275251512965491
 20
0.7176915489566248
 10
-0.8192998353630042
 20
0.716361867834403
 10
-0.8081985038489121
 20
0.714713446898412
 10
-0.7939588281660336
 20
0.7128465834019573
 10
-0.7775205386659826
 20
0.7110400820875532
 10
-0.7585675090236408
 20
0.7094244237252334
 10
-0.7532388117500088
 20
0.7090607600201145
  0
LINE
  5
10D
330
E5
100
AcDbEntity
  8
AM_9
100
AcDbLine
 10
-1.0032
 20
0.71875
 30
0.0
 11
-1.04
 21
0.7555499999999999
 31
0.0
  0
LINE
  5
10E
330
E5
100
AcDbEntity
  8
AM_9
100
AcDbLine
 10
-1.04
 20
-0.7555499999999999
 30
0.0
 11
-1.0032
 21
-0.71875
 31
0.0
  0
LINE
  5
10F
330
E5
100
AcDbEntity
  8
AM_9
100
AcDbLine
 10
0.6332
 20
-0.71875
 30
0.0
 11
0.67
 21
-0.7555499999999999
 31
0.0
  0
LINE
  5
110
330
E5
100
AcDbEntity
  8
AM_9
100
AcDbLine
 10
0.67
 20
0.7555499999999999
 30
0.0
 11
0.6332
 21
0.71875
 31
0.0
  0
ELLIPSE
  5
111
330
E5
100
AcDbEntity
  8
AM_9
100
AcDbEllipse
 10
-0.7075
 20
0.2996620258682381
 30
0.0
 11
0.1261999999999985
 21
0.0
 31
0.0
210
0.0
220
0.0
230
1.0
 40
0.9063077870366453
 41
4.341513899853904
 42
5.083264060915474
  0
LWPOLYLINE
  5
112
330
E5
100
AcDbEntity
  8
AM_9
100
AcDbPolyline
 90
        4
 70
     0
 43
0.0
 10
-0.8259759472140813
 20
0.3426005432098445
 10
-0.8315392394639093
 20
0.3246723423266706
 10
-0.8336749027518776
 20
0.306035942894029
 10
-0.8336999993972293
 20
0.3037680544151948
  0
LWPOLYLINE
  5
113
330
E5
100
AcDbEntity
  8
AM_9
100
AcDbPolyline
 90
        9
 70
     0
 43
0.0
 10
-0.6617611882499909
 20
0.1930623478339785
 10
-0.642888908852091
 20
0.2020328684541553
 10
-0.6253555448991925
 20
0.214216843705943
 10
-0.6106252446199668
 20
0.2285245132587973
 10
-0.5982593610037179
 20
0.245311491129738
 10
-0.5892771644368318
 20
0.2631636737060361
 10
-0.5834607605360904
 20
0.2825233950006132
 10
-0.5813250972481223
 20
0.3014740840638465
 10
-0.5813000006027708
 20
0.3037456967476041
  0
LINE
  5
114
330
E5
100
AcDbEntity
  8
AM_9
100
AcDbLine
 10
-0.5812999999999999
 20
0.3037429470239889
 30
0.0
 11
-0.5812999999999999
 21
0.3799906177205599
 31
0.0
  0
LINE
  5
115
330
E5
100
AcDbEntity
  8
AM_9
100
AcDbLine
 10
-0.8337
 20
0.3799906177205599
 30
0.0
 11
-0.8337
 21
0.303742947023989
 31
0.0
  0
ELLIPSE
  5
116
330
E5
100
AcDbEntity
  8
AM_9
100
AcDbEllipse
 10
-0.7075000000000004
 20
0.3799906177205601
 30
0.0
 11
0.1262000000000004
 21
0.0
 31
0.0
210
0.0
220
0.0
230
1.0
 40
0.9063077870366496
 41
5.010349385998909
 42
6.283185307179586
  0
ELLIPSE
  5
117
330
E5
100
AcDbEntity
  8
AM_9
100
AcDbEllipse
 10
-0.7074999999999999
 20
0.3799906177205598
 30
0.0
 11
0.1262
 21
0.0
 31
0.0
210
0.0
220
0.0
230
1.0
 40
0.9063077870366502
 41
0.0
 42
1.04662436632933
  0
LWPOLYLINE
  5
118
330
E5
100
AcDbEntity
  8
AM_9
100
AcDbPolyline
 90
        9
 70
     0
 43
0.0
 10
-0.8336999993972293
 20
0.3037680544151948
 10
-0.8322763979080062
 20
0.2865206679500992
 10
-0.8275251512965495
 20
0.2679704879591852
 10
-0.8192998353630048
 20
0.2496899869307902
 10
-0.808198503848913
 20
0.2331104658168991
 10
-0.7939588281660345
 20
0.2179441915998954
 10
-0.7775205386659838
 20
0.2053424027899124
 10
-0.7585675090236419
 20
0.1952223419198576
 10
-0.7532388117500092
 20
0.1930623478339782
  0
LWPOLYLINE
  5
119
330
E5
100
AcDbEntity
  8
AM_9
100
AcDbPolyline
 90
        6
 70
     0
 43
0.0
 10
-0.5889269248617761
 20
0.3423665899033799
 10
-0.5957001646369959
 20
0.3558052277922031
 10
-0.606801496151088
 20
0.3709914433249233
 10
-0.6210411718339668
 20
0.3845797763303689
 10
-0.6374794613340177
 20
0.3956546442497003
 10
-0.6537428778710077
 20
0.4033800781604135
  0
LWPOLYLINE
  5
11A
330
E5
100
AcDbEntity
  8
AM_9
100
AcDbPolyline
 90
        4
 70
     0
 43
0.0
 10
-0.5813000006027708
 20
0.3037456967476041
 10
-0.5827236020919939
 20
0.3207829634860812
 10
-0.5874748487034509
 20
0.3386486218128937
 10
-0.5889269248617761
 20
0.3423665899033799
  0
LWPOLYLINE
  5
11B
330
E5
100
AcDbEntity
  8
AM_9
100
AcDbPolyline
 90
        9
 70
     0
 43
0.0
 10
-0.6419967647929418
 20
0.4963361125594847
 10
-0.6339984893613343
 20
0.4929165459099834
 10
-0.6121991277220692
 20
0.4806806880771295
 10
-0.5938345460575524
 20
0.4656486804273734
 10
-0.5788877308662339
 20
0.4478496842383144
 10
-0.5686260742809274
 20
0.4290304935181856
 10
-0.5623590487133961
 20
0.4086554104226281
 10
-0.5606862680881515
 20
0.3959919728227245
 10
-0.5605879082788798
 20
0.3831468696165902
  0
LWPOLYLINE
  5
11C
330
E5
100
AcDbEntity
  8
AM_9
100
AcDbPolyline
 90
        9
 70
     0
 43
0.0
 10
-0.5605879082788798
 20
0.3831468696165902
 10
-0.5635680356699398
 20
0.3632781926959328
 10
-0.5701729415079198
 20
0.3439609398142158
 10
-0.5799237393696521
 20
0.3261664671045509
 10
-0.5925453381619384
 20
0.3098848853577551
 10
-0.6086345461053658
 20
0.2947371385201887
 10
-0.6270200470031392
 20
0.2820561800758904
 10
-0.6487519557526242
 20
0.2715409242079175
 10
-0.6711897716414899
 20
0.2645919051165548
  0
LINE
  5
11D
330
E5
100
AcDbEntity
  8
AM_9
100
AcDbLine
 10
-0.8196799999999999
 20
-0.92
 30
0.0
 11
-0.3749999999999999
 21
-0.92
 31
0.0
  0
LINE
  5
11E
330
E5
100
AcDbEntity
  8
AM_9
100
AcDbLine
 10
-0.3749999999999999
 20
0.92
 30
0.0
 11
-0.5604344012334844
 21
0.92
 31
0.0
  0
LINE
  5
11F
330
E5
100
AcDbEntity
  8
AM_9
100
AcDbLine
 10
-0.5604344012336172
 20
0.9199999999999817
 30
0.0
 11
-0.5893451097214504
 21
0.9163949238921214
 31
0.0
  0
LINE
  5
120
330
E5
100
AcDbEntity
  8
AM_9
100
AcDbLine
 10
0.3749999999999999
 20
-0.9199999999999997
 30
0.0
 11
0.6332
 21
-0.9199999999999997
 31
0.0
  0
LINE
  5
121
330
E5
100
AcDbEntity
  8
AM_9
100
AcDbLine
 10
0.589066666666667
 20
0.9199999999999997
 30
0.0
 11
0.3749999999999999
 21
0.9199999999999997
 31
0.0
  0
LINE
  5
122
330
E5
100
AcDbEntity
  8
AM_9
100
AcDbLine
 10
0.6332
 20
-0.9200000000000002
 30
0.0
 11
0.67
 21
-0.8832000000000002
 31
0.0
  0
LINE
  5
123
330
E5
100
AcDbEntity
  8
AM_9
100
AcDbLine
 10
0.6332
 20
0.5678723404255329
 30
0.0
 11
0.6332
 21
-0.9200000000000002
 31
0.0
  0
LINE
  5
124
330
E5
100
AcDbEntity
  8
AM_9
100
AcDbLine
 10
0.67
 20
0.2742553191489359
 30
0.0
 11
0.67
 21
-0.8832000000000002
 31
0.0
  0
LINE
  5
125
330
E5
100
AcDbEntity
  8
AM_9
100
AcDbLine
 10
-0.2399999999999999
 20
-1.350633333333333
 30
0.0
 11
-0.1599999999999999
 21
-1.350633333333333
 31
0.0
  0
LINE
  5
126
330
E5
100
AcDbEntity
  8
AM_9
100
AcDbLine
 10
-0.1599999999999999
 20
1.350633333333333
 30
0.0
 11
-0.2399999999999999
 21
1.350633333333333
 31
0.0
  0
LINE
  5
127
330
E5
100
AcDbEntity
  8
AM_9
100
AcDbLine
 10
0.3749999999999999
 20
1.335937981344943
 30
0.0
 11
0.3749999999999999
 21
-1.335937981344943
 31
0.0
  0
ARC
  5
128
330
E5
100
AcDbEntity
  8
AM_9
100
AcDbCircle
 10
0.335
 20
-1.335937981344943
 30
0.0
 40
0.0399999999999997
100
AcDbArc
 50
284.0772302633403
 51
0.0
  0
ARC
  5
129
330
E5
100
AcDbEntity
  8
AM_9
100
AcDbCircle
 10
0.335
 20
1.335937981344943
 30
0.0
 40
0.0399999999999999
100
AcDbArc
 50
0.0
 51
75.92276973665967
  0
LINE
  5
12A
330
E5
100
AcDbEntity
  8
AM_9
100
AcDbLine
 10
-0.3749999999999999
 20
1.335937981344943
 30
0.0
 11
-0.3749999999999999
 21
-1.335937981344943
 31
0.0
  0
ARC
  5
12B
330
E5
100
AcDbEntity
  8
AM_9
100
AcDbCircle
 10
-0.3349999999999994
 20
-1.335937981344942
 30
0.0
 40
0.0400000000000005
100
AcDbArc
 50
180.0
 51
255.9227727932858
  0
ARC
  5
12C
330
E5
100
AcDbEntity
  8
AM_9
100
AcDbCircle
 10
-0.3349999999999995
 20
1.335937981344942
 30
0.0
 40
0.0400000000000003
100
AcDbArc
 50
104.0772272067141
 51
180.0
  0
ARC
  5
12D
330
E5
100
AcDbEntity
  8
AM_9
100
AcDbCircle
 10
-0.0000000000000001
 20
-0.0000000000000198
 30
0.0
 40
1.417300000000019
100
AcDbArc
 50
99.74921852491389
 51
104.077227206713
  0
ARC
  5
12E
330
E5
100
AcDbEntity
  8
AM_9
100
AcDbCircle
 10
0.0000000000177587
 20
0.0000000000842582
 30
0.0
 40
1.417300000085986
100
AcDbArc
 50
255.9227727934182
 51
260.2507814749548
  0
LINE
  5
12F
330
E5
100
AcDbEntity
  8
AM_9
100
AcDbLine
 10
-0.3447291802802586
 20
1.374736731983001
 30
0.0
 11
-0.3447291802802586
 21
-1.374736731982938
 31
0.0
  0
LINE
  5
130
330
E5
100
AcDbEntity
  8
AM_9
100
AcDbLine
 10
-0.24
 20
1.396831876068126
 30
0.0
 11
-0.24
 21
-1.396831876068063
 31
0.0
  0
LWPOLYLINE
  5
131
330
E5
100
AcDbEntity
  8
AM_9
100
AcDbPolyline
 90
       38
 70
     0
 43
0.0
 10
0.2738321148377609
 20
-0.0734813803832578
 10
0.2850473091660516
 20
-0.0601289094521439
 10
0.2939075419616275
 20
-0.045078465004574
 10
0.3001171933598404
 20
-0.0287229011393948
 10
0.3035246472958825
 20
-0.0115473740177826
 10
0.3039908970657906
 20
0.0058635617891338
 10
0.3015711127292015
 20
0.0231085158198288
 10
0.2963141486321338
 20
0.0396501356190336
 10
0.2884123825723597
 20
0.0550812586305191
 10
0.2780142677783317
 20
0.0690098841245335
 10
0.2654806890930553
 20
0.0810121830365164
 10
0.2510067935439673
 20
0.090812462254234
 10
0.2351289439469303
 20
0.0980645284576276
 10
0.2181077039631171
 20
0.1025703475092519
 10
0.2005818538230772
 20
0.1041650415954028
 10
0.1829286713577501
 20
0.1027476466533761
 10
0.1657561850901582
 20
0.0983771090491275
 10
0.1495622093796551
 20
0.0911289274605549
 10
0.1348017861447754
 20
0.08123969075847
 10
0.1220032640360569
 20
0.0690284678046144
 10
0.1114229516141058
 20
0.0548160646497576
 10
0.1034773828505219
 20
0.039138378422001
 10
0.0982559663916103
 20
0.0223348622010146
 10
0.0959656478423988
 20
0.005032403699051
 10
0.0965755785076832
 20
-0.0124130368332271
 10
0.1000876567388739
 20
-0.0294287719028181
 10
0.1063533015321363
 20
-0.0456178727091968
 10
0.1152452669846484
 20
-0.0605409881906429
 10
0.1264594868819824
 20
-0.0737732158359804
 10
0.1398083772183995
 20
-0.0850033134481564
 10
0.1548098830838131
 20
-0.0938538639457365
 10
0.1712238974674376
 20
-0.1001025178934463
 10
0.1884349473551806
 20
-0.1035226738534415
 10
0.2061076460822944
 20
-0.1039770562215587
 10
0.2236083309327087
 20
-0.1014561045724463
 10
0.2404784400855791
 20
-0.0959685804155146
 10
0.2561999680346702
 20
-0.087705518853408
 10
0.273832114837756
 20
-0.0734813803832499
  0
ARC
  5
132
330
E5
100
AcDbEntity
  8
AM_9
100
AcDbCircle
 10
0.0000000000000148
 20
-0.0000000000001803
 30
0.0
 40
1.417300000000181
100
AcDbArc
 50
94.24862322064348
 51
96.48197920051778
  0
ARC
  5
133
330
E5
100
AcDbEntity
  8
AM_9
100
AcDbCircle
 10
0.0000000000000001
 20
0.0000000000000693
 30
0.0
 40
1.417299999999931
100
AcDbArc
 50
85.86948039209432
 51
94.13051960790568
  0
ARC
  5
134
330
E5
100
AcDbEntity
  8
AM_9
100
AcDbCircle
 10
-0.0000000000000028
 20
-0.0000000000000226
 30
0.0
 40
1.417300000000023
100
AcDbArc
 50
75.9227727070207
 51
85.7513767793565
  0
ARC
  5
135
330
E5
100
AcDbEntity
  8
AM_9
100
AcDbCircle
 10
-0.0000000000000008
 20
0.0000000000000264
 30
0.0
 40
1.417300000000025
100
AcDbArc
 50
263.5180207994821
 51
284.0772272929792
  0
LINE
  5
136
330
E5
100
AcDbEntity
  8
AM_9
100
AcDbLine
 10
-0.1599999999999999
 20
1.40823978426971
 30
0.0
 11
-0.1599999999999999
 21
-1.408239784269709
 31
0.0
  0
LINE
  5
137
330
E5
100
AcDbEntity
  8
AM_9
100
AcDbLine
 10
0.3447291823501021
 20
1.374736731463966
 30
0.0
 11
0.3447291823501021
 21
-1.374736731463966
 31
0.0
  0
LINE
  5
139
330
E5
100
AcDbEntity
  8
AM_5
100
AcDbLine
 10
-0.55125
 20
0.71875
 30
0.0
 11
-0.55125
 21
0.92
 31
0.0
  0
LINE
  5
13A
330
E5
100
AcDbEntity
  8
AM_5
100
AcDbLine
 10
-0.86375
 20
0.71875
 30
0.0
 11
-0.86375
 21
0.92
 31
0.0
  0
LINE
  5
13D
330
E5
100
AcDbEntity
  8
AM_7
100
AcDbLine
 10
0.1999999999999999
 20
-0.0377840909090969
 30
0.0
 11
0.1999999999999999
 21
0.0377840909090967
 31
0.0
  0
LINE
  5
13E
330
E5
100
AcDbEntity
  8
AM_7
100
AcDbLine
 10
-0.7075
 20
0.9416930832941536
 30
0.0
 11
-0.7075
 21
0.6665020779594457
 31
0.0
  0
LWPOLYLINE
  5
13F
330
E5
100
AcDbEntity
  8
AM_4
100
AcDbPolyline
 90
        7
 70
     0
 43
0.0
 10
-0.7532388117500082
 20
0.4062617039025019
 10
-0.7721110911479078
 20
0.3985311558734854
 10
-0.7896444551008065
 20
0.3878757130228897
 10
-0.8043747553800323
 20
0.3751305122483974
 10
-0.8167406389962812
 20
0.3598499046739596
 10
-0.8257228355631677
 20
0.343202528931224
 10
-0.8259759472140813
 20
0.3426005432098445
  0
ELLIPSE
  5
140
330
E5
100
AcDbEntity
  8
AM_4
100
AcDbEllipse
 10
-0.7075
 20
0.2996620258682406
 30
0.0
 11
0.1261999999999999
 21
0.0
 31
0.0
210
0.0
220
0.0
230
1.0
 40
0.9063077870366467
 41
1.199921246264124
 42
1.94167140732567
  0
ELLIPSE
  5
141
330
E5
100
AcDbEntity
  8
AM_4
100
AcDbEllipse
 10
-0.7075
 20
0.3799906177205599
 30
0.0
 11
0.1262
 21
0.0
 31
0.0
210
0.0
220
0.0
230
1.0
 40
0.9063077870366502
 41
3.141592653589793
 42
5.010349385998905
  0
ELLIPSE
  5
142
330
E5
100
AcDbEntity
  8
AM_4
100
AcDbEllipse
 10
-0.7075000000000001
 20
0.3799906177205599
 30
0.0
 11
0.1261999999999999
 21
0.0
 31
0.0
210
0.0
220
0.0
230
1.0
 40
0.9063077870366496
 41
1.046624366329328
 42
1.570796326794897
  0
LWPOLYLINE
  5
143
330
E5
100
AcDbEntity
  8
AM_4
100
AcDbPolyline
 90
        3
 70
     0
 43
0.0
 10
-0.6537428778710077
 20
0.4033800781604135
 10
-0.6564324909763595
 20
0.4044090916624541
 10
-0.6617611882499917
 20
0.4062617039025022
  0
ELLIPSE
  5
144
330
E5
100
AcDbEntity
  8
AM_4
100
AcDbEllipse
 10
-0.7074999999999999
 20
0.3799906177205598
 30
0.0
 11
0.1262000000000001
 21
0.0
 31
0.0
210
0.0
220
0.0
230
1.0
 40
0.9063077870366495
 41
1.570796326794897
 42
3.141592653589793
  0
LWPOLYLINE
  5
145
330
E5
100
AcDbEntity
  8
AM_4
100
AcDbPolyline
 90
       25
 70
     0
 43
0.0
 10
-0.6711897716414899
 20
0.2645919051165548
 10
-0.6719593141783389
 20
0.2644166700217199
 10
-0.6973312168221055
 20
0.2608037887576973
 10
-0.7229788291470503
 20
0.2612115006936287
 10
-0.7487221663299641
 20
0.2658199659526828
 10
-0.7732870748661607
 20
0.2744889513719075
 10
-0.7957514884101563
 20
0.2869406238376953
 10
-0.8155921006122826
 20
0.3028337006592152
 10
-0.8314358019562612
 20
0.3209293106371523
 10
-0.8435713129913822
 20
0.3412258141340102
 10
-0.8509628016037893
 20
0.3614455537922166
 10
-0.8543649951509522
 20
0.3823351054802133
 10
-0.8537283405896984
 20
0.4018250662339459
 10
-0.8494968348811769
 20
0.4207350632430684
 10
-0.8419214843032232
 20
0.4382996133023902
 10
-0.8312955586635273
 20
0.4544069053250743
 10
-0.8172836347978097
 20
0.46931470387109
 10
-0.8007671272814005
 20
0.4820388056805551
 10
-0.780772242004617
 20
0.4930258231171736
 10
-0.7589882783813787
 20
0.5011537245140449
 10
-0.7345136270465196
 20
0.5065163990145239
 10
-0.709323221429411
 20
0.5084882361952608
 10
-0.683299974210065
 20
0.5069073389414687
 10
-0.6579578724397029
 20
0.5017163786486231
 10
-0.6419967647929418
 20
0.4963361125594847
  0
LINE
  5
146
330
E5
100
AcDbEntity
  8
AM_4
100
AcDbLine
 10
-1.0032
 20
-0.92
 30
0.0
 11
-0.8196799999999999
 21
-0.92
 31
0.0
  0
LINE
  5
147
330
E5
100
AcDbEntity
  8
AM_4
100
AcDbLine
 10
-0.8545655987665154
 20
0.9199999999999999
 30
0.0
 11
-1.0032
 21
0.92
 31
0.0
  0
LWPOLYLINE
  5
148
330
E5
100
AcDbEntity
  8
AM_4
100
AcDbPolyline
 90
       16
 70
     0
 43
0.0
 10
-0.5893451097214504
 20
0.9163949238921214
 10
-0.6019193796601768
 20
0.9150660433539636
 10
-0.6196251309267815
 20
0.9134435749968242
 10
-0.6398973282902163
 20
0.9119461854092924
 10
-0.6627210234400404
 20
0.9107244668690447
 10
-0.6873231601094075
 20
0.9099618570187384
 10
-0.7128309335755907
 20
0.9097809805555591
 10
-0.7389057595955516
 20
0.9102383946655802
 10
-0.7636679264524187
 20
0.9112724224166411
 10
-0.7875085961069855
 20
0.9128166953186599
 10
-0.8079506951618038
 20
0.9145659356338823
 10
-0.825973913522221
 20
0.9164305360844839
 10
-0.8391180018042161
 20
0.9179789615843863
 10
-0.848724767186288
 20
0.9192104035587125
 10
-0.8534925926100079
 20
0.9198526347972742
 10
-0.854565598766126
 20
0.9199999999999463
  0
LINE
  5
149
330
E5
100
AcDbEntity
  8
AM_4
100
AcDbLine
 10
-1.04
 20
-0.8832
 30
0.0
 11
-1.0032
 21
-0.92
 31
0.0
  0
LINE
  5
14A
330
E5
100
AcDbEntity
  8
AM_4
100
AcDbLine
 10
-1.0032
 20
0.92
 30
0.0
 11
-1.04
 21
0.8832
 31
0.0
  0
LINE
  5
14B
330
E5
100
AcDbEntity
  8
AM_4
100
AcDbLine
 10
-1.04
 20
0.8832
 30
0.0
 11
-1.04
 21
-0.8832
 31
0.0
  0
LINE
  5
14C
330
E5
100
AcDbEntity
  8
AM_4
100
AcDbLine
 10
-1.0032
 20
0.92
 30
0.0
 11
-1.0032
 21
-0.92
 31
0.0
  0
LINE
  5
14D
330
E5
100
AcDbEntity
  8
AM_4
100
AcDbLine
 10
0.6332
 20
0.9199999999999997
 30
0.0
 11
0.589066666666667
 21
0.9199999999999997
 31
0.0
  0
LINE
  5
14E
330
E5
100
AcDbEntity
  8
AM_4
100
AcDbLine
 10
0.67
 20
0.8832000000000002
 30
0.0
 11
0.6332
 21
0.9200000000000002
 31
0.0
  0
LINE
  5
14F
330
E5
100
AcDbEntity
  8
AM_4
100
AcDbLine
 10
0.6332
 20
0.9200000000000002
 30
0.0
 11
0.6332
 21
0.5678723404255329
 31
0.0
  0
LINE
  5
150
330
E5
100
AcDbEntity
  8
AM_4
100
AcDbLine
 10
0.67
 20
0.8832000000000002
 30
0.0
 11
0.67
 21
0.2742553191489359
 31
0.0
  0
ENDBLK
  5
E8
330
E5
100
AcDbEntity
  8
0
100
AcDbBlockEnd
  0
BLOCK
  5
153
330
151
100
AcDbEntity
  8
0
100
AcDbBlockBegin
  2
4_124473H_0_in_124473_2
 70
     2
 10
0.0
 20
0.0
 30
0.0
  3
4_124473H_0_in_124473_2
  1

  0
ATTDEF
  5
155
330
151
100
AcDbEntity
  8
AM_6
100
AcDbText
 10
6.034
 20
1.87
 30
0.0
 40
0.5
  1
TB-SC -I-Housing
100
AcDbAttributeDefinition
  3

  2
NN
 70
     8
280
     0
  0
ATTDEF
  5
156
330
151
100
AcDbEntity
  8
AM_6
100
AcDbText
 10
6.034
 20
1.37
 30
0.0
 40
0.5
  1
SC Pillow Block Bearings -(Normal Duty) -Tapped Base Housing
100
AcDbAttributeDefinition
  3

  2
NT
 70
     8
280
     0
  0
ATTDEF
  5
157
330
151
100
AcDbEntity
  8
AM_6
100
AcDbText
 10
6.034
 20
0.8700000000000003
 30
0.0
 40
0.5
  1
124473H
100
AcDbAttributeDefinition
  3

  2
NB
 70
     8
280
     0
  0
ATTDEF
  5
158
330
151
100
AcDbEntity
  8
AM_6
100
AcDbText
 10
6.034
 20
0.3700000000000003
 30
0.0
 40
0.5
  1
$PN.H
100
AcDbAttributeDefinition
  3

  2
NBSYN
 70
     8
280
     0
  0
ATTDEF
  5
159
330
151
100
AcDbEntity
  8
AM_6
100
AcDbText
 10
6.034
 20
-0.1299999999999997
 30
0.0
 40
0.5
  1
124473
100
AcDbAttributeDefinition
  3

  2
LINA
 70
     8
280
     0
  0
ATTDEF
  5
15A
330
151
100
AcDbEntity
  8
AM_6
100
AcDbText
 10
6.034
 20
-0.6299999999999997
 30
0.0
 40
0.5
  1
207
100
AcDbAttributeDefinition
  3

  2
SERIES
 70
     8
280
     0
  0
ATTDEF
  5
15B
330
151
100
AcDbEntity
  8
AM_6
100
AcDbText
 10
6.034
 20
-1.13
 30
0.0
 40
0.5
  1
1-7/16
100
AcDbAttributeDefinition
  3

  2
SS
 70
     8
280
     0
  0
ATTDEF
  5
15C
330
151
100
AcDbEntity
  8
AM_6
100
AcDbText
 10
6.034
 20
-1.63
 30
0.0
 40
0.5
  1
124473
100
AcDbAttributeDefinition
  3

  2
PN
 70
     8
280
     0
  0
ATTDEF
  5
15D
330
151
100
AcDbEntity
  8
AM_6
100
AcDbText
 10
6.034
 20
-2.13
 30
0.0
 40
0.5
  1
TB-SC-107
100
AcDbAttributeDefinition
  3

  2
DESCRIPTION
 70
     8
280
     0
  0
ATTDEF
  5
15E
330
151
100
AcDbEntity
  8
AM_6
100
AcDbText
 10
6.034
 20
-2.63
 30
0.0
 40
0.5
  1
1.71
100
AcDbAttributeDefinition
  3

  2
A
 70
     8
280
     0
  0
ATTDEF
  5
15F
330
151
100
AcDbEntity
  8
AM_6
100
AcDbText
 10
6.034
 20
-3.13
 30
0.0
 40
0.5
  1
4.25
100
AcDbAttributeDefinition
  3

  2
B
 70
     8
280
     0
  0
ATTDEF
  5
160
330
151
100
AcDbEntity
  8
AM_6
100
AcDbText
 10
6.034
 20
-3.63
 30
0.0
 40
0.5
  1
1.88
100
AcDbAttributeDefinition
  3

  2
C
 70
     8
280
     0
  0
ATTDEF
  5
161
330
151
100
AcDbEntity
  8
AM_6
100
AcDbText
 10
6.034
 20
-4.13
 30
0.0
 40
0.5
  1
3.25
100
AcDbAttributeDefinition
  3

  2
D
 70
     8
280
     0
  0
ATTDEF
  5
162
330
151
100
AcDbEntity
  8
AM_6
100
AcDbText
 10
6.034
 20
-4.63
 30
0.0
 40
0.5
  1
3.75
100
AcDbAttributeDefinition
  3

  2
J
 70
     8
280
     0
  0
ATTDEF
  5
163
330
151
100
AcDbEntity
  8
AM_6
100
AcDbText
 10
6.034
 20
-5.13
 30
0.0
 40
0.5
  1
1.84
100
AcDbAttributeDefinition
  3

  2
L
 70
     8
280
     0
  0
ATTDEF
  5
164
330
151
100
AcDbEntity
  8
AM_6
100
AcDbText
 10
6.034
 20
-5.63
 30
0.0
 40
0.5
  1
1.88
100
AcDbAttributeDefinition
  3

  2
M
 70
     8
280
     0
  0
ATTDEF
  5
165
330
151
100
AcDbEntity
  8
AM_6
100
AcDbText
 10
6.034
 20
-6.13
 30
0.0
 40
0.5
  1
0.75
100
AcDbAttributeDefinition
  3

  2
N
 70
     8
280
     0
  0
ATTDEF
  5
166
330
151
100
AcDbEntity
  8
AM_6
100
AcDbText
 10
6.034
 20
-6.63
 30
0.0
 40
0.5
  1
1/2-13
100
AcDbAttributeDefinition
  3

  2
R
 70
     8
280
     0
  0
ATTDEF
  5
167
330
151
100
AcDbEntity
  8
AM_6
100
AcDbText
 10
6.034
 20
-7.13
 30
0.0
 40
0.5
  1
1.04
100
AcDbAttributeDefinition
  3

  2
S
 70
     8
280
     0
  0
ATTDEF
  5
168
330
151
100
AcDbEntity
  8
AM_6
100
AcDbText
 10
6.034
 20
-7.63
 30
0.0
 40
0.5
  1
baldor
100
AcDbAttributeDefinition
  3

  2
COMPANY
 70
     8
280
     0
  0
LINE
  5
169
330
151
100
AcDbEntity
  8
AM_9
100
AcDbLine
 10
-0.7043733333333332
 20
-1.867500000000001
 30
0.0
 11
0.7043733333333327
 21
-1.867500000000001
 31
0.0
  0
LINE
  5
16A
330
151
100
AcDbEntity
  8
AM_9
100
AcDbLine
 10
-0.7043733333333333
 20
-1.805
 30
0.0
 11
0.7043733333333325
 21
-1.805
 31
0.0
  0
LINE
  5
16B
330
151
100
AcDbEntity
  8
AM_9
100
AcDbLine
 10
-0.8224999999999997
 20
-1.205
 30
0.0
 11
-0.8224999999999997
 21
-1.88
 31
0.0
  0
LINE
  5
16C
330
151
100
AcDbEntity
  8
AM_9
100
AcDbLine
 10
0.8225000000000003
 20
-1.205
 30
0.0
 11
0.8225000017508868
 21
-1.88
 31
0.0
  0
LINE
  5
16D
330
151
100
AcDbEntity
  8
AM_9
100
AcDbLine
 10
-0.8224999999999997
 20
-1.205
 30
0.0
 11
-0.7043733333333331
 21
-1.205
 31
0.0
  0
LWPOLYLINE
  5
16E
330
151
100
AcDbEntity
  8
AM_9
100
AcDbPolyline
 90
       12
 70
     0
 43
0.0
 10
-0.8224999999999997
 20
-1.205
 10
-0.8228221185663306
 20
-1.204636049314238
 10
-0.8420445406835207
 20
-1.182900526422001
 10
-0.8671125453038452
 20
-1.154381868439338
 10
-0.8795305610882969
 20
-1.140097070965564
 10
-0.891469631642788
 20
-1.126190389421423
 10
-0.9072935821782171
 20
-1.107325486969595
 10
-0.9214517637345419
 20
-1.089629322940573
 10
-0.9288656973119241
 20
-1.079676488009983
 10
-0.9347894724371577
 20
-1.070846091288632
 10
-0.9385939587018629
 20
-1.063800449995488
 10
-0.9399999999999998
 20
-1.058563153543925
  0
LWPOLYLINE
  5
16F
330
151
100
AcDbEntity
  8
AM_9
100
AcDbPolyline
 90
       12
 70
     0
 43
0.0
 10
0.9400000000000001
 20
-1.058563153543925
 10
0.9386264154031372
 20
-1.06370978344582
 10
0.9347894724371579
 20
-1.070846091288632
 10
0.9289319121728398
 20
-1.079583403917225
 10
0.9214517637345421
 20
-1.089629322940572
 10
0.9074928928981771
 20
-1.107086397465265
 10
0.8914696316427885
 20
-1.126190389421423
 10
0.8756745596308222
 20
-1.144551702384503
 10
0.8590712242351544
 20
-1.163568403014566
 10
0.8420445406835207
 20
-1.182900526422
 10
0.8228221185663034
 20
-1.204636049314214
 10
0.8225000000000003
 20
-1.204999999999999
  0
LINE
  5
170
330
151
100
AcDbEntity
  8
AM_9
100
AcDbLine
 10
0.7043733333333329
 20
-1.205
 30
0.0
 11
0.8225000000000003
 21
-1.205
 31
0.0
  0
LINE
  5
171
330
151
100
AcDbEntity
  8
AM_9
100
AcDbLine
 10
-0.1879999999999998
 20
-0.70865
 30
0.0
 11
0.7043733333333333
 21
-0.70865
 31
0.0
  0
LINE
  5
172
330
151
100
AcDbEntity
  8
AM_9
100
AcDbLine
 10
-0.1879999999999998
 20
0.7086499999999993
 30
0.0
 11
0.615555866666667
 21
0.7086499999999993
 31
0.0
  0
LINE
  5
173
330
151
100
AcDbEntity
  8
AM_9
100
AcDbLine
 10
-0.7043733333333332
 20
-1.4173
 30
0.0
 11
0.7043733333333325
 21
-1.4173
 31
0.0
  0
LINE
  5
174
330
151
100
AcDbEntity
  8
AM_9
100
AcDbLine
 10
0.5267384
 20
1.4173
 30
0.0
 11
-0.5267383999999999
 21
1.4173
 31
0.0
  0
LINE
  5
175
330
151
100
AcDbEntity
  8
AM_9
100
AcDbLine
 10
-0.8365999999999998
 20
-1.054999999999999
 30
0.0
 11
-0.7043733333333327
 21
-1.055
 31
0.0
  0
LINE
  5
176
330
151
100
AcDbEntity
  8
AM_9
100
AcDbLine
 10
-0.7043733333333332
 20
-1.867500000000001
 30
0.0
 11
-0.7043733333333327
 21
0.0
 31
0.0
  0
LINE
  5
177
330
151
100
AcDbEntity
  8
AM_9
100
AcDbLine
 10
0.7043733333333331
 20
-0.0000000000000001
 30
0.0
 11
0.7043733333333327
 21
-1.867500000000001
 31
0.0
  0
LINE
  5
178
330
151
100
AcDbEntity
  8
AM_9
100
AcDbLine
 10
0.7043733333333329
 20
-1.055
 30
0.0
 11
0.8366
 21
-1.054999999999999
 31
0.0
  0
LINE
  5
179
330
151
100
AcDbEntity
  8
AM_9
100
AcDbLine
 10
-0.1879999999999998
 20
-0.70865
 30
0.0
 11
-0.1879999999999998
 21
0.7086499999999993
 31
0.0
  0
LINE
  5
17A
330
151
100
AcDbEntity
  8
AM_9
100
AcDbLine
 10
0.2229500000000003
 20
-1.85295
 30
0.0
 11
0.2229500000000003
 21
-0.9049999999999998
 31
0.0
  0
LINE
  5
17B
330
151
100
AcDbEntity
  8
AM_9
100
AcDbLine
 10
-0.22295
 20
-0.9049999999999998
 30
0.0
 11
-0.22295
 21
-1.85295
 31
0.0
  0
LINE
  5
17C
330
151
100
AcDbEntity
  8
AM_9
100
AcDbLine
 10
-0.22295
 20
-0.9049999999999998
 30
0.0
 11
0.2229500000000003
 21
-0.9049999999999998
 31
0.0
  0
LINE
  5
17D
330
151
100
AcDbEntity
  8
AM_9
100
AcDbLine
 10
0.0000000000000001
 20
-0.7762797574841729
 30
0.0
 11
-0.22295
 21
-0.9049999999999998
 31
0.0
  0
LINE
  5
17E
330
151
100
AcDbEntity
  8
AM_9
100
AcDbLine
 10
0.2229500000000003
 20
-0.9049999999999998
 30
0.0
 11
0.0000000000000001
 21
-0.7762797574841729
 31
0.0
  0
LINE
  5
17F
330
151
100
AcDbEntity
  8
AM_9
100
AcDbLine
 10
-0.22295
 20
-1.85295
 30
0.0
 11
0.2229500000000003
 21
-1.85295
 31
0.0
  0
LINE
  5
180
330
151
100
AcDbEntity
  8
AM_9
100
AcDbLine
 10
-0.22295
 20
-1.85295
 30
0.0
 11
-0.25
 21
-1.88
 31
0.0
  0
LINE
  5
181
330
151
100
AcDbEntity
  8
AM_9
100
AcDbLine
 10
0.2500000000000002
 20
-1.88
 30
0.0
 11
0.2229500000000003
 21
-1.85295
 31
0.0
  0
LINE
  5
182
330
151
100
AcDbEntity
  8
AM_5
100
AcDbLine
 10
-0.2500000000000001
 20
-1.88
 30
0.0
 11
-0.2500000000000001
 21
-1.130000000000005
 31
0.0
  0
LINE
  5
183
330
151
100
AcDbEntity
  8
AM_5
100
AcDbLine
 10
-0.2500000000000001
 20
-1.130000000000005
 30
0.0
 11
0.2500000000000001
 21
-1.130000000000005
 31
0.0
  0
LINE
  5
184
330
151
100
AcDbEntity
  8
AM_5
100
AcDbLine
 10
0.2500000000000001
 20
-1.88
 30
0.0
 11
0.2500000000000001
 21
-1.130000000000005
 31
0.0
  0
LINE
  5
185
330
151
100
AcDbEntity
  8
AM_7
100
AcDbLine
 10
1.034
 20
0.0
 30
0.0
 11
-1.1255
 21
0.0
 31
0.0
  0
LINE
  5
186
330
151
100
AcDbEntity
  8
AM_7
100
AcDbLine
 10
-0.0000000000000001
 20
-0.7210937453583719
 30
0.0
 11
-0.0000000000000001
 21
-1.935186012125797
 31
0.0
  0
LINE
  5
187
330
151
100
AcDbEntity
  8
AM_4
100
AcDbLine
 10
0.9400000000000001
 20
-1.055
 30
0.0
 11
0.9400000000000002
 21
-1.88
 31
0.0
  0
LINE
  5
188
330
151
100
AcDbEntity
  8
AM_4
100
AcDbLine
 10
0.8366
 20
-1.055
 30
0.0
 11
0.9400000000000001
 21
-1.055
 31
0.0
  0
LINE
  5
189
330
151
100
AcDbEntity
  8
AM_4
100
AcDbLine
 10
-0.9399999999999998
 20
-1.88
 30
0.0
 11
0.9400000000000002
 21
-1.88
 31
0.0
  0
LINE
  5
18A
330
151
100
AcDbEntity
  8
AM_4
100
AcDbLine
 10
-0.9399999999999998
 20
-1.055
 30
0.0
 11
-0.8365999999999998
 21
-1.055
 31
0.0
  0
LINE
  5
18B
330
151
100
AcDbEntity
  8
AM_4
100
AcDbLine
 10
-0.9399999999999998
 20
-1.88
 30
0.0
 11
-0.9399999999999998
 21
-1.055
 31
0.0
  0
LINE
  5
18C
330
151
100
AcDbEntity
  8
AM_4
100
AcDbLine
 10
0.7899999999999998
 20
-0.6831914893616945
 30
0.0
 11
0.7899999999999998
 21
-1.88
 31
0.0
  0
LINE
  5
18D
330
151
100
AcDbEntity
  8
AM_4
100
AcDbLine
 10
-0.7899999999999999
 20
-0.6831914893617033
 30
0.0
 11
-0.7899999999999999
 21
-1.88
 31
0.0
  0
LINE
  5
18E
330
151
100
AcDbEntity
  8
AM_4
100
AcDbLine
 10
0.8366
 20
-1.054999999999999
 30
0.0
 11
0.47
 21
1.87
 31
0.0
  0
LINE
  5
18F
330
151
100
AcDbEntity
  8
AM_4
100
AcDbLine
 10
-0.7363333333333332
 20
-0.2550000000000003
 30
0.0
 11
0.7363333333333334
 21
-0.2550000000000002
 31
0.0
  0
LINE
  5
190
330
151
100
AcDbEntity
  8
AM_4
100
AcDbLine
 10
0.4699999999999998
 20
1.87
 30
0.0
 11
-0.4699999999999999
 21
1.87
 31
0.0
  0
LINE
  5
191
330
151
100
AcDbEntity
  8
AM_4
100
AcDbLine
 10
-0.4699999999999999
 20
1.87
 30
0.0
 11
-0.8365999999999998
 21
-1.055
 31
0.0
  0
LINE
  5
192
330
151
100
AcDbEntity
  8
AM_5
100
AcDbLine
 10
0.2500000000000001
 20
-1.13
 30
0.0
 11
0.2229500000000002
 21
-1.083148025655262
 31
0.0
  0
LINE
  5
193
330
151
100
AcDbEntity
  8
AM_5
100
AcDbLine
 10
-0.2500000000000001
 20
-1.13
 30
0.0
 11
-0.22295
 21
-1.083148025655262
 31
0.0
  0
ENDBLK
  5
154
330
151
100
AcDbEntity
  8
0
100
AcDbBlockEnd
  0
ENDSEC
  0
SECTION
  2
ENTITIES
  0
INSERT
  5
6F
330
1F
100
AcDbEntity
  8
0
100
AcDbBlockReference
  2
1_124473_2
 10
0.0
 20
0.0
 30
0.0
  0
POINT
  5
195
330
1F
100
AcDbEntity
  8
ConnectionPoints
100
AcDbPoint
 10
0.67
 20
0.0
 30
0.0
  0
POINT
  5
196
330
1F
100
AcDbEntity
  8
ConnectionPoints
100
AcDbPoint
 10
-1.04
 20
0.0
 30
0.0000000000000001
  0
POINT
  5
197
330
1F
100
AcDbEntity
  8
ConnectionPoints
100
AcDbPoint
 10
0.0000000000000001
 20
1.247601910021414
 30
1.502601910021414
  0
POINT
  5
198
330
1F
100
AcDbEntity
  8
ConnectionPoints
100
AcDbPoint
 10
-1.04
 20
0.0
 30
0.0000000000000001
  0
ENDSEC
  0
SECTION
  2
OBJECTS
  0
DICTIONARY
  5
C
330
0
100
AcDbDictionary
281
     1
  3
ACAD_DETAILVIEWSTYLE
350
1A0
  3
ACAD_GROUP
350
D
  3
ACAD_LAYOUT
350
1A
  3
ACAD_MATERIAL
350
43
  3
ACAD_MLEADERSTYLE
350
6B
  3
ACAD_MLINESTYLE
350
17
  3
ACAD_PLOTSETTINGS
350
19
  3
ACAD_PLOTSTYLENAME
350
E
  3
ACAD_SCALELIST
350
47
  3
ACAD_SECTIONVIEWSTYLE
350
1A1
  3
ACAD_TABLESTYLE
350
69
  3
ACAD_VISUALSTYLE
350
2A
  3
ACDB_RECOMPOSE_DATA
350
19D
  3
AcDbVariableDictionary
350
199
  0
SUN
  5
6D
330
29
100
AcDbSun
 90
        1
290
     0
 63
     7
421
 16777215
 40
1.0
291
     1
 91
  2455826
 92
 54000000
292
     0
 70
     2
 71
   256
280
     1
  0
DICTIONARY
  5
1A0
102
{ACAD_REACTORS
330
C
102
}
330
C
100
AcDbDictionary
281
     1
  0
DICTIONARY
  5
D
102
{ACAD_REACTORS
330
C
102
}
330
C
100
AcDbDictionary
281
     1
  0
DICTIONARY
  5
1A
102
{ACAD_REACTORS
330
C
102
}
330
C
100
AcDbDictionary
281
     1
  3
Layout1
350
1E
  3
Layout2
350
26
  3
Model
350
22
  0
DICTIONARY
  5
43
102
{ACAD_REACTORS
330
C
102
}
330
C
100
AcDbDictionary
281
     1
  3
ByBlock
350
45
  3
ByLayer
350
44
  3
Global
350
46
  0
DICTIONARY
  5
6B
102
{ACAD_REACTORS
330
C
102
}
330
C
100
AcDbDictionary
281
     1
  3
Standard
350
6C
  0
DICTIONARY
  5
17
102
{ACAD_REACTORS
330
C
102
}
330
C
100
AcDbDictionary
281
     1
  3
Standard
350
18
  0
DICTIONARY
  5
19
102
{ACAD_REACTORS
330
C
102
}
330
C
100
AcDbDictionary
281
     1
  0
ACDBDICTIONARYWDFLT
  5
E
102
{ACAD_REACTORS
330
C
102
}
330
C
100
AcDbDictionary
281
     1
  3
Normal
350
F
100
AcDbDictionaryWithDefault
340
F
  0
DICTIONARY
  5
47
102
{ACAD_REACTORS
330
C
102
}
330
C
100
AcDbDictionary
281
     1
  3
A0
350
48
  3
A1
350
49
  3
A2
350
4A
  3
A3
350
4B
  3
A4
350
4C
  3
A5
350
4D
  3
A6
350
4E
  3
A7
350
4F
  3
A8
350
50
  3
A9
350
51
  3
B0
350
52
  3
B1
350
53
  3
B2
350
54
  3
B3
350
55
  3
B4
350
56
  3
B5
350
57
  3
B6
350
58
  3
B7
350
59
  3
B8
350
5A
  3
B9
350
5B
  3
C0
350
5C
  3
C1
350
5D
  3
C2
350
5E
  3
C3
350
5F
  3
C4
350
60
  3
C5
350
61
  3
C6
350
62
  3
C7
350
63
  3
C8
350
64
  3
C9
350
65
  3
D0
350
66
  3
D1
350
67
  3
D2
350
68
  0
DICTIONARY
  5
1A1
102
{ACAD_REACTORS
330
C
102
}
330
C
100
AcDbDictionary
281
     1
  0
DICTIONARY
  5
69
102
{ACAD_REACTORS
330
C
102
}
330
C
100
AcDbDictionary
281
     1
  3
Standard
350
6A
  0
DICTIONARY
  5
2A
102
{ACAD_REACTORS
330
C
102
}
330
C
100
AcDbDictionary
281
     1
  3
2dWireframe
350
2F
  3
Basic
350
32
  3
Brighten
350
36
  3
ColorChange
350
3A
  3
Conceptual
350
34
  3
Dim
350
35
  3
EdgeColorOff
350
3D
  3
Facepattern
350
39
  3
Flat
350
2B
  3
FlatWithEdges
350
2C
  3
Gouraud
350
2D
  3
GouraudWithEdges
350
2E
  3
Hidden
350
31
  3
JitterOff
350
3B
  3
Linepattern
350
38
  3
OverhangOff
350
3C
  3
Realistic
350
33
  3
Shaded
350
42
  3
Shaded with edges
350
41
  3
Shades of Gray
350
3E
  3
Sketchy
350
3F
  3
Thicken
350
37
  3
Wireframe
350
30
  3
X-Ray
350
40
  0
XRECORD
  5
19D
102
{ACAD_REACTORS
330
C
102
}
330
C
100
AcDbXrecord
280
     1
 90
        1
330
6A
  0
DICTIONARY
  5
199
102
{ACAD_REACTORS
330
C
102
}
330
C
100
AcDbDictionary
281
     1
  3
CANNOSCALE
350
19A
  3
CMLEADERSTYLE
350
19F
  3
CTABLESTYLE
350
19E
  0
LAYOUT
  5
1E
102
{ACAD_REACTORS
330
1A
102
}
330
1A
100
AcDbPlotSettings
  1

  2
none_device
  4

  6

 40
0.0
 41
0.0
 42
0.0
 43
0.0
 44
0.0
 45
0.0
 46
0.0
 47
0.0
 48
0.0
 49
0.0
140
0.0
141
0.0
142
1.0
143
1.0
 70
   688
 72
     0
 73
     0
 74
     5
  7

 75
    16
 76
     0
 77
     2
 78
   300
147
1.0
148
0.0
149
0.0
100
AcDbLayout
  1
Layout1
 70
     1
 71
     1
 10
0.0
 20
0.0
 11
12.0
 21
9.0
 12
0.0
 22
0.0
 32
0.0
 14
1.000000000000000E+20
 24
1.000000000000000E+20
 34
1.000000000000000E+20
 15
-1.000000000000000E+20
 25
-1.000000000000000E+20
 35
-1.000000000000000E+20
146
0.0
 13
0.0
 23
0.0
 33
0.0
 16
1.0
 26
0.0
 36
0.0
 17
0.0
 27
1.0
 37
0.0
 76
     0
330
1B
  0
LAYOUT
  5
26
102
{ACAD_REACTORS
330
1A
102
}
330
1A
100
AcDbPlotSettings
  1

  2
none_device
  4

  6

 40
0.0
 41
0.0
 42
0.0
 43
0.0
 44
0.0
 45
0.0
 46
0.0
 47
0.0
 48
0.0
 49
0.0
140
0.0
141
0.0
142
1.0
143
1.0
 70
   688
 72
     0
 73
     0
 74
     5
  7

 75
    16
 76
     0
 77
     2
 78
   300
147
1.0
148
0.0
149
0.0
100
AcDbLayout
  1
Layout2
 70
     1
 71
     2
 10
0.0
 20
0.0
 11
0.0
 21
0.0
 12
0.0
 22
0.0
 32
0.0
 14
0.0
 24
0.0
 34
0.0
 15
0.0
 25
0.0
 35
0.0
146
0.0
 13
0.0
 23
0.0
 33
0.0
 16
1.0
 26
0.0
 36
0.0
 17
0.0
 27
1.0
 37
0.0
 76
     0
330
23
  0
LAYOUT
  5
22
102
{ACAD_REACTORS
330
1A
102
}
330
1A
100
AcDbPlotSettings
  1

  2
none_device
  4
Letter_(8.50_x_11.00_Inches)
  6

 40
6.35
 41
6.35
 42
6.35000508
 43
6.35000508
 44
215.9
 45
279.4
 46
0.0
 47
0.0
 48
0.0
 49
0.0
140
0.0
141
0.0
142
1.0
143
1.0
 70
  1712
 72
     0
 73
     0
 74
     0
  7

 75
     0
 76
     0
 77
     2
 78
   300
147
1.0
148
0.0
149
0.0
100
AcDbLayout
  1
Model
 70
     1
 71
     0
 10
0.0
 20
0.0
 11
12.0
 21
9.0
 12
0.0
 22
0.0
 32
0.0
 14
1.000000000000000E+20
 24
1.000000000000000E+20
 34
1.000000000000000E+20
 15
-1.000000000000000E+20
 25
-1.000000000000000E+20
 35
-1.000000000000000E+20
146
0.0
 13
0.0
 23
0.0
 33
0.0
 16
1.0
 26
0.0
 36
0.0
 17
0.0
 27
1.0
 37
0.0
 76
     0
330
1F
331
29
  0
MATERIAL
  5
45
102
{ACAD_REACTORS
330
43
102
}
330
43
100
AcDbMaterial
  1
ByBlock
 72
     1
 94
      127
  0
MATERIAL
  5
44
102
{ACAD_REACTORS
330
43
102
}
330
43
100
AcDbMaterial
  1
ByLayer
 72
     1
 94
      127
  0
MATERIAL
  5
46
102
{ACAD_REACTORS
330
43
102
}
330
43
100
AcDbMaterial
  1
Global
 72
     1
 94
      127
  0
MLEADERSTYLE
  5
6C
102
{ACAD_REACTORS
330
6B
102
}
330
6B
100
AcDbMLeaderStyle
179
     2
170
     2
171
     1
172
     0
 90
        2
 40
0.0
 41
0.0
173
     1
 91
-1056964608
340
14
 92
       -2
290
     1
 42
0.09
291
     1
 43
0.36
  3
Standard
341
0
 44
0.18
300

342
11
174
     1
178
     6
175
     1
176
     0
 93
-1056964608
 45
0.18
292
     0
297
     0
 46
0.18
343
0
 94
-1056964608
 47
1.0
 49
1.0
140
1.0
293
     1
141
0.0
294
     1
177
     0
142
1.0
295
     0
296
     0
143
0.125
271
     0
272
     9
273
     9
298
     0
  0
MLINESTYLE
  5
18
102
{ACAD_REACTORS
330
17
102
}
330
17
100
AcDbMlineStyle
  2
Standard
 70
     0
  3

 62
   256
 51
90.0
 52
90.0
 71
     2
 49
0.5
 62
   256
  6
BYLAYER
 49
-0.5
 62
   256
  6
BYLAYER
  0
ACDBPLACEHOLDER
  5
F
102
{ACAD_REACTORS
330
E
102
}
330
E
  0
SCALE
  5
48
102
{ACAD_REACTORS
330
47
102
}
330
47
100
AcDbScale
 70
     0
300
1:1
140
1.0
141
1.0
290
     1
  0
SCALE
  5
49
102
{ACAD_REACTORS
330
47
102
}
330
47
100
AcDbScale
 70
     0
300
1:2
140
1.0
141
2.0
290
     0
  0
SCALE
  5
4A
102
{ACAD_REACTORS
330
47
102
}
330
47
100
AcDbScale
 70
     0
300
1:4
140
1.0
141
4.0
290
     0
  0
SCALE
  5
4B
102
{ACAD_REACTORS
330
47
102
}
330
47
100
AcDbScale
 70
     0
300
1:5
140
1.0
141
5.0
290
     0
  0
SCALE
  5
4C
102
{ACAD_REACTORS
330
47
102
}
330
47
100
AcDbScale
 70
     0
300
1:8
140
1.0
141
8.0
290
     0
  0
SCALE
  5
4D
102
{ACAD_REACTORS
330
47
102
}
330
47
100
AcDbScale
 70
     0
300
1:10
140
1.0
141
10.0
290
     0
  0
SCALE
  5
4E
102
{ACAD_REACTORS
330
47
102
}
330
47
100
AcDbScale
 70
     0
300
1:16
140
1.0
141
16.0
290
     0
  0
SCALE
  5
4F
102
{ACAD_REACTORS
330
47
102
}
330
47
100
AcDbScale
 70
     0
300
1:20
140
1.0
141
20.0
290
     0
  0
SCALE
  5
50
102
{ACAD_REACTORS
330
47
102
}
330
47
100
AcDbScale
 70
     0
300
1:30
140
1.0
141
30.0
290
     0
  0
SCALE
  5
51
102
{ACAD_REACTORS
330
47
102
}
330
47
100
AcDbScale
 70
     0
300
1:40
140
1.0
141
40.0
290
     0
  0
SCALE
  5
52
102
{ACAD_REACTORS
330
47
102
}
330
47
100
AcDbScale
 70
     0
300
1:50
140
1.0
141
50.0
290
     0
  0
SCALE
  5
53
102
{ACAD_REACTORS
330
47
102
}
330
47
100
AcDbScale
 70
     0
300
1:100
140
1.0
141
100.0
290
     0
  0
SCALE
  5
54
102
{ACAD_REACTORS
330
47
102
}
330
47
100
AcDbScale
 70
     0
300
2:1
140
2.0
141
1.0
290
     0
  0
SCALE
  5
55
102
{ACAD_REACTORS
330
47
102
}
330
47
100
AcDbScale
 70
     0
300
4:1
140
4.0
141
1.0
290
     0
  0
SCALE
  5
56
102
{ACAD_REACTORS
330
47
102
}
330
47
100
AcDbScale
 70
     0
300
8:1
140
8.0
141
1.0
290
     0
  0
SCALE
  5
57
102
{ACAD_REACTORS
330
47
102
}
330
47
100
AcDbScale
 70
     0
300
10:1
140
10.0
141
1.0
290
     0
  0
SCALE
  5
58
102
{ACAD_REACTORS
330
47
102
}
330
47
100
AcDbScale
 70
     0
300
100:1
140
100.0
141
1.0
290
     0
  0
SCALE
  5
59
102
{ACAD_REACTORS
330
47
102
}
330
47
100
AcDbScale
 70
     0
300
1/128" = 1'-0"
140
0.0078125
141
12.0
290
     0
  0
SCALE
  5
5A
102
{ACAD_REACTORS
330
47
102
}
330
47
100
AcDbScale
 70
     0
300
1/64" = 1'-0"
140
0.015625
141
12.0
290
     0
  0
SCALE
  5
5B
102
{ACAD_REACTORS
330
47
102
}
330
47
100
AcDbScale
 70
     0
300
1/32" = 1'-0"
140
0.03125
141
12.0
290
     0
  0
SCALE
  5
5C
102
{ACAD_REACTORS
330
47
102
}
330
47
100
AcDbScale
 70
     0
300
1/16" = 1'-0"
140
0.0625
141
12.0
290
     0
  0
SCALE
  5
5D
102
{ACAD_REACTORS
330
47
102
}
330
47
100
AcDbScale
 70
     0
300
3/32" = 1'-0"
140
0.09375
141
12.0
290
     0
  0
SCALE
  5
5E
102
{ACAD_REACTORS
330
47
102
}
330
47
100
AcDbScale
 70
     0
300
1/8" = 1'-0"
140
0.125
141
12.0
290
     0
  0
SCALE
  5
5F
102
{ACAD_REACTORS
330
47
102
}
330
47
100
AcDbScale
 70
     0
300
3/16" = 1'-0"
140
0.1875
141
12.0
290
     0
  0
SCALE
  5
60
102
{ACAD_REACTORS
330
47
102
}
330
47
100
AcDbScale
 70
     0
300
1/4" = 1'-0"
140
0.25
141
12.0
290
     0
  0
SCALE
  5
61
102
{ACAD_REACTORS
330
47
102
}
330
47
100
AcDbScale
 70
     0
300
3/8" = 1'-0"
140
0.375
141
12.0
290
     0
  0
SCALE
  5
62
102
{ACAD_REACTORS
330
47
102
}
330
47
100
AcDbScale
 70
     0
300
1/2" = 1'-0"
140
0.5
141
12.0
290
     0
  0
SCALE
  5
63
102
{ACAD_REACTORS
330
47
102
}
330
47
100
AcDbScale
 70
     0
300
3/4" = 1'-0"
140
0.75
141
12.0
290
     0
  0
SCALE
  5
64
102
{ACAD_REACTORS
330
47
102
}
330
47
100
AcDbScale
 70
     0
300
1" = 1'-0"
140
1.0
141
12.0
290
     0
  0
SCALE
  5
65
102
{ACAD_REACTORS
330
47
102
}
330
47
100
AcDbScale
 70
     0
300
1-1/2" = 1'-0"
140
1.5
141
12.0
290
     0
  0
SCALE
  5
66
102
{ACAD_REACTORS
330
47
102
}
330
47
100
AcDbScale
 70
     0
300
3" = 1'-0"
140
3.0
141
12.0
290
     0
  0
SCALE
  5
67
102
{ACAD_REACTORS
330
47
102
}
330
47
100
AcDbScale
 70
     0
300
6" = 1'-0"
140
6.0
141
12.0
290
     0
  0
SCALE
  5
68
102
{ACAD_REACTORS
330
47
102
}
330
47
100
AcDbScale
 70
     0
300
1'-0" = 1'-0"
140
12.0
141
12.0
290
     0
  0
TABLESTYLE
  5
6A
102
{ACAD_REACTORS
330
69
102
}
102
{ACAD_XDICTIONARY
360
19B
102
}
330
69
100
AcDbTableStyle
  3
Standard
 70
     0
 71
     0
 40
0.06
 41
0.06
280
     0
281
     0
  7
Standard
140
0.18
170
     2
 62
     0
 63
   257
283
     0
 90
        4
 91
        0
  1

274
    -2
284
     1
 64
     0
275
    -2
285
     1
 65
     0
276
    -2
286
     1
 66
     0
277
    -2
287
     1
 67
     0
278
    -2
288
     1
 68
     0
279
    -2
289
     1
 69
     0
  7
Standard
140
0.25
170
     5
 62
     0
 63
   257
283
     0
 90
        4
 91
        0
  1

274
    -2
284
     1
 64
     0
275
    -2
285
     1
 65
     0
276
    -2
286
     1
 66
     0
277
    -2
287
     1
 67
     0
278
    -2
288
     1
 68
     0
279
    -2
289
     1
 69
     0
  7
Standard
140
0.18
170
     5
 62
     0
 63
   257
283
     0
 90
        4
 91
        0
  1

274
    -2
284
     1
 64
     0
275
    -2
285
     1
 65
     0
276
    -2
286
     1
 66
     0
277
    -2
287
     1
 67
     0
278
    -2
288
     1
 68
     0
279
    -2
289
     1
 69
     0
  0
VISUALSTYLE
  5
2F
102
{ACAD_REACTORS
330
2A
102
}
330
2A
100
AcDbVisualStyle
  2
2dWireframe
 70
     4
177
     3
291
     0
 70
    58
 90
        0
176
     1
 90
        2
176
     1
 90
        0
176
     1
 90
        0
176
     1
 40
0.6
176
     1
 40
30.0
176
     1
 62
     7
420
 16777215
176
     1
 90
        1
176
     1
 90
        4
176
     1
 62
     7
176
     1
 62
   257
176
     1
 90
        1
176
     1
 90
        1
176
     1
 40
1.0
176
     1
 90
        0
176
     1
 62
   257
176
     1
 40
1.0
176
     1
 90
        1
176
     1
 90
        6
176
     1
 90
        2
176
     1
 62
     7
176
     1
 90
        5
176
     1
 90
        0
176
     1
 90
        0
176
     1
290
     0
176
     1
 90
        1
176
     1
 40
0.0
176
     1
 90
        0
176
     1
290
     1
176
     1
290
     1
176
     1
290
     0
176
     1
290
     0
176
     1
290
     0
176
     1
290
     0
176
     1
290
     0
176
     1
290
     0
176
     1
290
     0
176
     1
 90
       50
176
     1
 40
0.0
176
     1
 40
1.0
176
     1
 90
        0
176
     1
 62
    18
420
        0
176
     1
 90
       50
176
     1
 90
        3
176
     1
 62
     5
420
      255
176
     1
290
     0
176
     1
 90
       50
176
     1
 90
       50
176
     1
 90
       50
176
     1
290
     0
176
     1
 90
       50
176
     1
 62
   256
176
     0
 40
1.0
176
     0
 90
        2
176
     1
  1
strokes_ogs.tif
176
     1
290
     0
176
     1
 40
1.0
176
     1
 40
1.0
176
     1
  0
VISUALSTYLE
  5
32
102
{ACAD_REACTORS
330
2A
102
}
330
2A
100
AcDbVisualStyle
  2
Basic
 70
     7
177
     3
291
     1
 70
    58
 90
        1
176
     1
 90
        0
176
     1
 90
        1
176
     1
 90
        0
176
     1
 40
0.6
176
     1
 40
30.0
176
     1
 62
     7
420
 16777215
176
     1
 90
        0
176
     1
 90
        4
176
     1
 62
     7
176
     1
 62
   257
176
     1
 90
        1
176
     1
 90
        1
176
     1
 40
1.0
176
     1
 90
        8
176
     1
 62
     7
176
     1
 40
1.0
176
     1
 90
        1
176
     1
 90
        6
176
     1
 90
        2
176
     1
 62
     7
176
     1
 90
        5
176
     1
 90
        0
176
     1
 90
        0
176
     1
290
     0
176
     1
 90
        1
176
     1
 40
0.0
176
     1
 90
        0
176
     1
290
     0
176
     1
290
     1
176
     1
290
     1
176
     1
290
     0
176
     1
290
     0
176
     1
290
     0
176
     1
290
     0
176
     1
290
     0
176
     1
290
     0
176
     1
 90
       50
176
     1
 40
0.0
176
     1
 40
1.0
176
     1
 90
        0
176
     1
 62
    18
420
        0
176
     1
 90
       50
176
     1
 90
        3
176
     1
 62
     5
420
      255
176
     1
290
     0
176
     1
 90
       50
176
     1
 90
       50
176
     1
 90
       50
176
     1
290
     0
176
     1
 90
       50
176
     1
 62
   256
176
     0
 40
1.0
176
     0
 90
        2
176
     1
  1
strokes_ogs.tif
176
     1
290
     0
176
     1
 40
1.0
176
     1
 40
1.0
176
     1
  0
VISUALSTYLE
  5
36
102
{ACAD_REACTORS
330
2A
102
}
330
2A
100
AcDbVisualStyle
  2
Brighten
 70
    12
177
     3
291
     1
 70
    58
 90
        2
176
     1
 90
        2
176
     1
 90
        0
176
     1
 90
        0
176
     1
 40
0.6
176
     1
 40
30.0
176
     1
 62
     7
420
 16777215
176
     1
 90
        1
176
     1
 90
        4
176
     1
 62
     7
176
     1
 62
   257
176
     1
 90
        1
176
     1
 90
        1
176
     1
 40
1.0
176
     1
 90
        8
176
     1
 62
     7
176
     1
 40
1.0
176
     1
 90
        1
176
     1
 90
        6
176
     1
 90
        2
176
     1
 62
     7
176
     1
 90
        5
176
     1
 90
        0
176
     1
 90
        0
176
     1
290
     0
176
     1
 90
        1
176
     1
 40
50.0
176
     1
 90
        0
176
     1
290
     0
176
     1
290
     1
176
     1
290
     1
176
     1
290
     0
176
     1
290
     0
176
     1
290
     0
176
     1
290
     0
176
     1
290
     0
176
     1
290
     0
176
     1
 90
       50
176
     1
 40
0.0
176
     1
 40
1.0
176
     1
 90
        0
176
     1
 62
    18
420
        0
176
     1
 90
       50
176
     1
 90
        3
176
     1
 62
     5
420
      255
176
     1
290
     0
176
     1
 90
       50
176
     1
 90
       50
176
     1
 90
       50
176
     1
290
     0
176
     1
 90
       50
176
     1
 62
   256
176
     0
 40
1.0
176
     0
 90
        2
176
     1
  1
strokes_ogs.tif
176
     1
290
     0
176
     1
 40
1.0
176
     1
 40
1.0
176
     1
  0
VISUALSTYLE
  5
3A
102
{ACAD_REACTORS
330
2A
102
}
330
2A
100
AcDbVisualStyle
  2
ColorChange
 70
    16
177
     3
291
     1
 70
    58
 90
        2
176
     1
 90
        2
176
     1
 90
        3
176
     1
 90
        0
176
     1
 40
0.6
176
     1
 40
30.0
176
     1
 62
     8
420
  8421504
176
     1
 90
        1
176
     1
 90
        4
176
     1
 62
     7
176
     1
 62
   257
176
     1
 90
        1
176
     1
 90
        1
176
     1
 40
1.0
176
     1
 90
        8
176
     1
 62
     8
420
  8421504
176
     1
 40
1.0
176
     1
 90
        1
176
     1
 90
        6
176
     1
 90
        2
176
     1
 62
     7
176
     1
 90
        5
176
     1
 90
        0
176
     1
 90
        0
176
     1
290
     0
176
     1
 90
        1
176
     1
 40
0.0
176
     1
 90
        0
176
     1
290
     0
176
     1
290
     1
176
     1
290
     1
176
     1
290
     0
176
     1
290
     0
176
     1
290
     0
176
     1
290
     0
176
     1
290
     0
176
     1
290
     0
176
     1
 90
       50
176
     1
 40
0.0
176
     1
 40
1.0
176
     1
 90
        0
176
     1
 62
    18
420
        0
176
     1
 90
       50
176
     1
 90
        3
176
     1
 62
     5
420
      255
176
     1
290
     0
176
     1
 90
       50
176
     1
 90
       50
176
     1
 90
       50
176
     1
290
     0
176
     1
 90
       50
176
     1
 62
   256
176
     0
 40
1.0
176
     0
 90
        2
176
     1
  1
strokes_ogs.tif
176
     1
290
     0
176
     1
 40
1.0
176
     1
 40
1.0
176
     1
  0
VISUALSTYLE
  5
34
102
{ACAD_REACTORS
330
2A
102
}
330
2A
100
AcDbVisualStyle
  2
Conceptual
 70
     9
177
     3
291
     0
 70
    58
 90
        3
176
     1
 90
        2
176
     1
 90
        0
176
     1
 90
        0
176
     1
 40
0.6
176
     1
 40
30.0
176
     1
 62
     7
420
 16777215
176
     1
 90
        2
176
     1
 90
        2
176
     1
 62
     7
176
     1
 62
   257
176
     1
 90
        1
176
     1
 90
        1
176
     1
 40
179.0
176
     1
 90
        8
176
     1
 62
     7
176
     1
 40
1.0
176
     1
 90
        1
176
     1
 90
        6
176
     1
 90
        2
176
     1
 62
     7
176
     1
 90
        3
176
     1
 90
        0
176
     1
 90
        0
176
     1
290
     0
176
     1
 90
        1
176
     1
 40
0.0
176
     1
 90
        0
176
     1
290
     0
176
     1
290
     1
176
     1
290
     1
176
     1
290
     0
176
     1
290
     0
176
     1
290
     0
176
     1
290
     0
176
     1
290
     0
176
     1
290
     0
176
     1
 90
       50
176
     1
 40
0.0
176
     1
 40
1.0
176
     1
 90
        0
176
     1
 62
    18
420
        0
176
     1
 90
       50
176
     1
 90
        3
176
     1
 62
     5
420
      255
176
     1
290
     0
176
     1
 90
       50
176
     1
 90
       50
176
     1
 90
       50
176
     1
290
     0
176
     1
 90
       50
176
     1
 62
   256
176
     0
 40
1.0
176
     0
 90
        2
176
     1
  1
strokes_ogs.tif
176
     1
290
     0
176
     1
 40
1.0
176
     1
 40
1.0
176
     1
  0
VISUALSTYLE
  5
35
102
{ACAD_REACTORS
330
2A
102
}
330
2A
100
AcDbVisualStyle
  2
Dim
 70
    11
177
     3
291
     1
 70
    58
 90
        2
176
     1
 90
        2
176
     1
 90
        0
176
     1
 90
        0
176
     1
 40
0.6
176
     1
 40
30.0
176
     1
 62
     7
420
 16777215
176
     1
 90
        1
176
     1
 90
        4
176
     1
 62
     7
176
     1
 62
   257
176
     1
 90
        1
176
     1
 90
        1
176
     1
 40
1.0
176
     1
 90
        8
176
     1
 62
     7
176
     1
 40
1.0
176
     1
 90
        1
176
     1
 90
        6
176
     1
 90
        2
176
     1
 62
     7
176
     1
 90
        5
176
     1
 90
        0
176
     1
 90
        0
176
     1
290
     0
176
     1
 90
        1
176
     1
 40
-50.0
176
     1
 90
        0
176
     1
290
     0
176
     1
290
     1
176
     1
290
     1
176
     1
290
     0
176
     1
290
     0
176
     1
290
     0
176
     1
290
     0
176
     1
290
     0
176
     1
290
     0
176
     1
 90
       50
176
     1
 40
0.0
176
     1
 40
1.0
176
     1
 90
        0
176
     1
 62
    18
420
        0
176
     1
 90
       50
176
     1
 90
        3
176
     1
 62
     5
420
      255
176
     1
290
     0
176
     1
 90
       50
176
     1
 90
       50
176
     1
 90
       50
176
     1
290
     0
176
     1
 90
       50
176
     1
 62
   256
176
     0
 40
1.0
176
     0
 90
        2
176
     1
  1
strokes_ogs.tif
176
     1
290
     0
176
     1
 40
1.0
176
     1
 40
1.0
176
     1
  0
VISUALSTYLE
  5
3D
102
{ACAD_REACTORS
330
2A
102
}
330
2A
100
AcDbVisualStyle
  2
EdgeColorOff
 70
    22
177
     3
291
     1
 70
    58
 90
        2
176
     0
 90
        2
176
     0
 90
        0
176
     0
 90
        0
176
     0
 40
0.6
176
     0
 40
30.0
176
     0
 62
     7
420
 16777215
176
     0
 90
        1
176
     0
 90
        4
176
     0
 62
     7
176
     0
 62
   257
176
     0
 90
        1
176
     0
 90
        1
176
     0
 40
1.0
176
     0
 90
        8
176
     2
 62
     7
176
     0
 40
1.0
176
     0
 90
        1
176
     0
 90
        6
176
     0
 90
        2
176
     0
 62
     7
176
     0
 90
        5
176
     0
 90
        0
176
     0
 90
        0
176
     0
290
     0
176
     0
 90
        1
176
     0
 40
0.0
176
     0
 90
        0
176
     0
290
     0
176
     0
290
     1
176
     0
290
     1
176
     0
290
     0
176
     0
290
     0
176
     0
290
     0
176
     0
290
     0
176
     0
290
     0
176
     0
290
     0
176
     0
 90
       50
176
     0
 40
0.0
176
     0
 40
1.0
176
     0
 90
        0
176
     0
 62
    18
420
        0
176
     0
 90
       50
176
     0
 90
        3
176
     0
 62
     5
420
      255
176
     0
290
     0
176
     0
 90
       50
176
     0
 90
       50
176
     0
 90
       50
176
     0
290
     0
176
     0
 90
       50
176
     0
 62
   256
176
     0
 40
1.0
176
     0
 90
        2
176
     0
  1
strokes_ogs.tif
176
     0
290
     0
176
     0
 40
1.0
176
     0
 40
1.0
176
     0
  0
VISUALSTYLE
  5
39
102
{ACAD_REACTORS
330
2A
102
}
330
2A
100
AcDbVisualStyle
  2
Facepattern
 70
    15
177
     3
291
     1
 70
    58
 90
        2
176
     1
 90
        2
176
     1
 90
        0
176
     1
 90
        0
176
     1
 40
0.6
176
     1
 40
30.0
176
     1
 62
     7
420
 16777215
176
     1
 90
        1
176
     1
 90
        4
176
     1
 62
     7
176
     1
 62
   257
176
     1
 90
        1
176
     1
 90
        1
176
     1
 40
1.0
176
     1
 90
        8
176
     1
 62
     7
176
     1
 40
1.0
176
     1
 90
        1
176
     1
 90
        6
176
     1
 90
        2
176
     1
 62
     7
176
     1
 90
        5
176
     1
 90
        0
176
     1
 90
        0
176
     1
290
     0
176
     1
 90
        1
176
     1
 40
0.0
176
     1
 90
        0
176
     1
290
     0
176
     1
290
     1
176
     1
290
     1
176
     1
290
     0
176
     1
290
     0
176
     1
290
     0
176
     1
290
     0
176
     1
290
     0
176
     1
290
     0
176
     1
 90
       50
176
     1
 40
0.0
176
     1
 40
1.0
176
     1
 90
        0
176
     1
 62
    18
420
        0
176
     1
 90
       50
176
     1
 90
        3
176
     1
 62
     5
420
      255
176
     1
290
     0
176
     1
 90
       50
176
     1
 90
       50
176
     1
 90
       50
176
     1
290
     0
176
     1
 90
       50
176
     1
 62
   256
176
     0
 40
1.0
176
     0
 90
        2
176
     1
  1
strokes_ogs.tif
176
     1
290
     0
176
     1
 40
1.0
176
     1
 40
1.0
176
     1
  0
VISUALSTYLE
  5
2B
102
{ACAD_REACTORS
330
2A
102
}
330
2A
100
AcDbVisualStyle
  2
Flat
 70
     0
177
     3
291
     1
 70
    58
 90
        2
176
     1
 90
        1
176
     1
 90
        1
176
     1
 90
        2
176
     1
 40
0.6
176
     1
 40
30.0
176
     1
 62
     7
420
 16777215
176
     1
 90
        0
176
     1
 90
        0
176
     1
 62
     7
176
     1
 62
   257
176
     1
 90
        1
176
     1
 90
        1
176
     1
 40
1.0
176
     1
 90
        8
176
     1
 62
     7
176
     1
 40
1.0
176
     1
 90
        1
176
     1
 90
        6
176
     1
 90
        2
176
     1
 62
     7
176
     1
 90
        5
176
     1
 90
        0
176
     1
 90
        0
176
     1
290
     0
176
     1
 90
       13
176
     1
 40
0.0
176
     1
 90
        0
176
     1
290
     0
176
     1
290
     1
176
     1
290
     1
176
     1
290
     0
176
     1
290
     0
176
     1
290
     0
176
     1
290
     0
176
     1
290
     0
176
     1
290
     0
176
     1
 90
       50
176
     1
 40
0.0
176
     1
 40
1.0
176
     1
 90
        0
176
     1
 62
    18
420
        0
176
     1
 90
       50
176
     1
 90
        3
176
     1
 62
     5
420
      255
176
     1
290
     0
176
     1
 90
       50
176
     1
 90
       50
176
     1
 90
       50
176
     1
290
     0
176
     1
 90
       50
176
     1
 62
   256
176
     0
 40
1.0
176
     0
 90
        2
176
     1
  1
strokes_ogs.tif
176
     1
290
     0
176
     1
 40
1.0
176
     1
 40
1.0
176
     1
  0
VISUALSTYLE
  5
2C
102
{ACAD_REACTORS
330
2A
102
}
330
2A
100
AcDbVisualStyle
  2
FlatWithEdges
 70
     1
177
     3
291
     1
 70
    58
 90
        2
176
     1
 90
        1
176
     1
 90
        1
176
     1
 90
        2
176
     1
 40
0.6
176
     1
 40
30.0
176
     1
 62
     7
420
 16777215
176
     1
 90
        1
176
     1
 90
        0
176
     1
 62
     7
176
     1
 62
   257
176
     1
 90
        1
176
     1
 90
        1
176
     1
 40
1.0
176
     1
 90
        0
176
     1
 62
   257
176
     1
 40
1.0
176
     1
 90
        1
176
     1
 90
        6
176
     1
 90
        2
176
     1
 62
     7
176
     1
 90
        5
176
     1
 90
        0
176
     1
 90
        0
176
     1
290
     0
176
     1
 90
       13
176
     1
 40
0.0
176
     1
 90
        0
176
     1
290
     0
176
     1
290
     1
176
     1
290
     1
176
     1
290
     0
176
     1
290
     0
176
     1
290
     0
176
     1
290
     0
176
     1
290
     0
176
     1
290
     0
176
     1
 90
       50
176
     1
 40
0.0
176
     1
 40
1.0
176
     1
 90
        0
176
     1
 62
    18
420
        0
176
     1
 90
       50
176
     1
 90
        3
176
     1
 62
     5
420
      255
176
     1
290
     0
176
     1
 90
       50
176
     1
 90
       50
176
     1
 90
       50
176
     1
290
     0
176
     1
 90
       50
176
     1
 62
   256
176
     0
 40
1.0
176
     0
 90
        2
176
     1
  1
strokes_ogs.tif
176
     1
290
     0
176
     1
 40
1.0
176
     1
 40
1.0
176
     1
  0
VISUALSTYLE
  5
2D
102
{ACAD_REACTORS
330
2A
102
}
330
2A
100
AcDbVisualStyle
  2
Gouraud
 70
     2
177
     3
291
     1
 70
    58
 90
        2
176
     1
 90
        2
176
     1
 90
        1
176
     1
 90
        2
176
     1
 40
0.6
176
     1
 40
30.0
176
     1
 62
     7
420
 16777215
176
     1
 90
        0
176
     1
 90
        0
176
     1
 62
     7
176
     1
 62
   257
176
     1
 90
        1
176
     1
 90
        1
176
     1
 40
1.0
176
     1
 90
        0
176
     1
 62
     7
176
     1
 40
1.0
176
     1
 90
        1
176
     1
 90
        6
176
     1
 90
        2
176
     1
 62
     7
176
     1
 90
        5
176
     1
 90
        0
176
     1
 90
        0
176
     1
290
     0
176
     1
 90
       13
176
     1
 40
0.0
176
     1
 90
        0
176
     1
290
     0
176
     1
290
     1
176
     1
290
     1
176
     1
290
     0
176
     1
290
     0
176
     1
290
     0
176
     1
290
     0
176
     1
290
     0
176
     1
290
     0
176
     1
 90
       50
176
     1
 40
0.0
176
     1
 40
1.0
176
     1
 90
        0
176
     1
 62
    18
420
        0
176
     1
 90
       50
176
     1
 90
        3
176
     1
 62
     5
420
      255
176
     1
290
     0
176
     1
 90
       50
176
     1
 90
       50
176
     1
 90
       50
176
     1
290
     0
176
     1
 90
       50
176
     1
 62
   256
176
     0
 40
1.0
176
     0
 90
        2
176
     1
  1
strokes_ogs.tif
176
     1
290
     0
176
     1
 40
1.0
176
     1
 40
1.0
176
     1
  0
VISUALSTYLE
  5
2E
102
{ACAD_REACTORS
330
2A
102
}
330
2A
100
AcDbVisualStyle
  2
GouraudWithEdges
 70
     3
177
     3
291
     1
 70
    58
 90
        2
176
     1
 90
        2
176
     1
 90
        1
176
     1
 90
        2
176
     1
 40
0.6
176
     1
 40
30.0
176
     1
 62
     7
420
 16777215
176
     1
 90
        1
176
     1
 90
        0
176
     1
 62
     7
176
     1
 62
   257
176
     1
 90
        1
176
     1
 90
        1
176
     1
 40
1.0
176
     1
 90
        0
176
     1
 62
   257
176
     1
 40
1.0
176
     1
 90
        1
176
     1
 90
        6
176
     1
 90
        2
176
     1
 62
     7
176
     1
 90
        5
176
     1
 90
        0
176
     1
 90
        0
176
     1
290
     0
176
     1
 90
       13
176
     1
 40
0.0
176
     1
 90
        0
176
     1
290
     0
176
     1
290
     1
176
     1
290
     1
176
     1
290
     0
176
     1
290
     0
176
     1
290
     0
176
     1
290
     0
176
     1
290
     0
176
     1
290
     0
176
     1
 90
       50
176
     1
 40
0.0
176
     1
 40
1.0
176
     1
 90
        0
176
     1
 62
    18
420
        0
176
     1
 90
       50
176
     1
 90
        3
176
     1
 62
     5
420
      255
176
     1
290
     0
176
     1
 90
       50
176
     1
 90
       50
176
     1
 90
       50
176
     1
290
     0
176
     1
 90
       50
176
     1
 62
   256
176
     0
 40
1.0
176
     0
 90
        2
176
     1
  1
strokes_ogs.tif
176
     1
290
     0
176
     1
 40
1.0
176
     1
 40
1.0
176
     1
  0
VISUALSTYLE
  5
31
102
{ACAD_REACTORS
330
2A
102
}
330
2A
100
AcDbVisualStyle
  2
Hidden
 70
     6
177
     3
291
     0
 70
    58
 90
        1
176
     1
 90
        2
176
     1
 90
        2
176
     1
 90
        0
176
     1
 40
0.6
176
     1
 40
30.0
176
     1
 62
     7
420
 16777215
176
     1
 90
        2
176
     1
 90
        2
176
     1
 62
     7
176
     1
 62
   257
176
     1
 90
        2
176
     1
 90
        1
176
     1
 40
40.0
176
     1
 90
        0
176
     1
 62
   257
176
     1
 40
1.0
176
     1
 90
        1
176
     1
 90
        6
176
     1
 90
        2
176
     1
 62
     7
176
     1
 90
        3
176
     1
 90
        0
176
     1
 90
        0
176
     1
290
     0
176
     1
 90
        1
176
     1
 40
0.0
176
     1
 90
        0
176
     1
290
     0
176
     1
290
     1
176
     1
290
     1
176
     1
290
     0
176
     1
290
     0
176
     1
290
     0
176
     1
290
     0
176
     1
290
     0
176
     1
290
     0
176
     1
 90
       50
176
     1
 40
0.0
176
     1
 40
1.0
176
     1
 90
        0
176
     1
 62
    18
420
        0
176
     1
 90
       50
176
     1
 90
        3
176
     1
 62
     5
420
      255
176
     1
290
     0
176
     1
 90
       50
176
     1
 90
       50
176
     1
 90
       50
176
     1
290
     0
176
     1
 90
       50
176
     1
 62
   256
176
     0
 40
1.0
176
     0
 90
        2
176
     1
  1
strokes_ogs.tif
176
     1
290
     0
176
     1
 40
1.0
176
     1
 40
1.0
176
     1
  0
VISUALSTYLE
  5
3B
102
{ACAD_REACTORS
330
2A
102
}
330
2A
100
AcDbVisualStyle
  2
JitterOff
 70
    20
177
     3
291
     1
 70
    58
 90
        2
176
     0
 90
        2
176
     0
 90
        0
176
     0
 90
        0
176
     0
 40
0.6
176
     0
 40
30.0
176
     0
 62
     7
420
 16777215
176
     0
 90
        1
176
     0
 90
        4
176
     0
 62
     7
176
     0
 62
   257
176
     0
 90
        1
176
     0
 90
        1
176
     0
 40
1.0
176
     0
 90
       10
176
     2
 62
     7
176
     0
 40
1.0
176
     0
 90
        1
176
     0
 90
        6
176
     0
 90
        2
176
     0
 62
     7
176
     0
 90
        5
176
     0
 90
        0
176
     0
 90
        0
176
     0
290
     0
176
     0
 90
        1
176
     0
 40
0.0
176
     0
 90
        0
176
     0
290
     0
176
     0
290
     1
176
     0
290
     1
176
     0
290
     0
176
     0
290
     0
176
     0
290
     0
176
     0
290
     0
176
     0
290
     0
176
     0
290
     0
176
     0
 90
       50
176
     0
 40
0.0
176
     0
 40
1.0
176
     0
 90
        0
176
     0
 62
    18
420
        0
176
     0
 90
       50
176
     0
 90
        3
176
     0
 62
     5
420
      255
176
     0
290
     0
176
     0
 90
       50
176
     0
 90
       50
176
     0
 90
       50
176
     0
290
     0
176
     0
 90
       50
176
     0
 62
   256
176
     0
 40
1.0
176
     0
 90
        2
176
     0
  1
strokes_ogs.tif
176
     0
290
     0
176
     0
 40
1.0
176
     0
 40
1.0
176
     0
  0
VISUALSTYLE
  5
38
102
{ACAD_REACTORS
330
2A
102
}
330
2A
100
AcDbVisualStyle
  2
Linepattern
 70
    14
177
     3
291
     1
 70
    58
 90
        2
176
     1
 90
        2
176
     1
 90
        0
176
     1
 90
        0
176
     1
 40
0.6
176
     1
 40
30.0
176
     1
 62
     7
420
 16777215
176
     1
 90
        1
176
     1
 90
        4
176
     1
 62
     7
176
     1
 62
   257
176
     1
 90
        7
176
     1
 90
        7
176
     1
 40
1.0
176
     1
 90
        8
176
     1
 62
     7
176
     1
 40
1.0
176
     1
 90
        1
176
     1
 90
        6
176
     1
 90
        2
176
     1
 62
     7
176
     1
 90
        5
176
     1
 90
        0
176
     1
 90
        0
176
     1
290
     0
176
     1
 90
        1
176
     1
 40
0.0
176
     1
 90
        0
176
     1
290
     0
176
     1
290
     1
176
     1
290
     1
176
     1
290
     0
176
     1
290
     0
176
     1
290
     0
176
     1
290
     0
176
     1
290
     0
176
     1
290
     0
176
     1
 90
       50
176
     1
 40
0.0
176
     1
 40
1.0
176
     1
 90
        0
176
     1
 62
    18
420
        0
176
     1
 90
       50
176
     1
 90
        3
176
     1
 62
     5
420
      255
176
     1
290
     0
176
     1
 90
       50
176
     1
 90
       50
176
     1
 90
       50
176
     1
290
     0
176
     1
 90
       50
176
     1
 62
   256
176
     0
 40
1.0
176
     0
 90
        2
176
     1
  1
strokes_ogs.tif
176
     1
290
     0
176
     1
 40
1.0
176
     1
 40
1.0
176
     1
  0
VISUALSTYLE
  5
3C
102
{ACAD_REACTORS
330
2A
102
}
330
2A
100
AcDbVisualStyle
  2
OverhangOff
 70
    21
177
     3
291
     1
 70
    58
 90
        2
176
     0
 90
        2
176
     0
 90
        0
176
     0
 90
        0
176
     0
 40
0.6
176
     0
 40
30.0
176
     0
 62
     7
420
 16777215
176
     0
 90
        1
176
     0
 90
        4
176
     0
 62
     7
176
     0
 62
   257
176
     0
 90
        1
176
     0
 90
        1
176
     0
 40
1.0
176
     0
 90
        9
176
     2
 62
     7
176
     0
 40
1.0
176
     0
 90
        1
176
     0
 90
        6
176
     0
 90
        2
176
     0
 62
     7
176
     0
 90
        5
176
     0
 90
        0
176
     0
 90
        0
176
     0
290
     0
176
     0
 90
        1
176
     0
 40
0.0
176
     0
 90
        0
176
     0
290
     0
176
     0
290
     1
176
     0
290
     1
176
     0
290
     0
176
     0
290
     0
176
     0
290
     0
176
     0
290
     0
176
     0
290
     0
176
     0
290
     0
176
     0
 90
       50
176
     0
 40
0.0
176
     0
 40
1.0
176
     0
 90
        0
176
     0
 62
    18
420
        0
176
     0
 90
       50
176
     0
 90
        3
176
     0
 62
     5
420
      255
176
     0
290
     0
176
     0
 90
       50
176
     0
 90
       50
176
     0
 90
       50
176
     0
290
     0
176
     0
 90
       50
176
     0
 62
   256
176
     0
 40
1.0
176
     0
 90
        2
176
     0
  1
strokes_ogs.tif
176
     0
290
     0
176
     0
 40
1.0
176
     0
 40
1.0
176
     0
  0
VISUALSTYLE
  5
33
102
{ACAD_REACTORS
330
2A
102
}
330
2A
100
AcDbVisualStyle
  2
Realistic
 70
     8
177
     3
291
     0
 70
    58
 90
        2
176
     1
 90
        3
176
     1
 90
        0
176
     1
 90
        2
176
     1
 40
0.6
176
     1
 40
30.0
176
     1
 62
     7
420
 16777215
176
     1
 90
        0
176
     1
 90
        0
176
     1
 62
     7
176
     1
 62
   257
176
     1
 90
        1
176
     1
 90
        1
176
     1
 40
1.0
176
     1
 90
        8
176
     1
 62
   257
176
     1
 40
1.0
176
     1
 90
        1
176
     1
 90
        6
176
     1
 90
        2
176
     1
 62
     7
176
     1
 90
        3
176
     1
 90
        0
176
     1
 90
        0
176
     1
290
     0
176
     1
 90
       13
176
     1
 40
0.0
176
     1
 90
        0
176
     1
290
     0
176
     1
290
     1
176
     1
290
     1
176
     1
290
     0
176
     1
290
     0
176
     1
290
     0
176
     1
290
     0
176
     1
290
     0
176
     1
290
     0
176
     1
 90
       50
176
     1
 40
0.0
176
     1
 40
1.0
176
     1
 90
        0
176
     1
 62
    18
420
        0
176
     1
 90
       50
176
     1
 90
        3
176
     1
 62
     5
420
      255
176
     1
290
     0
176
     1
 90
       50
176
     1
 90
       50
176
     1
 90
       50
176
     1
290
     0
176
     1
 90
       50
176
     1
 62
   256
176
     0
 40
1.0
176
     0
 90
        2
176
     1
  1
strokes_ogs.tif
176
     1
290
     0
176
     1
 40
1.0
176
     1
 40
1.0
176
     1
  0
VISUALSTYLE
  5
42
102
{ACAD_REACTORS
330
2A
102
}
330
2A
100
AcDbVisualStyle
  2
Shaded
 70
    27
177
     3
291
     0
 70
    58
 90
        2
176
     1
 90
        2
176
     1
 90
        1
176
     1
 90
        2
176
     1
 40
0.6
176
     1
 40
30.0
176
     1
 62
     7
420
 16777215
176
     1
 90
        0
176
     1
 90
        4
176
     1
 62
     7
176
     1
 62
   257
176
     1
 90
        1
176
     1
 90
        1
176
     1
 40
1.0
176
     1
 90
        8
176
     1
 62
   257
176
     1
 40
1.0
176
     1
 90
        1
176
     1
 90
        6
176
     1
 90
        2
176
     1
 62
     8
420
  7895160
176
     1
 90
        3
176
     1
 90
        0
176
     1
 90
        0
176
     1
290
     0
176
     1
 90
        5
176
     1
 40
0.0
176
     1
 90
        0
176
     1
290
     0
176
     1
290
     1
176
     1
290
     1
176
     1
290
     0
176
     1
290
     0
176
     1
290
     0
176
     1
290
     0
176
     1
290
     0
176
     1
290
     0
176
     1
 90
       50
176
     1
 40
0.0
176
     1
 40
1.0
176
     1
 90
        0
176
     1
 62
    18
420
        0
176
     1
 90
       50
176
     1
 90
        3
176
     1
 62
     5
420
      255
176
     1
290
     0
176
     1
 90
       50
176
     1
 90
       50
176
     1
 90
       50
176
     1
290
     0
176
     1
 90
       50
176
     1
 62
   256
176
     0
 40
1.0
176
     0
 90
        2
176
     1
  1
strokes_ogs.tif
176
     1
290
     0
176
     1
 40
1.0
176
     1
 40
1.0
176
     1
  0
VISUALSTYLE
  5
41
102
{ACAD_REACTORS
330
2A
102
}
330
2A
100
AcDbVisualStyle
  2
Shaded with edges
 70
    26
177
     3
291
     0
 70
    58
 90
        2
176
     1
 90
        2
176
     1
 90
        1
176
     1
 90
        2
176
     1
 40
0.6
176
     1
 40
30.0
176
     1
 62
     7
420
 16777215
176
     1
 90
        1
176
     1
 90
       10
176
     1
 62
     7
176
     1
 62
   257
176
     1
 90
        2
176
     1
 90
        1
176
     1
 40
1.0
176
     1
 90
        8
176
     1
 62
   257
176
     1
 40
1.0
176
     1
 90
        1
176
     1
 90
        6
176
     1
 90
        2
176
     1
 62
     7
176
     1
 90
        3
176
     1
 90
        0
176
     1
 90
        0
176
     1
290
     0
176
     1
 90
        5
176
     1
 40
0.0
176
     1
 90
        0
176
     1
290
     0
176
     1
290
     1
176
     1
290
     1
176
     1
290
     0
176
     1
290
     0
176
     1
290
     0
176
     1
290
     0
176
     1
290
     0
176
     1
290
     0
176
     1
 90
       50
176
     1
 40
0.0
176
     1
 40
1.0
176
     1
 90
        0
176
     1
 62
    18
420
        0
176
     1
 90
       50
176
     1
 90
        3
176
     1
 62
     5
420
      255
176
     1
290
     0
176
     1
 90
       50
176
     1
 90
       50
176
     1
 90
       50
176
     1
290
     0
176
     1
 90
       50
176
     1
 62
   256
176
     0
 40
1.0
176
     0
 90
        2
176
     1
  1
strokes_ogs.tif
176
     1
290
     0
176
     1
 40
1.0
176
     1
 40
1.0
176
     1
  0
VISUALSTYLE
  5
3E
102
{ACAD_REACTORS
330
2A
102
}
330
2A
100
AcDbVisualStyle
  2
Shades of Gray
 70
    23
177
     3
291
     0
 70
    58
 90
        2
176
     1
 90
        2
176
     1
 90
        3
176
     1
 90
        0
176
     1
 40
0.6
176
     1
 40
30.0
176
     1
 62
     7
420
 16777215
176
     1
 90
        2
176
     1
 90
        2
176
     1
 62
     7
176
     1
 62
     7
176
     1
 90
        1
176
     1
 90
        1
176
     1
 40
40.0
176
     1
 90
        8
176
     1
 62
     7
176
     1
 40
1.0
176
     1
 90
        1
176
     1
 90
        6
176
     1
 90
        2
176
     1
 62
     7
176
     1
 90
        3
176
     1
 90
        0
176
     1
 90
        0
176
     1
290
     0
176
     1
 90
        1
176
     1
 40
0.0
176
     1
 90
        0
176
     1
290
     0
176
     1
290
     1
176
     1
290
     1
176
     1
290
     0
176
     1
290
     0
176
     1
290
     0
176
     1
290
     0
176
     1
290
     0
176
     1
290
     0
176
     1
 90
       50
176
     1
 40
0.0
176
     1
 40
1.0
176
     1
 90
        0
176
     1
 62
    18
420
        0
176
     1
 90
       50
176
     1
 90
        3
176
     1
 62
     5
420
      255
176
     1
290
     0
176
     1
 90
       50
176
     1
 90
       50
176
     1
 90
       50
176
     1
290
     0
176
     1
 90
       50
176
     1
 62
   256
176
     0
 40
1.0
176
     0
 90
        2
176
     1
  1
strokes_ogs.tif
176
     1
290
     0
176
     1
 40
1.0
176
     1
 40
1.0
176
     1
  0
VISUALSTYLE
  5
3F
102
{ACAD_REACTORS
330
2A
102
}
330
2A
100
AcDbVisualStyle
  2
Sketchy
 70
    24
177
     3
291
     0
 70
    58
 90
        1
176
     1
 90
        2
176
     1
 90
        2
176
     1
 90
        0
176
     1
 40
0.6
176
     1
 40
30.0
176
     1
 62
     7
420
 16777215
176
     1
 90
        2
176
     1
 90
        2
176
     1
 62
     7
176
     1
 62
     7
176
     1
 90
        1
176
     1
 90
        1
176
     1
 40
40.0
176
     1
 90
       11
176
     1
 62
     7
176
     1
 40
1.0
176
     1
 90
        1
176
     1
 90
        6
176
     1
 90
        2
176
     1
 62
     7
176
     1
 90
        6
176
     1
 90
        0
176
     1
 90
        0
176
     1
290
     0
176
     1
 90
        1
176
     1
 40
0.0
176
     1
 90
        0
176
     1
290
     0
176
     1
290
     1
176
     1
290
     1
176
     1
290
     0
176
     1
290
     0
176
     1
290
     0
176
     1
290
     0
176
     1
290
     0
176
     1
290
     0
176
     1
 90
       50
176
     1
 40
0.0
176
     1
 40
1.0
176
     1
 90
        0
176
     1
 62
    18
420
        0
176
     1
 90
       50
176
     1
 90
        3
176
     1
 62
     5
420
      255
176
     1
290
     0
176
     1
 90
       50
176
     1
 90
       50
176
     1
 90
       50
176
     1
290
     0
176
     1
 90
       50
176
     1
 62
   256
176
     0
 40
1.0
176
     0
 90
        2
176
     1
  1
strokes_ogs.tif
176
     1
290
     0
176
     1
 40
1.0
176
     1
 40
1.0
176
     1
  0
VISUALSTYLE
  5
37
102
{ACAD_REACTORS
330
2A
102
}
330
2A
100
AcDbVisualStyle
  2
Thicken
 70
    13
177
     3
291
     1
 70
    58
 90
        2
176
     1
 90
        2
176
     1
 90
        0
176
     1
 90
        0
176
     1
 40
0.6
176
     1
 40
30.0
176
     1
 62
     7
420
 16777215
176
     1
 90
        1
176
     1
 90
        4
176
     1
 62
     7
176
     1
 62
   257
176
     1
 90
        1
176
     1
 90
        1
176
     1
 40
1.0
176
     1
 90
       12
176
     1
 62
     7
176
     1
 40
1.0
176
     1
 90
        1
176
     1
 90
        6
176
     1
 90
        2
176
     1
 62
     7
176
     1
 90
        5
176
     1
 90
        0
176
     1
 90
        0
176
     1
290
     0
176
     1
 90
        1
176
     1
 40
0.0
176
     1
 90
        0
176
     1
290
     0
176
     1
290
     1
176
     1
290
     1
176
     1
290
     0
176
     1
290
     0
176
     1
290
     0
176
     1
290
     0
176
     1
290
     0
176
     1
290
     0
176
     1
 90
       50
176
     1
 40
0.0
176
     1
 40
1.0
176
     1
 90
        0
176
     1
 62
    18
420
        0
176
     1
 90
       50
176
     1
 90
        3
176
     1
 62
     5
420
      255
176
     1
290
     0
176
     1
 90
       50
176
     1
 90
       50
176
     1
 90
       50
176
     1
290
     0
176
     1
 90
       50
176
     1
 62
   256
176
     0
 40
1.0
176
     0
 90
        2
176
     1
  1
strokes_ogs.tif
176
     1
290
     0
176
     1
 40
1.0
176
     1
 40
1.0
176
     1
  0
VISUALSTYLE
  5
30
102
{ACAD_REACTORS
330
2A
102
}
330
2A
100
AcDbVisualStyle
  2
Wireframe
 70
     5
177
     3
291
     0
 70
    58
 90
        0
176
     1
 90
        2
176
     1
 90
        0
176
     1
 90
        0
176
     1
 40
0.6
176
     1
 40
30.0
176
     1
 62
     7
420
 16777215
176
     1
 90
        1
176
     1
 90
        4
176
     1
 62
     7
176
     1
 62
   257
176
     1
 90
        1
176
     1
 90
        1
176
     1
 40
1.0
176
     1
 90
        0
176
     1
 62
   257
176
     1
 40
1.0
176
     1
 90
        1
176
     1
 90
        6
176
     1
 90
        2
176
     1
 62
     7
176
     1
 90
        3
176
     1
 90
        0
176
     1
 90
        0
176
     1
290
     0
176
     1
 90
        1
176
     1
 40
0.0
176
     1
 90
        0
176
     1
290
     0
176
     1
290
     1
176
     1
290
     1
176
     1
290
     0
176
     1
290
     0
176
     1
290
     0
176
     1
290
     0
176
     1
290
     0
176
     1
290
     0
176
     1
 90
       50
176
     1
 40
0.0
176
     1
 40
1.0
176
     1
 90
        0
176
     1
 62
    18
420
        0
176
     1
 90
       50
176
     1
 90
        3
176
     1
 62
     5
420
      255
176
     1
290
     0
176
     1
 90
       50
176
     1
 90
       50
176
     1
 90
       50
176
     1
290
     0
176
     1
 90
       50
176
     1
 62
   256
176
     0
 40
1.0
176
     0
 90
        2
176
     1
  1
strokes_ogs.tif
176
     1
290
     0
176
     1
 40
1.0
176
     1
 40
1.0
176
     1
  0
VISUALSTYLE
  5
40
102
{ACAD_REACTORS
330
2A
102
}
330
2A
100
AcDbVisualStyle
  2
X-Ray
 70
    25
177
     3
291
     0
 70
    58
 90
        2
176
     1
 90
        2
176
     1
 90
        1
176
     1
 90
        1
176
     1
 40
0.5
176
     1
 40
30.0
176
     1
 62
     7
420
 16777215
176
     1
 90
        1
176
     1
 90
        0
176
     1
 62
     7
176
     1
 62
   257
176
     1
 90
        1
176
     1
 90
        1
176
     1
 40
1.0
176
     1
 90
        8
176
     1
 62
     7
176
     1
 40
1.0
176
     1
 90
        1
176
     1
 90
        6
176
     1
 90
        2
176
     1
 62
     7
176
     1
 90
        3
176
     1
 90
        0
176
     1
 90
        0
176
     1
290
     0
176
     1
 90
       13
176
     1
 40
0.0
176
     1
 90
        0
176
     1
290
     0
176
     1
290
     1
176
     1
290
     1
176
     1
290
     0
176
     1
290
     0
176
     1
290
     0
176
     1
290
     0
176
     1
290
     0
176
     1
290
     0
176
     1
 90
       50
176
     1
 40
0.0
176
     1
 40
1.0
176
     1
 90
        0
176
     1
 62
    18
420
        0
176
     1
 90
       50
176
     1
 90
        3
176
     1
 62
     5
420
      255
176
     1
290
     0
176
     1
 90
       50
176
     1
 90
       50
176
     1
 90
       50
176
     1
290
     0
176
     1
 90
       50
176
     1
 62
   256
176
     0
 40
1.0
176
     0
 90
        2
176
     1
  1
strokes_ogs.tif
176
     1
290
     0
176
     1
 40
1.0
176
     1
 40
1.0
176
     1
  0
DICTIONARYVAR
  5
19A
102
{ACAD_REACTORS
330
199
102
}
330
199
100
DictionaryVariables
280
     0
  1
1:1
  0
DICTIONARYVAR
  5
19F
102
{ACAD_REACTORS
330
199
102
}
330
199
100
DictionaryVariables
280
     0
  1
Standard
  0
DICTIONARYVAR
  5
19E
102
{ACAD_REACTORS
330
199
102
}
330
199
100
DictionaryVariables
280
     0
  1
Standard
  0
DICTIONARY
  5
19B
330
6A
100
AcDbDictionary
280
     1
281
     1
  3
ACAD_ROUNDTRIP_2008_TABLESTYLE_CELLSTYLEMAP
360
19C
  0
CELLSTYLEMAP
  5
19C
102
{ACAD_REACTORS
330
19B
102
}
330
19B
100
AcDbCellStyleMap
 90
        3
300
CELLSTYLE
  1
TABLEFORMAT_BEGIN
 90
        5
170
     1
 91
        0
 92
    32768
 62
   257
 93
        1
300
CONTENTFORMAT
  1
CONTENTFORMAT_BEGIN
 90
        0
 91
        0
 92
        4
 93
        0
300

 40
0.0
140
1.0
 94
        5
 62
     0
340
11
144
0.25
309
CONTENTFORMAT_END
171
     1
301
MARGIN
  1
CELLMARGIN_BEGIN
 40
0.06
 40
0.06
 40
0.06
 40
0.06
 40
0.06
 40
0.06
309
CELLMARGIN_END
 94
        6
 95
        1
302
GRIDFORMAT
  1
GRIDFORMAT_BEGIN
 90
        0
 91
        1
 62
     0
 92
       -2
340
14
 93
        0
 40
0.045
309
GRIDFORMAT_END
 95
        2
302
GRIDFORMAT
  1
GRIDFORMAT_BEGIN
 90
        0
 91
        1
 62
     0
 92
       -2
340
14
 93
        0
 40
0.045
309
GRIDFORMAT_END
 95
        4
302
GRIDFORMAT
  1
GRIDFORMAT_BEGIN
 90
        0
 91
        1
 62
     0
 92
       -2
340
14
 93
        0
 40
0.045
309
GRIDFORMAT_END
 95
        8
302
GRIDFORMAT
  1
GRIDFORMAT_BEGIN
 90
        0
 91
        1
 62
     0
 92
       -2
340
14
 93
        0
 40
0.045
309
GRIDFORMAT_END
 95
       16
302
GRIDFORMAT
  1
GRIDFORMAT_BEGIN
 90
        0
 91
        1
 62
     0
 92
       -2
340
14
 93
        0
 40
0.045
309
GRIDFORMAT_END
 95
       32
302
GRIDFORMAT
  1
GRIDFORMAT_BEGIN
 90
        0
 91
        1
 62
     0
 92
       -2
340
14
 93
        0
 40
0.045
309
GRIDFORMAT_END
309
TABLEFORMAT_END
  1
CELLSTYLE_BEGIN
 90
        1
 91
        1
300
_TITLE
309
CELLSTYLE_END
300
CELLSTYLE
  1
TABLEFORMAT_BEGIN
 90
        5
170
     1
 91
        0
 92
        0
 62
   257
 93
        1
300
CONTENTFORMAT
  1
CONTENTFORMAT_BEGIN
 90
        0
 91
        0
 92
        4
 93
        0
300

 40
0.0
140
1.0
 94
        5
 62
     0
340
11
144
0.18
309
CONTENTFORMAT_END
171
     1
301
MARGIN
  1
CELLMARGIN_BEGIN
 40
0.06
 40
0.06
 40
0.06
 40
0.06
 40
0.06
 40
0.06
309
CELLMARGIN_END
 94
        6
 95
        1
302
GRIDFORMAT
  1
GRIDFORMAT_BEGIN
 90
        0
 91
        1
 62
     0
 92
       -2
340
14
 93
        0
 40
0.045
309
GRIDFORMAT_END
 95
        2
302
GRIDFORMAT
  1
GRIDFORMAT_BEGIN
 90
        0
 91
        1
 62
     0
 92
       -2
340
14
 93
        0
 40
0.045
309
GRIDFORMAT_END
 95
        4
302
GRIDFORMAT
  1
GRIDFORMAT_BEGIN
 90
        0
 91
        1
 62
     0
 92
       -2
340
14
 93
        0
 40
0.045
309
GRIDFORMAT_END
 95
        8
302
GRIDFORMAT
  1
GRIDFORMAT_BEGIN
 90
        0
 91
        1
 62
     0
 92
       -2
340
14
 93
        0
 40
0.045
309
GRIDFORMAT_END
 95
       16
302
GRIDFORMAT
  1
GRIDFORMAT_BEGIN
 90
        0
 91
        1
 62
     0
 92
       -2
340
14
 93
        0
 40
0.045
309
GRIDFORMAT_END
 95
       32
302
GRIDFORMAT
  1
GRIDFORMAT_BEGIN
 90
        0
 91
        1
 62
     0
 92
       -2
340
14
 93
        0
 40
0.045
309
GRIDFORMAT_END
309
TABLEFORMAT_END
  1
CELLSTYLE_BEGIN
 90
        2
 91
        1
300
_HEADER
309
CELLSTYLE_END
300
CELLSTYLE
  1
TABLEFORMAT_BEGIN
 90
        5
170
     1
 91
        0
 92
        0
 62
   257
 93
        1
300
CONTENTFORMAT
  1
CONTENTFORMAT_BEGIN
 90
        0
 91
        0
 92
        4
 93
        0
300

 40
0.0
140
1.0
 94
        2
 62
     0
340
11
144
0.18
309
CONTENTFORMAT_END
171
     1
301
MARGIN
  1
CELLMARGIN_BEGIN
 40
0.06
 40
0.06
 40
0.06
 40
0.06
 40
0.06
 40
0.06
309
CELLMARGIN_END
 94
        6
 95
        1
302
GRIDFORMAT
  1
GRIDFORMAT_BEGIN
 90
        0
 91
        1
 62
     0
 92
       -2
340
14
 93
        0
 40
0.045
309
GRIDFORMAT_END
 95
        2
302
GRIDFORMAT
  1
GRIDFORMAT_BEGIN
 90
        0
 91
        1
 62
     0
 92
       -2
340
14
 93
        0
 40
0.045
309
GRIDFORMAT_END
 95
        4
302
GRIDFORMAT
  1
GRIDFORMAT_BEGIN
 90
        0
 91
        1
 62
     0
 92
       -2
340
14
 93
        0
 40
0.045
309
GRIDFORMAT_END
 95
        8
302
GRIDFORMAT
  1
GRIDFORMAT_BEGIN
 90
        0
 91
        1
 62
     0
 92
       -2
340
14
 93
        0
 40
0.045
309
GRIDFORMAT_END
 95
       16
302
GRIDFORMAT
  1
GRIDFORMAT_BEGIN
 90
        0
 91
        1
 62
     0
 92
       -2
340
14
 93
        0
 40
0.045
309
GRIDFORMAT_END
 95
       32
302
GRIDFORMAT
  1
GRIDFORMAT_BEGIN
 90
        0
 91
        1
 62
     0
 92
       -2
340
14
 93
        0
 40
0.045
309
GRIDFORMAT_END
309
TABLEFORMAT_END
  1
CELLSTYLE_BEGIN
 90
        3
 91
        2
300
_DATA
309
CELLSTYLE_END
  0
ENDSEC
  0
EOF