0
SECTION
  2
HEADER
  9
$ACADVER
  1
AC1027
  9
$ACADMAINTVER
 70
     8
  9
$DWGCODEPAGE
  3
ANSI_1252
  9
$REQUIREDVERSIONS
160
                 0
  9
$COMMENTS
  1
File was created by Cadenas
  9
$CUSTOMPROPERTYTAG
  1
NN
  9
$CUSTOMPROPERTY
  1
Set Screw Tapped Base Inch Bore
  9
$CUSTOMPROPERTYTAG
  1
NT
  9
$CUSTOMPROPERTY
  1
SC Pillow Block Bearings -(Normal Duty) -Tapped Base Housing
  9
$CUSTOMPROPERTYTAG
  1
NB
  9
$CUSTOMPROPERTY
  1
124466
  9
$CUSTOMPROPERTYTAG
  1
NBSYN
  9
$CUSTOMPROPERTY
  1
$PN.
  9
$CUSTOMPROPERTYTAG
  1
LINA
  9
$CUSTOMPROPERTY
  1
124466
  9
$CUSTOMPROPERTYTAG
  1
SERIES
  9
$CUSTOMPROPERTY
  1
206
  9
$CUSTOMPROPERTYTAG
  1
SS
  9
$CUSTOMPROPERTY
  1
1-1/16
  9
$CUSTOMPROPERTYTAG
  1
PN
  9
$CUSTOMPROPERTY
  1
124466
  9
$CUSTOMPROPERTYTAG
  1
DESCRIPTION
  9
$CUSTOMPROPERTY
  1
TB-SC-101
  9
$CUSTOMPROPERTYTAG
  1
WEIGHT
  9
$CUSTOMPROPERTY
  1
2.66
  9
$CUSTOMPROPERTYTAG
  1
A
  9
$CUSTOMPROPERTY
  1
1.52
  9
$CUSTOMPROPERTYTAG
  1
B
  9
$CUSTOMPROPERTY
  1
4.00
  9
$CUSTOMPROPERTYTAG
  1
C
  9
$CUSTOMPROPERTY
  1
1.50
  9
$CUSTOMPROPERTYTAG
  1
D
  9
$CUSTOMPROPERTY
  1
3.00
  9
$CUSTOMPROPERTYTAG
  1
J
  9
$CUSTOMPROPERTY
  1
3.38
  9
$CUSTOMPROPERTYTAG
  1
L
  9
$CUSTOMPROPERTY
  1
1.57
  9
$CUSTOMPROPERTYTAG
  1
M
  9
$CUSTOMPROPERTY
  1
1.69
  9
$CUSTOMPROPERTYTAG
  1
N
  9
$CUSTOMPROPERTY
  1
0.63
  9
$CUSTOMPROPERTYTAG
  1
R
  9
$CUSTOMPROPERTY
  1
7/16-14
  9
$CUSTOMPROPERTYTAG
  1
S
  9
$CUSTOMPROPERTY
  1
0.94
  9
$CUSTOMPROPERTYTAG
  1
COMPANY
  9
$CUSTOMPROPERTY
  1
baldor
  9
$INSBASE
 10
0.0
 20
0.0
 30
0.0
  9
$EXTMIN
 10
1.000000000000000E+20
 20
1.000000000000000E+20
 30
1.000000000000000E+20
  9
$EXTMAX
 10
-1.000000000000000E+20
 20
-1.000000000000000E+20
 30
-1.000000000000000E+20
  9
$LIMMIN
 10
0.0
 20
0.0
  9
$LIMMAX
 10
12.0
 20
9.0
  9
$ORTHOMODE
 70
     0
  9
$REGENMODE
 70
     1
  9
$FILLMODE
 70
     1
  9
$QTEXTMODE
 70
     0
  9
$MIRRTEXT
 70
     1
  9
$LTSCALE
 40
1.0
  9
$ATTMODE
 70
     1
  9
$TEXTSIZE
 40
0.2
  9
$TRACEWID
 40
0.05
  9
$TEXTSTYLE
  7
Standard
  9
$CLAYER
  8
0
  9
$CELTYPE
  6
ByLayer
  9
$CECOLOR
 62
   256
  9
$CELTSCALE
 40
1.0
  9
$DISPSILH
 70
     0
  9
$DIMSCALE
 40
1.0
  9
$DIMASZ
 40
0.18
  9
$DIMEXO
 40
0.0625
  9
$DIMDLI
 40
0.38
  9
$DIMRND
 40
0.0
  9
$DIMDLE
 40
0.0
  9
$DIMEXE
 40
0.18
  9
$DIMTP
 40
0.0
  9
$DIMTM
 40
0.0
  9
$DIMTXT
 40
0.18
  9
$DIMCEN
 40
0.09
  9
$DIMTSZ
 40
0.0
  9
$DIMTOL
 70
     0
  9
$DIMLIM
 70
     0
  9
$DIMTIH
 70
     1
  9
$DIMTOH
 70
     1
  9
$DIMSE1
 70
     0
  9
$DIMSE2
 70
     0
  9
$DIMTAD
 70
     0
  9
$DIMZIN
 70
     0
  9
$DIMBLK
  1

  9
$DIMASO
 70
     1
  9
$DIMSHO
 70
     1
  9
$DIMPOST
  1

  9
$DIMAPOST
  1

  9
$DIMALT
 70
     0
  9
$DIMALTD
 70
     2
  9
$DIMALTF
 40
25.4
  9
$DIMLFAC
 40
1.0
  9
$DIMTOFL
 70
     0
  9
$DIMTVP
 40
0.0
  9
$DIMTIX
 70
     0
  9
$DIMSOXD
 70
     0
  9
$DIMSAH
 70
     0
  9
$DIMBLK1
  1

  9
$DIMBLK2
  1

  9
$DIMSTYLE
  2
Standard
  9
$DIMCLRD
 70
     0
  9
$DIMCLRE
 70
     0
  9
$DIMCLRT
 70
     0
  9
$DIMTFAC
 40
1.0
  9
$DIMGAP
 40
0.09
  9
$DIMJUST
 70
     0
  9
$DIMSD1
 70
     0
  9
$DIMSD2
 70
     0
  9
$DIMTOLJ
 70
     1
  9
$DIMTZIN
 70
     0
  9
$DIMALTZ
 70
     0
  9
$DIMALTTZ
 70
     0
  9
$DIMUPT
 70
     0
  9
$DIMDEC
 70
     4
  9
$DIMTDEC
 70
     4
  9
$DIMALTU
 70
     2
  9
$DIMALTTD
 70
     2
  9
$DIMTXSTY
  7
Standard
  9
$DIMAUNIT
 70
     0
  9
$DIMADEC
 70
     0
  9
$DIMALTRND
 40
0.0
  9
$DIMAZIN
 70
     0
  9
$DIMDSEP
 70
    46
  9
$DIMATFIT
 70
     3
  9
$DIMFRAC
 70
     0
  9
$DIMLDRBLK
  1

  9
$DIMLUNIT
 70
     2
  9
$DIMLWD
 70
    -2
  9
$DIMLWE
 70
    -2
  9
$DIMTMOVE
 70
     0
  9
$DIMFXL
 40
1.0
  9
$DIMFXLON
 70
     0
  9
$DIMJOGANG
 40
0.7853981633974483
  9
$DIMTFILL
 70
     0
  9
$DIMTFILLCLR
 70
     0
  9
$DIMARCSYM
 70
     0
  9
$DIMLTYPE
  6

  9
$DIMLTEX1
  6

  9
$DIMLTEX2
  6

  9
$DIMTXTDIRECTION
 70
     0
  9
$LUNITS
 70
     2
  9
$LUPREC
 70
     4
  9
$SKETCHINC
 40
0.1
  9
$FILLETRAD
 40
0.5
  9
$AUNITS
 70
     0
  9
$AUPREC
 70
     0
  9
$MENU
  1
.
  9
$ELEVATION
 40
0.0
  9
$PELEVATION
 40
0.0
  9
$THICKNESS
 40
0.0
  9
$LIMCHECK
 70
     0
  9
$CHAMFERA
 40
0.0
  9
$CHAMFERB
 40
0.0
  9
$CHAMFERC
 40
0.0
  9
$CHAMFERD
 40
0.0
  9
$SKPOLY
 70
     0
  9
$TDCREATE
 40
2458169.004227257
  9
$TDUCREATE
 40
2458168.96256059
  9
$TDUPDATE
 40
2458169.004227257
  9
$TDUUPDATE
 40
2458168.96256059
  9
$TDINDWG
 40
0.0000000116
  9
$TDUSRTIMER
 40
0.0000000116
  9
$USRTIMER
 70
     1
  9
$ANGBASE
 50
0.0
  9
$ANGDIR
 70
     0
  9
$PDMODE
 70
     0
  9
$PDSIZE
 40
0.0
  9
$PLINEWID
 40
0.0
  9
$SPLFRAME
 70
     0
  9
$SPLINETYPE
 70
     6
  9
$SPLINESEGS
 70
     8
  9
$HANDSEED
  5
193
  9
$SURFTAB1
 70
     6
  9
$SURFTAB2
 70
     6
  9
$SURFTYPE
 70
     6
  9
$SURFU
 70
     6
  9
$SURFV
 70
     6
  9
$UCSBASE
  2

  9
$UCSNAME
  2

  9
$UCSORG
 10
0.0
 20
0.0
 30
0.0
  9
$UCSXDIR
 10
1.0
 20
0.0
 30
0.0
  9
$UCSYDIR
 10
0.0
 20
1.0
 30
0.0
  9
$UCSORTHOREF
  2

  9
$UCSORTHOVIEW
 70
     0
  9
$UCSORGTOP
 10
0.0
 20
0.0
 30
0.0
  9
$UCSORGBOTTOM
 10
0.0
 20
0.0
 30
0.0
  9
$UCSORGLEFT
 10
0.0
 20
0.0
 30
0.0
  9
$UCSORGRIGHT
 10
0.0
 20
0.0
 30
0.0
  9
$UCSORGFRONT
 10
0.0
 20
0.0
 30
0.0
  9
$UCSORGBACK
 10
0.0
 20
0.0
 30
0.0
  9
$PUCSBASE
  2

  9
$PUCSNAME
  2

  9
$PUCSORG
 10
0.0
 20
0.0
 30
0.0
  9
$PUCSXDIR
 10
1.0
 20
0.0
 30
0.0
  9
$PUCSYDIR
 10
0.0
 20
1.0
 30
0.0
  9
$PUCSORTHOREF
  2

  9
$PUCSORTHOVIEW
 70
     0
  9
$PUCSORGTOP
 10
0.0
 20
0.0
 30
0.0
  9
$PUCSORGBOTTOM
 10
0.0
 20
0.0
 30
0.0
  9
$PUCSORGLEFT
 10
0.0
 20
0.0
 30
0.0
  9
$PUCSORGRIGHT
 10
0.0
 20
0.0
 30
0.0
  9
$PUCSORGFRONT
 10
0.0
 20
0.0
 30
0.0
  9
$PUCSORGBACK
 10
0.0
 20
0.0
 30
0.0
  9
$USERI1
 70
     0
  9
$USERI2
 70
     0
  9
$USERI3
 70
     0
  9
$USERI4
 70
     0
  9
$USERI5
 70
     0
  9
$USERR1
 40
0.0
  9
$USERR2
 40
0.0
  9
$USERR3
 40
0.0
  9
$USERR4
 40
0.0
  9
$USERR5
 40
0.0
  9
$WORLDVIEW
 70
     1
  9
$SHADEDGE
 70
     3
  9
$SHADEDIF
 70
    70
  9
$TILEMODE
 70
     1
  9
$MAXACTVP
 70
    64
  9
$PINSBASE
 10
0.0
 20
0.0
 30
0.0
  9
$PLIMCHECK
 70
     0
  9
$PEXTMIN
 10
1.000000000000000E+20
 20
1.000000000000000E+20
 30
1.000000000000000E+20
  9
$PEXTMAX
 10
-1.000000000000000E+20
 20
-1.000000000000000E+20
 30
-1.000000000000000E+20
  9
$PLIMMIN
 10
0.0
 20
0.0
  9
$PLIMMAX
 10
12.0
 20
9.0
  9
$UNITMODE
 70
     0
  9
$VISRETAIN
 70
     1
  9
$PLINEGEN
 70
     0
  9
$PSLTSCALE
 70
     1
  9
$TREEDEPTH
 70
  3020
  9
$CMLSTYLE
  2
Standard
  9
$CMLJUST
 70
     0
  9
$CMLSCALE
 40
1.0
  9
$PROXYGRAPHICS
 70
     1
  9
$MEASUREMENT
 70
     0
  9
$CELWEIGHT
370
    -1
  9
$ENDCAPS
280
     0
  9
$JOINSTYLE
280
     0
  9
$LWDISPLAY
290
     0
  9
$INSUNITS
 70
     1
  9
$HYPERLINKBASE
  1

  9
$STYLESHEET
  1

  9
$XEDIT
290
     1
  9
$CEPSNTYPE
380
     0
  9
$PSTYLEMODE
290
     1
  9
$FINGERPRINTGUID
  2
{95A1D639-CE10-47ED-812C-9471F04DF92F}
  9
$VERSIONGUID
  2
{FAEB1C32-E019-11D5-929B-00C0DF256EC4}
  9
$EXTNAMES
290
     1
  9
$PSVPSCALE
 40
0.0
  9
$OLESTARTUP
290
     0
  9
$SORTENTS
280
   127
  9
$INDEXCTL
280
     0
  9
$HIDETEXT
280
     1
  9
$XCLIPFRAME
280
     2
  9
$HALOGAP
280
     0
  9
$OBSCOLOR
 70
   257
  9
$OBSLTYPE
280
     0
  9
$INTERSECTIONDISPLAY
280
     0
  9
$INTERSECTIONCOLOR
 70
   257
  9
$DIMASSOC
280
     2
  9
$PROJECTNAME
  1

  9
$CAMERADISPLAY
290
     0
  9
$LENSLENGTH
 40
50.0
  9
$CAMERAHEIGHT
 40
0.0
  9
$STEPSPERSEC
 40
2.0
  9
$STEPSIZE
 40
6.0
  9
$3DDWFPREC
 40
2.0
  9
$PSOLWIDTH
 40
0.25
  9
$PSOLHEIGHT
 40
4.0
  9
$LOFTANG1
 40
1.570796326794897
  9
$LOFTANG2
 40
1.570796326794897
  9
$LOFTMAG1
 40
0.0
  9
$LOFTMAG2
 40
0.0
  9
$LOFTPARAM
 70
     7
  9
$LOFTNORMALS
280
     1
  9
$LATITUDE
 40
37.795
  9
$LONGITUDE
 40
-122.394
  9
$NORTHDIRECTION
 40
0.0
  9
$TIMEZONE
 70
 -8000
  9
$LIGHTGLYPHDISPLAY
280
     1
  9
$TILEMODELIGHTSYNCH
280
     1
  9
$CMATERIAL
347
44
  9
$SOLIDHIST
280
     0
  9
$SHOWHIST
280
     1
  9
$DWFFRAME
280
     2
  9
$DGNFRAME
280
     2
  9
$REALWORLDSCALE
290
     1
  9
$INTERFERECOLOR
 62
   256
  9
$CSHADOW
280
     0
  9
$SHADOWPLANELOCATION
 40
0.0
  0
ENDSEC
  0
SECTION
  2
CLASSES
  0
CLASS
  1
ACDBDICTIONARYWDFLT
  2
AcDbDictionaryWithDefault
  3
ObjectDBX Classes
 90
        0
 91
        4
280
     0
281
     0
  0
CLASS
  1
VISUALSTYLE
  2
AcDbVisualStyle
  3
ObjectDBX Classes
 90
     4095
 91
        4
280
     0
281
     0
  0
CLASS
  1
MATERIAL
  2
AcDbMaterial
  3
ObjectDBX Classes
 90
     1153
 91
        4
280
     0
281
     0
  0
CLASS
  1
SCALE
  2
AcDbScale
  3
ObjectDBX Classes
 90
     1153
 91
        4
280
     0
281
     0
  0
CLASS
  1
TABLESTYLE
  2
AcDbTableStyle
  3
ObjectDBX Classes
 90
     4095
 91
        4
280
     0
281
     0
  0
CLASS
  1
MLEADERSTYLE
  2
AcDbMLeaderStyle
  3
ACDB_MLEADERSTYLE_CLASS
 90
     4095
 91
        4
280
     0
281
     0
  0
CLASS
  1
SUN
  2
AcDbSun
  3
SCENEOE
 90
     1153
 91
        4
280
     0
281
     0
  0
CLASS
  1
DICTIONARYVAR
  2
AcDbDictionaryVar
  3
ObjectDBX Classes
 90
        0
 91
        4
280
     0
281
     0
  0
CLASS
  1
CELLSTYLEMAP
  2
AcDbCellStyleMap
  3
ObjectDBX Classes
 90
     1152
 91
        4
280
     0
281
     0
  0
ENDSEC
  0
SECTION
  2
TABLES
  0
TABLE
  2
VPORT
  5
8
330
0
100
AcDbSymbolTable
 70
     1
  0
VPORT
  5
29
330
8
100
AcDbSymbolTableRecord
100
AcDbViewportTableRecord
  2
*Active
 70
     0
 10
0.0
 20
0.0
 11
1.0
 21
1.0
 12
-0.0955000000000013
 22
-0.0232419511650885
 13
0.0
 23
0.0
 14
0.5
 24
0.5
 15
0.5
 25
0.5
 16
0.0
 26
0.0
 36
1.0
 17
0.0
 27
0.0
 37
0.0
 40
3.49501358037678
 41
0.5372854659401818
 42
50.0
 43
0.0
 44
0.0
 50
0.0
 51
0.0
 71
     0
 72
   100
 73
     1
 74
     3
 75
     0
 76
     0
 77
     0
 78
     0
281
     0
 65
     1
110
0.0
120
0.0
130
0.0
111
1.0
121
0.0
131
0.0
112
0.0
122
1.0
132
0.0
 79
     0
146
0.0
348
2F
 60
     3
 61
     5
292
     1
282
     1
141
0.0
142
0.0
 63
   250
361
6D
  0
ENDTAB
  0
TABLE
  2
LTYPE
  5
5
330
0
100
AcDbSymbolTable
 70
     3
  0
LTYPE
  5
14
330
5
100
AcDbSymbolTableRecord
100
AcDbLinetypeTableRecord
  2
ByBlock
 70
     0
  3

 72
    65
 73
     0
 40
0.0
  0
LTYPE
  5
15
330
5
100
AcDbSymbolTableRecord
100
AcDbLinetypeTableRecord
  2
ByLayer
 70
     0
  3

 72
    65
 73
     0
 40
0.0
  0
LTYPE
  5
16
330
5
100
AcDbSymbolTableRecord
100
AcDbLinetypeTableRecord
  2
Continuous
 70
     0
  3
Solid line
 72
    65
 73
     0
 40
0.0
  0
LTYPE
  5
94
330
5
100
AcDbSymbolTableRecord
100
AcDbLinetypeTableRecord
  2
Dashed
 70
     0
  3

 72
    65
 73
     2
 40
2.0
 49
1.0
 74
     0
 49
-1.0
 74
     0
  0
LTYPE
  5
12D
330
5
100
AcDbSymbolTableRecord
100
AcDbLinetypeTableRecord
  2
Center
 70
     0
  3

 72
    65
 73
     4
 40
1.5
 49
0.45
 74
     0
 49
-0.5
 74
     0
 49
0.05
 74
     0
 49
-0.5
 74
     0
  0
ENDTAB
  0
TABLE
  2
LAYER
  5
2
330
0
100
AcDbSymbolTable
 70
     7
  0
LAYER
  5
10
330
2
100
AcDbSymbolTableRecord
100
AcDbLayerTableRecord
  2
0
 70
     0
 62
     7
  6
Continuous
370
    -3
390
F
347
46
348
0
  0
LAYER
  5
72
330
2
100
AcDbSymbolTableRecord
100
AcDbLayerTableRecord
  2
AM_6
 70
     0
 62
    -2
  6
Continuous
370
    35
390
F
347
46
348
0
  0
LAYER
  5
95
330
2
100
AcDbSymbolTableRecord
100
AcDbLayerTableRecord
  2
AM_9
 70
     0
 62
     6
  6
Dashed
370
    25
390
F
347
46
348
0
  0
LAYER
  5
BA
330
2
100
AcDbSymbolTableRecord
100
AcDbLayerTableRecord
  2
AM_4
 70
     0
 62
     7
  6
Continuous
370
    50
390
F
347
46
348
0
  0
LAYER
  5
12A
330
2
100
AcDbSymbolTableRecord
100
AcDbLayerTableRecord
  2
AM_5
 70
     0
 62
     3
  6
Continuous
370
    25
390
F
347
46
348
0
  0
LAYER
  5
12E
330
2
100
AcDbSymbolTableRecord
100
AcDbLayerTableRecord
  2
AM_7
 70
     0
 62
     7
  6
Center
370
    25
390
F
347
46
348
0
  0
LAYER
  5
185
330
2
100
AcDbSymbolTableRecord
100
AcDbLayerTableRecord
  2
ConnectionPoints
 70
     0
 62
     7
  6
Continuous
370
    50
390
F
347
46
348
0
  0
ENDTAB
  0
TABLE
  2
STYLE
  5
3
330
0
100
AcDbSymbolTable
 70
     1
  0
STYLE
  5
11
330
3
100
AcDbSymbolTableRecord
100
AcDbTextStyleTableRecord
  2
Standard
 70
     0
 40
0.0
 41
1.0
 50
0.0
 71
     0
 42
0.2
  3
txt
  4

  0
ENDTAB
  0
TABLE
  2
VIEW
  5
6
330
0
100
AcDbSymbolTable
 70
     0
  0
ENDTAB
  0
TABLE
  2
UCS
  5
7
330
0
100
AcDbSymbolTable
 70
     0
  0
ENDTAB
  0
TABLE
  2
APPID
  5
9
330
0
100
AcDbSymbolTable
 70
     1
  0
APPID
  5
12
330
9
100
AcDbSymbolTableRecord
100
AcDbRegAppTableRecord
  2
ACAD
 70
     0
  0
ENDTAB
  0
TABLE
  2
DIMSTYLE
  5
A
330
0
100
AcDbSymbolTable
 70
     1
100
AcDbDimStyleTable
  0
DIMSTYLE
105
27
330
A
100
AcDbSymbolTableRecord
100
AcDbDimStyleTableRecord
  2
Standard
 70
     0
178
     0
340
11
  0
ENDTAB
  0
TABLE
  2
BLOCK_RECORD
  5
1
330
0
100
AcDbSymbolTable
 70
     5
  0
BLOCK_RECORD
  5
1F
330
1
100
AcDbSymbolTableRecord
100
AcDbBlockTableRecord
  2
*Model_Space
340
22
 70
     0
280
     1
281
     0
  0
BLOCK_RECORD
  5
1B
330
1
100
AcDbSymbolTableRecord
100
AcDbBlockTableRecord
  2
*Paper_Space
340
1E
 70
     0
280
     1
281
     0
  0
BLOCK_RECORD
  5
23
330
1
100
AcDbSymbolTableRecord
100
AcDbBlockTableRecord
  2
*Paper_Space0
340
26
 70
     0
280
     1
281
     0
  0
BLOCK_RECORD
  5
6E
330
1
100
AcDbSymbolTableRecord
100
AcDbBlockTableRecord
  2
1_124466_2
340
0
102
{BLKREFS
331
6F
102
}
 70
     0
280
     1
281
     0
  0
BLOCK_RECORD
  5
88
330
1
100
AcDbSymbolTableRecord
100
AcDbBlockTableRecord
  2
2_405015E_Inch_0_in_124466_2
340
0
102
{BLKREFS
331
89
102
}
 70
     0
280
     1
281
     0
  0
BLOCK_RECORD
  5
E2
330
1
100
AcDbSymbolTableRecord
100
AcDbBlockTableRecord
  2
3_123336_0_in_124466_2
340
0
102
{BLKREFS
331
E3
102
}
 70
     0
280
     1
281
     0
  0
BLOCK_RECORD
  5
141
330
1
100
AcDbSymbolTableRecord
100
AcDbBlockTableRecord
  2
4_124466H_0_in_124466_2
340
0
102
{BLKREFS
331
142
102
}
 70
     0
280
     1
281
     0
  0
ENDTAB
  0
ENDSEC
  0
SECTION
  2
BLOCKS
  0
BLOCK
  5
20
330
1F
100
AcDbEntity
  8
0
100
AcDbBlockBegin
  2
*Model_Space
 70
     0
 10
0.0
 20
0.0
 30
0.0
  3
*Model_Space
  1

  0
ENDBLK
  5
21
330
1F
100
AcDbEntity
  8
0
100
AcDbBlockEnd
  0
BLOCK
  5
1C
330
1B
100
AcDbEntity
 67
     1
  8
0
100
AcDbBlockBegin
  2
*Paper_Space
 70
     0
 10
0.0
 20
0.0
 30
0.0
  3
*Paper_Space
  1

  0
ENDBLK
  5
1D
330
1B
100
AcDbEntity
 67
     1
  8
0
100
AcDbBlockEnd
  0
BLOCK
  5
24
330
23
100
AcDbEntity
  8
0
100
AcDbBlockBegin
  2
*Paper_Space0
 70
     0
 10
0.0
 20
0.0
 30
0.0
  3
*Paper_Space0
  1

  0
ENDBLK
  5
25
330
23
100
AcDbEntity
  8
0
100
AcDbBlockEnd
  0
BLOCK
  5
70
330
6E
100
AcDbEntity
  8
0
100
AcDbBlockBegin
  2
1_124466_2
 70
     2
 10
0.0
 20
0.0
 30
0.0
  3
1_124466_2
  1

  0
ATTDEF
  5
73
330
6E
100
AcDbEntity
  8
AM_6
100
AcDbText
 10
5.825
 20
1.69
 30
0.0
 40
0.5
  1
Set Screw Tapped Base Inch Bore
100
AcDbAttributeDefinition
  3

  2
NN
 70
     8
280
     0
  0
ATTDEF
  5
74
330
6E
100
AcDbEntity
  8
AM_6
100
AcDbText
 10
5.825
 20
1.19
 30
0.0
 40
0.5
  1
SC Pillow Block Bearings -(Normal Duty) -Tapped Base Housing
100
AcDbAttributeDefinition
  3

  2
NT
 70
     8
280
     0
  0
ATTDEF
  5
75
330
6E
100
AcDbEntity
  8
AM_6
100
AcDbText
 10
5.825
 20
0.6900000000000002
 30
0.0
 40
0.5
  1
124466
100
AcDbAttributeDefinition
  3

  2
NB
 70
     8
280
     0
  0
ATTDEF
  5
76
330
6E
100
AcDbEntity
  8
AM_6
100
AcDbText
 10
5.825
 20
0.1900000000000002
 30
0.0
 40
0.5
  1
$PN.
100
AcDbAttributeDefinition
  3

  2
NBSYN
 70
     8
280
     0
  0
ATTDEF
  5
77
330
6E
100
AcDbEntity
  8
AM_6
100
AcDbText
 10
5.825
 20
-0.3099999999999998
 30
0.0
 40
0.5
  1
124466
100
AcDbAttributeDefinition
  3

  2
LINA
 70
     8
280
     0
  0
ATTDEF
  5
78
330
6E
100
AcDbEntity
  8
AM_6
100
AcDbText
 10
5.825
 20
-0.8099999999999998
 30
0.0
 40
0.5
  1
206
100
AcDbAttributeDefinition
  3

  2
SERIES
 70
     8
280
     0
  0
ATTDEF
  5
79
330
6E
100
AcDbEntity
  8
AM_6
100
AcDbText
 10
5.825
 20
-1.31
 30
0.0
 40
0.5
  1
1-1/16
100
AcDbAttributeDefinition
  3

  2
SS
 70
     8
280
     0
  0
ATTDEF
  5
7A
330
6E
100
AcDbEntity
  8
AM_6
100
AcDbText
 10
5.825
 20
-1.81
 30
0.0
 40
0.5
  1
124466
100
AcDbAttributeDefinition
  3

  2
PN
 70
     8
280
     0
  0
ATTDEF
  5
7B
330
6E
100
AcDbEntity
  8
AM_6
100
AcDbText
 10
5.825
 20
-2.31
 30
0.0
 40
0.5
  1
TB-SC-101
100
AcDbAttributeDefinition
  3

  2
DESCRIPTION
 70
     8
280
     0
  0
ATTDEF
  5
7C
330
6E
100
AcDbEntity
  8
AM_6
100
AcDbText
 10
5.825
 20
-2.81
 30
0.0
 40
0.5
  1
2.66
100
AcDbAttributeDefinition
  3

  2
WEIGHT
 70
     8
280
     0
  0
ATTDEF
  5
7D
330
6E
100
AcDbEntity
  8
AM_6
100
AcDbText
 10
5.825
 20
-3.31
 30
0.0
 40
0.5
  1
1.52
100
AcDbAttributeDefinition
  3

  2
A
 70
     8
280
     0
  0
ATTDEF
  5
7E
330
6E
100
AcDbEntity
  8
AM_6
100
AcDbText
 10
5.825
 20
-3.81
 30
0.0
 40
0.5
  1
4.00
100
AcDbAttributeDefinition
  3

  2
B
 70
     8
280
     0
  0
ATTDEF
  5
7F
330
6E
100
AcDbEntity
  8
AM_6
100
AcDbText
 10
5.825
 20
-4.31
 30
0.0
 40
0.5
  1
1.50
100
AcDbAttributeDefinition
  3

  2
C
 70
     8
280
     0
  0
ATTDEF
  5
80
330
6E
100
AcDbEntity
  8
AM_6
100
AcDbText
 10
5.825
 20
-4.81
 30
0.0
 40
0.5
  1
3.00
100
AcDbAttributeDefinition
  3

  2
D
 70
     8
280
     0
  0
ATTDEF
  5
81
330
6E
100
AcDbEntity
  8
AM_6
100
AcDbText
 10
5.825
 20
-5.31
 30
0.0
 40
0.5
  1
3.38
100
AcDbAttributeDefinition
  3

  2
J
 70
     8
280
     0
  0
ATTDEF
  5
82
330
6E
100
AcDbEntity
  8
AM_6
100
AcDbText
 10
5.825
 20
-5.81
 30
0.0
 40
0.5
  1
1.57
100
AcDbAttributeDefinition
  3

  2
L
 70
     8
280
     0
  0
ATTDEF
  5
83
330
6E
100
AcDbEntity
  8
AM_6
100
AcDbText
 10
5.825
 20
-6.31
 30
0.0
 40
0.5
  1
1.69
100
AcDbAttributeDefinition
  3

  2
M
 70
     8
280
     0
  0
ATTDEF
  5
84
330
6E
100
AcDbEntity
  8
AM_6
100
AcDbText
 10
5.825
 20
-6.81
 30
0.0
 40
0.5
  1
0.63
100
AcDbAttributeDefinition
  3

  2
N
 70
     8
280
     0
  0
ATTDEF
  5
85
330
6E
100
AcDbEntity
  8
AM_6
100
AcDbText
 10
5.825
 20
-7.31
 30
0.0
 40
0.5
  1
7/16-14
100
AcDbAttributeDefinition
  3

  2
R
 70
     8
280
     0
  0
ATTDEF
  5
86
330
6E
100
AcDbEntity
  8
AM_6
100
AcDbText
 10
5.825
 20
-7.81
 30
0.0
 40
0.5
  1
0.94
100
AcDbAttributeDefinition
  3

  2
S
 70
     8
280
     0
  0
ATTDEF
  5
87
330
6E
100
AcDbEntity
  8
AM_6
100
AcDbText
 10
5.825
 20
-8.309999999999999
 30
0.0
 40
0.5
  1
baldor
100
AcDbAttributeDefinition
  3

  2
COMPANY
 70
     8
280
     0
  0
INSERT
  5
89
330
6E
100
AcDbEntity
  8
0
100
AcDbBlockReference
  2
2_405015E_Inch_0_in_124466_2
 10
0.0
 20
0.0
 30
0.0
  0
INSERT
  5
E3
330
6E
100
AcDbEntity
  8
0
100
AcDbBlockReference
  2
3_123336_0_in_124466_2
 10
0.0
 20
0.0
 30
0.0
  0
INSERT
  5
142
330
6E
100
AcDbEntity
  8
0
100
AcDbBlockReference
  2
4_124466H_0_in_124466_2
 10
0.0
 20
0.0
 30
0.0
  0
ENDBLK
  5
71
330
6E
100
AcDbEntity
  8
0
100
AcDbBlockEnd
  0
BLOCK
  5
8A
330
88
100
AcDbEntity
  8
0
100
AcDbBlockBegin
  2
2_405015E_Inch_0_in_124466_2
 70
     2
 10
0.0
 20
0.0
 30
0.0
  3
2_405015E_Inch_0_in_124466_2
  1

  0
ATTDEF
  5
8C
330
88
100
AcDbEntity
  8
AM_6
100
AcDbText
 10
5.252590742770462
 20
1.441967712029598
 30
0.0
 40
0.5
  1
405015E -Inch
100
AcDbAttributeDefinition
  3

  2
NN
 70
     8
280
     0
  0
ATTDEF
  5
8D
330
88
100
AcDbEntity
  8
AM_6
100
AcDbText
 10
5.252590742770462
 20
0.9419677120295982
 30
0.0
 40
0.5
  1
Grease Fitting
100
AcDbAttributeDefinition
  3

  2
NT
 70
     8
280
     0
  0
ATTDEF
  5
8E
330
88
100
AcDbEntity
  8
AM_6
100
AcDbText
 10
5.252590742770462
 20
0.4419677120295982
 30
0.0
 40
0.5
  1
405015E-Inch
100
AcDbAttributeDefinition
  3

  2
NB
 70
     8
280
     0
  0
ATTDEF
  5
8F
330
88
100
AcDbEntity
  8
AM_6
100
AcDbText
 10
5.252590742770462
 20
-0.0580322879704018
 30
0.0
 40
0.5
  1
$MN.-Inch
100
AcDbAttributeDefinition
  3

  2
NBSYN
 70
     8
280
     0
  0
ATTDEF
  5
90
330
88
100
AcDbEntity
  8
AM_6
100
AcDbText
 10
5.252590742770462
 20
-0.5580322879704018
 30
0.0
 40
0.5
  1
405015E
100
AcDbAttributeDefinition
  3

  2
LINA
 70
     8
280
     0
  0
ATTDEF
  5
91
330
88
100
AcDbEntity
  8
AM_6
100
AcDbText
 10
5.252590742770462
 20
-1.058032287970402
 30
0.0
 40
0.5
  1
405015E
100
AcDbAttributeDefinition
  3

  2
MN
 70
     8
280
     0
  0
ATTDEF
  5
92
330
88
100
AcDbEntity
  8
AM_6
100
AcDbText
 10
5.252590742770462
 20
-1.558032287970402
 30
0.0
 40
0.5
  1
1/8 x 27PTF
100
AcDbAttributeDefinition
  3

  2
T
 70
     8
280
     0
  0
ATTDEF
  5
93
330
88
100
AcDbEntity
  8
AM_6
100
AcDbText
 10
5.252590742770462
 20
-2.058032287970402
 30
0.0
 40
0.5
  1
baldor
100
AcDbAttributeDefinition
  3

  2
COMPANY
 70
     8
280
     0
  0
LINE
  5
96
330
88
100
AcDbEntity
  8
AM_9
100
AcDbLine
 10
-0.1262953713852306
 20
1.323192087641746
 30
0.0
 11
-0.1262953713852306
 21
1.265304931992213
 31
0.0
  0
LINE
  5
97
330
88
100
AcDbEntity
  8
AM_9
100
AcDbLine
 10
0.1262953713852308
 20
1.323192087641746
 30
0.0
 11
0.1262953713852307
 21
1.265304931992213
 31
0.0
  0
LWPOLYLINE
  5
98
330
88
100
AcDbEntity
  8
AM_9
100
AcDbPolyline
 90
        4
 70
     0
 43
0.0
 10
-0.1262953713852306
 20
1.265304931992213
 10
-0.0967996321117977
 20
1.262769821826282
 10
-0.0485424412477543
 20
1.259901383577136
 10
0.0000000000000001
 20
1.258893170757652
  0
LWPOLYLINE
  5
99
330
88
100
AcDbEntity
  8
AM_9
100
AcDbPolyline
 90
        4
 70
     0
 43
0.0
 10
0.0000000000000001
 20
1.258893170757652
 10
0.0315738428463077
 20
1.259322677318867
 10
0.0631476856926154
 20
1.260585546540712
 10
0.1262953713852307
 20
1.265304931992213
  0
ELLIPSE
  5
9A
330
88
100
AcDbEntity
  8
AM_9
100
AcDbEllipse
 10
0.0000000000000001
 20
0.9168302653586597
 30
0.0
 11
-0.161902872472269
 21
1.982738345459263E-17
 31
0.0
210
0.0
220
0.0
230
1.0
 40
0.7071067811865478
 41
0.0
 42
6.283185307179586
  0
LWPOLYLINE
  5
9B
330
88
100
AcDbEntity
  8
AM_9
100
AcDbPolyline
 90
        4
 70
     0
 43
0.0
 10
0.1262953713852307
 20
1.265304931992213
 10
0.1577272497321277
 20
1.222104465919306
 10
0.1735630385535389
 20
1.201436898636921
 10
0.1894430570778461
 20
1.181553366565373
  0
LWPOLYLINE
  5
9C
330
88
100
AcDbEntity
  8
AM_9
100
AcDbPolyline
 90
        4
 70
     0
 43
0.0
 10
-0.1894430570778459
 20
1.181553366565373
 10
-0.173656135654692
 20
1.201317824174659
 10
-0.1578692142315382
 20
1.221915644444572
 10
-0.1262953713852306
 20
1.265304931992213
  0
LINE
  5
9D
330
88
100
AcDbEntity
  8
AM_9
100
AcDbLine
 10
-0.1262953713852306
 20
1.323192087641746
 30
0.0
 11
-0.1343065202610017
 21
1.314823820113848
 31
0.0
  0
LWPOLYLINE
  5
9E
330
88
100
AcDbEntity
  8
AM_9
100
AcDbPolyline
 90
        4
 70
     0
 43
0.0
 10
0.0000000000000001
 20
1.329603848876307
 10
-0.0483998160558988
 20
1.328601482080475
 10
-0.0967996321117977
 20
1.325727197807678
 10
-0.1262953713852306
 20
1.323192087641746
  0
LINE
  5
9F
330
88
100
AcDbEntity
  8
AM_9
100
AcDbLine
 10
0.1348071919770983
 20
1.314295718018951
 30
0.0
 11
0.1262953713852308
 21
1.323192087641746
 31
0.0
  0
LWPOLYLINE
  5
A0
330
88
100
AcDbEntity
  8
AM_9
100
AcDbPolyline
 90
        4
 70
     0
 43
0.0
 10
0.1262953713852308
 20
1.323192087641746
 10
0.0634316146914368
 20
1.327896521911087
 10
0.0317600370486144
 20
1.329169288050008
 10
0.0000000000000001
 20
1.329603848876307
  0
LWPOLYLINE
  5
A1
330
88
100
AcDbEntity
  8
AM_9
100
AcDbPolyline
 90
        4
 70
     0
 43
0.0
 10
0.1894430570778461
 20
1.181553366565373
 10
0.2052299785009999
 20
1.162647922078519
 10
0.2210168999241537
 20
1.144575840252294
 10
0.2525907427704613
 20
1.110625323607656
  0
LWPOLYLINE
  5
A2
330
88
100
AcDbEntity
  8
AM_9
100
AcDbPolyline
 90
        4
 70
     0
 43
0.0
 10
-0.2525907427704611
 20
1.110625323607656
 10
-0.2211588644235642
 20
1.144416921141882
 10
-0.205323075602153
 20
1.162538956146423
 10
-0.1894430570778459
 20
1.181553366565373
  0
LINE
  5
A3
330
88
100
AcDbEntity
  8
AM_9
100
AcDbLine
 10
0.1985206121313389
 20
0.9384024268070867
 30
0.0
 11
0.2056510749714091
 21
1.099659515780552
 31
0.0
  0
LINE
  5
A4
330
88
100
AcDbEntity
  8
AM_9
100
AcDbLine
 10
-0.2056510749714088
 20
1.099659515780552
 30
0.0
 11
-0.1985206121313387
 21
0.9384024268070867
 31
0.0
  0
ELLIPSE
  5
A5
330
88
100
AcDbEntity
  8
AM_9
100
AcDbEllipse
 10
0.000000000000001
 20
1.174924240491751
 30
0.0
 11
0.2187499999999977
 21
3.259629011154141E-9
 31
0.0
210
0.0
220
0.0
230
1.0
 40
0.7071067811865475
 41
0.9156935872670191
 42
1.570796316258188
  0
ELLIPSE
  5
A6
330
88
100
AcDbEntity
  8
AM_9
100
AcDbEllipse
 10
-0.0000000000000008
 20
1.174924240491751
 30
0.0
 11
0.2187499999999975
 21
3.259629011154138E-9
 31
0.0
210
0.0
220
0.0
230
1.0
 40
0.707106781186547
 41
1.570796316258181
 42
2.225899037427438
  0
LINE
  5
A7
330
88
100
AcDbEntity
  8
AM_9
100
AcDbLine
 10
-0.0948683298050513
 20
1.280990257669732
 30
0.0
 11
-0.1073548910028989
 21
1.262376391240666
 31
0.0
  0
LINE
  5
A8
330
88
100
AcDbEntity
  8
AM_9
100
AcDbLine
 10
0.107354891002899
 20
1.262376391240666
 30
0.0
 11
0.0948683298050515
 21
1.280990257669732
 31
0.0
  0
ELLIPSE
  5
A9
330
88
100
AcDbEntity
  8
AM_9
100
AcDbEllipse
 10
0.0000000000000001
 20
1.249170452516337
 30
0.0
 11
0.105
 21
0.0
 31
0.0
210
0.0
220
0.0
230
1.0
 40
0.7071067811865476
 41
0.4429110440736359
 42
3.141592653589793
  0
ELLIPSE
  5
AA
330
88
100
AcDbEntity
  8
AM_9
100
AcDbEllipse
 10
0.0000000000000631
 20
1.226368466140712
 30
0.0
 11
0.1188200907349667
 21
0.0
 31
0.0
210
0.0
220
0.0
230
1.0
 40
0.7071067811865723
 41
0.4429110440740684
 42
2.765372027488859
  0
ELLIPSE
  5
AB
330
88
100
AcDbEntity
  8
AM_9
100
AcDbEllipse
 10
0.0000000000000001
 20
1.174924240491749
 30
0.0
 11
0.2137500000000005
 21
0.0
 31
0.0
210
0.0
220
0.0
230
1.0
 40
0.707106781186548
 41
0.903655218840365
 42
2.237937434749428
  0
ELLIPSE
  5
AC
330
88
100
AcDbEntity
  8
AM_9
100
AcDbEllipse
 10
0.0000000000000042
 20
1.249170452516335
 30
0.0
 11
0.1049999999999959
 21
0.0
 31
0.0
210
0.0
220
0.0
230
1.0
 40
0.7071067811865539
 41
0.0
 42
0.4429110440736714
  0
LINE
  5
AD
330
88
100
AcDbEntity
  8
AM_9
100
AcDbLine
 10
0.1050000000000001
 20
1.250489443398876
 30
0.0
 11
0.1050000000000001
 21
1.270383655951933
 31
0.0
  0
LINE
  5
AE
330
88
100
AcDbEntity
  8
AM_9
100
AcDbLine
 10
-0.1049999999999999
 20
1.270383655951933
 30
0.0
 11
-0.1049999999999999
 21
1.250489443398876
 31
0.0
  0
ELLIPSE
  5
AF
330
88
100
AcDbEntity
  8
AM_9
100
AcDbEllipse
 10
0.0000000000000014
 20
1.270383655951935
 30
0.0
 11
0.1050000000000013
 21
1.564621925354023E-9
 31
0.0
210
0.0
220
0.0
230
1.0
 40
0.7071067811865537
 41
3.141592638688632
 42
3.665191410748858
  0
ELLIPSE
  5
B0
330
88
100
AcDbEntity
  8
AM_9
100
AcDbEllipse
 10
-0.0000000000000315
 20
1.226368466140721
 30
0.0
 11
0.1188200907349327
 21
1.770557325108837E-9
 31
0.0
210
0.0
220
0.0
230
1.0
 40
0.7071067811865723
 41
0.3762206064498432
 42
0.4429110249355199
  0
ELLIPSE
  5
B1
330
88
100
AcDbEntity
  8
AM_9
100
AcDbEllipse
 10
-0.0000000000000014
 20
1.187877162899128
 30
0.0
 11
0.1725340532830185
 21
2.570957739398159E-9
 31
0.0
210
0.0
220
0.0
230
1.0
 40
0.7071067811865411
 41
0.7772913272515929
 42
1.733730584908545
  0
LINE
  5
B2
330
88
100
AcDbEntity
  8
AM_9
100
AcDbLine
 10
-0.0192743186691522
 20
1.30927417946041
 30
0.0
 11
-0.0279874918769156
 21
1.308261339269418
 31
0.0
  0
LINE
  5
B3
330
88
100
AcDbEntity
  8
AM_9
100
AcDbLine
 10
0.0279874918769158
 20
1.308261339269418
 30
0.0
 11
0.0192743186691524
 21
1.30927417946041
 31
0.0
  0
ELLIPSE
  5
B4
330
88
100
AcDbEntity
  8
AM_9
100
AcDbEllipse
 10
0.000000000000002
 20
1.187877162899126
 30
0.0
 11
0.1725340532830194
 21
0.0
 31
0.0
210
0.0
220
0.0
230
1.0
 40
0.707106781186548
 41
1.733730595722533
 42
2.364301310447712
  0
ELLIPSE
  5
B5
330
88
100
AcDbEntity
  8
AM_9
100
AcDbEllipse
 10
0.0000000000000001
 20
1.270383655951934
 30
0.0
 11
0.105
 21
0.0
 31
0.0
210
0.0
220
0.0
230
1.0
 40
0.7071067811865476
 41
5.759586531581283
 42
9.42477796076938
  0
ELLIPSE
  5
B6
330
88
100
AcDbEntity
  8
AM_9
100
AcDbEllipse
 10
0.0000000000000001
 20
1.312810062823127
 30
0.0
 11
0.1349999999999998
 21
0.0
 31
0.0
210
0.0
220
0.0
230
1.0
 40
0.7071067811865476
 41
0.4159140521025471
 42
2.725678601487246
  0
ELLIPSE
  5
B7
330
88
100
AcDbEntity
  8
AM_9
100
AcDbEllipse
 10
0.0000000000000001
 20
1.104213562373095
 30
0.0
 11
0.2057518972230694
 21
0.0
 31
0.0
210
0.0
220
0.0
230
1.0
 40
0.7071067811865479
 41
0.0
 42
6.283185307179586
  0
ELLIPSE
  5
B8
330
88
100
AcDbEntity
  8
AM_9
100
AcDbEllipse
 10
0.0000000000000001
 20
0.942791517100114
 30
0.0
 11
0.1986176267812154
 21
0.0
 31
0.0
210
0.0
220
0.0
230
1.0
 40
0.7071067811865365
 41
0.0
 42
6.283185307179586
  0
ELLIPSE
  5
B9
330
88
100
AcDbEntity
  8
AM_9
100
AcDbEllipse
 10
0.0000000000000002
 20
1.104213562373096
 30
0.0
 11
0.2187499999999997
 21
0.0
 31
0.0
210
0.0
220
0.0
230
1.0
 40
0.7071067811865511
 41
0.0
 42
6.283185307179586
  0
LWPOLYLINE
  5
BB
330
88
100
AcDbEntity
  8
AM_4
100
AcDbPolyline
 90
        4
 70
     0
 43
0.0
 10
-0.1343065202610017
 20
1.314823820113848
 10
-0.1577272497321275
 20
1.28940049010752
 10
-0.1735630385535387
 20
1.271278455102978
 10
-0.1894430570778459
 20
1.252264044684028
  0
LWPOLYLINE
  5
BC
330
88
100
AcDbEntity
  8
AM_4
100
AcDbPolyline
 90
        4
 70
     0
 43
0.0
 10
0.1894430570778461
 20
1.252264044684028
 10
0.1736561356546923
 20
1.271169489170882
 10
0.1578692142315384
 20
1.289241570997108
 10
0.1355387371682278
 20
1.313522974638687
  0
LWPOLYLINE
  5
BD
330
88
100
AcDbEntity
  8
AM_4
100
AcDbPolyline
 90
        4
 70
     0
 43
0.0
 10
0.2525907427704613
 20
1.168512479257188
 10
0.2211588644235644
 20
1.211712945330096
 10
0.2053230756021532
 20
1.232380512612481
 10
0.1894430570778461
 20
1.252264044684028
  0
LWPOLYLINE
  5
BE
330
88
100
AcDbEntity
  8
AM_4
100
AcDbPolyline
 90
        4
 70
     0
 43
0.0
 10
-0.1894430570778459
 20
1.252264044684028
 10
-0.2052299785009997
 20
1.232499587074743
 10
-0.2210168999241535
 20
1.211901766804829
 10
-0.2525907427704611
 20
1.168512479257188
  0
LINE
  5
BF
330
88
100
AcDbEntity
  8
AM_4
100
AcDbLine
 10
0.2525907427704613
 20
1.168512479257188
 30
0.0
 11
0.2525907427704613
 21
1.110625323607656
 31
0.0
  0
LWPOLYLINE
  5
C0
330
88
100
AcDbEntity
  8
AM_4
100
AcDbPolyline
 90
        4
 70
     0
 43
0.0
 10
0.1894430570778461
 20
1.097584436299471
 10
0.2052299785009998
 20
1.116489880786325
 10
0.2210168999241537
 20
1.134561962612551
 10
0.2525907427704613
 20
1.168512479257188
  0
LWPOLYLINE
  5
C1
330
88
100
AcDbEntity
  8
AM_4
100
AcDbPolyline
 90
        4
 70
     0
 43
0.0
 10
0.1894430570778461
 20
1.026873758180816
 10
0.1736561356546922
 20
1.007968313693962
 10
0.1578692142315384
 20
0.9898962318677366
 10
0.1262953713852308
 20
0.9559457152230988
  0
LWPOLYLINE
  5
C2
330
88
100
AcDbEntity
  8
AM_4
100
AcDbPolyline
 90
        4
 70
     0
 43
0.0
 10
0.2525907427704613
 20
1.110625323607656
 10
0.2211588644235644
 20
1.067424857534749
 10
0.2053230756021532
 20
1.046757290252363
 10
0.1894430570778461
 20
1.026873758180816
  0
LINE
  5
C3
330
88
100
AcDbEntity
  8
AM_4
100
AcDbLine
 10
0.1262953713852308
 20
1.013832870872631
 30
0.0
 11
0.1262953713852308
 21
0.9559457152230988
 31
0.0
  0
LWPOLYLINE
  5
C4
330
88
100
AcDbEntity
  8
AM_4
100
AcDbPolyline
 90
        4
 70
     0
 43
0.0
 10
-0.1262953713852306
 20
1.013832870872631
 10
-0.0967996321117977
 20
1.016367981038563
 10
-0.0485424412477543
 20
1.019236419287709
 10
0.0000000000000001
 20
1.020244632107192
  0
LWPOLYLINE
  5
C5
330
88
100
AcDbEntity
  8
AM_4
100
AcDbPolyline
 90
        4
 70
     0
 43
0.0
 10
0.0000000000000001
 20
0.9495339539885377
 10
-0.0483998160558988
 20
0.9505363207843691
 10
-0.0967996321117977
 20
0.9534106050571669
 10
-0.1262953713852306
 20
0.9559457152230988
  0
LWPOLYLINE
  5
C6
330
88
100
AcDbEntity
  8
AM_4
100
AcDbPolyline
 90
        4
 70
     0
 43
0.0
 10
0.1262953713852308
 20
0.9559457152230988
 10
0.0634316146914368
 20
0.9512412809537579
 10
0.0317600370486144
 20
0.9499685148148361
 10
0.0000000000000001
 20
0.9495339539885377
  0
LWPOLYLINE
  5
C7
330
88
100
AcDbEntity
  8
AM_4
100
AcDbPolyline
 90
        4
 70
     0
 43
0.0
 10
0.0000000000000001
 20
1.020244632107192
 10
0.0315738428463078
 20
1.019815125545977
 10
0.0631476856926154
 20
1.018552256324133
 10
0.1262953713852308
 20
1.013832870872631
  0
LWPOLYLINE
  5
C8
330
88
100
AcDbEntity
  8
AM_4
100
AcDbPolyline
 90
        4
 70
     0
 43
0.0
 10
0.1262953713852308
 20
1.013832870872631
 10
0.1577272497321277
 20
1.057033336945538
 10
0.1735630385535389
 20
1.077700904227924
 10
0.1894430570778461
 20
1.097584436299471
  0
ELLIPSE
  5
C9
330
88
100
AcDbEntity
  8
AM_4
100
AcDbEllipse
 10
-0.0000000000000007
 20
1.174924240491749
 30
0.0
 11
0.2187499999999988
 21
0.0
 31
0.0
210
0.0
220
0.0
230
1.0
 40
0.7071067811865479
 41
2.617993877991488
 42
4.71238898038469
  0
ELLIPSE
  5
CA
330
88
100
AcDbEntity
  8
AM_4
100
AcDbEllipse
 10
0.0000000000000008
 20
1.174924240491749
 30
0.0
 11
0.2187499999999988
 21
3.259629011154157E-9
 31
0.0
210
0.0
220
0.0
230
1.0
 40
0.7071067811865479
 41
4.712388969847974
 42
6.806784064338644
  0
ELLIPSE
  5
CB
330
88
100
AcDbEntity
  8
AM_4
100
AcDbEllipse
 10
0.0000000000000019
 20
1.174924240491753
 30
0.0
 11
0.2187499999999979
 21
0.0
 31
0.0
210
0.0
220
0.0
230
1.0
 40
0.7071067811865376
 41
0.5235987755982885
 42
0.9156936017146888
  0
ELLIPSE
  5
CC
330
88
100
AcDbEntity
  8
AM_4
100
AcDbEllipse
 10
-0.0000000000000018
 20
1.174924240491753
 30
0.0
 11
0.2187499999999978
 21
0.0
 31
0.0
210
0.0
220
0.0
230
1.0
 40
0.7071067811865381
 41
2.225899051875104
 42
2.617993877991505
  0
LINE
  5
CD
330
88
100
AcDbEntity
  8
AM_4
100
AcDbLine
 10
-0.1262953713852306
 20
1.013832870872631
 30
0.0
 11
-0.1262953713852306
 21
0.9559457152230988
 31
0.0
  0
LWPOLYLINE
  5
CE
330
88
100
AcDbEntity
  8
AM_4
100
AcDbPolyline
 90
        4
 70
     0
 43
0.0
 10
-0.1894430570778459
 20
1.097584436299471
 10
-0.173656135654692
 20
1.077819978690186
 10
-0.1578692142315382
 20
1.057222158420272
 10
-0.1262953713852306
 20
1.013832870872631
  0
LWPOLYLINE
  5
CF
330
88
100
AcDbEntity
  8
AM_4
100
AcDbPolyline
 90
        4
 70
     0
 43
0.0
 10
-0.2525907427704611
 20
1.168512479257188
 10
-0.2211588644235642
 20
1.134720881722963
 10
-0.205323075602153
 20
1.116598846718421
 10
-0.1894430570778459
 20
1.097584436299471
  0
LINE
  5
D0
330
88
100
AcDbEntity
  8
AM_4
100
AcDbLine
 10
-0.2525907427704611
 20
1.168512479257188
 30
0.0
 11
-0.2525907427704611
 21
1.110625323607656
 31
0.0
  0
LWPOLYLINE
  5
D1
330
88
100
AcDbEntity
  8
AM_4
100
AcDbPolyline
 90
        4
 70
     0
 43
0.0
 10
-0.1894430570778459
 20
1.026873758180816
 10
-0.2052299785009997
 20
1.046638215790101
 10
-0.2210168999241535
 20
1.067236036060015
 10
-0.2525907427704611
 20
1.110625323607656
  0
LWPOLYLINE
  5
D2
330
88
100
AcDbEntity
  8
AM_4
100
AcDbPolyline
 90
        4
 70
     0
 43
0.0
 10
-0.1262953713852306
 20
0.9559457152230988
 10
-0.1577272497321275
 20
0.9897373127573244
 10
-0.1735630385535387
 20
1.007859347761866
 10
-0.1894430570778459
 20
1.026873758180816
  0
ELLIPSE
  5
D3
330
88
100
AcDbEntity
  8
AM_4
100
AcDbEllipse
 10
0.0000000000000001
 20
1.226368466140732
 30
0.0
 11
0.1188200907348977
 21
1.770557325108315E-9
 31
0.0
210
0.0
220
0.0
230
1.0
 40
0.7071067811865474
 41
2.765372007837789
 42
6.659405913629415
  0
ELLIPSE
  5
D4
330
88
100
AcDbEntity
  8
AM_4
100
AcDbEllipse
 10
0.0
 20
1.17492424049175
 30
0.0
 11
0.2137500000000002
 21
0.0
 31
0.0
210
0.0
220
0.0
230
1.0
 40
0.7071067811865479
 41
2.237937434749429
 42
6.283185307179586
  0
ELLIPSE
  5
D5
330
88
100
AcDbEntity
  8
AM_4
100
AcDbEllipse
 10
-0.0000000000000011
 20
1.174924240491748
 30
0.0
 11
0.2137500000000012
 21
0.0
 31
0.0
210
0.0
220
0.0
230
1.0
 40
0.7071067811865497
 41
0.0
 42
0.9036552188403632
  0
LINE
  5
D6
330
88
100
AcDbEntity
  8
AM_4
100
AcDbLine
 10
0.1050000000000001
 20
1.249170452516337
 30
0.0
 11
0.1050000000000001
 21
1.250489443398876
 31
0.0
  0
LINE
  5
D7
330
88
100
AcDbEntity
  8
AM_4
100
AcDbLine
 10
-0.1049999999999999
 20
1.250489443398876
 30
0.0
 11
-0.1049999999999999
 21
1.249170452516337
 31
0.0
  0
ELLIPSE
  5
D8
330
88
100
AcDbEntity
  8
AM_4
100
AcDbEllipse
 10
0.0000000000000001
 20
1.249170452516337
 30
0.0
 11
0.1050000000000001
 21
1.564621925354006E-9
 31
0.0
210
0.0
220
0.0
230
1.0
 40
0.7071067811865464
 41
3.141592638688632
 42
6.283187037607677
  0
ELLIPSE
  5
D9
330
88
100
AcDbEntity
  8
AM_4
100
AcDbEllipse
 10
0.0000000000000005
 20
1.187877162899128
 30
0.0
 11
0.172534053283015
 21
0.0
 31
0.0
210
0.0
220
0.0
230
1.0
 40
0.7071067811865505
 41
2.364301310447718
 42
7.060476650321664
  0
LINE
  5
DA
330
88
100
AcDbEntity
  8
AM_4
100
AcDbLine
 10
0.0909326673973662
 20
1.23326054993964
 30
0.0
 11
0.1169134295108993
 21
1.265080355093035
 31
0.0
  0
LINE
  5
DB
330
88
100
AcDbEntity
  8
AM_4
100
AcDbLine
 10
-0.1169134295108991
 20
1.265080355093035
 30
0.0
 11
-0.090932667397366
 21
1.23326054993964
 31
0.0
  0
ELLIPSE
  5
DC
330
88
100
AcDbEntity
  8
AM_4
100
AcDbEllipse
 10
0.0000000000000001
 20
1.270383655951933
 30
0.0
 11
0.1049999999999996
 21
0.0
 31
0.0
210
0.0
220
0.0
230
1.0
 40
0.7071067811865477
 41
3.665191429188088
 42
5.759586531581291
  0
ELLIPSE
  5
DD
330
88
100
AcDbEntity
  8
AM_4
100
AcDbEllipse
 10
0.0000000000000017
 20
1.36937860531805
 30
0.0
 11
0.1026779019331859
 21
0.0
 31
0.0
210
0.0
220
0.0
230
1.0
 40
0.7071067811865421
 41
0.0
 42
0.4159140521025518
  0
ELLIPSE
  5
DE
330
88
100
AcDbEntity
  8
AM_4
100
AcDbEllipse
 10
-0.0000000000000022
 20
1.312810062823129
 30
0.0
 11
0.1350000000000024
 21
0.0
 31
0.0
210
0.0
220
0.0
230
1.0
 40
0.7071067811865422
 41
2.725678601487255
 42
6.699099359282108
  0
LINE
  5
DF
330
88
100
AcDbEntity
  8
AM_4
100
AcDbLine
 10
-0.0939243440009286
 20
1.398712622681825
 30
0.0
 11
-0.1234908992236334
 21
1.351378170171935
 31
0.0
  0
LINE
  5
E0
330
88
100
AcDbEntity
  8
AM_4
100
AcDbLine
 10
0.1234908992236336
 20
1.351378170171935
 30
0.0
 11
0.0939243440009288
 21
1.398712622681825
 31
0.0
  0
ELLIPSE
  5
E1
330
88
100
AcDbEntity
  8
AM_4
100
AcDbEllipse
 10
0.0000000000000001
 20
1.36937860531805
 30
0.0
 11
0.1026779019331875
 21
0.0
 31
0.0
210
0.0
220
0.0
230
1.0
 40
0.7071067811865421
 41
0.4159140521025453
 42
6.283185307179586
  0
ENDBLK
  5
8B
330
88
100
AcDbEntity
  8
0
100
AcDbBlockEnd
  0
BLOCK
  5
E4
330
E2
100
AcDbEntity
  8
0
100
AcDbBlockBegin
  2
3_123336_0_in_124466_2
 70
     2
 10
0.0
 20
0.0
 30
0.0
  3
3_123336_0_in_124466_2
  1

  0
ATTDEF
  5
E6
330
E2
100
AcDbEntity
  8
AM_6
100
AcDbText
 10
5.58
 20
1.219872827573648
 30
0.0
 40
0.5
  1
Set Screw Insert Inch Bore
100
AcDbAttributeDefinition
  3

  2
NN
 70
     8
280
     0
  0
ATTDEF
  5
E7
330
E2
100
AcDbEntity
  8
AM_6
100
AcDbText
 10
5.58
 20
0.7198728275736477
 30
0.0
 40
0.5
  1
SC Normal Duty Bearing Inserts
100
AcDbAttributeDefinition
  3

  2
NT
 70
     8
280
     0
  0
ATTDEF
  5
E8
330
E2
100
AcDbEntity
  8
AM_6
100
AcDbText
 10
5.58
 20
0.2198728275736477
 30
0.0
 40
0.5
  1
123336
100
AcDbAttributeDefinition
  3

  2
NB
 70
     8
280
     0
  0
ATTDEF
  5
E9
330
E2
100
AcDbEntity
  8
AM_6
100
AcDbText
 10
5.58
 20
-0.2801271724263523
 30
0.0
 40
0.5
  1
$PN.
100
AcDbAttributeDefinition
  3

  2
NBSYN
 70
     8
280
     0
  0
ATTDEF
  5
EA
330
E2
100
AcDbEntity
  8
AM_6
100
AcDbText
 10
5.58
 20
-0.7801271724263523
 30
0.0
 40
0.5
  1
123336
100
AcDbAttributeDefinition
  3

  2
LINA
 70
     8
280
     0
  0
ATTDEF
  5
EB
330
E2
100
AcDbEntity
  8
AM_6
100
AcDbText
 10
5.58
 20
-1.280127172426352
 30
0.0
 40
0.5
  1
206
100
AcDbAttributeDefinition
  3

  2
SERIES
 70
     8
280
     0
  0
ATTDEF
  5
EC
330
E2
100
AcDbEntity
  8
AM_6
100
AcDbText
 10
5.58
 20
-1.780127172426352
 30
0.0
 40
0.5
  1
1-1/16
100
AcDbAttributeDefinition
  3

  2
SS
 70
     8
280
     0
  0
ATTDEF
  5
ED
330
E2
100
AcDbEntity
  8
AM_6
100
AcDbText
 10
5.58
 20
-2.280127172426353
 30
0.0
 40
0.5
  1
123336
100
AcDbAttributeDefinition
  3

  2
PN
 70
     8
280
     0
  0
ATTDEF
  5
EE
330
E2
100
AcDbEntity
  8
AM_6
100
AcDbText
 10
5.58
 20
-2.780127172426353
 30
0.0
 40
0.5
  1
INS-SC-101
100
AcDbAttributeDefinition
  3

  2
DESCRIPTION
 70
     8
280
     0
  0
ATTDEF
  5
EF
330
E2
100
AcDbEntity
  8
AM_6
100
AcDbText
 10
5.58
 20
-3.280127172426353
 30
0.0
 40
0.5
  1
1.52
100
AcDbAttributeDefinition
  3

  2
A
 70
     8
280
     0
  0
ATTDEF
  5
F0
330
E2
100
AcDbEntity
  8
AM_6
100
AcDbText
 10
5.58
 20
-3.780127172426353
 30
0.0
 40
0.5
  1
0.69
100
AcDbAttributeDefinition
  3

  2
C
 70
     8
280
     0
  0
ATTDEF
  5
F1
330
E2
100
AcDbEntity
  8
AM_6
100
AcDbText
 10
5.58
 20
-4.280127172426353
 30
0.0
 40
0.5
  1
2.4409
100
AcDbAttributeDefinition
  3

  2
D
 70
     8
280
     0
  0
ATTDEF
  5
F2
330
E2
100
AcDbEntity
  8
AM_6
100
AcDbText
 10
5.58
 20
-4.780127172426353
 30
0.0
 40
0.5
  1
0.16
100
AcDbAttributeDefinition
  3

  2
J
 70
     8
280
     0
  0
ATTDEF
  5
F3
330
E2
100
AcDbEntity
  8
AM_6
100
AcDbText
 10
5.58
 20
-5.280127172426353
 30
0.0
 40
0.5
  1
1.57
100
AcDbAttributeDefinition
  3

  2
L
 70
     8
280
     0
  0
ATTDEF
  5
F4
330
E2
100
AcDbEntity
  8
AM_6
100
AcDbText
 10
5.58
 20
-5.780127172426353
 30
0.0
 40
0.5
  1
5/16 - 24
100
AcDbAttributeDefinition
  3

  2
N
 70
     8
280
     0
  0
ATTDEF
  5
F5
330
E2
100
AcDbEntity
  8
AM_6
100
AcDbText
 10
5.58
 20
-6.280127172426353
 30
0.0
 40
0.5
  1
0.58
100
AcDbAttributeDefinition
  3

  2
W
 70
     8
280
     0
  0
ATTDEF
  5
F6
330
E2
100
AcDbEntity
  8
AM_6
100
AcDbText
 10
5.58
 20
-6.780127172426353
 30
0.0
 40
0.5
  1
0.94
100
AcDbAttributeDefinition
  3

  2
Y
 70
     8
280
     0
  0
ATTDEF
  5
F7
330
E2
100
AcDbEntity
  8
AM_6
100
AcDbText
 10
5.58
 20
-7.280127172426353
 30
0.0
 40
0.5
  1
baldor
100
AcDbAttributeDefinition
  3

  2
COMPANY
 70
     8
280
     0
  0
ARC
  5
F8
330
E2
100
AcDbEntity
  8
AM_9
100
AcDbCircle
 10
0.1600000000000115
 20
-0.0000000000000005
 30
0.0
 40
0.1041666666666505
100
AcDbArc
 50
352.3804694249558
 51
4.004363297996468
  0
CIRCLE
  5
F9
330
E2
100
AcDbEntity
  8
AM_9
100
AcDbCircle
 10
0.1599999999999999
 20
-0.0000000000000001
 30
0.0
 40
0.0414393939393896
  0
LINE
  5
FA
330
E2
100
AcDbEntity
  8
AM_9
100
AcDbLine
 10
0.116686943451611
 20
0.0947339006914242
 30
0.0
 11
0.1190477794187345
 21
0.0957789646733954
 31
0.0
  0
LINE
  5
FB
330
E2
100
AcDbEntity
  8
AM_9
100
AcDbLine
 10
-0.5163
 20
0.53125
 30
0.0
 11
-0.5163
 21
0.7617924915141182
 31
0.0
  0
LINE
  5
FC
330
E2
100
AcDbEntity
  8
AM_9
100
AcDbLine
 10
-0.7687
 20
0.7617924915141182
 30
0.0
 11
-0.7687
 21
0.5312499999999999
 31
0.0
  0
LINE
  5
FD
330
E2
100
AcDbEntity
  8
AM_9
100
AcDbLine
 10
-0.7687
 20
0.7617924915141182
 30
0.0
 11
-0.5163
 21
0.7617924915141182
 31
0.0
  0
LINE
  5
FE
330
E2
100
AcDbEntity
  8
AM_9
100
AcDbLine
 10
-0.5163
 20
0.7617924915141182
 30
0.0
 11
-0.493092491514118
 21
0.7850000000000003
 31
0.0
  0
LINE
  5
FF
330
E2
100
AcDbEntity
  8
AM_9
100
AcDbLine
 10
-0.791907508485882
 20
0.7850000000000003
 30
0.0
 11
-0.7687
 21
0.7617924915141182
 31
0.0
  0
LWPOLYLINE
  5
100
330
E2
100
AcDbEntity
  8
AM_9
100
AcDbPolyline
 90
       20
 70
     0
 43
0.0
 10
-0.7687
 20
0.53125
 10
-0.7670140221188364
 20
0.5308520172366401
 10
-0.7618132298483297
 20
0.5296562746884439
 10
-0.7535573334633656
 20
0.5278577969642896
 10
-0.7420285588556569
 20
0.5255530958218055
 10
-0.7279109855810634
 20
0.5230632456576628
 10
-0.7109661081368377
 20
0.5205648186954293
 10
-0.6923197324954863
 20
0.5184420201391104
 10
-0.67160666235494
 20
0.516862960844985
 10
-0.6510116431054429
 20
0.5161129436163701
 10
-0.6295407960376943
 20
0.5162054469562837
 10
-0.6094963491687614
 20
0.5170970542056784
 10
-0.5898217306613933
 20
0.518724515094969
 10
-0.5719512176716183
 20
0.5208428296405906
 10
-0.5555536536870679
 20
0.523316146929529
 10
-0.5416031441931071
 20
0.5258139385863757
 10
-0.5301498743085981
 20
0.5281313030325638
 10
-0.5221452371836102
 20
0.5298918676792365
 10
-0.5174099699841791
 20
0.5309874180330066
 10
-0.5163000000022105
 20
0.5312499999994749
  0
LINE
  5
101
330
E2
100
AcDbEntity
  8
AM_9
100
AcDbLine
 10
-0.9086000000000001
 20
-0.53125
 30
0.0
 11
0.5485999999999999
 21
-0.53125
 31
0.0
  0
LINE
  5
102
330
E2
100
AcDbEntity
  8
AM_9
100
AcDbLine
 10
0.5485999999999999
 20
0.53125
 30
0.0
 11
-0.5163
 21
0.53125
 31
0.0
  0
LINE
  5
103
330
E2
100
AcDbEntity
  8
AM_9
100
AcDbLine
 10
-0.7686999999999998
 20
0.53125
 30
0.0
 11
-0.9086000000000001
 21
0.53125
 31
0.0
  0
LINE
  5
104
330
E2
100
AcDbEntity
  8
AM_9
100
AcDbLine
 10
0.5485999999999999
 20
-0.53125
 30
0.0
 11
0.58
 21
-0.56265
 31
0.0
  0
LINE
  5
105
330
E2
100
AcDbEntity
  8
AM_9
100
AcDbLine
 10
0.58
 20
0.56265
 30
0.0
 11
0.5485999999999999
 21
0.53125
 31
0.0
  0
LINE
  5
106
330
E2
100
AcDbEntity
  8
AM_9
100
AcDbLine
 10
-0.9086000000000001
 20
0.53125
 30
0.0
 11
-0.9400000000000002
 21
0.5626500000000001
 31
0.0
  0
LINE
  5
107
330
E2
100
AcDbEntity
  8
AM_9
100
AcDbLine
 10
-0.9400000000000002
 20
-0.5626500000000001
 30
0.0
 11
-0.9086000000000001
 21
-0.53125
 31
0.0
  0
LWPOLYLINE
  5
108
330
E2
100
AcDbEntity
  8
AM_9
100
AcDbPolyline
 90
        5
 70
     0
 43
0.0
 10
-0.7561869242106406
 20
0.2729735764558668
 10
-0.7584412735016275
 20
0.2686964145838375
 10
-0.7652921770742758
 20
0.2505783823032121
 10
-0.76841071423833
 20
0.2322268321948973
 10
-0.7686999997673607
 20
0.2245228963628831
  0
LINE
  5
109
330
E2
100
AcDbEntity
  8
AM_9
100
AcDbLine
 10
-0.5163
 20
0.2244887755267811
 30
0.0
 11
-0.5163
 21
0.3219474185708133
 31
0.0
  0
LINE
  5
10A
330
E2
100
AcDbEntity
  8
AM_9
100
AcDbLine
 10
-0.7687
 20
0.3219474185708133
 30
0.0
 11
-0.7687
 21
0.2244720625872129
 31
0.0
  0
ELLIPSE
  5
10B
330
E2
100
AcDbEntity
  8
AM_9
100
AcDbEllipse
 10
-0.6425000000000002
 20
0.3219474185708144
 30
0.0
 11
0.1262000000000002
 21
0.0
 31
0.0
210
0.0
220
0.0
230
1.0
 40
0.9063077870366522
 41
5.761158778470932
 42
6.604781720532956
  0
LWPOLYLINE
  5
10C
330
E2
100
AcDbEntity
  8
AM_9
100
AcDbPolyline
 90
       21
 70
     0
 43
0.0
 10
-0.7686999997673607
 20
0.2245228963628831
 10
-0.7680366068825243
 20
0.2127374265266584
 10
-0.7643100680907731
 20
0.1941777878680835
 10
-0.7571695712047003
 20
0.175645754780143
 10
-0.7471182056873599
 20
0.1585589244684358
 10
-0.7339355700005341
 20
0.1426530491033971
 10
-0.7182748888588347
 20
0.1289642143179282
 10
-0.699962371755981
 20
0.1176052777622556
 10
-0.6804371484337209
 20
0.1095918542313252
 10
-0.6591641374220206
 20
0.1048282440149808
 10
-0.6385181702294694
 20
0.1037764861130269
 10
-0.6173778613632287
 20
0.1062604412138313
 10
-0.5978253857655009
 20
0.1119350800745199
 10
-0.5789811864320403
 20
0.1209025446402704
 10
-0.5620608863228675
 20
0.1325916091033391
 10
-0.5469255159130914
 20
0.1471060928145149
 10
-0.5345422758949856
 20
0.1635766385332978
 10
-0.5249274842585612
 20
0.1821145302405387
 10
-0.5189492257103289
 20
0.200940134461406
 10
-0.5163697064858507
 20
0.2207079628355649
 10
-0.5163000006842305
 20
0.2245040412103438
  0
LWPOLYLINE
  5
10D
330
E2
100
AcDbEntity
  8
AM_9
100
AcDbPolyline
 90
        3
 70
     0
 43
0.0
 10
-0.5289696774110915
 20
0.2732527850141876
 10
-0.5293694812563269
 20
0.2739561831187594
 10
-0.5314739077480689
 20
0.2774553670252864
  0
LWPOLYLINE
  5
10E
330
E2
100
AcDbEntity
  8
AM_9
100
AcDbPolyline
 90
        4
 70
     0
 43
0.0
 10
-0.5163000006842305
 20
0.2245040412103438
 10
-0.5173604351709248
 20
0.2392060444298501
 10
-0.5218358480377185
 20
0.2574757256369764
 10
-0.5289696774110915
 20
0.2732527850141876
  0
LINE
  5
10F
330
E2
100
AcDbEntity
  8
AM_9
100
AcDbLine
 10
0.5486
 20
-0.7849999999999999
 30
0.0
 11
0.58
 21
-0.7535999999999999
 31
0.0
  0
LINE
  5
110
330
E2
100
AcDbEntity
  8
AM_9
100
AcDbLine
 10
0.5800000000000001
 20
-0.1577333333333307
 30
0.0
 11
0.58
 21
-0.7535999999999999
 31
0.0
  0
LINE
  5
111
330
E2
100
AcDbEntity
  8
AM_9
100
AcDbLine
 10
0.3449999999999999
 20
-0.7850000000000003
 30
0.0
 11
0.5486
 21
-0.7850000000000003
 31
0.0
  0
LINE
  5
112
330
E2
100
AcDbEntity
  8
AM_9
100
AcDbLine
 10
0.4754068047337281
 20
0.7850000000000003
 30
0.0
 11
0.3449999999999999
 21
0.7850000000000003
 31
0.0
  0
LINE
  5
113
330
E2
100
AcDbEntity
  8
AM_9
100
AcDbLine
 10
0.5486000000000001
 20
0.1252853333333357
 30
0.0
 11
0.5486
 21
-0.7850000000000003
 31
0.0
  0
LWPOLYLINE
  5
114
330
E2
100
AcDbEntity
  8
AM_9
100
AcDbPolyline
 90
        6
 70
     0
 43
0.0
 10
-0.5178153920414791
 20
0.398652808798156
 10
-0.5114640287792638
 20
0.3902488548782735
 10
-0.5011276317032022
 20
0.3713351422956065
 10
-0.4948839598915225
 20
0.350798217923498
 10
-0.4933149185740309
 20
0.3384672463806815
 10
-0.4932552940713205
 20
0.3259524891853897
  0
LWPOLYLINE
  5
115
330
E2
100
AcDbEntity
  8
AM_9
100
AcDbPolyline
 90
        6
 70
     0
 43
0.0
 10
-0.4932552940713205
 20
0.3259524891853897
 10
-0.4963759991158999
 20
0.305725960583553
 10
-0.5032632547473495
 20
0.2860658271896632
 10
-0.5130863324833893
 20
0.2684447178769288
 10
-0.5256979295555658
 20
0.2523114151166441
 10
-0.5352326773632715
 20
0.2427906168577647
  0
LINE
  5
116
330
E2
100
AcDbEntity
  8
AM_9
100
AcDbLine
 10
-0.6495931952662721
 20
-0.7850000000000003
 30
0.0
 11
-0.3449999999999999
 21
-0.7850000000000003
 31
0.0
  0
LINE
  5
117
330
E2
100
AcDbEntity
  8
AM_9
100
AcDbLine
 10
-0.3449999999999999
 20
0.7850000000000003
 30
0.0
 11
-0.4754068047337276
 21
0.7850000000000003
 31
0.0
  0
LINE
  5
118
330
E2
100
AcDbEntity
  8
AM_9
100
AcDbLine
 10
-0.1916999999999996
 20
-1.167116666666667
 30
0.0
 11
-0.128
 21
-1.167116666666667
 31
0.0
  0
LINE
  5
119
330
E2
100
AcDbEntity
  8
AM_9
100
AcDbLine
 10
-0.128
 20
1.167116666666667
 30
0.0
 11
-0.1919999999999999
 21
1.167116666666667
 31
0.0
  0
LINE
  5
11A
330
E2
100
AcDbEntity
  8
AM_9
100
AcDbLine
 10
0.3449999999999999
 20
1.146492216502145
 30
0.0
 11
0.3449999999999999
 21
-1.146492216502145
 31
0.0
  0
ARC
  5
11B
330
E2
100
AcDbEntity
  8
AM_9
100
AcDbCircle
 10
0.3130000000000001
 20
-1.146492216502145
 30
0.0
 40
0.0319999999999998
100
AcDbArc
 50
285.2700166318438
 51
0.0
  0
ARC
  5
11C
330
E2
100
AcDbEntity
  8
AM_9
100
AcDbCircle
 10
0.3130000000000001
 20
1.146492216502145
 30
0.0
 40
0.0319999999999999
100
AcDbArc
 50
0.0
 51
74.72998336815627
  0
LINE
  5
11D
330
E2
100
AcDbEntity
  8
AM_9
100
AcDbLine
 10
-0.345
 20
1.146492216502144
 30
0.0
 11
-0.345
 21
-1.146492216502144
 31
0.0
  0
ARC
  5
11E
330
E2
100
AcDbEntity
  8
AM_9
100
AcDbCircle
 10
-0.3129999999999998
 20
-1.146492216502144
 30
0.0
 40
0.0320000000000003
100
AcDbArc
 50
180.0
 51
254.7299833681562
  0
ARC
  5
11F
330
E2
100
AcDbEntity
  8
AM_9
100
AcDbCircle
 10
-0.3129999999999998
 20
1.146492216502144
 30
0.0
 40
0.0320000000000003
100
AcDbArc
 50
105.2700166318438
 51
180.0
  0
ARC
  5
120
330
E2
100
AcDbEntity
  8
AM_9
100
AcDbCircle
 10
0.0000000000000231
 20
-0.0000000000001097
 30
0.0
 40
1.220450000000112
100
AcDbArc
 50
99.05131675797676
 51
105.2700166318435
  0
ARC
  5
121
330
E2
100
AcDbEntity
  8
AM_9
100
AcDbCircle
 10
-0.000000000001782
 20
-0.0000000000082818
 30
0.0
 40
1.220449999991554
100
AcDbArc
 50
254.7299833681346
 51
260.948683242045
  0
LINE
  5
122
330
E2
100
AcDbEntity
  8
AM_9
100
AcDbLine
 10
-0.3214277840885185
 20
1.177362468450538
 30
0.0
 11
-0.3214277840885185
 21
-1.177362468450551
 31
0.0
  0
LINE
  5
123
330
E2
100
AcDbEntity
  8
AM_9
100
AcDbLine
 10
-0.192
 20
1.205252754612077
 30
0.0
 11
-0.192
 21
-1.20525275461209
 31
0.0
  0
LWPOLYLINE
  5
124
330
E2
100
AcDbEntity
  8
AM_9
100
AcDbPolyline
 90
       15
 70
     0
 43
0.0
 10
0.1190477794187029
 20
-0.0957789646733784
 10
0.1050686308911537
 20
-0.088464987481422
 10
0.0923585799531678
 20
-0.0790862335220423
 10
0.080265432548619
 20
-0.0666873236234671
 10
0.0703780729606763
 20
-0.0524366857320372
 10
0.0629688547226907
 20
-0.0366310164677819
 10
0.0582616050569985
 20
-0.0198041359292331
 10
0.05642078899228
 20
-0.0023327027013979
 10
0.0574867812463174
 20
0.0152042205329521
 10
0.0614829182190656
 20
0.0323459483780006
 10
0.0682604281294225
 20
0.04857358424387
 10
0.0776533677165662
 20
0.0633848312063952
 10
0.0893727173390421
 20
0.0763994941832328
 10
0.1033812491495438
 20
0.0873810726868971
 10
0.116686943451611
 20
0.0947339006914242
  0
LWPOLYLINE
  5
125
330
E2
100
AcDbEntity
  8
AM_9
100
AcDbPolyline
 90
       25
 70
     0
 43
0.0
 10
0.1190477794187029
 20
-0.0957789646733784
 10
0.1358253226723215
 20
-0.1013119207683249
 10
0.1532817547403863
 20
-0.1039497937712007
 10
0.1709593252804062
 20
-0.1035780380213297
 10
0.1883277939920654
 20
-0.1002408625860062
 10
0.2049008187664617
 20
-0.093980782076686
 10
0.220199889427757
 20
-0.0850098097711628
 10
0.2337070290699099
 20
-0.0735915018924858
 10
0.245118850955921
 20
-0.0600456131319114
 10
0.2540013819883616
 20
-0.0448572532844942
 10
0.2602263906799937
 20
-0.0283789544505207
 10
0.2635503432674319
 20
-0.0112157237212791
 10
0.2639779971147118
 20
0.0062666227312999
 10
0.2614739439993746
 20
0.023485247079732
 10
0.2561626542380931
 20
0.0400429566132223
 10
0.2481548544863057
 20
0.0554732950569744
 10
0.2377234777203842
 20
0.0693524005027395
 10
0.2250552511112041
 20
0.0813412600068866
 10
0.2105963733787588
 20
0.0910532890419708
 10
0.1945919810630108
 20
0.0982444354710661
 10
0.1776276403027316
 20
0.102664310944948
 10
0.1600399014947556
 20
0.1041562879714066
 10
0.1424504863335622
 20
0.1026776948247036
 10
0.1305504069280222
 20
0.0999145472718413
 10
0.1190477794187213
 20
0.0957789646733861
  0
ARC
  5
126
330
E2
100
AcDbEntity
  8
AM_9
100
AcDbCircle
 10
-0.0000000000000079
 20
-0.0000000000001077
 30
0.0
 40
1.220450000000106
100
AcDbArc
 50
74.72998336815716
 51
96.02021531655033
  0
ARC
  5
127
330
E2
100
AcDbEntity
  8
AM_9
100
AcDbCircle
 10
-0.0000000000000748
 20
0.0000000000009357
 30
0.0
 40
1.220450000000907
100
AcDbArc
 50
263.9797846834568
 51
285.2700166318358
  0
LINE
  5
128
330
E2
100
AcDbEntity
  8
AM_9
100
AcDbLine
 10
-0.1279999999999997
 20
1.213719161297209
 30
0.0
 11
-0.1279999999999997
 21
-1.213719161297193
 31
0.0
  0
LINE
  5
129
330
E2
100
AcDbEntity
  8
AM_9
100
AcDbLine
 10
0.3214277840885187
 20
1.177362468450538
 30
0.0
 11
0.3214277840885187
 21
-1.177362468450522
 31
0.0
  0
LINE
  5
12B
330
E2
100
AcDbEntity
  8
AM_5
100
AcDbLine
 10
-0.48625
 20
0.53125
 30
0.0
 11
-0.48625
 21
0.7850000000000003
 31
0.0
  0
LINE
  5
12C
330
E2
100
AcDbEntity
  8
AM_5
100
AcDbLine
 10
-0.7987500000000001
 20
0.53125
 30
0.0
 11
-0.7987500000000001
 21
0.7850000000000003
 31
0.0
  0
LINE
  5
12F
330
E2
100
AcDbEntity
  8
AM_7
100
AcDbLine
 10
0.1599999999999999
 20
-0.0435113636363592
 30
0.0
 11
0.1599999999999999
 21
0.043511363636359
 31
0.0
  0
LINE
  5
130
330
E2
100
AcDbEntity
  8
AM_7
100
AcDbLine
 10
-0.6425000000000001
 20
0.8071744960753369
 30
0.0
 11
-0.6425000000000001
 21
0.4698703957285288
 31
0.0
  0
LWPOLYLINE
  5
131
330
E2
100
AcDbEntity
  8
AM_4
100
AcDbPolyline
 90
        8
 70
     0
 43
0.0
 10
-0.6425000000000001
 20
0.3324651338072249
 10
-0.6630498983400896
 20
0.3311114287435136
 10
-0.6835997966801792
 20
0.3269202739244793
 10
-0.702409746481637
 20
0.3202204008496409
 10
-0.7200543196043148
 20
0.3107682905421418
 10
-0.7353804516893757
 20
0.2990266057787822
 10
-0.7485013737723666
 20
0.2847107713188259
 10
-0.7561869242106406
 20
0.2729735764558668
  0
ELLIPSE
  5
132
330
E2
100
AcDbEntity
  8
AM_4
100
AcDbEllipse
 10
-0.6425000000000002
 20
0.3219474185708132
 30
0.0
 11
0.1262000000000001
 21
0.0
 31
0.0
210
0.0
220
0.0
230
1.0
 40
0.9063077870366495
 41
0.3215964133533795
 42
5.76115877847094
  0
LWPOLYLINE
  5
133
330
E2
100
AcDbEntity
  8
AM_4
100
AcDbPolyline
 90
        8
 70
     0
 43
0.0
 10
-0.5314739077480689
 20
0.2774553670252864
 10
-0.5401649383800801
 20
0.2892677709937101
 10
-0.5536679048624461
 20
0.3025380400201267
 10
-0.570056495134611
 20
0.3138820215803125
 10
-0.5883065585161765
 20
0.322581696963975
 10
-0.6087332896990219
 20
0.3287613465247927
 10
-0.6252879582312877
 20
0.331517638460035
 10
-0.6425000000000001
 20
0.3324651338072249
  0
LINE
  5
134
330
E2
100
AcDbEntity
  8
AM_4
100
AcDbLine
 10
0.58
 20
0.7535999999999999
 30
0.0
 11
0.5486
 21
0.7849999999999999
 31
0.0
  0
LINE
  5
135
330
E2
100
AcDbEntity
  8
AM_4
100
AcDbLine
 10
0.58
 20
0.7535999999999999
 30
0.0
 11
0.5800000000000001
 21
-0.1577333333333307
 31
0.0
  0
LINE
  5
136
330
E2
100
AcDbEntity
  8
AM_4
100
AcDbLine
 10
-0.9400000000000002
 20
-0.7535999999999999
 30
0.0
 11
-0.9086000000000001
 21
-0.7849999999999999
 31
0.0
  0
LINE
  5
137
330
E2
100
AcDbEntity
  8
AM_4
100
AcDbLine
 10
-0.9086000000000001
 20
0.7849999999999999
 30
0.0
 11
-0.9400000000000002
 21
0.7535999999999999
 31
0.0
  0
LINE
  5
138
330
E2
100
AcDbEntity
  8
AM_4
100
AcDbLine
 10
-0.9400000000000002
 20
0.7535999999999999
 30
0.0
 11
-0.9400000000000002
 21
-0.7535999999999999
 31
0.0
  0
LINE
  5
139
330
E2
100
AcDbEntity
  8
AM_4
100
AcDbLine
 10
0.5486
 20
0.7850000000000003
 30
0.0
 11
0.4754068047337281
 21
0.7850000000000003
 31
0.0
  0
LINE
  5
13A
330
E2
100
AcDbEntity
  8
AM_4
100
AcDbLine
 10
0.5486
 20
0.7850000000000003
 30
0.0
 11
0.5486000000000001
 21
0.1252853333333357
 31
0.0
  0
LWPOLYLINE
  5
13B
330
E2
100
AcDbEntity
  8
AM_4
100
AcDbPolyline
 90
       31
 70
     0
 43
0.0
 10
-0.5352326773632715
 20
0.2427906168577647
 10
-0.5418999152718715
 20
0.2370946264262543
 10
-0.5603671135796668
 20
0.2243335702691512
 10
-0.5824276316625744
 20
0.2135987568712764
 10
-0.6059759683212381
 20
0.2063041050425355
 10
-0.6318876458581847
 20
0.2025554444575479
 10
-0.6580863516528264
 20
0.2029385601421145
 10
-0.684422596366129
 20
0.2076471722673425
 10
-0.7095599557620526
 20
0.2165401858989177
 10
-0.7325513244550143
 20
0.2293322532864112
 10
-0.7528495414996794
 20
0.2456758604201461
 10
-0.7689597213874071
 20
0.2642075542938392
 10
-0.7812401908680116
 20
0.2849874517590124
 10
-0.7885304752549189
 20
0.3053678409135245
 10
-0.7917672936869923
 20
0.3263700943589354
 10
-0.7909466961716145
 20
0.3456284820412263
 10
-0.7865808666760421
 20
0.3642520958862889
 10
-0.7789477028294343
 20
0.3814749300106249
 10
-0.7683456256369642
 20
0.397231913811313
 10
-0.7543060333513064
 20
0.4119313763494578
 10
-0.7378068480233552
 20
0.4244685749996153
 10
-0.7176111549687212
 20
0.4354368361906046
 10
-0.6956185019686555
 20
0.4435663998781962
 10
-0.6706856909133797
 20
0.4490115679285949
 10
-0.6450103370751255
 20
0.4510663036760305
 10
-0.6183945441782902
 20
0.4495680782837959
 10
-0.5924568094243535
 20
0.4444394463399229
 10
-0.5679039386886983
 20
0.4356635513791897
 10
-0.5455496247713345
 20
0.4233882717103121
 10
-0.5267468388265585
 20
0.4082565416959296
 10
-0.5178153920414791
 20
0.398652808798156
  0
LINE
  5
13C
330
E2
100
AcDbEntity
  8
AM_4
100
AcDbLine
 10
-0.9086000000000001
 20
-0.7850000000000003
 30
0.0
 11
-0.6495931952662721
 21
-0.7850000000000003
 31
0.0
  0
LINE
  5
13D
330
E2
100
AcDbEntity
  8
AM_4
100
AcDbLine
 10
-0.4754068047337276
 20
0.7850000000000003
 30
0.0
 11
-0.493092491514118
 21
0.7850000000000003
 31
0.0
  0
LINE
  5
13E
330
E2
100
AcDbEntity
  8
AM_4
100
AcDbLine
 10
-0.7919075084858822
 20
0.7850000000000003
 30
0.0
 11
-0.9086000000000001
 21
0.7850000000000003
 31
0.0
  0
LINE
  5
13F
330
E2
100
AcDbEntity
  8
AM_4
100
AcDbLine
 10
-0.9086000000000001
 20
0.7850000000000003
 30
0.0
 11
-0.9086000000000001
 21
-0.7850000000000003
 31
0.0
  0
LWPOLYLINE
  5
140
330
E2
100
AcDbEntity
  8
AM_4
100
AcDbPolyline
 90
       20
 70
     0
 43
0.0
 10
-0.4930924915145382
 20
0.784999999999933
 10
-0.4946818518635572
 20
0.7847471517867646
 10
-0.4995946923603398
 20
0.7839818414788834
 10
-0.5078950991204081
 20
0.782744937392084
 10
-0.5192225210658168
 20
0.7811715953268253
 10
-0.5335458029877105
 20
0.779373492494824
 10
-0.5511275909243667
 20
0.7774618902780104
 10
-0.5712795170929631
 20
0.7756763881256433
 10
-0.5942916659045819
 20
0.7741733572787116
 10
-0.619151531618249
 20
0.7731978505748353
 10
-0.6451654734933285
 20
0.7729023856378466
 10
-0.6718330944034944
 20
0.7733708953989824
 10
-0.6972923068760201
 20
0.7745446936242819
 10
-0.7218919248966661
 20
0.7763478623195984
 10
-0.7430923749599118
 20
0.7784234910788668
 10
-0.7618797088138634
 20
0.780661024737876
 10
-0.7755788290158652
 20
0.7825252351141209
 10
-0.7856727997217134
 20
0.7840228767776349
 10
-0.790680049672804
 20
0.7848045002271877
 10
-0.7919075084850126
 20
0.7849999999998611
  0
ENDBLK
  5
E5
330
E2
100
AcDbEntity
  8
0
100
AcDbBlockEnd
  0
BLOCK
  5
143
330
141
100
AcDbEntity
  8
0
100
AcDbBlockBegin
  2
4_124466H_0_in_124466_2
 70
     2
 10
0.0
 20
0.0
 30
0.0
  3
4_124466H_0_in_124466_2
  1

  0
ATTDEF
  5
145
330
141
100
AcDbEntity
  8
AM_6
100
AcDbText
 10
5.825
 20
1.69
 30
0.0
 40
0.5
  1
TB-SC -I-Housing
100
AcDbAttributeDefinition
  3

  2
NN
 70
     8
280
     0
  0
ATTDEF
  5
146
330
141
100
AcDbEntity
  8
AM_6
100
AcDbText
 10
5.825
 20
1.19
 30
0.0
 40
0.5
  1
SC Pillow Block Bearings -(Normal Duty) -Tapped Base Housing
100
AcDbAttributeDefinition
  3

  2
NT
 70
     8
280
     0
  0
ATTDEF
  5
147
330
141
100
AcDbEntity
  8
AM_6
100
AcDbText
 10
5.825
 20
0.6900000000000002
 30
0.0
 40
0.5
  1
124466H
100
AcDbAttributeDefinition
  3

  2
NB
 70
     8
280
     0
  0
ATTDEF
  5
148
330
141
100
AcDbEntity
  8
AM_6
100
AcDbText
 10
5.825
 20
0.1900000000000002
 30
0.0
 40
0.5
  1
$PN.H
100
AcDbAttributeDefinition
  3

  2
NBSYN
 70
     8
280
     0
  0
ATTDEF
  5
149
330
141
100
AcDbEntity
  8
AM_6
100
AcDbText
 10
5.825
 20
-0.3099999999999998
 30
0.0
 40
0.5
  1
124466
100
AcDbAttributeDefinition
  3

  2
LINA
 70
     8
280
     0
  0
ATTDEF
  5
14A
330
141
100
AcDbEntity
  8
AM_6
100
AcDbText
 10
5.825
 20
-0.8099999999999998
 30
0.0
 40
0.5
  1
206
100
AcDbAttributeDefinition
  3

  2
SERIES
 70
     8
280
     0
  0
ATTDEF
  5
14B
330
141
100
AcDbEntity
  8
AM_6
100
AcDbText
 10
5.825
 20
-1.31
 30
0.0
 40
0.5
  1
1-1/16
100
AcDbAttributeDefinition
  3

  2
SS
 70
     8
280
     0
  0
ATTDEF
  5
14C
330
141
100
AcDbEntity
  8
AM_6
100
AcDbText
 10
5.825
 20
-1.81
 30
0.0
 40
0.5
  1
124466
100
AcDbAttributeDefinition
  3

  2
PN
 70
     8
280
     0
  0
ATTDEF
  5
14D
330
141
100
AcDbEntity
  8
AM_6
100
AcDbText
 10
5.825
 20
-2.31
 30
0.0
 40
0.5
  1
TB-SC-101
100
AcDbAttributeDefinition
  3

  2
DESCRIPTION
 70
     8
280
     0
  0
ATTDEF
  5
14E
330
141
100
AcDbEntity
  8
AM_6
100
AcDbText
 10
5.825
 20
-2.81
 30
0.0
 40
0.5
  1
1.52
100
AcDbAttributeDefinition
  3

  2
A
 70
     8
280
     0
  0
ATTDEF
  5
14F
330
141
100
AcDbEntity
  8
AM_6
100
AcDbText
 10
5.825
 20
-3.31
 30
0.0
 40
0.5
  1
4.00
100
AcDbAttributeDefinition
  3

  2
B
 70
     8
280
     0
  0
ATTDEF
  5
150
330
141
100
AcDbEntity
  8
AM_6
100
AcDbText
 10
5.825
 20
-3.81
 30
0.0
 40
0.5
  1
1.50
100
AcDbAttributeDefinition
  3

  2
C
 70
     8
280
     0
  0
ATTDEF
  5
151
330
141
100
AcDbEntity
  8
AM_6
100
AcDbText
 10
5.825
 20
-4.31
 30
0.0
 40
0.5
  1
3.00
100
AcDbAttributeDefinition
  3

  2
D
 70
     8
280
     0
  0
ATTDEF
  5
152
330
141
100
AcDbEntity
  8
AM_6
100
AcDbText
 10
5.825
 20
-4.81
 30
0.0
 40
0.5
  1
3.38
100
AcDbAttributeDefinition
  3

  2
J
 70
     8
280
     0
  0
ATTDEF
  5
153
330
141
100
AcDbEntity
  8
AM_6
100
AcDbText
 10
5.825
 20
-5.31
 30
0.0
 40
0.5
  1
1.57
100
AcDbAttributeDefinition
  3

  2
L
 70
     8
280
     0
  0
ATTDEF
  5
154
330
141
100
AcDbEntity
  8
AM_6
100
AcDbText
 10
5.825
 20
-5.81
 30
0.0
 40
0.5
  1
1.69
100
AcDbAttributeDefinition
  3

  2
M
 70
     8
280
     0
  0
ATTDEF
  5
155
330
141
100
AcDbEntity
  8
AM_6
100
AcDbText
 10
5.825
 20
-6.31
 30
0.0
 40
0.5
  1
0.63
100
AcDbAttributeDefinition
  3

  2
N
 70
     8
280
     0
  0
ATTDEF
  5
156
330
141
100
AcDbEntity
  8
AM_6
100
AcDbText
 10
5.825
 20
-6.81
 30
0.0
 40
0.5
  1
7/16-14
100
AcDbAttributeDefinition
  3

  2
R
 70
     8
280
     0
  0
ATTDEF
  5
157
330
141
100
AcDbEntity
  8
AM_6
100
AcDbText
 10
5.825
 20
-7.31
 30
0.0
 40
0.5
  1
0.94
100
AcDbAttributeDefinition
  3

  2
S
 70
     8
280
     0
  0
ATTDEF
  5
158
330
141
100
AcDbEntity
  8
AM_6
100
AcDbText
 10
5.825
 20
-7.81
 30
0.0
 40
0.5
  1
baldor
100
AcDbAttributeDefinition
  3

  2
COMPANY
 70
     8
280
     0
  0
LINE
  5
159
330
141
100
AcDbEntity
  8
AM_9
100
AcDbLine
 10
-0.5624999999999999
 20
-1.6795
 30
0.0
 11
0.5624999999999998
 21
-1.6795
 31
0.0
  0
LINE
  5
15A
330
141
100
AcDbEntity
  8
AM_9
100
AcDbLine
 10
-0.5624999999999999
 20
-1.627
 30
0.0
 11
0.5624999999999999
 21
-1.627
 31
0.0
  0
LINE
  5
15B
330
141
100
AcDbEntity
  8
AM_9
100
AcDbLine
 10
-0.65625
 20
-1.123
 30
0.0
 11
-0.65625
 21
-1.69
 31
0.0
  0
LINE
  5
15C
330
141
100
AcDbEntity
  8
AM_9
100
AcDbLine
 10
0.6562500000000004
 20
-1.123
 30
0.0
 11
0.6562500000000002
 21
-1.69
 31
0.0
  0
LINE
  5
15D
330
141
100
AcDbEntity
  8
AM_9
100
AcDbLine
 10
-0.15
 20
0.6102250000000006
 30
0.0
 11
0.494797522189349
 21
0.6102250000000006
 31
0.0
  0
LINE
  5
15E
330
141
100
AcDbEntity
  8
AM_9
100
AcDbLine
 10
-0.15
 20
-0.610225
 30
0.0
 11
0.5625000000000004
 21
-0.610225
 31
0.0
  0
LWPOLYLINE
  5
15F
330
141
100
AcDbEntity
  8
AM_9
100
AcDbPolyline
 90
       12
 70
     0
 43
0.0
 10
0.7499999999999999
 20
-1.001197136733162
 10
0.748849569522238
 20
-1.006036190280848
 10
0.7456507333262048
 20
-1.012460666881273
 10
0.740793392717846
 20
-1.020134855453867
 10
0.734611763583307
 20
-1.028829716408406
 10
0.7228997687434022
 20
-1.044031687709335
 10
0.7094729508122913
 20
-1.060537186248888
 10
0.6963302922475594
 20
-1.076238695086562
 10
0.6825427285119919
 20
-1.092441511720443
 10
0.6684348605254953
 20
-1.10886626993642
 10
0.6565409507824697
 20
-1.122662697703787
 10
0.6562500000000002
 20
-1.123
  0
LINE
  5
160
330
141
100
AcDbEntity
  8
AM_9
100
AcDbLine
 10
0.5624999999999999
 20
-1.123
 30
0.0
 11
0.6562500000000004
 21
-1.123
 31
0.0
  0
LINE
  5
161
330
141
100
AcDbEntity
  8
AM_9
100
AcDbLine
 10
-0.65625
 20
-1.123
 30
0.0
 11
-0.5624999999999999
 21
-1.123
 31
0.0
  0
LWPOLYLINE
  5
162
330
141
100
AcDbEntity
  8
AM_9
100
AcDbPolyline
 90
       12
 70
     0
 43
0.0
 10
-0.65625
 20
-1.123
 10
-0.6565409507824699
 20
-1.122662697703787
 10
-0.6684348605254946
 20
-1.108866269936421
 10
-0.6892151153520856
 20
-1.084622230858568
 10
-0.699535576574604
 20
-1.072435937369978
 10
-0.7094729508122909
 20
-1.060537186248889
 10
-0.7227321873608195
 20
-1.044238840431021
 10
-0.7346117635833069
 20
-1.028829716408407
 10
-0.740793392717846
 20
-1.020134855453867
 10
-0.7456507333262048
 20
-1.012460666881273
 10
-0.7488221239093942
 20
-1.006119938241326
 10
-0.7500000000000001
 20
-1.001197136733162
  0
LINE
  5
163
330
141
100
AcDbEntity
  8
AM_9
100
AcDbLine
 10
-0.5625
 20
-1.22045
 30
0.0
 11
0.5624999999999998
 21
-1.22045
 31
0.0
  0
LINE
  5
164
330
141
100
AcDbEntity
  8
AM_9
100
AcDbLine
 10
0.4270950443786981
 20
1.22045
 30
0.0
 11
-0.4270950443786982
 21
1.22045
 31
0.0
  0
LINE
  5
165
330
141
100
AcDbEntity
  8
AM_9
100
AcDbLine
 10
-0.15
 20
-0.610225
 30
0.0
 11
-0.15
 21
0.6102250000000006
 31
0.0
  0
LINE
  5
166
330
141
100
AcDbEntity
  8
AM_9
100
AcDbLine
 10
0.5624999999999999
 20
-0.9969999999999999
 30
0.0
 11
0.6731139053254438
 21
-0.997
 31
0.0
  0
LINE
  5
167
330
141
100
AcDbEntity
  8
AM_9
100
AcDbLine
 10
0.5625000000000001
 20
-0.0000000000000001
 30
0.0
 11
0.5624999999999998
 21
-1.6795
 31
0.0
  0
LINE
  5
168
330
141
100
AcDbEntity
  8
AM_9
100
AcDbLine
 10
-0.5624999999999999
 20
-1.6795
 30
0.0
 11
-0.5624999999999999
 21
0.0
 31
0.0
  0
LINE
  5
169
330
141
100
AcDbEntity
  8
AM_9
100
AcDbLine
 10
-0.6731139053254436
 20
-0.997
 30
0.0
 11
-0.5624999999999999
 21
-0.9969999999999999
 31
0.0
  0
LINE
  5
16A
330
141
100
AcDbEntity
  8
AM_9
100
AcDbLine
 10
0.0000000000000001
 20
-0.7603219533963487
 30
0.0
 11
-0.1916999999999996
 21
-0.8709999999999998
 31
0.0
  0
LINE
  5
16B
330
141
100
AcDbEntity
  8
AM_9
100
AcDbLine
 10
0.1916999999999999
 20
-0.8709999999999998
 30
0.0
 11
0.0000000000000001
 21
-0.7603219533963487
 31
0.0
  0
LINE
  5
16C
330
141
100
AcDbEntity
  8
AM_9
100
AcDbLine
 10
-0.1916999999999996
 20
-0.8709999999999998
 30
0.0
 11
0.1916999999999999
 21
-0.8709999999999998
 31
0.0
  0
LINE
  5
16D
330
141
100
AcDbEntity
  8
AM_9
100
AcDbLine
 10
0.1916999999999999
 20
-1.66295
 30
0.0
 11
0.1916999999999999
 21
-0.8709999999999998
 31
0.0
  0
LINE
  5
16E
330
141
100
AcDbEntity
  8
AM_9
100
AcDbLine
 10
-0.1916999999999996
 20
-0.8709999999999998
 30
0.0
 11
-0.1916999999999996
 21
-1.66295
 31
0.0
  0
LINE
  5
16F
330
141
100
AcDbEntity
  8
AM_9
100
AcDbLine
 10
-0.1916999999999996
 20
-1.66295
 30
0.0
 11
0.1916999999999999
 21
-1.66295
 31
0.0
  0
LINE
  5
170
330
141
100
AcDbEntity
  8
AM_9
100
AcDbLine
 10
-0.1916999999999996
 20
-1.66295
 30
0.0
 11
-0.2187499999999999
 21
-1.69
 31
0.0
  0
LINE
  5
171
330
141
100
AcDbEntity
  8
AM_9
100
AcDbLine
 10
0.2187500000000001
 20
-1.69
 30
0.0
 11
0.1916999999999999
 21
-1.66295
 31
0.0
  0
LINE
  5
172
330
141
100
AcDbEntity
  8
AM_5
100
AcDbLine
 10
0.2187499999999999
 20
-1.69
 30
0.0
 11
0.2187499999999999
 21
-1.06
 31
0.0
  0
LINE
  5
173
330
141
100
AcDbEntity
  8
AM_5
100
AcDbLine
 10
-0.2187500000000002
 20
-1.69
 30
0.0
 11
-0.2187500000000002
 21
-1.06
 31
0.0
  0
LINE
  5
174
330
141
100
AcDbEntity
  8
AM_5
100
AcDbLine
 10
-0.2187500000000002
 20
-1.06
 30
0.0
 11
0.2187500000000002
 21
-1.060000000000004
 31
0.0
  0
LINE
  5
175
330
141
100
AcDbEntity
  8
AM_5
100
AcDbLine
 10
-0.2187500000000001
 20
-1.060000000000005
 30
0.0
 11
-0.1920000000000024
 21
-1.013667640897537
 31
0.0
  0
LINE
  5
176
330
141
100
AcDbEntity
  8
AM_7
100
AcDbLine
 10
0.8249999999999998
 20
0.0
 30
0.0
 11
-1.016
 21
0.0
 31
0.0
  0
LINE
  5
177
330
141
100
AcDbEntity
  8
AM_7
100
AcDbLine
 10
-0.0000000000000001
 20
-0.7138380510661834
 30
0.0
 11
-0.0000000000000001
 21
-1.736483902330177
 31
0.0
  0
LINE
  5
178
330
141
100
AcDbEntity
  8
AM_4
100
AcDbLine
 10
0.3750000000000001
 20
1.69
 30
0.0
 11
-0.3749999999999999
 21
1.69
 31
0.0
  0
LINE
  5
179
330
141
100
AcDbEntity
  8
AM_4
100
AcDbLine
 10
-0.59689349112426
 20
-0.3099999999999992
 30
0.0
 11
0.5968934911242604
 21
-0.3099999999999992
 31
0.0
  0
LINE
  5
17A
330
141
100
AcDbEntity
  8
AM_4
100
AcDbLine
 10
0.6240000000000007
 20
-0.5543200000000191
 30
0.0
 11
0.6240000000000007
 21
-1.69
 31
0.0
  0
LINE
  5
17B
330
141
100
AcDbEntity
  8
AM_4
100
AcDbLine
 10
-0.7499999999999998
 20
-1.69
 30
0.0
 11
0.7500000000000001
 21
-1.69
 31
0.0
  0
LINE
  5
17C
330
141
100
AcDbEntity
  8
AM_4
100
AcDbLine
 10
0.7500000000000001
 20
-0.997
 30
0.0
 11
0.7500000000000001
 21
-1.69
 31
0.0
  0
LINE
  5
17D
330
141
100
AcDbEntity
  8
AM_4
100
AcDbLine
 10
0.6731139053254438
 20
-0.997
 30
0.0
 11
0.7500000000000001
 21
-0.997
 31
0.0
  0
LINE
  5
17E
330
141
100
AcDbEntity
  8
AM_4
100
AcDbLine
 10
0.3750000000000002
 20
1.69
 30
0.0
 11
0.6731139053254438
 21
-0.9969999999999997
 31
0.0
  0
LINE
  5
17F
330
141
100
AcDbEntity
  8
AM_4
100
AcDbLine
 10
-0.6731139053254436
 20
-0.9969999999999999
 30
0.0
 11
-0.3749999999999999
 21
1.69
 31
0.0
  0
LINE
  5
180
330
141
100
AcDbEntity
  8
AM_4
100
AcDbLine
 10
-0.7499999999999998
 20
-0.9969999999999999
 30
0.0
 11
-0.6731139053254436
 21
-0.997
 31
0.0
  0
LINE
  5
181
330
141
100
AcDbEntity
  8
AM_4
100
AcDbLine
 10
-0.7499999999999998
 20
-1.69
 30
0.0
 11
-0.7499999999999998
 21
-0.9969999999999999
 31
0.0
  0
LINE
  5
182
330
141
100
AcDbEntity
  8
AM_4
100
AcDbLine
 10
-0.6239999981224537
 20
-0.5543200000000025
 30
0.0
 11
-0.6239999981224537
 21
-1.69
 31
0.0
  0
LINE
  5
183
330
141
100
AcDbEntity
  8
AM_5
100
AcDbLine
 10
0.2187499999999999
 20
-1.06
 30
0.0
 11
0.1916999999999998
 21
-1.013148025655262
 31
0.0
  0
LINE
  5
184
330
141
100
AcDbEntity
  8
AM_5
100
AcDbLine
 10
-0.2187500000000002
 20
-1.06
 30
0.0
 11
-0.1916999999999997
 21
-1.013148025655261
 31
0.0
  0
ENDBLK
  5
144
330
141
100
AcDbEntity
  8
0
100
AcDbBlockEnd
  0
ENDSEC
  0
SECTION
  2
ENTITIES
  0
INSERT
  5
6F
330
1F
100
AcDbEntity
  8
0
100
AcDbBlockReference
  2
1_124466_2
 10
0.0
 20
0.0
 30
0.0
  0
POINT
  5
186
330
1F
100
AcDbEntity
  8
ConnectionPoints
100
AcDbPoint
 10
0.58
 20
0.0
 30
0.0
  0
POINT
  5
187
330
1F
100
AcDbEntity
  8
ConnectionPoints
100
AcDbPoint
 10
-0.94
 20
0.0
 30
0.0000000000000001
  0
POINT
  5
188
330
1F
100
AcDbEntity
  8
ConnectionPoints
100
AcDbPoint
 10
0.0000000000000001
 20
1.104213562373095
 30
1.414213562373095
  0
POINT
  5
189
330
1F
100
AcDbEntity
  8
ConnectionPoints
100
AcDbPoint
 10
-0.94
 20
0.0
 30
0.0000000000000001
  0
ENDSEC
  0
SECTION
  2
OBJECTS
  0
DICTIONARY
  5
C
330
0
100
AcDbDictionary
281
     1
  3
ACAD_DETAILVIEWSTYLE
350
191
  3
ACAD_GROUP
350
D
  3
ACAD_LAYOUT
350
1A
  3
ACAD_MATERIAL
350
43
  3
ACAD_MLEADERSTYLE
350
6B
  3
ACAD_MLINESTYLE
350
17
  3
ACAD_PLOTSETTINGS
350
19
  3
ACAD_PLOTSTYLENAME
350
E
  3
ACAD_SCALELIST
350
47
  3
ACAD_SECTIONVIEWSTYLE
350
192
  3
ACAD_TABLESTYLE
350
69
  3
ACAD_VISUALSTYLE
350
2A
  3
ACDB_RECOMPOSE_DATA
350
18E
  3
AcDbVariableDictionary
350
18A
  0
SUN
  5
6D
330
29
100
AcDbSun
 90
        1
290
     0
 63
     7
421
 16777215
 40
1.0
291
     1
 91
  2455826
 92
 54000000
292
     0
 70
     2
 71
   256
280
     1
  0
DICTIONARY
  5
191
102
{ACAD_REACTORS
330
C
102
}
330
C
100
AcDbDictionary
281
     1
  0
DICTIONARY
  5
D
102
{ACAD_REACTORS
330
C
102
}
330
C
100
AcDbDictionary
281
     1
  0
DICTIONARY
  5
1A
102
{ACAD_REACTORS
330
C
102
}
330
C
100
AcDbDictionary
281
     1
  3
Layout1
350
1E
  3
Layout2
350
26
  3
Model
350
22
  0
DICTIONARY
  5
43
102
{ACAD_REACTORS
330
C
102
}
330
C
100
AcDbDictionary
281
     1
  3
ByBlock
350
45
  3
ByLayer
350
44
  3
Global
350
46
  0
DICTIONARY
  5
6B
102
{ACAD_REACTORS
330
C
102
}
330
C
100
AcDbDictionary
281
     1
  3
Standard
350
6C
  0
DICTIONARY
  5
17
102
{ACAD_REACTORS
330
C
102
}
330
C
100
AcDbDictionary
281
     1
  3
Standard
350
18
  0
DICTIONARY
  5
19
102
{ACAD_REACTORS
330
C
102
}
330
C
100
AcDbDictionary
281
     1
  0
ACDBDICTIONARYWDFLT
  5
E
102
{ACAD_REACTORS
330
C
102
}
330
C
100
AcDbDictionary
281
     1
  3
Normal
350
F
100
AcDbDictionaryWithDefault
340
F
  0
DICTIONARY
  5
47
102
{ACAD_REACTORS
330
C
102
}
330
C
100
AcDbDictionary
281
     1
  3
A0
350
48
  3
A1
350
49
  3
A2
350
4A
  3
A3
350
4B
  3
A4
350
4C
  3
A5
350
4D
  3
A6
350
4E
  3
A7
350
4F
  3
A8
350
50
  3
A9
350
51
  3
B0
350
52
  3
B1
350
53
  3
B2
350
54
  3
B3
350
55
  3
B4
350
56
  3
B5
350
57
  3
B6
350
58
  3
B7
350
59
  3
B8
350
5A
  3
B9
350
5B
  3
C0
350
5C
  3
C1
350
5D
  3
C2
350
5E
  3
C3
350
5F
  3
C4
350
60
  3
C5
350
61
  3
C6
350
62
  3
C7
350
63
  3
C8
350
64
  3
C9
350
65
  3
D0
350
66
  3
D1
350
67
  3
D2
350
68
  0
DICTIONARY
  5
192
102
{ACAD_REACTORS
330
C
102
}
330
C
100
AcDbDictionary
281
     1
  0
DICTIONARY
  5
69
102
{ACAD_REACTORS
330
C
102
}
330
C
100
AcDbDictionary
281
     1
  3
Standard
350
6A
  0
DICTIONARY
  5
2A
102
{ACAD_REACTORS
330
C
102
}
330
C
100
AcDbDictionary
281
     1
  3
2dWireframe
350
2F
  3
Basic
350
32
  3
Brighten
350
36
  3
ColorChange
350
3A
  3
Conceptual
350
34
  3
Dim
350
35
  3
EdgeColorOff
350
3D
  3
Facepattern
350
39
  3
Flat
350
2B
  3
FlatWithEdges
350
2C
  3
Gouraud
350
2D
  3
GouraudWithEdges
350
2E
  3
Hidden
350
31
  3
JitterOff
350
3B
  3
Linepattern
350
38
  3
OverhangOff
350
3C
  3
Realistic
350
33
  3
Shaded
350
42
  3
Shaded with edges
350
41
  3
Shades of Gray
350
3E
  3
Sketchy
350
3F
  3
Thicken
350
37
  3
Wireframe
350
30
  3
X-Ray
350
40
  0
XRECORD
  5
18E
102
{ACAD_REACTORS
330
C
102
}
330
C
100
AcDbXrecord
280
     1
 90
        1
330
6A
  0
DICTIONARY
  5
18A
102
{ACAD_REACTORS
330
C
102
}
330
C
100
AcDbDictionary
281
     1
  3
CANNOSCALE
350
18B
  3
CMLEADERSTYLE
350
190
  3
CTABLESTYLE
350
18F
  0
LAYOUT
  5
1E
102
{ACAD_REACTORS
330
1A
102
}
330
1A
100
AcDbPlotSettings
  1

  2
none_device
  4

  6

 40
0.0
 41
0.0
 42
0.0
 43
0.0
 44
0.0
 45
0.0
 46
0.0
 47
0.0
 48
0.0
 49
0.0
140
0.0
141
0.0
142
1.0
143
1.0
 70
   688
 72
     0
 73
     0
 74
     5
  7

 75
    16
 76
     0
 77
     2
 78
   300
147
1.0
148
0.0
149
0.0
100
AcDbLayout
  1
Layout1
 70
     1
 71
     1
 10
0.0
 20
0.0
 11
12.0
 21
9.0
 12
0.0
 22
0.0
 32
0.0
 14
1.000000000000000E+20
 24
1.000000000000000E+20
 34
1.000000000000000E+20
 15
-1.000000000000000E+20
 25
-1.000000000000000E+20
 35
-1.000000000000000E+20
146
0.0
 13
0.0
 23
0.0
 33
0.0
 16
1.0
 26
0.0
 36
0.0
 17
0.0
 27
1.0
 37
0.0
 76
     0
330
1B
  0
LAYOUT
  5
26
102
{ACAD_REACTORS
330
1A
102
}
330
1A
100
AcDbPlotSettings
  1

  2
none_device
  4

  6

 40
0.0
 41
0.0
 42
0.0
 43
0.0
 44
0.0
 45
0.0
 46
0.0
 47
0.0
 48
0.0
 49
0.0
140
0.0
141
0.0
142
1.0
143
1.0
 70
   688
 72
     0
 73
     0
 74
     5
  7

 75
    16
 76
     0
 77
     2
 78
   300
147
1.0
148
0.0
149
0.0
100
AcDbLayout
  1
Layout2
 70
     1
 71
     2
 10
0.0
 20
0.0
 11
0.0
 21
0.0
 12
0.0
 22
0.0
 32
0.0
 14
0.0
 24
0.0
 34
0.0
 15
0.0
 25
0.0
 35
0.0
146
0.0
 13
0.0
 23
0.0
 33
0.0
 16
1.0
 26
0.0
 36
0.0
 17
0.0
 27
1.0
 37
0.0
 76
     0
330
23
  0
LAYOUT
  5
22
102
{ACAD_REACTORS
330
1A
102
}
330
1A
100
AcDbPlotSettings
  1

  2
none_device
  4
Letter_(8.50_x_11.00_Inches)
  6

 40
6.35
 41
6.35
 42
6.35000508
 43
6.35000508
 44
215.9
 45
279.4
 46
0.0
 47
0.0
 48
0.0
 49
0.0
140
0.0
141
0.0
142
1.0
143
1.0
 70
  1712
 72
     0
 73
     0
 74
     0
  7

 75
     0
 76
     0
 77
     2
 78
   300
147
1.0
148
0.0
149
0.0
100
AcDbLayout
  1
Model
 70
     1
 71
     0
 10
0.0
 20
0.0
 11
12.0
 21
9.0
 12
0.0
 22
0.0
 32
0.0
 14
1.000000000000000E+20
 24
1.000000000000000E+20
 34
1.000000000000000E+20
 15
-1.000000000000000E+20
 25
-1.000000000000000E+20
 35
-1.000000000000000E+20
146
0.0
 13
0.0
 23
0.0
 33
0.0
 16
1.0
 26
0.0
 36
0.0
 17
0.0
 27
1.0
 37
0.0
 76
     0
330
1F
331
29
  0
MATERIAL
  5
45
102
{ACAD_REACTORS
330
43
102
}
330
43
100
AcDbMaterial
  1
ByBlock
 72
     1
 94
      127
  0
MATERIAL
  5
44
102
{ACAD_REACTORS
330
43
102
}
330
43
100
AcDbMaterial
  1
ByLayer
 72
     1
 94
      127
  0
MATERIAL
  5
46
102
{ACAD_REACTORS
330
43
102
}
330
43
100
AcDbMaterial
  1
Global
 72
     1
 94
      127
  0
MLEADERSTYLE
  5
6C
102
{ACAD_REACTORS
330
6B
102
}
330
6B
100
AcDbMLeaderStyle
179
     2
170
     2
171
     1
172
     0
 90
        2
 40
0.0
 41
0.0
173
     1
 91
-1056964608
340
14
 92
       -2
290
     1
 42
0.09
291
     1
 43
0.36
  3
Standard
341
0
 44
0.18
300

342
11
174
     1
178
     6
175
     1
176
     0
 93
-1056964608
 45
0.18
292
     0
297
     0
 46
0.18
343
0
 94
-1056964608
 47
1.0
 49
1.0
140
1.0
293
     1
141
0.0
294
     1
177
     0
142
1.0
295
     0
296
     0
143
0.125
271
     0
272
     9
273
     9
298
     0
  0
MLINESTYLE
  5
18
102
{ACAD_REACTORS
330
17
102
}
330
17
100
AcDbMlineStyle
  2
Standard
 70
     0
  3

 62
   256
 51
90.0
 52
90.0
 71
     2
 49
0.5
 62
   256
  6
BYLAYER
 49
-0.5
 62
   256
  6
BYLAYER
  0
ACDBPLACEHOLDER
  5
F
102
{ACAD_REACTORS
330
E
102
}
330
E
  0
SCALE
  5
48
102
{ACAD_REACTORS
330
47
102
}
330
47
100
AcDbScale
 70
     0
300
1:1
140
1.0
141
1.0
290
     1
  0
SCALE
  5
49
102
{ACAD_REACTORS
330
47
102
}
330
47
100
AcDbScale
 70
     0
300
1:2
140
1.0
141
2.0
290
     0
  0
SCALE
  5
4A
102
{ACAD_REACTORS
330
47
102
}
330
47
100
AcDbScale
 70
     0
300
1:4
140
1.0
141
4.0
290
     0
  0
SCALE
  5
4B
102
{ACAD_REACTORS
330
47
102
}
330
47
100
AcDbScale
 70
     0
300
1:5
140
1.0
141
5.0
290
     0
  0
SCALE
  5
4C
102
{ACAD_REACTORS
330
47
102
}
330
47
100
AcDbScale
 70
     0
300
1:8
140
1.0
141
8.0
290
     0
  0
SCALE
  5
4D
102
{ACAD_REACTORS
330
47
102
}
330
47
100
AcDbScale
 70
     0
300
1:10
140
1.0
141
10.0
290
     0
  0
SCALE
  5
4E
102
{ACAD_REACTORS
330
47
102
}
330
47
100
AcDbScale
 70
     0
300
1:16
140
1.0
141
16.0
290
     0
  0
SCALE
  5
4F
102
{ACAD_REACTORS
330
47
102
}
330
47
100
AcDbScale
 70
     0
300
1:20
140
1.0
141
20.0
290
     0
  0
SCALE
  5
50
102
{ACAD_REACTORS
330
47
102
}
330
47
100
AcDbScale
 70
     0
300
1:30
140
1.0
141
30.0
290
     0
  0
SCALE
  5
51
102
{ACAD_REACTORS
330
47
102
}
330
47
100
AcDbScale
 70
     0
300
1:40
140
1.0
141
40.0
290
     0
  0
SCALE
  5
52
102
{ACAD_REACTORS
330
47
102
}
330
47
100
AcDbScale
 70
     0
300
1:50
140
1.0
141
50.0
290
     0
  0
SCALE
  5
53
102
{ACAD_REACTORS
330
47
102
}
330
47
100
AcDbScale
 70
     0
300
1:100
140
1.0
141
100.0
290
     0
  0
SCALE
  5
54
102
{ACAD_REACTORS
330
47
102
}
330
47
100
AcDbScale
 70
     0
300
2:1
140
2.0
141
1.0
290
     0
  0
SCALE
  5
55
102
{ACAD_REACTORS
330
47
102
}
330
47
100
AcDbScale
 70
     0
300
4:1
140
4.0
141
1.0
290
     0
  0
SCALE
  5
56
102
{ACAD_REACTORS
330
47
102
}
330
47
100
AcDbScale
 70
     0
300
8:1
140
8.0
141
1.0
290
     0
  0
SCALE
  5
57
102
{ACAD_REACTORS
330
47
102
}
330
47
100
AcDbScale
 70
     0
300
10:1
140
10.0
141
1.0
290
     0
  0
SCALE
  5
58
102
{ACAD_REACTORS
330
47
102
}
330
47
100
AcDbScale
 70
     0
300
100:1
140
100.0
141
1.0
290
     0
  0
SCALE
  5
59
102
{ACAD_REACTORS
330
47
102
}
330
47
100
AcDbScale
 70
     0
300
1/128" = 1'-0"
140
0.0078125
141
12.0
290
     0
  0
SCALE
  5
5A
102
{ACAD_REACTORS
330
47
102
}
330
47
100
AcDbScale
 70
     0
300
1/64" = 1'-0"
140
0.015625
141
12.0
290
     0
  0
SCALE
  5
5B
102
{ACAD_REACTORS
330
47
102
}
330
47
100
AcDbScale
 70
     0
300
1/32" = 1'-0"
140
0.03125
141
12.0
290
     0
  0
SCALE
  5
5C
102
{ACAD_REACTORS
330
47
102
}
330
47
100
AcDbScale
 70
     0
300
1/16" = 1'-0"
140
0.0625
141
12.0
290
     0
  0
SCALE
  5
5D
102
{ACAD_REACTORS
330
47
102
}
330
47
100
AcDbScale
 70
     0
300
3/32" = 1'-0"
140
0.09375
141
12.0
290
     0
  0
SCALE
  5
5E
102
{ACAD_REACTORS
330
47
102
}
330
47
100
AcDbScale
 70
     0
300
1/8" = 1'-0"
140
0.125
141
12.0
290
     0
  0
SCALE
  5
5F
102
{ACAD_REACTORS
330
47
102
}
330
47
100
AcDbScale
 70
     0
300
3/16" = 1'-0"
140
0.1875
141
12.0
290
     0
  0
SCALE
  5
60
102
{ACAD_REACTORS
330
47
102
}
330
47
100
AcDbScale
 70
     0
300
1/4" = 1'-0"
140
0.25
141
12.0
290
     0
  0
SCALE
  5
61
102
{ACAD_REACTORS
330
47
102
}
330
47
100
AcDbScale
 70
     0
300
3/8" = 1'-0"
140
0.375
141
12.0
290
     0
  0
SCALE
  5
62
102
{ACAD_REACTORS
330
47
102
}
330
47
100
AcDbScale
 70
     0
300
1/2" = 1'-0"
140
0.5
141
12.0
290
     0
  0
SCALE
  5
63
102
{ACAD_REACTORS
330
47
102
}
330
47
100
AcDbScale
 70
     0
300
3/4" = 1'-0"
140
0.75
141
12.0
290
     0
  0
SCALE
  5
64
102
{ACAD_REACTORS
330
47
102
}
330
47
100
AcDbScale
 70
     0
300
1" = 1'-0"
140
1.0
141
12.0
290
     0
  0
SCALE
  5
65
102
{ACAD_REACTORS
330
47
102
}
330
47
100
AcDbScale
 70
     0
300
1-1/2" = 1'-0"
140
1.5
141
12.0
290
     0
  0
SCALE
  5
66
102
{ACAD_REACTORS
330
47
102
}
330
47
100
AcDbScale
 70
     0
300
3" = 1'-0"
140
3.0
141
12.0
290
     0
  0
SCALE
  5
67
102
{ACAD_REACTORS
330
47
102
}
330
47
100
AcDbScale
 70
     0
300
6" = 1'-0"
140
6.0
141
12.0
290
     0
  0
SCALE
  5
68
102
{ACAD_REACTORS
330
47
102
}
330
47
100
AcDbScale
 70
     0
300
1'-0" = 1'-0"
140
12.0
141
12.0
290
     0
  0
TABLESTYLE
  5
6A
102
{ACAD_REACTORS
330
69
102
}
102
{ACAD_XDICTIONARY
360
18C
102
}
330
69
100
AcDbTableStyle
  3
Standard
 70
     0
 71
     0
 40
0.06
 41
0.06
280
     0
281
     0
  7
Standard
140
0.18
170
     2
 62
     0
 63
   257
283
     0
 90
        4
 91
        0
  1

274
    -2
284
     1
 64
     0
275
    -2
285
     1
 65
     0
276
    -2
286
     1
 66
     0
277
    -2
287
     1
 67
     0
278
    -2
288
     1
 68
     0
279
    -2
289
     1
 69
     0
  7
Standard
140
0.25
170
     5
 62
     0
 63
   257
283
     0
 90
        4
 91
        0
  1

274
    -2
284
     1
 64
     0
275
    -2
285
     1
 65
     0
276
    -2
286
     1
 66
     0
277
    -2
287
     1
 67
     0
278
    -2
288
     1
 68
     0
279
    -2
289
     1
 69
     0
  7
Standard
140
0.18
170
     5
 62
     0
 63
   257
283
     0
 90
        4
 91
        0
  1

274
    -2
284
     1
 64
     0
275
    -2
285
     1
 65
     0
276
    -2
286
     1
 66
     0
277
    -2
287
     1
 67
     0
278
    -2
288
     1
 68
     0
279
    -2
289
     1
 69
     0
  0
VISUALSTYLE
  5
2F
102
{ACAD_REACTORS
330
2A
102
}
330
2A
100
AcDbVisualStyle
  2
2dWireframe
 70
     4
177
     3
291
     0
 70
    58
 90
        0
176
     1
 90
        2
176
     1
 90
        0
176
     1
 90
        0
176
     1
 40
0.6
176
     1
 40
30.0
176
     1
 62
     7
420
 16777215
176
     1
 90
        1
176
     1
 90
        4
176
     1
 62
     7
176
     1
 62
   257
176
     1
 90
        1
176
     1
 90
        1
176
     1
 40
1.0
176
     1
 90
        0
176
     1
 62
   257
176
     1
 40
1.0
176
     1
 90
        1
176
     1
 90
        6
176
     1
 90
        2
176
     1
 62
     7
176
     1
 90
        5
176
     1
 90
        0
176
     1
 90
        0
176
     1
290
     0
176
     1
 90
        1
176
     1
 40
0.0
176
     1
 90
        0
176
     1
290
     1
176
     1
290
     1
176
     1
290
     0
176
     1
290
     0
176
     1
290
     0
176
     1
290
     0
176
     1
290
     0
176
     1
290
     0
176
     1
290
     0
176
     1
 90
       50
176
     1
 40
0.0
176
     1
 40
1.0
176
     1
 90
        0
176
     1
 62
    18
420
        0
176
     1
 90
       50
176
     1
 90
        3
176
     1
 62
     5
420
      255
176
     1
290
     0
176
     1
 90
       50
176
     1
 90
       50
176
     1
 90
       50
176
     1
290
     0
176
     1
 90
       50
176
     1
 62
   256
176
     0
 40
1.0
176
     0
 90
        2
176
     1
  1
strokes_ogs.tif
176
     1
290
     0
176
     1
 40
1.0
176
     1
 40
1.0
176
     1
  0
VISUALSTYLE
  5
32
102
{ACAD_REACTORS
330
2A
102
}
330
2A
100
AcDbVisualStyle
  2
Basic
 70
     7
177
     3
291
     1
 70
    58
 90
        1
176
     1
 90
        0
176
     1
 90
        1
176
     1
 90
        0
176
     1
 40
0.6
176
     1
 40
30.0
176
     1
 62
     7
420
 16777215
176
     1
 90
        0
176
     1
 90
        4
176
     1
 62
     7
176
     1
 62
   257
176
     1
 90
        1
176
     1
 90
        1
176
     1
 40
1.0
176
     1
 90
        8
176
     1
 62
     7
176
     1
 40
1.0
176
     1
 90
        1
176
     1
 90
        6
176
     1
 90
        2
176
     1
 62
     7
176
     1
 90
        5
176
     1
 90
        0
176
     1
 90
        0
176
     1
290
     0
176
     1
 90
        1
176
     1
 40
0.0
176
     1
 90
        0
176
     1
290
     0
176
     1
290
     1
176
     1
290
     1
176
     1
290
     0
176
     1
290
     0
176
     1
290
     0
176
     1
290
     0
176
     1
290
     0
176
     1
290
     0
176
     1
 90
       50
176
     1
 40
0.0
176
     1
 40
1.0
176
     1
 90
        0
176
     1
 62
    18
420
        0
176
     1
 90
       50
176
     1
 90
        3
176
     1
 62
     5
420
      255
176
     1
290
     0
176
     1
 90
       50
176
     1
 90
       50
176
     1
 90
       50
176
     1
290
     0
176
     1
 90
       50
176
     1
 62
   256
176
     0
 40
1.0
176
     0
 90
        2
176
     1
  1
strokes_ogs.tif
176
     1
290
     0
176
     1
 40
1.0
176
     1
 40
1.0
176
     1
  0
VISUALSTYLE
  5
36
102
{ACAD_REACTORS
330
2A
102
}
330
2A
100
AcDbVisualStyle
  2
Brighten
 70
    12
177
     3
291
     1
 70
    58
 90
        2
176
     1
 90
        2
176
     1
 90
        0
176
     1
 90
        0
176
     1
 40
0.6
176
     1
 40
30.0
176
     1
 62
     7
420
 16777215
176
     1
 90
        1
176
     1
 90
        4
176
     1
 62
     7
176
     1
 62
   257
176
     1
 90
        1
176
     1
 90
        1
176
     1
 40
1.0
176
     1
 90
        8
176
     1
 62
     7
176
     1
 40
1.0
176
     1
 90
        1
176
     1
 90
        6
176
     1
 90
        2
176
     1
 62
     7
176
     1
 90
        5
176
     1
 90
        0
176
     1
 90
        0
176
     1
290
     0
176
     1
 90
        1
176
     1
 40
50.0
176
     1
 90
        0
176
     1
290
     0
176
     1
290
     1
176
     1
290
     1
176
     1
290
     0
176
     1
290
     0
176
     1
290
     0
176
     1
290
     0
176
     1
290
     0
176
     1
290
     0
176
     1
 90
       50
176
     1
 40
0.0
176
     1
 40
1.0
176
     1
 90
        0
176
     1
 62
    18
420
        0
176
     1
 90
       50
176
     1
 90
        3
176
     1
 62
     5
420
      255
176
     1
290
     0
176
     1
 90
       50
176
     1
 90
       50
176
     1
 90
       50
176
     1
290
     0
176
     1
 90
       50
176
     1
 62
   256
176
     0
 40
1.0
176
     0
 90
        2
176
     1
  1
strokes_ogs.tif
176
     1
290
     0
176
     1
 40
1.0
176
     1
 40
1.0
176
     1
  0
VISUALSTYLE
  5
3A
102
{ACAD_REACTORS
330
2A
102
}
330
2A
100
AcDbVisualStyle
  2
ColorChange
 70
    16
177
     3
291
     1
 70
    58
 90
        2
176
     1
 90
        2
176
     1
 90
        3
176
     1
 90
        0
176
     1
 40
0.6
176
     1
 40
30.0
176
     1
 62
     8
420
  8421504
176
     1
 90
        1
176
     1
 90
        4
176
     1
 62
     7
176
     1
 62
   257
176
     1
 90
        1
176
     1
 90
        1
176
     1
 40
1.0
176
     1
 90
        8
176
     1
 62
     8
420
  8421504
176
     1
 40
1.0
176
     1
 90
        1
176
     1
 90
        6
176
     1
 90
        2
176
     1
 62
     7
176
     1
 90
        5
176
     1
 90
        0
176
     1
 90
        0
176
     1
290
     0
176
     1
 90
        1
176
     1
 40
0.0
176
     1
 90
        0
176
     1
290
     0
176
     1
290
     1
176
     1
290
     1
176
     1
290
     0
176
     1
290
     0
176
     1
290
     0
176
     1
290
     0
176
     1
290
     0
176
     1
290
     0
176
     1
 90
       50
176
     1
 40
0.0
176
     1
 40
1.0
176
     1
 90
        0
176
     1
 62
    18
420
        0
176
     1
 90
       50
176
     1
 90
        3
176
     1
 62
     5
420
      255
176
     1
290
     0
176
     1
 90
       50
176
     1
 90
       50
176
     1
 90
       50
176
     1
290
     0
176
     1
 90
       50
176
     1
 62
   256
176
     0
 40
1.0
176
     0
 90
        2
176
     1
  1
strokes_ogs.tif
176
     1
290
     0
176
     1
 40
1.0
176
     1
 40
1.0
176
     1
  0
VISUALSTYLE
  5
34
102
{ACAD_REACTORS
330
2A
102
}
330
2A
100
AcDbVisualStyle
  2
Conceptual
 70
     9
177
     3
291
     0
 70
    58
 90
        3
176
     1
 90
        2
176
     1
 90
        0
176
     1
 90
        0
176
     1
 40
0.6
176
     1
 40
30.0
176
     1
 62
     7
420
 16777215
176
     1
 90
        2
176
     1
 90
        2
176
     1
 62
     7
176
     1
 62
   257
176
     1
 90
        1
176
     1
 90
        1
176
     1
 40
179.0
176
     1
 90
        8
176
     1
 62
     7
176
     1
 40
1.0
176
     1
 90
        1
176
     1
 90
        6
176
     1
 90
        2
176
     1
 62
     7
176
     1
 90
        3
176
     1
 90
        0
176
     1
 90
        0
176
     1
290
     0
176
     1
 90
        1
176
     1
 40
0.0
176
     1
 90
        0
176
     1
290
     0
176
     1
290
     1
176
     1
290
     1
176
     1
290
     0
176
     1
290
     0
176
     1
290
     0
176
     1
290
     0
176
     1
290
     0
176
     1
290
     0
176
     1
 90
       50
176
     1
 40
0.0
176
     1
 40
1.0
176
     1
 90
        0
176
     1
 62
    18
420
        0
176
     1
 90
       50
176
     1
 90
        3
176
     1
 62
     5
420
      255
176
     1
290
     0
176
     1
 90
       50
176
     1
 90
       50
176
     1
 90
       50
176
     1
290
     0
176
     1
 90
       50
176
     1
 62
   256
176
     0
 40
1.0
176
     0
 90
        2
176
     1
  1
strokes_ogs.tif
176
     1
290
     0
176
     1
 40
1.0
176
     1
 40
1.0
176
     1
  0
VISUALSTYLE
  5
35
102
{ACAD_REACTORS
330
2A
102
}
330
2A
100
AcDbVisualStyle
  2
Dim
 70
    11
177
     3
291
     1
 70
    58
 90
        2
176
     1
 90
        2
176
     1
 90
        0
176
     1
 90
        0
176
     1
 40
0.6
176
     1
 40
30.0
176
     1
 62
     7
420
 16777215
176
     1
 90
        1
176
     1
 90
        4
176
     1
 62
     7
176
     1
 62
   257
176
     1
 90
        1
176
     1
 90
        1
176
     1
 40
1.0
176
     1
 90
        8
176
     1
 62
     7
176
     1
 40
1.0
176
     1
 90
        1
176
     1
 90
        6
176
     1
 90
        2
176
     1
 62
     7
176
     1
 90
        5
176
     1
 90
        0
176
     1
 90
        0
176
     1
290
     0
176
     1
 90
        1
176
     1
 40
-50.0
176
     1
 90
        0
176
     1
290
     0
176
     1
290
     1
176
     1
290
     1
176
     1
290
     0
176
     1
290
     0
176
     1
290
     0
176
     1
290
     0
176
     1
290
     0
176
     1
290
     0
176
     1
 90
       50
176
     1
 40
0.0
176
     1
 40
1.0
176
     1
 90
        0
176
     1
 62
    18
420
        0
176
     1
 90
       50
176
     1
 90
        3
176
     1
 62
     5
420
      255
176
     1
290
     0
176
     1
 90
       50
176
     1
 90
       50
176
     1
 90
       50
176
     1
290
     0
176
     1
 90
       50
176
     1
 62
   256
176
     0
 40
1.0
176
     0
 90
        2
176
     1
  1
strokes_ogs.tif
176
     1
290
     0
176
     1
 40
1.0
176
     1
 40
1.0
176
     1
  0
VISUALSTYLE
  5
3D
102
{ACAD_REACTORS
330
2A
102
}
330
2A
100
AcDbVisualStyle
  2
EdgeColorOff
 70
    22
177
     3
291
     1
 70
    58
 90
        2
176
     0
 90
        2
176
     0
 90
        0
176
     0
 90
        0
176
     0
 40
0.6
176
     0
 40
30.0
176
     0
 62
     7
420
 16777215
176
     0
 90
        1
176
     0
 90
        4
176
     0
 62
     7
176
     0
 62
   257
176
     0
 90
        1
176
     0
 90
        1
176
     0
 40
1.0
176
     0
 90
        8
176
     2
 62
     7
176
     0
 40
1.0
176
     0
 90
        1
176
     0
 90
        6
176
     0
 90
        2
176
     0
 62
     7
176
     0
 90
        5
176
     0
 90
        0
176
     0
 90
        0
176
     0
290
     0
176
     0
 90
        1
176
     0
 40
0.0
176
     0
 90
        0
176
     0
290
     0
176
     0
290
     1
176
     0
290
     1
176
     0
290
     0
176
     0
290
     0
176
     0
290
     0
176
     0
290
     0
176
     0
290
     0
176
     0
290
     0
176
     0
 90
       50
176
     0
 40
0.0
176
     0
 40
1.0
176
     0
 90
        0
176
     0
 62
    18
420
        0
176
     0
 90
       50
176
     0
 90
        3
176
     0
 62
     5
420
      255
176
     0
290
     0
176
     0
 90
       50
176
     0
 90
       50
176
     0
 90
       50
176
     0
290
     0
176
     0
 90
       50
176
     0
 62
   256
176
     0
 40
1.0
176
     0
 90
        2
176
     0
  1
strokes_ogs.tif
176
     0
290
     0
176
     0
 40
1.0
176
     0
 40
1.0
176
     0
  0
VISUALSTYLE
  5
39
102
{ACAD_REACTORS
330
2A
102
}
330
2A
100
AcDbVisualStyle
  2
Facepattern
 70
    15
177
     3
291
     1
 70
    58
 90
        2
176
     1
 90
        2
176
     1
 90
        0
176
     1
 90
        0
176
     1
 40
0.6
176
     1
 40
30.0
176
     1
 62
     7
420
 16777215
176
     1
 90
        1
176
     1
 90
        4
176
     1
 62
     7
176
     1
 62
   257
176
     1
 90
        1
176
     1
 90
        1
176
     1
 40
1.0
176
     1
 90
        8
176
     1
 62
     7
176
     1
 40
1.0
176
     1
 90
        1
176
     1
 90
        6
176
     1
 90
        2
176
     1
 62
     7
176
     1
 90
        5
176
     1
 90
        0
176
     1
 90
        0
176
     1
290
     0
176
     1
 90
        1
176
     1
 40
0.0
176
     1
 90
        0
176
     1
290
     0
176
     1
290
     1
176
     1
290
     1
176
     1
290
     0
176
     1
290
     0
176
     1
290
     0
176
     1
290
     0
176
     1
290
     0
176
     1
290
     0
176
     1
 90
       50
176
     1
 40
0.0
176
     1
 40
1.0
176
     1
 90
        0
176
     1
 62
    18
420
        0
176
     1
 90
       50
176
     1
 90
        3
176
     1
 62
     5
420
      255
176
     1
290
     0
176
     1
 90
       50
176
     1
 90
       50
176
     1
 90
       50
176
     1
290
     0
176
     1
 90
       50
176
     1
 62
   256
176
     0
 40
1.0
176
     0
 90
        2
176
     1
  1
strokes_ogs.tif
176
     1
290
     0
176
     1
 40
1.0
176
     1
 40
1.0
176
     1
  0
VISUALSTYLE
  5
2B
102
{ACAD_REACTORS
330
2A
102
}
330
2A
100
AcDbVisualStyle
  2
Flat
 70
     0
177
     3
291
     1
 70
    58
 90
        2
176
     1
 90
        1
176
     1
 90
        1
176
     1
 90
        2
176
     1
 40
0.6
176
     1
 40
30.0
176
     1
 62
     7
420
 16777215
176
     1
 90
        0
176
     1
 90
        0
176
     1
 62
     7
176
     1
 62
   257
176
     1
 90
        1
176
     1
 90
        1
176
     1
 40
1.0
176
     1
 90
        8
176
     1
 62
     7
176
     1
 40
1.0
176
     1
 90
        1
176
     1
 90
        6
176
     1
 90
        2
176
     1
 62
     7
176
     1
 90
        5
176
     1
 90
        0
176
     1
 90
        0
176
     1
290
     0
176
     1
 90
       13
176
     1
 40
0.0
176
     1
 90
        0
176
     1
290
     0
176
     1
290
     1
176
     1
290
     1
176
     1
290
     0
176
     1
290
     0
176
     1
290
     0
176
     1
290
     0
176
     1
290
     0
176
     1
290
     0
176
     1
 90
       50
176
     1
 40
0.0
176
     1
 40
1.0
176
     1
 90
        0
176
     1
 62
    18
420
        0
176
     1
 90
       50
176
     1
 90
        3
176
     1
 62
     5
420
      255
176
     1
290
     0
176
     1
 90
       50
176
     1
 90
       50
176
     1
 90
       50
176
     1
290
     0
176
     1
 90
       50
176
     1
 62
   256
176
     0
 40
1.0
176
     0
 90
        2
176
     1
  1
strokes_ogs.tif
176
     1
290
     0
176
     1
 40
1.0
176
     1
 40
1.0
176
     1
  0
VISUALSTYLE
  5
2C
102
{ACAD_REACTORS
330
2A
102
}
330
2A
100
AcDbVisualStyle
  2
FlatWithEdges
 70
     1
177
     3
291
     1
 70
    58
 90
        2
176
     1
 90
        1
176
     1
 90
        1
176
     1
 90
        2
176
     1
 40
0.6
176
     1
 40
30.0
176
     1
 62
     7
420
 16777215
176
     1
 90
        1
176
     1
 90
        0
176
     1
 62
     7
176
     1
 62
   257
176
     1
 90
        1
176
     1
 90
        1
176
     1
 40
1.0
176
     1
 90
        0
176
     1
 62
   257
176
     1
 40
1.0
176
     1
 90
        1
176
     1
 90
        6
176
     1
 90
        2
176
     1
 62
     7
176
     1
 90
        5
176
     1
 90
        0
176
     1
 90
        0
176
     1
290
     0
176
     1
 90
       13
176
     1
 40
0.0
176
     1
 90
        0
176
     1
290
     0
176
     1
290
     1
176
     1
290
     1
176
     1
290
     0
176
     1
290
     0
176
     1
290
     0
176
     1
290
     0
176
     1
290
     0
176
     1
290
     0
176
     1
 90
       50
176
     1
 40
0.0
176
     1
 40
1.0
176
     1
 90
        0
176
     1
 62
    18
420
        0
176
     1
 90
       50
176
     1
 90
        3
176
     1
 62
     5
420
      255
176
     1
290
     0
176
     1
 90
       50
176
     1
 90
       50
176
     1
 90
       50
176
     1
290
     0
176
     1
 90
       50
176
     1
 62
   256
176
     0
 40
1.0
176
     0
 90
        2
176
     1
  1
strokes_ogs.tif
176
     1
290
     0
176
     1
 40
1.0
176
     1
 40
1.0
176
     1
  0
VISUALSTYLE
  5
2D
102
{ACAD_REACTORS
330
2A
102
}
330
2A
100
AcDbVisualStyle
  2
Gouraud
 70
     2
177
     3
291
     1
 70
    58
 90
        2
176
     1
 90
        2
176
     1
 90
        1
176
     1
 90
        2
176
     1
 40
0.6
176
     1
 40
30.0
176
     1
 62
     7
420
 16777215
176
     1
 90
        0
176
     1
 90
        0
176
     1
 62
     7
176
     1
 62
   257
176
     1
 90
        1
176
     1
 90
        1
176
     1
 40
1.0
176
     1
 90
        0
176
     1
 62
     7
176
     1
 40
1.0
176
     1
 90
        1
176
     1
 90
        6
176
     1
 90
        2
176
     1
 62
     7
176
     1
 90
        5
176
     1
 90
        0
176
     1
 90
        0
176
     1
290
     0
176
     1
 90
       13
176
     1
 40
0.0
176
     1
 90
        0
176
     1
290
     0
176
     1
290
     1
176
     1
290
     1
176
     1
290
     0
176
     1
290
     0
176
     1
290
     0
176
     1
290
     0
176
     1
290
     0
176
     1
290
     0
176
     1
 90
       50
176
     1
 40
0.0
176
     1
 40
1.0
176
     1
 90
        0
176
     1
 62
    18
420
        0
176
     1
 90
       50
176
     1
 90
        3
176
     1
 62
     5
420
      255
176
     1
290
     0
176
     1
 90
       50
176
     1
 90
       50
176
     1
 90
       50
176
     1
290
     0
176
     1
 90
       50
176
     1
 62
   256
176
     0
 40
1.0
176
     0
 90
        2
176
     1
  1
strokes_ogs.tif
176
     1
290
     0
176
     1
 40
1.0
176
     1
 40
1.0
176
     1
  0
VISUALSTYLE
  5
2E
102
{ACAD_REACTORS
330
2A
102
}
330
2A
100
AcDbVisualStyle
  2
GouraudWithEdges
 70
     3
177
     3
291
     1
 70
    58
 90
        2
176
     1
 90
        2
176
     1
 90
        1
176
     1
 90
        2
176
     1
 40
0.6
176
     1
 40
30.0
176
     1
 62
     7
420
 16777215
176
     1
 90
        1
176
     1
 90
        0
176
     1
 62
     7
176
     1
 62
   257
176
     1
 90
        1
176
     1
 90
        1
176
     1
 40
1.0
176
     1
 90
        0
176
     1
 62
   257
176
     1
 40
1.0
176
     1
 90
        1
176
     1
 90
        6
176
     1
 90
        2
176
     1
 62
     7
176
     1
 90
        5
176
     1
 90
        0
176
     1
 90
        0
176
     1
290
     0
176
     1
 90
       13
176
     1
 40
0.0
176
     1
 90
        0
176
     1
290
     0
176
     1
290
     1
176
     1
290
     1
176
     1
290
     0
176
     1
290
     0
176
     1
290
     0
176
     1
290
     0
176
     1
290
     0
176
     1
290
     0
176
     1
 90
       50
176
     1
 40
0.0
176
     1
 40
1.0
176
     1
 90
        0
176
     1
 62
    18
420
        0
176
     1
 90
       50
176
     1
 90
        3
176
     1
 62
     5
420
      255
176
     1
290
     0
176
     1
 90
       50
176
     1
 90
       50
176
     1
 90
       50
176
     1
290
     0
176
     1
 90
       50
176
     1
 62
   256
176
     0
 40
1.0
176
     0
 90
        2
176
     1
  1
strokes_ogs.tif
176
     1
290
     0
176
     1
 40
1.0
176
     1
 40
1.0
176
     1
  0
VISUALSTYLE
  5
31
102
{ACAD_REACTORS
330
2A
102
}
330
2A
100
AcDbVisualStyle
  2
Hidden
 70
     6
177
     3
291
     0
 70
    58
 90
        1
176
     1
 90
        2
176
     1
 90
        2
176
     1
 90
        0
176
     1
 40
0.6
176
     1
 40
30.0
176
     1
 62
     7
420
 16777215
176
     1
 90
        2
176
     1
 90
        2
176
     1
 62
     7
176
     1
 62
   257
176
     1
 90
        2
176
     1
 90
        1
176
     1
 40
40.0
176
     1
 90
        0
176
     1
 62
   257
176
     1
 40
1.0
176
     1
 90
        1
176
     1
 90
        6
176
     1
 90
        2
176
     1
 62
     7
176
     1
 90
        3
176
     1
 90
        0
176
     1
 90
        0
176
     1
290
     0
176
     1
 90
        1
176
     1
 40
0.0
176
     1
 90
        0
176
     1
290
     0
176
     1
290
     1
176
     1
290
     1
176
     1
290
     0
176
     1
290
     0
176
     1
290
     0
176
     1
290
     0
176
     1
290
     0
176
     1
290
     0
176
     1
 90
       50
176
     1
 40
0.0
176
     1
 40
1.0
176
     1
 90
        0
176
     1
 62
    18
420
        0
176
     1
 90
       50
176
     1
 90
        3
176
     1
 62
     5
420
      255
176
     1
290
     0
176
     1
 90
       50
176
     1
 90
       50
176
     1
 90
       50
176
     1
290
     0
176
     1
 90
       50
176
     1
 62
   256
176
     0
 40
1.0
176
     0
 90
        2
176
     1
  1
strokes_ogs.tif
176
     1
290
     0
176
     1
 40
1.0
176
     1
 40
1.0
176
     1
  0
VISUALSTYLE
  5
3B
102
{ACAD_REACTORS
330
2A
102
}
330
2A
100
AcDbVisualStyle
  2
JitterOff
 70
    20
177
     3
291
     1
 70
    58
 90
        2
176
     0
 90
        2
176
     0
 90
        0
176
     0
 90
        0
176
     0
 40
0.6
176
     0
 40
30.0
176
     0
 62
     7
420
 16777215
176
     0
 90
        1
176
     0
 90
        4
176
     0
 62
     7
176
     0
 62
   257
176
     0
 90
        1
176
     0
 90
        1
176
     0
 40
1.0
176
     0
 90
       10
176
     2
 62
     7
176
     0
 40
1.0
176
     0
 90
        1
176
     0
 90
        6
176
     0
 90
        2
176
     0
 62
     7
176
     0
 90
        5
176
     0
 90
        0
176
     0
 90
        0
176
     0
290
     0
176
     0
 90
        1
176
     0
 40
0.0
176
     0
 90
        0
176
     0
290
     0
176
     0
290
     1
176
     0
290
     1
176
     0
290
     0
176
     0
290
     0
176
     0
290
     0
176
     0
290
     0
176
     0
290
     0
176
     0
290
     0
176
     0
 90
       50
176
     0
 40
0.0
176
     0
 40
1.0
176
     0
 90
        0
176
     0
 62
    18
420
        0
176
     0
 90
       50
176
     0
 90
        3
176
     0
 62
     5
420
      255
176
     0
290
     0
176
     0
 90
       50
176
     0
 90
       50
176
     0
 90
       50
176
     0
290
     0
176
     0
 90
       50
176
     0
 62
   256
176
     0
 40
1.0
176
     0
 90
        2
176
     0
  1
strokes_ogs.tif
176
     0
290
     0
176
     0
 40
1.0
176
     0
 40
1.0
176
     0
  0
VISUALSTYLE
  5
38
102
{ACAD_REACTORS
330
2A
102
}
330
2A
100
AcDbVisualStyle
  2
Linepattern
 70
    14
177
     3
291
     1
 70
    58
 90
        2
176
     1
 90
        2
176
     1
 90
        0
176
     1
 90
        0
176
     1
 40
0.6
176
     1
 40
30.0
176
     1
 62
     7
420
 16777215
176
     1
 90
        1
176
     1
 90
        4
176
     1
 62
     7
176
     1
 62
   257
176
     1
 90
        7
176
     1
 90
        7
176
     1
 40
1.0
176
     1
 90
        8
176
     1
 62
     7
176
     1
 40
1.0
176
     1
 90
        1
176
     1
 90
        6
176
     1
 90
        2
176
     1
 62
     7
176
     1
 90
        5
176
     1
 90
        0
176
     1
 90
        0
176
     1
290
     0
176
     1
 90
        1
176
     1
 40
0.0
176
     1
 90
        0
176
     1
290
     0
176
     1
290
     1
176
     1
290
     1
176
     1
290
     0
176
     1
290
     0
176
     1
290
     0
176
     1
290
     0
176
     1
290
     0
176
     1
290
     0
176
     1
 90
       50
176
     1
 40
0.0
176
     1
 40
1.0
176
     1
 90
        0
176
     1
 62
    18
420
        0
176
     1
 90
       50
176
     1
 90
        3
176
     1
 62
     5
420
      255
176
     1
290
     0
176
     1
 90
       50
176
     1
 90
       50
176
     1
 90
       50
176
     1
290
     0
176
     1
 90
       50
176
     1
 62
   256
176
     0
 40
1.0
176
     0
 90
        2
176
     1
  1
strokes_ogs.tif
176
     1
290
     0
176
     1
 40
1.0
176
     1
 40
1.0
176
     1
  0
VISUALSTYLE
  5
3C
102
{ACAD_REACTORS
330
2A
102
}
330
2A
100
AcDbVisualStyle
  2
OverhangOff
 70
    21
177
     3
291
     1
 70
    58
 90
        2
176
     0
 90
        2
176
     0
 90
        0
176
     0
 90
        0
176
     0
 40
0.6
176
     0
 40
30.0
176
     0
 62
     7
420
 16777215
176
     0
 90
        1
176
     0
 90
        4
176
     0
 62
     7
176
     0
 62
   257
176
     0
 90
        1
176
     0
 90
        1
176
     0
 40
1.0
176
     0
 90
        9
176
     2
 62
     7
176
     0
 40
1.0
176
     0
 90
        1
176
     0
 90
        6
176
     0
 90
        2
176
     0
 62
     7
176
     0
 90
        5
176
     0
 90
        0
176
     0
 90
        0
176
     0
290
     0
176
     0
 90
        1
176
     0
 40
0.0
176
     0
 90
        0
176
     0
290
     0
176
     0
290
     1
176
     0
290
     1
176
     0
290
     0
176
     0
290
     0
176
     0
290
     0
176
     0
290
     0
176
     0
290
     0
176
     0
290
     0
176
     0
 90
       50
176
     0
 40
0.0
176
     0
 40
1.0
176
     0
 90
        0
176
     0
 62
    18
420
        0
176
     0
 90
       50
176
     0
 90
        3
176
     0
 62
     5
420
      255
176
     0
290
     0
176
     0
 90
       50
176
     0
 90
       50
176
     0
 90
       50
176
     0
290
     0
176
     0
 90
       50
176
     0
 62
   256
176
     0
 40
1.0
176
     0
 90
        2
176
     0
  1
strokes_ogs.tif
176
     0
290
     0
176
     0
 40
1.0
176
     0
 40
1.0
176
     0
  0
VISUALSTYLE
  5
33
102
{ACAD_REACTORS
330
2A
102
}
330
2A
100
AcDbVisualStyle
  2
Realistic
 70
     8
177
     3
291
     0
 70
    58
 90
        2
176
     1
 90
        3
176
     1
 90
        0
176
     1
 90
        2
176
     1
 40
0.6
176
     1
 40
30.0
176
     1
 62
     7
420
 16777215
176
     1
 90
        0
176
     1
 90
        0
176
     1
 62
     7
176
     1
 62
   257
176
     1
 90
        1
176
     1
 90
        1
176
     1
 40
1.0
176
     1
 90
        8
176
     1
 62
   257
176
     1
 40
1.0
176
     1
 90
        1
176
     1
 90
        6
176
     1
 90
        2
176
     1
 62
     7
176
     1
 90
        3
176
     1
 90
        0
176
     1
 90
        0
176
     1
290
     0
176
     1
 90
       13
176
     1
 40
0.0
176
     1
 90
        0
176
     1
290
     0
176
     1
290
     1
176
     1
290
     1
176
     1
290
     0
176
     1
290
     0
176
     1
290
     0
176
     1
290
     0
176
     1
290
     0
176
     1
290
     0
176
     1
 90
       50
176
     1
 40
0.0
176
     1
 40
1.0
176
     1
 90
        0
176
     1
 62
    18
420
        0
176
     1
 90
       50
176
     1
 90
        3
176
     1
 62
     5
420
      255
176
     1
290
     0
176
     1
 90
       50
176
     1
 90
       50
176
     1
 90
       50
176
     1
290
     0
176
     1
 90
       50
176
     1
 62
   256
176
     0
 40
1.0
176
     0
 90
        2
176
     1
  1
strokes_ogs.tif
176
     1
290
     0
176
     1
 40
1.0
176
     1
 40
1.0
176
     1
  0
VISUALSTYLE
  5
42
102
{ACAD_REACTORS
330
2A
102
}
330
2A
100
AcDbVisualStyle
  2
Shaded
 70
    27
177
     3
291
     0
 70
    58
 90
        2
176
     1
 90
        2
176
     1
 90
        1
176
     1
 90
        2
176
     1
 40
0.6
176
     1
 40
30.0
176
     1
 62
     7
420
 16777215
176
     1
 90
        0
176
     1
 90
        4
176
     1
 62
     7
176
     1
 62
   257
176
     1
 90
        1
176
     1
 90
        1
176
     1
 40
1.0
176
     1
 90
        8
176
     1
 62
   257
176
     1
 40
1.0
176
     1
 90
        1
176
     1
 90
        6
176
     1
 90
        2
176
     1
 62
     8
420
  7895160
176
     1
 90
        3
176
     1
 90
        0
176
     1
 90
        0
176
     1
290
     0
176
     1
 90
        5
176
     1
 40
0.0
176
     1
 90
        0
176
     1
290
     0
176
     1
290
     1
176
     1
290
     1
176
     1
290
     0
176
     1
290
     0
176
     1
290
     0
176
     1
290
     0
176
     1
290
     0
176
     1
290
     0
176
     1
 90
       50
176
     1
 40
0.0
176
     1
 40
1.0
176
     1
 90
        0
176
     1
 62
    18
420
        0
176
     1
 90
       50
176
     1
 90
        3
176
     1
 62
     5
420
      255
176
     1
290
     0
176
     1
 90
       50
176
     1
 90
       50
176
     1
 90
       50
176
     1
290
     0
176
     1
 90
       50
176
     1
 62
   256
176
     0
 40
1.0
176
     0
 90
        2
176
     1
  1
strokes_ogs.tif
176
     1
290
     0
176
     1
 40
1.0
176
     1
 40
1.0
176
     1
  0
VISUALSTYLE
  5
41
102
{ACAD_REACTORS
330
2A
102
}
330
2A
100
AcDbVisualStyle
  2
Shaded with edges
 70
    26
177
     3
291
     0
 70
    58
 90
        2
176
     1
 90
        2
176
     1
 90
        1
176
     1
 90
        2
176
     1
 40
0.6
176
     1
 40
30.0
176
     1
 62
     7
420
 16777215
176
     1
 90
        1
176
     1
 90
       10
176
     1
 62
     7
176
     1
 62
   257
176
     1
 90
        2
176
     1
 90
        1
176
     1
 40
1.0
176
     1
 90
        8
176
     1
 62
   257
176
     1
 40
1.0
176
     1
 90
        1
176
     1
 90
        6
176
     1
 90
        2
176
     1
 62
     7
176
     1
 90
        3
176
     1
 90
        0
176
     1
 90
        0
176
     1
290
     0
176
     1
 90
        5
176
     1
 40
0.0
176
     1
 90
        0
176
     1
290
     0
176
     1
290
     1
176
     1
290
     1
176
     1
290
     0
176
     1
290
     0
176
     1
290
     0
176
     1
290
     0
176
     1
290
     0
176
     1
290
     0
176
     1
 90
       50
176
     1
 40
0.0
176
     1
 40
1.0
176
     1
 90
        0
176
     1
 62
    18
420
        0
176
     1
 90
       50
176
     1
 90
        3
176
     1
 62
     5
420
      255
176
     1
290
     0
176
     1
 90
       50
176
     1
 90
       50
176
     1
 90
       50
176
     1
290
     0
176
     1
 90
       50
176
     1
 62
   256
176
     0
 40
1.0
176
     0
 90
        2
176
     1
  1
strokes_ogs.tif
176
     1
290
     0
176
     1
 40
1.0
176
     1
 40
1.0
176
     1
  0
VISUALSTYLE
  5
3E
102
{ACAD_REACTORS
330
2A
102
}
330
2A
100
AcDbVisualStyle
  2
Shades of Gray
 70
    23
177
     3
291
     0
 70
    58
 90
        2
176
     1
 90
        2
176
     1
 90
        3
176
     1
 90
        0
176
     1
 40
0.6
176
     1
 40
30.0
176
     1
 62
     7
420
 16777215
176
     1
 90
        2
176
     1
 90
        2
176
     1
 62
     7
176
     1
 62
     7
176
     1
 90
        1
176
     1
 90
        1
176
     1
 40
40.0
176
     1
 90
        8
176
     1
 62
     7
176
     1
 40
1.0
176
     1
 90
        1
176
     1
 90
        6
176
     1
 90
        2
176
     1
 62
     7
176
     1
 90
        3
176
     1
 90
        0
176
     1
 90
        0
176
     1
290
     0
176
     1
 90
        1
176
     1
 40
0.0
176
     1
 90
        0
176
     1
290
     0
176
     1
290
     1
176
     1
290
     1
176
     1
290
     0
176
     1
290
     0
176
     1
290
     0
176
     1
290
     0
176
     1
290
     0
176
     1
290
     0
176
     1
 90
       50
176
     1
 40
0.0
176
     1
 40
1.0
176
     1
 90
        0
176
     1
 62
    18
420
        0
176
     1
 90
       50
176
     1
 90
        3
176
     1
 62
     5
420
      255
176
     1
290
     0
176
     1
 90
       50
176
     1
 90
       50
176
     1
 90
       50
176
     1
290
     0
176
     1
 90
       50
176
     1
 62
   256
176
     0
 40
1.0
176
     0
 90
        2
176
     1
  1
strokes_ogs.tif
176
     1
290
     0
176
     1
 40
1.0
176
     1
 40
1.0
176
     1
  0
VISUALSTYLE
  5
3F
102
{ACAD_REACTORS
330
2A
102
}
330
2A
100
AcDbVisualStyle
  2
Sketchy
 70
    24
177
     3
291
     0
 70
    58
 90
        1
176
     1
 90
        2
176
     1
 90
        2
176
     1
 90
        0
176
     1
 40
0.6
176
     1
 40
30.0
176
     1
 62
     7
420
 16777215
176
     1
 90
        2
176
     1
 90
        2
176
     1
 62
     7
176
     1
 62
     7
176
     1
 90
        1
176
     1
 90
        1
176
     1
 40
40.0
176
     1
 90
       11
176
     1
 62
     7
176
     1
 40
1.0
176
     1
 90
        1
176
     1
 90
        6
176
     1
 90
        2
176
     1
 62
     7
176
     1
 90
        6
176
     1
 90
        0
176
     1
 90
        0
176
     1
290
     0
176
     1
 90
        1
176
     1
 40
0.0
176
     1
 90
        0
176
     1
290
     0
176
     1
290
     1
176
     1
290
     1
176
     1
290
     0
176
     1
290
     0
176
     1
290
     0
176
     1
290
     0
176
     1
290
     0
176
     1
290
     0
176
     1
 90
       50
176
     1
 40
0.0
176
     1
 40
1.0
176
     1
 90
        0
176
     1
 62
    18
420
        0
176
     1
 90
       50
176
     1
 90
        3
176
     1
 62
     5
420
      255
176
     1
290
     0
176
     1
 90
       50
176
     1
 90
       50
176
     1
 90
       50
176
     1
290
     0
176
     1
 90
       50
176
     1
 62
   256
176
     0
 40
1.0
176
     0
 90
        2
176
     1
  1
strokes_ogs.tif
176
     1
290
     0
176
     1
 40
1.0
176
     1
 40
1.0
176
     1
  0
VISUALSTYLE
  5
37
102
{ACAD_REACTORS
330
2A
102
}
330
2A
100
AcDbVisualStyle
  2
Thicken
 70
    13
177
     3
291
     1
 70
    58
 90
        2
176
     1
 90
        2
176
     1
 90
        0
176
     1
 90
        0
176
     1
 40
0.6
176
     1
 40
30.0
176
     1
 62
     7
420
 16777215
176
     1
 90
        1
176
     1
 90
        4
176
     1
 62
     7
176
     1
 62
   257
176
     1
 90
        1
176
     1
 90
        1
176
     1
 40
1.0
176
     1
 90
       12
176
     1
 62
     7
176
     1
 40
1.0
176
     1
 90
        1
176
     1
 90
        6
176
     1
 90
        2
176
     1
 62
     7
176
     1
 90
        5
176
     1
 90
        0
176
     1
 90
        0
176
     1
290
     0
176
     1
 90
        1
176
     1
 40
0.0
176
     1
 90
        0
176
     1
290
     0
176
     1
290
     1
176
     1
290
     1
176
     1
290
     0
176
     1
290
     0
176
     1
290
     0
176
     1
290
     0
176
     1
290
     0
176
     1
290
     0
176
     1
 90
       50
176
     1
 40
0.0
176
     1
 40
1.0
176
     1
 90
        0
176
     1
 62
    18
420
        0
176
     1
 90
       50
176
     1
 90
        3
176
     1
 62
     5
420
      255
176
     1
290
     0
176
     1
 90
       50
176
     1
 90
       50
176
     1
 90
       50
176
     1
290
     0
176
     1
 90
       50
176
     1
 62
   256
176
     0
 40
1.0
176
     0
 90
        2
176
     1
  1
strokes_ogs.tif
176
     1
290
     0
176
     1
 40
1.0
176
     1
 40
1.0
176
     1
  0
VISUALSTYLE
  5
30
102
{ACAD_REACTORS
330
2A
102
}
330
2A
100
AcDbVisualStyle
  2
Wireframe
 70
     5
177
     3
291
     0
 70
    58
 90
        0
176
     1
 90
        2
176
     1
 90
        0
176
     1
 90
        0
176
     1
 40
0.6
176
     1
 40
30.0
176
     1
 62
     7
420
 16777215
176
     1
 90
        1
176
     1
 90
        4
176
     1
 62
     7
176
     1
 62
   257
176
     1
 90
        1
176
     1
 90
        1
176
     1
 40
1.0
176
     1
 90
        0
176
     1
 62
   257
176
     1
 40
1.0
176
     1
 90
        1
176
     1
 90
        6
176
     1
 90
        2
176
     1
 62
     7
176
     1
 90
        3
176
     1
 90
        0
176
     1
 90
        0
176
     1
290
     0
176
     1
 90
        1
176
     1
 40
0.0
176
     1
 90
        0
176
     1
290
     0
176
     1
290
     1
176
     1
290
     1
176
     1
290
     0
176
     1
290
     0
176
     1
290
     0
176
     1
290
     0
176
     1
290
     0
176
     1
290
     0
176
     1
 90
       50
176
     1
 40
0.0
176
     1
 40
1.0
176
     1
 90
        0
176
     1
 62
    18
420
        0
176
     1
 90
       50
176
     1
 90
        3
176
     1
 62
     5
420
      255
176
     1
290
     0
176
     1
 90
       50
176
     1
 90
       50
176
     1
 90
       50
176
     1
290
     0
176
     1
 90
       50
176
     1
 62
   256
176
     0
 40
1.0
176
     0
 90
        2
176
     1
  1
strokes_ogs.tif
176
     1
290
     0
176
     1
 40
1.0
176
     1
 40
1.0
176
     1
  0
VISUALSTYLE
  5
40
102
{ACAD_REACTORS
330
2A
102
}
330
2A
100
AcDbVisualStyle
  2
X-Ray
 70
    25
177
     3
291
     0
 70
    58
 90
        2
176
     1
 90
        2
176
     1
 90
        1
176
     1
 90
        1
176
     1
 40
0.5
176
     1
 40
30.0
176
     1
 62
     7
420
 16777215
176
     1
 90
        1
176
     1
 90
        0
176
     1
 62
     7
176
     1
 62
   257
176
     1
 90
        1
176
     1
 90
        1
176
     1
 40
1.0
176
     1
 90
        8
176
     1
 62
     7
176
     1
 40
1.0
176
     1
 90
        1
176
     1
 90
        6
176
     1
 90
        2
176
     1
 62
     7
176
     1
 90
        3
176
     1
 90
        0
176
     1
 90
        0
176
     1
290
     0
176
     1
 90
       13
176
     1
 40
0.0
176
     1
 90
        0
176
     1
290
     0
176
     1
290
     1
176
     1
290
     1
176
     1
290
     0
176
     1
290
     0
176
     1
290
     0
176
     1
290
     0
176
     1
290
     0
176
     1
290
     0
176
     1
 90
       50
176
     1
 40
0.0
176
     1
 40
1.0
176
     1
 90
        0
176
     1
 62
    18
420
        0
176
     1
 90
       50
176
     1
 90
        3
176
     1
 62
     5
420
      255
176
     1
290
     0
176
     1
 90
       50
176
     1
 90
       50
176
     1
 90
       50
176
     1
290
     0
176
     1
 90
       50
176
     1
 62
   256
176
     0
 40
1.0
176
     0
 90
        2
176
     1
  1
strokes_ogs.tif
176
     1
290
     0
176
     1
 40
1.0
176
     1
 40
1.0
176
     1
  0
DICTIONARYVAR
  5
18B
102
{ACAD_REACTORS
330
18A
102
}
330
18A
100
DictionaryVariables
280
     0
  1
1:1
  0
DICTIONARYVAR
  5
190
102
{ACAD_REACTORS
330
18A
102
}
330
18A
100
DictionaryVariables
280
     0
  1
Standard
  0
DICTIONARYVAR
  5
18F
102
{ACAD_REACTORS
330
18A
102
}
330
18A
100
DictionaryVariables
280
     0
  1
Standard
  0
DICTIONARY
  5
18C
330
6A
100
AcDbDictionary
280
     1
281
     1
  3
ACAD_ROUNDTRIP_2008_TABLESTYLE_CELLSTYLEMAP
360
18D
  0
CELLSTYLEMAP
  5
18D
102
{ACAD_REACTORS
330
18C
102
}
330
18C
100
AcDbCellStyleMap
 90
        3
300
CELLSTYLE
  1
TABLEFORMAT_BEGIN
 90
        5
170
     1
 91
        0
 92
    32768
 62
   257
 93
        1
300
CONTENTFORMAT
  1
CONTENTFORMAT_BEGIN
 90
        0
 91
        0
 92
        4
 93
        0
300

 40
0.0
140
1.0
 94
        5
 62
     0
340
11
144
0.25
309
CONTENTFORMAT_END
171
     1
301
MARGIN
  1
CELLMARGIN_BEGIN
 40
0.06
 40
0.06
 40
0.06
 40
0.06
 40
0.06
 40
0.06
309
CELLMARGIN_END
 94
        6
 95
        1
302
GRIDFORMAT
  1
GRIDFORMAT_BEGIN
 90
        0
 91
        1
 62
     0
 92
       -2
340
14
 93
        0
 40
0.045
309
GRIDFORMAT_END
 95
        2
302
GRIDFORMAT
  1
GRIDFORMAT_BEGIN
 90
        0
 91
        1
 62
     0
 92
       -2
340
14
 93
        0
 40
0.045
309
GRIDFORMAT_END
 95
        4
302
GRIDFORMAT
  1
GRIDFORMAT_BEGIN
 90
        0
 91
        1
 62
     0
 92
       -2
340
14
 93
        0
 40
0.045
309
GRIDFORMAT_END
 95
        8
302
GRIDFORMAT
  1
GRIDFORMAT_BEGIN
 90
        0
 91
        1
 62
     0
 92
       -2
340
14
 93
        0
 40
0.045
309
GRIDFORMAT_END
 95
       16
302
GRIDFORMAT
  1
GRIDFORMAT_BEGIN
 90
        0
 91
        1
 62
     0
 92
       -2
340
14
 93
        0
 40
0.045
309
GRIDFORMAT_END
 95
       32
302
GRIDFORMAT
  1
GRIDFORMAT_BEGIN
 90
        0
 91
        1
 62
     0
 92
       -2
340
14
 93
        0
 40
0.045
309
GRIDFORMAT_END
309
TABLEFORMAT_END
  1
CELLSTYLE_BEGIN
 90
        1
 91
        1
300
_TITLE
309
CELLSTYLE_END
300
CELLSTYLE
  1
TABLEFORMAT_BEGIN
 90
        5
170
     1
 91
        0
 92
        0
 62
   257
 93
        1
300
CONTENTFORMAT
  1
CONTENTFORMAT_BEGIN
 90
        0
 91
        0
 92
        4
 93
        0
300

 40
0.0
140
1.0
 94
        5
 62
     0
340
11
144
0.18
309
CONTENTFORMAT_END
171
     1
301
MARGIN
  1
CELLMARGIN_BEGIN
 40
0.06
 40
0.06
 40
0.06
 40
0.06
 40
0.06
 40
0.06
309
CELLMARGIN_END
 94
        6
 95
        1
302
GRIDFORMAT
  1
GRIDFORMAT_BEGIN
 90
        0
 91
        1
 62
     0
 92
       -2
340
14
 93
        0
 40
0.045
309
GRIDFORMAT_END
 95
        2
302
GRIDFORMAT
  1
GRIDFORMAT_BEGIN
 90
        0
 91
        1
 62
     0
 92
       -2
340
14
 93
        0
 40
0.045
309
GRIDFORMAT_END
 95
        4
302
GRIDFORMAT
  1
GRIDFORMAT_BEGIN
 90
        0
 91
        1
 62
     0
 92
       -2
340
14
 93
        0
 40
0.045
309
GRIDFORMAT_END
 95
        8
302
GRIDFORMAT
  1
GRIDFORMAT_BEGIN
 90
        0
 91
        1
 62
     0
 92
       -2
340
14
 93
        0
 40
0.045
309
GRIDFORMAT_END
 95
       16
302
GRIDFORMAT
  1
GRIDFORMAT_BEGIN
 90
        0
 91
        1
 62
     0
 92
       -2
340
14
 93
        0
 40
0.045
309
GRIDFORMAT_END
 95
       32
302
GRIDFORMAT
  1
GRIDFORMAT_BEGIN
 90
        0
 91
        1
 62
     0
 92
       -2
340
14
 93
        0
 40
0.045
309
GRIDFORMAT_END
309
TABLEFORMAT_END
  1
CELLSTYLE_BEGIN
 90
        2
 91
        1
300
_HEADER
309
CELLSTYLE_END
300
CELLSTYLE
  1
TABLEFORMAT_BEGIN
 90
        5
170
     1
 91
        0
 92
        0
 62
   257
 93
        1
300
CONTENTFORMAT
  1
CONTENTFORMAT_BEGIN
 90
        0
 91
        0
 92
        4
 93
        0
300

 40
0.0
140
1.0
 94
        2
 62
     0
340
11
144
0.18
309
CONTENTFORMAT_END
171
     1
301
MARGIN
  1
CELLMARGIN_BEGIN
 40
0.06
 40
0.06
 40
0.06
 40
0.06
 40
0.06
 40
0.06
309
CELLMARGIN_END
 94
        6
 95
        1
302
GRIDFORMAT
  1
GRIDFORMAT_BEGIN
 90
        0
 91
        1
 62
     0
 92
       -2
340
14
 93
        0
 40
0.045
309
GRIDFORMAT_END
 95
        2
302
GRIDFORMAT
  1
GRIDFORMAT_BEGIN
 90
        0
 91
        1
 62
     0
 92
       -2
340
14
 93
        0
 40
0.045
309
GRIDFORMAT_END
 95
        4
302
GRIDFORMAT
  1
GRIDFORMAT_BEGIN
 90
        0
 91
        1
 62
     0
 92
       -2
340
14
 93
        0
 40
0.045
309
GRIDFORMAT_END
 95
        8
302
GRIDFORMAT
  1
GRIDFORMAT_BEGIN
 90
        0
 91
        1
 62
     0
 92
       -2
340
14
 93
        0
 40
0.045
309
GRIDFORMAT_END
 95
       16
302
GRIDFORMAT
  1
GRIDFORMAT_BEGIN
 90
        0
 91
        1
 62
     0
 92
       -2
340
14
 93
        0
 40
0.045
309
GRIDFORMAT_END
 95
       32
302
GRIDFORMAT
  1
GRIDFORMAT_BEGIN
 90
        0
 91
        1
 62
     0
 92
       -2
340
14
 93
        0
 40
0.045
309
GRIDFORMAT_END
309
TABLEFORMAT_END
  1
CELLSTYLE_BEGIN
 90
        3
 91
        2
300
_DATA
309
CELLSTYLE_END
  0
ENDSEC
  0
EOF