0
SECTION
  2
HEADER
  9
$ACADVER
  1
AC1027
  9
$ACADMAINTVER
 70
     8
  9
$DWGCODEPAGE
  3
ANSI_1252
  9
$REQUIREDVERSIONS
160
                 0
  9
$COMMENTS
  1
File was created by Cadenas
  9
$CUSTOMPROPERTYTAG
  1
NN
  9
$CUSTOMPROPERTY
  1
Set Screw Flange Bracket Inch Bore
  9
$CUSTOMPROPERTYTAG
  1
NT
  9
$CUSTOMPROPERTY
  1
SC 3 Bolt Flange Bearings -(Normal Duty)
  9
$CUSTOMPROPERTYTAG
  1
NB
  9
$CUSTOMPROPERTY
  1
124443
  9
$CUSTOMPROPERTYTAG
  1
NBSYN
  9
$CUSTOMPROPERTY
  1
$PN.
  9
$CUSTOMPROPERTYTAG
  1
LINA
  9
$CUSTOMPROPERTY
  1
124443
  9
$CUSTOMPROPERTYTAG
  1
SERIES
  9
$CUSTOMPROPERTY
  1
206
  9
$CUSTOMPROPERTYTAG
  1
SS
  9
$CUSTOMPROPERTY
  1
1-3/16
  9
$CUSTOMPROPERTYTAG
  1
PN
  9
$CUSTOMPROPERTY
  1
124443
  9
$CUSTOMPROPERTYTAG
  1
DESCRIPTION
  9
$CUSTOMPROPERTY
  1
FB-SC-103
  9
$CUSTOMPROPERTYTAG
  1
WEIGHT
  9
$CUSTOMPROPERTY
  1
2.05
  9
$CUSTOMPROPERTYTAG
  1
A
  9
$CUSTOMPROPERTY
  1
1.52
  9
$CUSTOMPROPERTYTAG
  1
B
  9
$CUSTOMPROPERTY
  1
5.38
  9
$CUSTOMPROPERTYTAG
  1
C
  9
$CUSTOMPROPERTY
  1
1.65
  9
$CUSTOMPROPERTYTAG
  1
D
  9
$CUSTOMPROPERTY
  1
1.88
  9
$CUSTOMPROPERTYTAG
  1
E
  9
$CUSTOMPROPERTY
  1
2.06
  9
$CUSTOMPROPERTYTAG
  1
F
  9
$CUSTOMPROPERTY
  1
3/8
  9
$CUSTOMPROPERTYTAG
  1
G
  9
$CUSTOMPROPERTY
  1
1.25
  9
$CUSTOMPROPERTYTAG
  1
H
  9
$CUSTOMPROPERTY
  1
0.38
  9
$CUSTOMPROPERTYTAG
  1
I
  9
$CUSTOMPROPERTY
  1
3.75
  9
$CUSTOMPROPERTYTAG
  1
J
  9
$CUSTOMPROPERTY
  1
3.25
  9
$CUSTOMPROPERTYTAG
  1
K
  9
$CUSTOMPROPERTY
  1
1.13
  9
$CUSTOMPROPERTYTAG
  1
L
  9
$CUSTOMPROPERTY
  1
1.57
  9
$CUSTOMPROPERTYTAG
  1
M
  9
$CUSTOMPROPERTY
  1
2.75
  9
$CUSTOMPROPERTYTAG
  1
COMPANY
  9
$CUSTOMPROPERTY
  1
baldor
  9
$INSBASE
 10
0.0
 20
0.0
 30
0.0
  9
$EXTMIN
 10
1.000000000000000E+20
 20
1.000000000000000E+20
 30
1.000000000000000E+20
  9
$EXTMAX
 10
-1.000000000000000E+20
 20
-1.000000000000000E+20
 30
-1.000000000000000E+20
  9
$LIMMIN
 10
0.0
 20
0.0
  9
$LIMMAX
 10
12.0
 20
9.0
  9
$ORTHOMODE
 70
     0
  9
$REGENMODE
 70
     1
  9
$FILLMODE
 70
     1
  9
$QTEXTMODE
 70
     0
  9
$MIRRTEXT
 70
     1
  9
$LTSCALE
 40
1.0
  9
$ATTMODE
 70
     1
  9
$TEXTSIZE
 40
0.2
  9
$TRACEWID
 40
0.05
  9
$TEXTSTYLE
  7
Standard
  9
$CLAYER
  8
0
  9
$CELTYPE
  6
ByLayer
  9
$CECOLOR
 62
   256
  9
$CELTSCALE
 40
1.0
  9
$DISPSILH
 70
     0
  9
$DIMSCALE
 40
1.0
  9
$DIMASZ
 40
0.18
  9
$DIMEXO
 40
0.0625
  9
$DIMDLI
 40
0.38
  9
$DIMRND
 40
0.0
  9
$DIMDLE
 40
0.0
  9
$DIMEXE
 40
0.18
  9
$DIMTP
 40
0.0
  9
$DIMTM
 40
0.0
  9
$DIMTXT
 40
0.18
  9
$DIMCEN
 40
0.09
  9
$DIMTSZ
 40
0.0
  9
$DIMTOL
 70
     0
  9
$DIMLIM
 70
     0
  9
$DIMTIH
 70
     1
  9
$DIMTOH
 70
     1
  9
$DIMSE1
 70
     0
  9
$DIMSE2
 70
     0
  9
$DIMTAD
 70
     0
  9
$DIMZIN
 70
     0
  9
$DIMBLK
  1

  9
$DIMASO
 70
     1
  9
$DIMSHO
 70
     1
  9
$DIMPOST
  1

  9
$DIMAPOST
  1

  9
$DIMALT
 70
     0
  9
$DIMALTD
 70
     2
  9
$DIMALTF
 40
25.4
  9
$DIMLFAC
 40
1.0
  9
$DIMTOFL
 70
     0
  9
$DIMTVP
 40
0.0
  9
$DIMTIX
 70
     0
  9
$DIMSOXD
 70
     0
  9
$DIMSAH
 70
     0
  9
$DIMBLK1
  1

  9
$DIMBLK2
  1

  9
$DIMSTYLE
  2
Standard
  9
$DIMCLRD
 70
     0
  9
$DIMCLRE
 70
     0
  9
$DIMCLRT
 70
     0
  9
$DIMTFAC
 40
1.0
  9
$DIMGAP
 40
0.09
  9
$DIMJUST
 70
     0
  9
$DIMSD1
 70
     0
  9
$DIMSD2
 70
     0
  9
$DIMTOLJ
 70
     1
  9
$DIMTZIN
 70
     0
  9
$DIMALTZ
 70
     0
  9
$DIMALTTZ
 70
     0
  9
$DIMUPT
 70
     0
  9
$DIMDEC
 70
     4
  9
$DIMTDEC
 70
     4
  9
$DIMALTU
 70
     2
  9
$DIMALTTD
 70
     2
  9
$DIMTXSTY
  7
Standard
  9
$DIMAUNIT
 70
     0
  9
$DIMADEC
 70
     0
  9
$DIMALTRND
 40
0.0
  9
$DIMAZIN
 70
     0
  9
$DIMDSEP
 70
    46
  9
$DIMATFIT
 70
     3
  9
$DIMFRAC
 70
     0
  9
$DIMLDRBLK
  1

  9
$DIMLUNIT
 70
     2
  9
$DIMLWD
 70
    -2
  9
$DIMLWE
 70
    -2
  9
$DIMTMOVE
 70
     0
  9
$DIMFXL
 40
1.0
  9
$DIMFXLON
 70
     0
  9
$DIMJOGANG
 40
0.7853981633974483
  9
$DIMTFILL
 70
     0
  9
$DIMTFILLCLR
 70
     0
  9
$DIMARCSYM
 70
     0
  9
$DIMLTYPE
  6

  9
$DIMLTEX1
  6

  9
$DIMLTEX2
  6

  9
$DIMTXTDIRECTION
 70
     0
  9
$LUNITS
 70
     2
  9
$LUPREC
 70
     4
  9
$SKETCHINC
 40
0.1
  9
$FILLETRAD
 40
0.5
  9
$AUNITS
 70
     0
  9
$AUPREC
 70
     0
  9
$MENU
  1
.
  9
$ELEVATION
 40
0.0
  9
$PELEVATION
 40
0.0
  9
$THICKNESS
 40
0.0
  9
$LIMCHECK
 70
     0
  9
$CHAMFERA
 40
0.0
  9
$CHAMFERB
 40
0.0
  9
$CHAMFERC
 40
0.0
  9
$CHAMFERD
 40
0.0
  9
$SKPOLY
 70
     0
  9
$TDCREATE
 40
2458169.004441991
  9
$TDUCREATE
 40
2458168.962775324
  9
$TDUPDATE
 40
2458169.004442164
  9
$TDUUPDATE
 40
2458168.962775498
  9
$TDINDWG
 40
0.0000000116
  9
$TDUSRTIMER
 40
0.0000000116
  9
$USRTIMER
 70
     1
  9
$ANGBASE
 50
0.0
  9
$ANGDIR
 70
     0
  9
$PDMODE
 70
     0
  9
$PDSIZE
 40
0.0
  9
$PLINEWID
 40
0.0
  9
$SPLFRAME
 70
     0
  9
$SPLINETYPE
 70
     6
  9
$SPLINESEGS
 70
     8
  9
$HANDSEED
  5
17F
  9
$SURFTAB1
 70
     6
  9
$SURFTAB2
 70
     6
  9
$SURFTYPE
 70
     6
  9
$SURFU
 70
     6
  9
$SURFV
 70
     6
  9
$UCSBASE
  2

  9
$UCSNAME
  2

  9
$UCSORG
 10
0.0
 20
0.0
 30
0.0
  9
$UCSXDIR
 10
1.0
 20
0.0
 30
0.0
  9
$UCSYDIR
 10
0.0
 20
1.0
 30
0.0
  9
$UCSORTHOREF
  2

  9
$UCSORTHOVIEW
 70
     0
  9
$UCSORGTOP
 10
0.0
 20
0.0
 30
0.0
  9
$UCSORGBOTTOM
 10
0.0
 20
0.0
 30
0.0
  9
$UCSORGLEFT
 10
0.0
 20
0.0
 30
0.0
  9
$UCSORGRIGHT
 10
0.0
 20
0.0
 30
0.0
  9
$UCSORGFRONT
 10
0.0
 20
0.0
 30
0.0
  9
$UCSORGBACK
 10
0.0
 20
0.0
 30
0.0
  9
$PUCSBASE
  2

  9
$PUCSNAME
  2

  9
$PUCSORG
 10
0.0
 20
0.0
 30
0.0
  9
$PUCSXDIR
 10
1.0
 20
0.0
 30
0.0
  9
$PUCSYDIR
 10
0.0
 20
1.0
 30
0.0
  9
$PUCSORTHOREF
  2

  9
$PUCSORTHOVIEW
 70
     0
  9
$PUCSORGTOP
 10
0.0
 20
0.0
 30
0.0
  9
$PUCSORGBOTTOM
 10
0.0
 20
0.0
 30
0.0
  9
$PUCSORGLEFT
 10
0.0
 20
0.0
 30
0.0
  9
$PUCSORGRIGHT
 10
0.0
 20
0.0
 30
0.0
  9
$PUCSORGFRONT
 10
0.0
 20
0.0
 30
0.0
  9
$PUCSORGBACK
 10
0.0
 20
0.0
 30
0.0
  9
$USERI1
 70
     0
  9
$USERI2
 70
     0
  9
$USERI3
 70
     0
  9
$USERI4
 70
     0
  9
$USERI5
 70
     0
  9
$USERR1
 40
0.0
  9
$USERR2
 40
0.0
  9
$USERR3
 40
0.0
  9
$USERR4
 40
0.0
  9
$USERR5
 40
0.0
  9
$WORLDVIEW
 70
     1
  9
$SHADEDGE
 70
     3
  9
$SHADEDIF
 70
    70
  9
$TILEMODE
 70
     1
  9
$MAXACTVP
 70
    64
  9
$PINSBASE
 10
0.0
 20
0.0
 30
0.0
  9
$PLIMCHECK
 70
     0
  9
$PEXTMIN
 10
1.000000000000000E+20
 20
1.000000000000000E+20
 30
1.000000000000000E+20
  9
$PEXTMAX
 10
-1.000000000000000E+20
 20
-1.000000000000000E+20
 30
-1.000000000000000E+20
  9
$PLIMMIN
 10
0.0
 20
0.0
  9
$PLIMMAX
 10
12.0
 20
9.0
  9
$UNITMODE
 70
     0
  9
$VISRETAIN
 70
     1
  9
$PLINEGEN
 70
     0
  9
$PSLTSCALE
 70
     1
  9
$TREEDEPTH
 70
  3020
  9
$CMLSTYLE
  2
Standard
  9
$CMLJUST
 70
     0
  9
$CMLSCALE
 40
1.0
  9
$PROXYGRAPHICS
 70
     1
  9
$MEASUREMENT
 70
     0
  9
$CELWEIGHT
370
    -1
  9
$ENDCAPS
280
     0
  9
$JOINSTYLE
280
     0
  9
$LWDISPLAY
290
     0
  9
$INSUNITS
 70
     1
  9
$HYPERLINKBASE
  1

  9
$STYLESHEET
  1

  9
$XEDIT
290
     1
  9
$CEPSNTYPE
380
     0
  9
$PSTYLEMODE
290
     1
  9
$FINGERPRINTGUID
  2
{005D28BE-7353-4E80-B232-D4327C76F43E}
  9
$VERSIONGUID
  2
{FAEB1C32-E019-11D5-929B-00C0DF256EC4}
  9
$EXTNAMES
290
     1
  9
$PSVPSCALE
 40
0.0
  9
$OLESTARTUP
290
     0
  9
$SORTENTS
280
   127
  9
$INDEXCTL
280
     0
  9
$HIDETEXT
280
     1
  9
$XCLIPFRAME
280
     2
  9
$HALOGAP
280
     0
  9
$OBSCOLOR
 70
   257
  9
$OBSLTYPE
280
     0
  9
$INTERSECTIONDISPLAY
280
     0
  9
$INTERSECTIONCOLOR
 70
   257
  9
$DIMASSOC
280
     2
  9
$PROJECTNAME
  1

  9
$CAMERADISPLAY
290
     0
  9
$LENSLENGTH
 40
50.0
  9
$CAMERAHEIGHT
 40
0.0
  9
$STEPSPERSEC
 40
2.0
  9
$STEPSIZE
 40
6.0
  9
$3DDWFPREC
 40
2.0
  9
$PSOLWIDTH
 40
0.25
  9
$PSOLHEIGHT
 40
4.0
  9
$LOFTANG1
 40
1.570796326794897
  9
$LOFTANG2
 40
1.570796326794897
  9
$LOFTMAG1
 40
0.0
  9
$LOFTMAG2
 40
0.0
  9
$LOFTPARAM
 70
     7
  9
$LOFTNORMALS
280
     1
  9
$LATITUDE
 40
37.795
  9
$LONGITUDE
 40
-122.394
  9
$NORTHDIRECTION
 40
0.0
  9
$TIMEZONE
 70
 -8000
  9
$LIGHTGLYPHDISPLAY
280
     1
  9
$TILEMODELIGHTSYNCH
280
     1
  9
$CMATERIAL
347
44
  9
$SOLIDHIST
280
     0
  9
$SHOWHIST
280
     1
  9
$DWFFRAME
280
     2
  9
$DGNFRAME
280
     2
  9
$REALWORLDSCALE
290
     1
  9
$INTERFERECOLOR
 62
   256
  9
$CSHADOW
280
     0
  9
$SHADOWPLANELOCATION
 40
0.0
  0
ENDSEC
  0
SECTION
  2
CLASSES
  0
CLASS
  1
ACDBDICTIONARYWDFLT
  2
AcDbDictionaryWithDefault
  3
ObjectDBX Classes
 90
        0
 91
        4
280
     0
281
     0
  0
CLASS
  1
VISUALSTYLE
  2
AcDbVisualStyle
  3
ObjectDBX Classes
 90
     4095
 91
        4
280
     0
281
     0
  0
CLASS
  1
MATERIAL
  2
AcDbMaterial
  3
ObjectDBX Classes
 90
     1153
 91
        4
280
     0
281
     0
  0
CLASS
  1
SCALE
  2
AcDbScale
  3
ObjectDBX Classes
 90
     1153
 91
        4
280
     0
281
     0
  0
CLASS
  1
TABLESTYLE
  2
AcDbTableStyle
  3
ObjectDBX Classes
 90
     4095
 91
        4
280
     0
281
     0
  0
CLASS
  1
MLEADERSTYLE
  2
AcDbMLeaderStyle
  3
ACDB_MLEADERSTYLE_CLASS
 90
     4095
 91
        4
280
     0
281
     0
  0
CLASS
  1
SUN
  2
AcDbSun
  3
SCENEOE
 90
     1153
 91
        4
280
     0
281
     0
  0
CLASS
  1
DICTIONARYVAR
  2
AcDbDictionaryVar
  3
ObjectDBX Classes
 90
        0
 91
        4
280
     0
281
     0
  0
CLASS
  1
CELLSTYLEMAP
  2
AcDbCellStyleMap
  3
ObjectDBX Classes
 90
     1152
 91
        4
280
     0
281
     0
  0
ENDSEC
  0
SECTION
  2
TABLES
  0
TABLE
  2
VPORT
  5
8
330
0
100
AcDbSymbolTable
 70
     1
  0
VPORT
  5
29
330
8
100
AcDbSymbolTableRecord
100
AcDbViewportTableRecord
  2
*Active
 70
     0
 10
0.0
 20
0.0
 11
1.0
 21
1.0
 12
-0.8347499999999997
 22
-1.0625
 13
0.0
 23
0.0
 14
0.5
 24
0.5
 15
0.5
 25
0.5
 16
0.0
 26
0.0
 36
1.0
 17
0.0
 27
0.0
 37
0.0
 40
5.4825
 41
0.331627906976744
 42
50.0
 43
0.0
 44
0.0
 50
0.0
 51
0.0
 71
     0
 72
   100
 73
     1
 74
     3
 75
     0
 76
     0
 77
     0
 78
     0
281
     0
 65
     1
110
0.0
120
0.0
130
0.0
111
1.0
121
0.0
131
0.0
112
0.0
122
1.0
132
0.0
 79
     0
146
0.0
348
2F
 60
     3
 61
     5
292
     1
282
     1
141
0.0
142
0.0
 63
   250
361
6D
  0
ENDTAB
  0
TABLE
  2
LTYPE
  5
5
330
0
100
AcDbSymbolTable
 70
     3
  0
LTYPE
  5
14
330
5
100
AcDbSymbolTableRecord
100
AcDbLinetypeTableRecord
  2
ByBlock
 70
     0
  3

 72
    65
 73
     0
 40
0.0
  0
LTYPE
  5
15
330
5
100
AcDbSymbolTableRecord
100
AcDbLinetypeTableRecord
  2
ByLayer
 70
     0
  3

 72
    65
 73
     0
 40
0.0
  0
LTYPE
  5
16
330
5
100
AcDbSymbolTableRecord
100
AcDbLinetypeTableRecord
  2
Continuous
 70
     0
  3
Solid line
 72
    65
 73
     0
 40
0.0
  0
LTYPE
  5
A1
330
5
100
AcDbSymbolTableRecord
100
AcDbLinetypeTableRecord
  2
Dashed
 70
     0
  3

 72
    65
 73
     2
 40
2.0
 49
1.0
 74
     0
 49
-1.0
 74
     0
  0
LTYPE
  5
DB
330
5
100
AcDbSymbolTableRecord
100
AcDbLinetypeTableRecord
  2
Center
 70
     0
  3

 72
    65
 73
     4
 40
1.5
 49
0.45
 74
     0
 49
-0.5
 74
     0
 49
0.05
 74
     0
 49
-0.5
 74
     0
  0
ENDTAB
  0
TABLE
  2
LAYER
  5
2
330
0
100
AcDbSymbolTable
 70
     7
  0
LAYER
  5
10
330
2
100
AcDbSymbolTableRecord
100
AcDbLayerTableRecord
  2
0
 70
     0
 62
     7
  6
Continuous
370
    -3
390
F
347
46
348
0
  0
LAYER
  5
72
330
2
100
AcDbSymbolTableRecord
100
AcDbLayerTableRecord
  2
AM_6
 70
     0
 62
    -2
  6
Continuous
370
    35
390
F
347
46
348
0
  0
LAYER
  5
A2
330
2
100
AcDbSymbolTableRecord
100
AcDbLayerTableRecord
  2
AM_9
 70
     0
 62
     6
  6
Dashed
370
    25
390
F
347
46
348
0
  0
LAYER
  5
D8
330
2
100
AcDbSymbolTableRecord
100
AcDbLayerTableRecord
  2
AM_5
 70
     0
 62
     3
  6
Continuous
370
    25
390
F
347
46
348
0
  0
LAYER
  5
DC
330
2
100
AcDbSymbolTableRecord
100
AcDbLayerTableRecord
  2
AM_7
 70
     0
 62
     7
  6
Center
370
    25
390
F
347
46
348
0
  0
LAYER
  5
DF
330
2
100
AcDbSymbolTableRecord
100
AcDbLayerTableRecord
  2
AM_4
 70
     0
 62
     7
  6
Continuous
370
    50
390
F
347
46
348
0
  0
LAYER
  5
172
330
2
100
AcDbSymbolTableRecord
100
AcDbLayerTableRecord
  2
ConnectionPoints
 70
     0
 62
     7
  6
Continuous
370
    50
390
F
347
46
348
0
  0
ENDTAB
  0
TABLE
  2
STYLE
  5
3
330
0
100
AcDbSymbolTable
 70
     1
  0
STYLE
  5
11
330
3
100
AcDbSymbolTableRecord
100
AcDbTextStyleTableRecord
  2
Standard
 70
     0
 40
0.0
 41
1.0
 50
0.0
 71
     0
 42
0.2
  3
txt
  4

  0
ENDTAB
  0
TABLE
  2
VIEW
  5
6
330
0
100
AcDbSymbolTable
 70
     0
  0
ENDTAB
  0
TABLE
  2
UCS
  5
7
330
0
100
AcDbSymbolTable
 70
     0
  0
ENDTAB
  0
TABLE
  2
APPID
  5
9
330
0
100
AcDbSymbolTable
 70
     1
  0
APPID
  5
12
330
9
100
AcDbSymbolTableRecord
100
AcDbRegAppTableRecord
  2
ACAD
 70
     0
  0
ENDTAB
  0
TABLE
  2
DIMSTYLE
  5
A
330
0
100
AcDbSymbolTable
 70
     1
100
AcDbDimStyleTable
  0
DIMSTYLE
105
27
330
A
100
AcDbSymbolTableRecord
100
AcDbDimStyleTableRecord
  2
Standard
 70
     0
178
     0
340
11
  0
ENDTAB
  0
TABLE
  2
BLOCK_RECORD
  5
1
330
0
100
AcDbSymbolTable
 70
     5
  0
BLOCK_RECORD
  5
1F
330
1
100
AcDbSymbolTableRecord
100
AcDbBlockTableRecord
  2
*Model_Space
340
22
 70
     0
280
     1
281
     0
  0
BLOCK_RECORD
  5
1B
330
1
100
AcDbSymbolTableRecord
100
AcDbBlockTableRecord
  2
*Paper_Space
340
1E
 70
     0
280
     1
281
     0
  0
BLOCK_RECORD
  5
23
330
1
100
AcDbSymbolTableRecord
100
AcDbBlockTableRecord
  2
*Paper_Space0
340
26
 70
     0
280
     1
281
     0
  0
BLOCK_RECORD
  5
6E
330
1
100
AcDbSymbolTableRecord
100
AcDbBlockTableRecord
  2
1_124443_2
340
0
102
{BLKREFS
331
6F
102
}
 70
     0
280
     1
281
     0
  0
BLOCK_RECORD
  5
8B
330
1
100
AcDbSymbolTableRecord
100
AcDbBlockTableRecord
  2
2_123338_0_in_124443_2
340
0
102
{BLKREFS
331
8C
102
}
 70
     0
280
     1
281
     0
  0
BLOCK_RECORD
  5
ED
330
1
100
AcDbSymbolTableRecord
100
AcDbBlockTableRecord
  2
3_405015E_Inch_0_in_124443_2
340
0
102
{BLKREFS
331
EE
102
}
 70
     0
280
     1
281
     0
  0
BLOCK_RECORD
  5
131
330
1
100
AcDbSymbolTableRecord
100
AcDbBlockTableRecord
  2
4_124443H_0_in_124443_2
340
0
102
{BLKREFS
331
132
102
}
 70
     0
280
     1
281
     0
  0
ENDTAB
  0
ENDSEC
  0
SECTION
  2
BLOCKS
  0
BLOCK
  5
20
330
1F
100
AcDbEntity
  8
0
100
AcDbBlockBegin
  2
*Model_Space
 70
     0
 10
0.0
 20
0.0
 30
0.0
  3
*Model_Space
  1

  0
ENDBLK
  5
21
330
1F
100
AcDbEntity
  8
0
100
AcDbBlockEnd
  0
BLOCK
  5
1C
330
1B
100
AcDbEntity
 67
     1
  8
0
100
AcDbBlockBegin
  2
*Paper_Space
 70
     0
 10
0.0
 20
0.0
 30
0.0
  3
*Paper_Space
  1

  0
ENDBLK
  5
1D
330
1B
100
AcDbEntity
 67
     1
  8
0
100
AcDbBlockEnd
  0
BLOCK
  5
24
330
23
100
AcDbEntity
  8
0
100
AcDbBlockBegin
  2
*Paper_Space0
 70
     0
 10
0.0
 20
0.0
 30
0.0
  3
*Paper_Space0
  1

  0
ENDBLK
  5
25
330
23
100
AcDbEntity
  8
0
100
AcDbBlockEnd
  0
BLOCK
  5
70
330
6E
100
AcDbEntity
  8
0
100
AcDbBlockBegin
  2
1_124443_2
 70
     2
 10
0.0
 20
0.0
 30
0.0
  3
1_124443_2
  1

  0
ATTDEF
  5
73
330
6E
100
AcDbEntity
  8
AM_6
100
AcDbText
 10
5.0565
 20
1.625
 30
0.0
 40
0.5
  1
Set Screw Flange Bracket Inch Bore
100
AcDbAttributeDefinition
  3

  2
NN
 70
     8
280
     0
  0
ATTDEF
  5
74
330
6E
100
AcDbEntity
  8
AM_6
100
AcDbText
 10
5.0565
 20
1.125
 30
0.0
 40
0.5
  1
SC 3 Bolt Flange Bearings -(Normal Duty)
100
AcDbAttributeDefinition
  3

  2
NT
 70
     8
280
     0
  0
ATTDEF
  5
75
330
6E
100
AcDbEntity
  8
AM_6
100
AcDbText
 10
5.0565
 20
0.625
 30
0.0
 40
0.5
  1
124443
100
AcDbAttributeDefinition
  3

  2
NB
 70
     8
280
     0
  0
ATTDEF
  5
76
330
6E
100
AcDbEntity
  8
AM_6
100
AcDbText
 10
5.0565
 20
0.125
 30
0.0
 40
0.5
  1
$PN.
100
AcDbAttributeDefinition
  3

  2
NBSYN
 70
     8
280
     0
  0
ATTDEF
  5
77
330
6E
100
AcDbEntity
  8
AM_6
100
AcDbText
 10
5.0565
 20
-0.375
 30
0.0
 40
0.5
  1
124443
100
AcDbAttributeDefinition
  3

  2
LINA
 70
     8
280
     0
  0
ATTDEF
  5
78
330
6E
100
AcDbEntity
  8
AM_6
100
AcDbText
 10
5.0565
 20
-0.875
 30
0.0
 40
0.5
  1
206
100
AcDbAttributeDefinition
  3

  2
SERIES
 70
     8
280
     0
  0
ATTDEF
  5
79
330
6E
100
AcDbEntity
  8
AM_6
100
AcDbText
 10
5.0565
 20
-1.375
 30
0.0
 40
0.5
  1
1-3/16
100
AcDbAttributeDefinition
  3

  2
SS
 70
     8
280
     0
  0
ATTDEF
  5
7A
330
6E
100
AcDbEntity
  8
AM_6
100
AcDbText
 10
5.0565
 20
-1.875
 30
0.0
 40
0.5
  1
124443
100
AcDbAttributeDefinition
  3

  2
PN
 70
     8
280
     0
  0
ATTDEF
  5
7B
330
6E
100
AcDbEntity
  8
AM_6
100
AcDbText
 10
5.0565
 20
-2.375
 30
0.0
 40
0.5
  1
FB-SC-103
100
AcDbAttributeDefinition
  3

  2
DESCRIPTION
 70
     8
280
     0
  0
ATTDEF
  5
7C
330
6E
100
AcDbEntity
  8
AM_6
100
AcDbText
 10
5.0565
 20
-2.875
 30
0.0
 40
0.5
  1
2.05
100
AcDbAttributeDefinition
  3

  2
WEIGHT
 70
     8
280
     0
  0
ATTDEF
  5
7D
330
6E
100
AcDbEntity
  8
AM_6
100
AcDbText
 10
5.0565
 20
-3.375
 30
0.0
 40
0.5
  1
1.52
100
AcDbAttributeDefinition
  3

  2
A
 70
     8
280
     0
  0
ATTDEF
  5
7E
330
6E
100
AcDbEntity
  8
AM_6
100
AcDbText
 10
5.0565
 20
-3.875
 30
0.0
 40
0.5
  1
5.38
100
AcDbAttributeDefinition
  3

  2
B
 70
     8
280
     0
  0
ATTDEF
  5
7F
330
6E
100
AcDbEntity
  8
AM_6
100
AcDbText
 10
5.0565
 20
-4.375
 30
0.0
 40
0.5
  1
1.65
100
AcDbAttributeDefinition
  3

  2
C
 70
     8
280
     0
  0
ATTDEF
  5
80
330
6E
100
AcDbEntity
  8
AM_6
100
AcDbText
 10
5.0565
 20
-4.875
 30
0.0
 40
0.5
  1
1.88
100
AcDbAttributeDefinition
  3

  2
D
 70
     8
280
     0
  0
ATTDEF
  5
81
330
6E
100
AcDbEntity
  8
AM_6
100
AcDbText
 10
5.0565
 20
-5.375
 30
0.0
 40
0.5
  1
2.06
100
AcDbAttributeDefinition
  3

  2
E
 70
     8
280
     0
  0
ATTDEF
  5
82
330
6E
100
AcDbEntity
  8
AM_6
100
AcDbText
 10
5.0565
 20
-5.875
 30
0.0
 40
0.5
  1
3/8
100
AcDbAttributeDefinition
  3

  2
F
 70
     8
280
     0
  0
ATTDEF
  5
83
330
6E
100
AcDbEntity
  8
AM_6
100
AcDbText
 10
5.0565
 20
-6.375
 30
0.0
 40
0.5
  1
1.25
100
AcDbAttributeDefinition
  3

  2
G
 70
     8
280
     0
  0
ATTDEF
  5
84
330
6E
100
AcDbEntity
  8
AM_6
100
AcDbText
 10
5.0565
 20
-6.875
 30
0.0
 40
0.5
  1
0.38
100
AcDbAttributeDefinition
  3

  2
H
 70
     8
280
     0
  0
ATTDEF
  5
85
330
6E
100
AcDbEntity
  8
AM_6
100
AcDbText
 10
5.0565
 20
-7.375
 30
0.0
 40
0.5
  1
3.75
100
AcDbAttributeDefinition
  3

  2
I
 70
     8
280
     0
  0
ATTDEF
  5
86
330
6E
100
AcDbEntity
  8
AM_6
100
AcDbText
 10
5.0565
 20
-7.875
 30
0.0
 40
0.5
  1
3.25
100
AcDbAttributeDefinition
  3

  2
J
 70
     8
280
     0
  0
ATTDEF
  5
87
330
6E
100
AcDbEntity
  8
AM_6
100
AcDbText
 10
5.0565
 20
-8.375
 30
0.0
 40
0.5
  1
1.13
100
AcDbAttributeDefinition
  3

  2
K
 70
     8
280
     0
  0
ATTDEF
  5
88
330
6E
100
AcDbEntity
  8
AM_6
100
AcDbText
 10
5.0565
 20
-8.875
 30
0.0
 40
0.5
  1
1.57
100
AcDbAttributeDefinition
  3

  2
L
 70
     8
280
     0
  0
ATTDEF
  5
89
330
6E
100
AcDbEntity
  8
AM_6
100
AcDbText
 10
5.0565
 20
-9.375
 30
0.0
 40
0.5
  1
2.75
100
AcDbAttributeDefinition
  3

  2
M
 70
     8
280
     0
  0
ATTDEF
  5
8A
330
6E
100
AcDbEntity
  8
AM_6
100
AcDbText
 10
5.0565
 20
-9.875
 30
0.0
 40
0.5
  1
baldor
100
AcDbAttributeDefinition
  3

  2
COMPANY
 70
     8
280
     0
  0
INSERT
  5
8C
330
6E
100
AcDbEntity
  8
0
100
AcDbBlockReference
  2
2_123338_0_in_124443_2
 10
0.0
 20
0.0
 30
0.0
  0
INSERT
  5
EE
330
6E
100
AcDbEntity
  8
0
100
AcDbBlockReference
  2
3_405015E_Inch_0_in_124443_2
 10
0.0
 20
0.0
 30
0.0
  0
INSERT
  5
132
330
6E
100
AcDbEntity
  8
0
100
AcDbBlockReference
  2
4_124443H_0_in_124443_2
 10
0.0
 20
0.0
 30
0.0
  0
ENDBLK
  5
71
330
6E
100
AcDbEntity
  8
0
100
AcDbBlockEnd
  0
BLOCK
  5
8D
330
8B
100
AcDbEntity
  8
0
100
AcDbBlockBegin
  2
2_123338_0_in_124443_2
 70
     2
 10
0.0
 20
0.0
 30
0.0
  3
2_123338_0_in_124443_2
  1

  0
ATTDEF
  5
8F
330
8B
100
AcDbEntity
  8
AM_6
100
AcDbText
 10
4.87
 20
1.219872827573648
 30
0.0
 40
0.5
  1
Set Screw Insert Inch Bore
100
AcDbAttributeDefinition
  3

  2
NN
 70
     8
280
     0
  0
ATTDEF
  5
90
330
8B
100
AcDbEntity
  8
AM_6
100
AcDbText
 10
4.87
 20
0.7198728275736481
 30
0.0
 40
0.5
  1
SC Normal Duty Bearing Inserts
100
AcDbAttributeDefinition
  3

  2
NT
 70
     8
280
     0
  0
ATTDEF
  5
91
330
8B
100
AcDbEntity
  8
AM_6
100
AcDbText
 10
4.87
 20
0.2198728275736481
 30
0.0
 40
0.5
  1
123338
100
AcDbAttributeDefinition
  3

  2
NB
 70
     8
280
     0
  0
ATTDEF
  5
92
330
8B
100
AcDbEntity
  8
AM_6
100
AcDbText
 10
4.87
 20
-0.2801271724263519
 30
0.0
 40
0.5
  1
$PN.
100
AcDbAttributeDefinition
  3

  2
NBSYN
 70
     8
280
     0
  0
ATTDEF
  5
93
330
8B
100
AcDbEntity
  8
AM_6
100
AcDbText
 10
4.87
 20
-0.7801271724263519
 30
0.0
 40
0.5
  1
123338
100
AcDbAttributeDefinition
  3

  2
LINA
 70
     8
280
     0
  0
ATTDEF
  5
94
330
8B
100
AcDbEntity
  8
AM_6
100
AcDbText
 10
4.87
 20
-1.280127172426352
 30
0.0
 40
0.5
  1
206
100
AcDbAttributeDefinition
  3

  2
SERIES
 70
     8
280
     0
  0
ATTDEF
  5
95
330
8B
100
AcDbEntity
  8
AM_6
100
AcDbText
 10
4.87
 20
-1.780127172426352
 30
0.0
 40
0.5
  1
1-3/16
100
AcDbAttributeDefinition
  3

  2
SS
 70
     8
280
     0
  0
ATTDEF
  5
96
330
8B
100
AcDbEntity
  8
AM_6
100
AcDbText
 10
4.87
 20
-2.280127172426352
 30
0.0
 40
0.5
  1
123338
100
AcDbAttributeDefinition
  3

  2
PN
 70
     8
280
     0
  0
ATTDEF
  5
97
330
8B
100
AcDbEntity
  8
AM_6
100
AcDbText
 10
4.87
 20
-2.780127172426352
 30
0.0
 40
0.5
  1
INS-SC-103
100
AcDbAttributeDefinition
  3

  2
DESCRIPTION
 70
     8
280
     0
  0
ATTDEF
  5
98
330
8B
100
AcDbEntity
  8
AM_6
100
AcDbText
 10
4.87
 20
-3.280127172426352
 30
0.0
 40
0.5
  1
1.52
100
AcDbAttributeDefinition
  3

  2
A
 70
     8
280
     0
  0
ATTDEF
  5
99
330
8B
100
AcDbEntity
  8
AM_6
100
AcDbText
 10
4.87
 20
-3.780127172426352
 30
0.0
 40
0.5
  1
0.69
100
AcDbAttributeDefinition
  3

  2
C
 70
     8
280
     0
  0
ATTDEF
  5
9A
330
8B
100
AcDbEntity
  8
AM_6
100
AcDbText
 10
4.87
 20
-4.280127172426352
 30
0.0
 40
0.5
  1
2.4409
100
AcDbAttributeDefinition
  3

  2
D
 70
     8
280
     0
  0
ATTDEF
  5
9B
330
8B
100
AcDbEntity
  8
AM_6
100
AcDbText
 10
4.87
 20
-4.780127172426352
 30
0.0
 40
0.5
  1
0.16
100
AcDbAttributeDefinition
  3

  2
J
 70
     8
280
     0
  0
ATTDEF
  5
9C
330
8B
100
AcDbEntity
  8
AM_6
100
AcDbText
 10
4.87
 20
-5.280127172426352
 30
0.0
 40
0.5
  1
1.57
100
AcDbAttributeDefinition
  3

  2
L
 70
     8
280
     0
  0
ATTDEF
  5
9D
330
8B
100
AcDbEntity
  8
AM_6
100
AcDbText
 10
4.87
 20
-5.780127172426352
 30
0.0
 40
0.5
  1
5/16 - 24
100
AcDbAttributeDefinition
  3

  2
N
 70
     8
280
     0
  0
ATTDEF
  5
9E
330
8B
100
AcDbEntity
  8
AM_6
100
AcDbText
 10
4.87
 20
-6.280127172426352
 30
0.0
 40
0.5
  1
0.58
100
AcDbAttributeDefinition
  3

  2
W
 70
     8
280
     0
  0
ATTDEF
  5
9F
330
8B
100
AcDbEntity
  8
AM_6
100
AcDbText
 10
4.87
 20
-6.780127172426352
 30
0.0
 40
0.5
  1
0.94
100
AcDbAttributeDefinition
  3

  2
Y
 70
     8
280
     0
  0
ATTDEF
  5
A0
330
8B
100
AcDbEntity
  8
AM_6
100
AcDbText
 10
4.87
 20
-7.280127172426352
 30
0.0
 40
0.5
  1
baldor
100
AcDbAttributeDefinition
  3

  2
COMPANY
 70
     8
280
     0
  0
ARC
  5
A3
330
8B
100
AcDbEntity
  8
AM_9
100
AcDbCircle
 10
-0.5499999999999994
 20
0.0000000000000002
 30
0.0
 40
0.1041666666666614
100
AcDbArc
 50
355.3415630095374
 51
6.369534115461273
  0
CIRCLE
  5
A4
330
8B
100
AcDbEntity
  8
AM_9
100
AcDbCircle
 10
-0.55
 20
-0.0000000000000001
 30
0.0
 40
0.0414393939393896
  0
LINE
  5
A5
330
8B
100
AcDbEntity
  8
AM_9
100
AcDbLine
 10
-0.6410809749219563
 20
0.05054443554145
 30
0.0
 11
-0.6383730302409321
 21
0.0551443738787448
 31
0.0
  0
LWPOLYLINE
  5
A6
330
8B
100
AcDbEntity
  8
AM_9
100
AcDbPolyline
 90
        8
 70
     0
 43
0.0
 10
-0.6432398807721346
 20
-0.0464363981371954
 10
-0.6456960197450425
 20
-0.0411090693353869
 10
-0.650818235932261
 20
-0.0261137618426319
 10
-0.6537390310727331
 20
-0.0089445027828279
 10
-0.653788387925963
 20
0.0084756710460482
 10
-0.6509139291002551
 20
0.0256983724681908
 10
-0.6452306187996175
 20
0.0421956561908417
 10
-0.6410809749219563
 20
0.05054443554145
  0
LINE
  5
A7
330
8B
100
AcDbEntity
  8
AM_9
100
AcDbLine
 10
-1.2263
 20
0.59375
 30
0.0
 11
-1.2263
 21
0.7617924915141182
 31
0.0
  0
LINE
  5
A8
330
8B
100
AcDbEntity
  8
AM_9
100
AcDbLine
 10
-1.4787
 20
0.7617924915141182
 30
0.0
 11
-1.4787
 21
0.59375
 31
0.0
  0
LINE
  5
A9
330
8B
100
AcDbEntity
  8
AM_9
100
AcDbLine
 10
-1.4787
 20
0.7617924915141182
 30
0.0
 11
-1.2263
 21
0.7617924915141182
 31
0.0
  0
LINE
  5
AA
330
8B
100
AcDbEntity
  8
AM_9
100
AcDbLine
 10
-1.2263
 20
0.7617924915141182
 30
0.0
 11
-1.203092491514118
 21
0.7850000000000003
 31
0.0
  0
LINE
  5
AB
330
8B
100
AcDbEntity
  8
AM_9
100
AcDbLine
 10
-1.501907508485882
 20
0.7850000000000003
 30
0.0
 11
-1.4787
 21
0.7617924915141182
 31
0.0
  0
LINE
  5
AC
330
8B
100
AcDbEntity
  8
AM_9
100
AcDbLine
 10
-1.365186880154011
 20
0.58032196186948
 30
0.0
 11
-1.339813119845989
 21
0.58032196186948
 31
0.0
  0
LWPOLYLINE
  5
AD
330
8B
100
AcDbEntity
  8
AM_9
100
AcDbPolyline
 90
       10
 70
     0
 43
0.0
 10
-1.339813119845989
 20
0.58032196186948
 10
-1.319370384615713
 20
0.5811283798916645
 10
-1.299301052256353
 20
0.5826171560647964
 10
-1.281297050381066
 20
0.5845361259446985
 10
-1.264807616192383
 20
0.5867730197255684
 10
-1.250985221948088
 20
0.5889973452087275
 10
-1.239683576620813
 20
0.5910500553117917
 10
-1.231848005704441
 20
0.5925955840431951
 10
-1.227287476453601
 20
0.5935408988038294
 10
-1.226300000001423
 20
0.5937499999996976
  0
LWPOLYLINE
  5
AE
330
8B
100
AcDbEntity
  8
AM_9
100
AcDbPolyline
 90
        3
 70
     0
 43
0.0
 10
-1.339813119845988
 20
0.3590512761488057
 10
-1.34782957578473
 20
0.3596265718440443
 10
-1.365186880154012
 20
0.3590512761488057
  0
LINE
  5
AF
330
8B
100
AcDbEntity
  8
AM_9
100
AcDbLine
 10
-1.6186
 20
-0.59375
 30
0.0
 11
-0.6780000000000002
 21
-0.59375
 31
0.0
  0
LINE
  5
B0
330
8B
100
AcDbEntity
  8
AM_9
100
AcDbLine
 10
-0.6780000000000002
 20
0.59375
 30
0.0
 11
-1.2263
 21
0.59375
 31
0.0
  0
LINE
  5
B1
330
8B
100
AcDbEntity
  8
AM_9
100
AcDbLine
 10
-1.4787
 20
0.59375
 30
0.0
 11
-1.6186
 21
0.59375
 31
0.0
  0
LWPOLYLINE
  5
B2
330
8B
100
AcDbEntity
  8
AM_9
100
AcDbPolyline
 90
       11
 70
     0
 43
0.0
 10
-1.478699999998577
 20
0.5937499999996976
 10
-1.478602961742432
 20
0.593729382345369
 10
-1.475968241468367
 20
0.5931753780723631
 10
-1.470113422331221
 20
0.5919844082511483
 10
-1.460880108087368
 20
0.5902193408632332
 10
-1.448847260694788
 20
0.5881287419803501
 10
-1.433785740862397
 20
0.5858498051271748
 10
-1.416606660595821
 20
0.5837142164045243
 10
-1.397032624911791
 20
0.5818898325125936
 10
-1.381502446298447
 20
0.5809077072920399
 10
-1.365186880154011
 20
0.58032196186948
  0
LINE
  5
B3
330
8B
100
AcDbEntity
  8
AM_9
100
AcDbLine
 10
-1.6186
 20
0.59375
 30
0.0
 11
-1.65
 21
0.62515
 31
0.0
  0
LINE
  5
B4
330
8B
100
AcDbEntity
  8
AM_9
100
AcDbLine
 10
-1.65
 20
-0.62515
 30
0.0
 11
-1.6186
 21
-0.59375
 31
0.0
  0
LINE
  5
B5
330
8B
100
AcDbEntity
  8
AM_9
100
AcDbLine
 10
-0.1614000000000001
 20
-0.59375
 30
0.0
 11
-0.13
 21
-0.62515
 31
0.0
  0
LINE
  5
B6
330
8B
100
AcDbEntity
  8
AM_9
100
AcDbLine
 10
-0.13
 20
0.62515
 30
0.0
 11
-0.1614000000000001
 21
0.59375
 31
0.0
  0
LINE
  5
B7
330
8B
100
AcDbEntity
  8
AM_9
100
AcDbLine
 10
-1.365186880154016
 20
0.1314580414016589
 30
0.0
 11
-1.339813119845984
 21
0.1314580414016589
 31
0.0
  0
LWPOLYLINE
  5
B8
330
8B
100
AcDbEntity
  8
AM_9
100
AcDbPolyline
 90
        4
 70
     0
 43
0.0
 10
-1.472209548048467
 20
0.2865686216679937
 10
-1.473151994295559
 20
0.2839816710660501
 10
-1.477712523546399
 20
0.2651213653659574
 10
-1.478699999295492
 20
0.2509175073761574
  0
LWPOLYLINE
  5
B9
330
8B
100
AcDbEntity
  8
AM_9
100
AcDbPolyline
 90
       10
 70
     0
 43
0.0
 10
-1.339813119845984
 20
0.1314580414016589
 10
-1.319370384615709
 20
0.1352308845367892
 10
-1.299301052256348
 20
0.1425075850592714
 10
-1.281297050381062
 20
0.1526029801433373
 10
-1.26480761619238
 20
0.1657289515427146
 10
-1.250985221948085
 20
0.1809709752762141
 10
-1.239683576620811
 20
0.1985288920834445
 10
-1.23184800570444
 20
0.2169017602210533
 10
-1.2272874764536
 20
0.2365610804830202
 10
-1.226300000704509
 20
0.2509416783143564
  0
LINE
  5
BA
330
8B
100
AcDbEntity
  8
AM_9
100
AcDbLine
 10
-1.2263
 20
0.2509018940067034
 30
0.0
 11
-1.2263
 21
0.3219474185708133
 31
0.0
  0
LINE
  5
BB
330
8B
100
AcDbEntity
  8
AM_9
100
AcDbLine
 10
-1.4787
 20
0.3219474185708133
 30
0.0
 11
-1.4787
 21
0.2509018940067034
 31
0.0
  0
LWPOLYLINE
  5
BC
330
8B
100
AcDbEntity
  8
AM_9
100
AcDbPolyline
 90
       11
 70
     0
 43
0.0
 10
-1.478699999295492
 20
0.2509175073761574
 10
-1.478602961742432
 20
0.246436437828595
 10
-1.475968241468367
 20
0.2270178231036488
 10
-1.470113422331221
 20
0.2087152804464971
 10
-1.460880108087368
 20
0.190840680567421
 10
-1.448847260694787
 20
0.1746821039587828
 10
-1.433785740862396
 20
0.1601001125185314
 10
-1.41660666059582
 20
0.1481681034929177
 10
-1.397032624911791
 20
0.1388989151351449
 10
-1.381502446298449
 20
0.13418746966741
 10
-1.365186880154016
 20
0.1314580414016589
  0
LWPOLYLINE
  5
BD
330
8B
100
AcDbEntity
  8
AM_9
100
AcDbPolyline
 90
        4
 70
     0
 43
0.0
 10
-1.226300000704509
 20
0.2509416783143564
 10
-1.226397038257568
 20
0.255405321193767
 10
-1.229031758531634
 20
0.2743556712730036
 10
-1.232848339181134
 20
0.2867205050581264
  0
LINE
  5
BE
330
8B
100
AcDbEntity
  8
AM_9
100
AcDbLine
 10
-0.13
 20
0.7535999999999999
 30
0.0
 11
-0.1614
 21
0.7849999999999999
 31
0.0
  0
LINE
  5
BF
330
8B
100
AcDbEntity
  8
AM_9
100
AcDbLine
 10
-0.1614
 20
-0.7849999999999999
 30
0.0
 11
-0.13
 21
-0.7535999999999999
 31
0.0
  0
LINE
  5
C0
330
8B
100
AcDbEntity
  8
AM_9
100
AcDbLine
 10
-0.13
 20
0.7535999999999999
 30
0.0
 11
-0.13
 21
-0.7535999999999999
 31
0.0
  0
LINE
  5
C1
330
8B
100
AcDbEntity
  8
AM_9
100
AcDbLine
 10
-1.13
 20
-0.7850000000000003
 30
0.0
 11
-1.055
 21
-0.7850000000000003
 31
0.0
  0
LINE
  5
C2
330
8B
100
AcDbEntity
  8
AM_9
100
AcDbLine
 10
-1.055
 20
0.7850000000000003
 30
0.0
 11
-1.13
 21
0.7850000000000003
 31
0.0
  0
LINE
  5
C3
330
8B
100
AcDbEntity
  8
AM_9
100
AcDbLine
 10
-0.365
 20
-0.7850000000000003
 30
0.0
 11
-0.1614
 21
-0.7850000000000003
 31
0.0
  0
LINE
  5
C4
330
8B
100
AcDbEntity
  8
AM_9
100
AcDbLine
 10
-0.1614
 20
0.7850000000000003
 30
0.0
 11
-0.365
 21
0.7850000000000003
 31
0.0
  0
LINE
  5
C5
330
8B
100
AcDbEntity
  8
AM_9
100
AcDbLine
 10
-0.1614
 20
0.7850000000000003
 30
0.0
 11
-0.1614
 21
-0.7850000000000003
 31
0.0
  0
LINE
  5
C6
330
8B
100
AcDbEntity
  8
AM_9
100
AcDbLine
 10
-0.9019999999999998
 20
-1.167116666666667
 30
0.0
 11
-0.838
 21
-1.167116666666667
 31
0.0
  0
LINE
  5
C7
330
8B
100
AcDbEntity
  8
AM_9
100
AcDbLine
 10
-0.838
 20
1.167116666666667
 30
0.0
 11
-0.9019999999999998
 21
1.167116666666667
 31
0.0
  0
LINE
  5
C8
330
8B
100
AcDbEntity
  8
AM_9
100
AcDbLine
 10
-0.365
 20
1.146492216502145
 30
0.0
 11
-0.365
 21
-1.146492216502145
 31
0.0
  0
ARC
  5
C9
330
8B
100
AcDbEntity
  8
AM_9
100
AcDbCircle
 10
-0.3969999999999999
 20
-1.146492216502145
 30
0.0
 40
0.0319999999999998
100
AcDbArc
 50
285.2700166318438
 51
0.0
  0
ARC
  5
CA
330
8B
100
AcDbEntity
  8
AM_9
100
AcDbCircle
 10
-0.3969999999999999
 20
1.146492216502145
 30
0.0
 40
0.0319999999999999
100
AcDbArc
 50
0.0
 51
74.72998336815627
  0
LINE
  5
CB
330
8B
100
AcDbEntity
  8
AM_9
100
AcDbLine
 10
-1.055
 20
1.146492216502144
 30
0.0
 11
-1.055
 21
-1.146492216502144
 31
0.0
  0
ARC
  5
CC
330
8B
100
AcDbEntity
  8
AM_9
100
AcDbCircle
 10
-1.022999999999999
 20
-1.146492216502144
 30
0.0
 40
0.0320000000000005
100
AcDbArc
 50
180.0
 51
254.7299833681558
  0
ARC
  5
CD
330
8B
100
AcDbEntity
  8
AM_9
100
AcDbCircle
 10
-1.022999999999999
 20
1.146492216502144
 30
0.0
 40
0.0320000000000004
100
AcDbArc
 50
105.2700166318442
 51
180.0
  0
ARC
  5
CE
330
8B
100
AcDbEntity
  8
AM_9
100
AcDbCircle
 10
-0.7100000000000184
 20
0.0000000000000833
 30
0.0
 40
1.220449999999915
100
AcDbArc
 50
99.05131675797627
 51
105.270016631844
  0
ARC
  5
CF
330
8B
100
AcDbEntity
  8
AM_9
100
AcDbCircle
 10
-0.7100000000017828
 20
-0.0000000000082838
 30
0.0
 40
1.220449999991552
100
AcDbArc
 50
254.7299833681346
 51
260.9486832420451
  0
LINE
  5
D0
330
8B
100
AcDbEntity
  8
AM_9
100
AcDbLine
 10
-1.031427784088518
 20
1.177362468450538
 30
0.0
 11
-1.031427784088518
 21
-1.177362468450551
 31
0.0
  0
LINE
  5
D1
330
8B
100
AcDbEntity
  8
AM_9
100
AcDbLine
 10
-0.9019999999999999
 20
1.205252754612077
 30
0.0
 11
-0.9019999999999999
 21
-1.20525275461209
 31
0.0
  0
LINE
  5
D2
330
8B
100
AcDbEntity
  8
AM_9
100
AcDbLine
 10
-0.6383730302403798
 20
-0.0551443738796307
 30
0.0
 11
-0.6432398807721346
 21
-0.0464363981371954
 31
0.0
  0
LWPOLYLINE
  5
D3
330
8B
100
AcDbEntity
  8
AM_9
100
AcDbPolyline
 90
       32
 70
     0
 43
0.0
 10
-0.6383730302403795
 20
-0.0551443738796303
 10
-0.6278679201908596
 20
-0.069174447110343
 10
-0.6151924882064195
 20
-0.0812442854968849
 10
-0.600641511539141
 20
-0.0910164836966838
 10
-0.5846862865297127
 20
-0.0982219729552516
 10
-0.5676565450061446
 20
-0.1026489381478423
 10
-0.5501351817142591
 20
-0.104166578950965
 10
-0.5325131438854451
 20
-0.1026777579863509
 10
-0.5153843650224389
 20
-0.0982468944015216
 10
-0.4992405608988962
 20
-0.0909502161320144
 10
-0.4845382361953508
 20
-0.0810274763523325
 10
-0.4717899599307532
 20
-0.0687867838523668
 10
-0.4612639452983271
 20
-0.0545582902996895
 10
-0.4533647377209686
 20
-0.0388595267376831
 10
-0.4481928111467409
 20
-0.0220451977137951
 10
-0.4459512883331547
 20
-0.0047265846089326
 10
-0.4466136479063745
 20
0.0127262188106436
 10
-0.4501820617217399
 20
0.029747388931221
 10
-0.4565073676368167
 20
0.045932800243901
 10
-0.4654604404242305
 20
0.0608410554183709
 10
-0.4767368373079586
 20
0.0740486558743839
 10
-0.490139607701934
 20
0.0852368466932875
 10
-0.5051917750507906
 20
0.0940367875958367
 10
-0.5216344609049074
 20
0.1002195825290967
 10
-0.5388659597463153
 20
0.1035699164433031
 10
-0.5565285461337626
 20
0.1039514434035896
 10
-0.5740082040114035
 20
0.1013622246430606
 10
-0.590833457592158
 20
0.0958180663795425
 10
-0.6065013798147729
 20
0.0875116479302625
 10
-0.620488455574592
 20
0.0766799513980027
 10
-0.6324720184802525
 20
0.0636322293514564
 10
-0.6383730302409321
 20
0.0551443738787448
  0
ARC
  5
D4
330
8B
100
AcDbEntity
  8
AM_9
100
AcDbCircle
 10
-0.710000000000005
 20
-0.0000000000000719
 30
0.0
 40
1.220450000000071
100
AcDbArc
 50
74.72998336815685
 51
96.02021531655062
  0
ARC
  5
D5
330
8B
100
AcDbEntity
  8
AM_9
100
AcDbCircle
 10
-0.7100000000000419
 20
0.0000000000005298
 30
0.0
 40
1.220450000000506
100
AcDbArc
 50
263.9797846834532
 51
285.2700166318394
  0
LINE
  5
D6
330
8B
100
AcDbEntity
  8
AM_9
100
AcDbLine
 10
-0.8379999999999996
 20
1.213719161297209
 30
0.0
 11
-0.8379999999999996
 21
-1.213719161297193
 31
0.0
  0
LINE
  5
D7
330
8B
100
AcDbEntity
  8
AM_9
100
AcDbLine
 10
-0.3885722159114813
 20
1.177362468450538
 30
0.0
 11
-0.3885722159114813
 21
-1.177362468450522
 31
0.0
  0
LINE
  5
D9
330
8B
100
AcDbEntity
  8
AM_5
100
AcDbLine
 10
-1.19625
 20
0.59375
 30
0.0
 11
-1.19625
 21
0.7850000000000003
 31
0.0
  0
LINE
  5
DA
330
8B
100
AcDbEntity
  8
AM_5
100
AcDbLine
 10
-1.50875
 20
0.59375
 30
0.0
 11
-1.50875
 21
0.7850000000000003
 31
0.0
  0
LINE
  5
DD
330
8B
100
AcDbEntity
  8
AM_7
100
AcDbLine
 10
-0.55
 20
-0.0435113636363592
 30
0.0
 11
-0.55
 21
0.043511363636359
 31
0.0
  0
LINE
  5
DE
330
8B
100
AcDbEntity
  8
AM_7
100
AcDbLine
 10
-1.3525
 20
0.8039210179963503
 30
0.0
 11
-1.3525
 21
0.5381934353872481
 31
0.0
  0
LWPOLYLINE
  5
E0
330
8B
100
AcDbEntity
  8
AM_4
100
AcDbPolyline
 90
        8
 70
     0
 43
0.0
 10
-1.365186880154012
 20
0.3590512761488057
 10
-1.385629615384287
 20
0.3559600469792202
 10
-1.405698947743648
 20
0.3499417144535585
 10
-1.423702949618935
 20
0.3414683027994474
 10
-1.440192383807617
 20
0.3302330357228102
 10
-1.454014778051912
 20
0.3168710931277876
 10
-1.465316423379187
 20
0.3010482018717867
 10
-1.472209548048467
 20
0.2865686216679937
  0
ELLIPSE
  5
E1
330
8B
100
AcDbEntity
  8
AM_4
100
AcDbEllipse
 10
-1.3525
 20
0.2452546587752429
 30
0.0
 11
0.1261999999999868
 21
0.0
 31
0.0
210
0.0
220
0.0
230
1.0
 40
0.9063077870366593
 41
1.470096267866012
 42
1.671496385723783
  0
LWPOLYLINE
  5
E2
330
8B
100
AcDbEntity
  8
AM_4
100
AcDbPolyline
 90
        9
 70
     0
 43
0.0
 10
-1.232848339181134
 20
0.2867205050581264
 10
-1.234886577668781
 20
0.2916515627389001
 10
-1.244119891912634
 20
0.3080342631953042
 10
-1.256152739305216
 20
0.3224257892721797
 10
-1.271214259137607
 20
0.3350815400494192
 10
-1.288393339404183
 20
0.3452084714875132
 10
-1.307967375088213
 20
0.3529356239469745
 10
-1.323497553701555
 20
0.3568169413076647
 10
-1.339813119845988
 20
0.3590512761488058
  0
LINE
  5
E3
330
8B
100
AcDbEntity
  8
AM_4
100
AcDbLine
 10
-1.65
 20
-0.7535999999999999
 30
0.0
 11
-1.6186
 21
-0.7849999999999999
 31
0.0
  0
LINE
  5
E4
330
8B
100
AcDbEntity
  8
AM_4
100
AcDbLine
 10
-1.6186
 20
0.7849999999999999
 30
0.0
 11
-1.65
 21
0.7535999999999999
 31
0.0
  0
LINE
  5
E5
330
8B
100
AcDbEntity
  8
AM_4
100
AcDbLine
 10
-1.65
 20
0.7535999999999999
 30
0.0
 11
-1.65
 21
-0.7535999999999999
 31
0.0
  0
LWPOLYLINE
  5
E6
330
8B
100
AcDbEntity
  8
AM_4
100
AcDbPolyline
 90
       39
 70
     0
 43
0.0
 10
-1.20325529407132
 20
0.3259524891853897
 10
-1.2063759991159
 20
0.305725960583553
 10
-1.213263254747349
 20
0.2860658271896632
 10
-1.223086332483389
 20
0.2684447178769288
 10
-1.235697929555566
 20
0.2523114151166441
 10
-1.251899915271871
 20
0.2370946264262543
 10
-1.270367113579667
 20
0.2243335702691512
 10
-1.292427631662574
 20
0.2135987568712764
 10
-1.315975968321238
 20
0.2063041050425356
 10
-1.341887645858185
 20
0.2025554444575479
 10
-1.368086351652826
 20
0.2029385601421145
 10
-1.394422596366129
 20
0.2076471722673425
 10
-1.419559955762052
 20
0.2165401858989177
 10
-1.442551324455014
 20
0.2293322532864112
 10
-1.462849541499679
 20
0.2456758604201461
 10
-1.478959721387407
 20
0.2642075542938392
 10
-1.491240190868011
 20
0.2849874517590124
 10
-1.498530475254919
 20
0.3053678409135245
 10
-1.501767293686992
 20
0.3263700943589354
 10
-1.500946696171614
 20
0.3456284820412263
 10
-1.496580866676042
 20
0.3642520958862889
 10
-1.488947702829434
 20
0.3814749300106249
 10
-1.478345625636964
 20
0.397231913811313
 10
-1.464306033351306
 20
0.4119313763494578
 10
-1.447806848023355
 20
0.4244685749996154
 10
-1.427611154968721
 20
0.4354368361906045
 10
-1.405618501968656
 20
0.4435663998781961
 10
-1.38068569091338
 20
0.4490115679285949
 10
-1.355010337075125
 20
0.4510663036760306
 10
-1.32839454417829
 20
0.4495680782837959
 10
-1.302456809424353
 20
0.4444394463399229
 10
-1.277903938688698
 20
0.4356635513791897
 10
-1.255549624771334
 20
0.4233882717103121
 10
-1.236746838826559
 20
0.4082565416959296
 10
-1.221464028779264
 20
0.3902488548782735
 10
-1.211127631703202
 20
0.3713351422956065
 10
-1.204883959891522
 20
0.350798217923498
 10
-1.203314918574031
 20
0.3384672463806815
 10
-1.203255264964603
 20
0.3259524624744007
  0
LINE
  5
E7
330
8B
100
AcDbEntity
  8
AM_4
100
AcDbLine
 10
-1.6186
 20
-0.7850000000000003
 30
0.0
 11
-1.13
 21
-0.7850000000000003
 31
0.0
  0
LINE
  5
E8
330
8B
100
AcDbEntity
  8
AM_4
100
AcDbLine
 10
-1.13
 20
0.7850000000000003
 30
0.0
 11
-1.203092491514118
 21
0.7850000000000003
 31
0.0
  0
LINE
  5
E9
330
8B
100
AcDbEntity
  8
AM_4
100
AcDbLine
 10
-1.501907508485882
 20
0.7850000000000003
 30
0.0
 11
-1.6186
 21
0.7850000000000003
 31
0.0
  0
LINE
  5
EA
330
8B
100
AcDbEntity
  8
AM_4
100
AcDbLine
 10
-1.6186
 20
0.7850000000000003
 30
0.0
 11
-1.6186
 21
-0.7850000000000003
 31
0.0
  0
LWPOLYLINE
  5
EB
330
8B
100
AcDbEntity
  8
AM_4
100
AcDbPolyline
 90
       20
 70
     0
 43
0.0
 10
-1.203092491514538
 20
0.784999999999933
 10
-1.204681851863557
 20
0.7847471517867646
 10
-1.20959469236034
 20
0.7839818414788834
 10
-1.217895099120408
 20
0.782744937392084
 10
-1.229222521065817
 20
0.7811715953268253
 10
-1.243545802987711
 20
0.779373492494824
 10
-1.261127590924366
 20
0.7774618902780104
 10
-1.281279517092963
 20
0.7756763881256433
 10
-1.304291665904582
 20
0.7741733572787116
 10
-1.329151531618249
 20
0.7731978505748353
 10
-1.355165473493329
 20
0.7729023856378466
 10
-1.381833094403494
 20
0.7733708953989824
 10
-1.40729230687602
 20
0.7745446936242819
 10
-1.431891924896666
 20
0.7763478623195984
 10
-1.453092374959912
 20
0.7784234910788668
 10
-1.471879708813864
 20
0.780661024737876
 10
-1.485578829015865
 20
0.7825252351141209
 10
-1.495672799721713
 20
0.7840228767776349
 10
-1.500680049672804
 20
0.7848045002271877
 10
-1.501907508485013
 20
0.7849999999998611
  0
ELLIPSE
  5
EC
330
8B
100
AcDbEntity
  8
AM_4
100
AcDbEllipse
 10
-1.3525
 20
0.3219474185708133
 30
0.0
 11
0.1262000000000001
 21
0.0
 31
0.0
210
0.0
220
0.0
230
1.0
 40
0.9063077870366495
 41
0.0
 42
6.283185307179586
  0
ENDBLK
  5
8E
330
8B
100
AcDbEntity
  8
0
100
AcDbBlockEnd
  0
BLOCK
  5
EF
330
ED
100
AcDbEntity
  8
0
100
AcDbBlockBegin
  2
3_405015E_Inch_0_in_124443_2
 70
     2
 10
0.0
 20
0.0
 30
0.0
  3
3_405015E_Inch_0_in_124443_2
  1

  0
ATTDEF
  5
F1
330
ED
100
AcDbEntity
  8
AM_6
100
AcDbText
 10
4.56
 20
1.486817803108059
 30
0.0
 40
0.5
  1
405015E -Inch
100
AcDbAttributeDefinition
  3

  2
NN
 70
     8
280
     0
  0
ATTDEF
  5
F2
330
ED
100
AcDbEntity
  8
AM_6
100
AcDbText
 10
4.56
 20
0.9868178031080592
 30
0.0
 40
0.5
  1
Grease Fitting
100
AcDbAttributeDefinition
  3

  2
NT
 70
     8
280
     0
  0
ATTDEF
  5
F3
330
ED
100
AcDbEntity
  8
AM_6
100
AcDbText
 10
4.56
 20
0.4868178031080592
 30
0.0
 40
0.5
  1
405015E-Inch
100
AcDbAttributeDefinition
  3

  2
NB
 70
     8
280
     0
  0
ATTDEF
  5
F4
330
ED
100
AcDbEntity
  8
AM_6
100
AcDbText
 10
4.56
 20
-0.0131821968919408
 30
0.0
 40
0.5
  1
$MN.-Inch
100
AcDbAttributeDefinition
  3

  2
NBSYN
 70
     8
280
     0
  0
ATTDEF
  5
F5
330
ED
100
AcDbEntity
  8
AM_6
100
AcDbText
 10
4.56
 20
-0.5131821968919408
 30
0.0
 40
0.5
  1
405015E
100
AcDbAttributeDefinition
  3

  2
LINA
 70
     8
280
     0
  0
ATTDEF
  5
F6
330
ED
100
AcDbEntity
  8
AM_6
100
AcDbText
 10
4.56
 20
-1.013182196891941
 30
0.0
 40
0.5
  1
405015E
100
AcDbAttributeDefinition
  3

  2
MN
 70
     8
280
     0
  0
ATTDEF
  5
F7
330
ED
100
AcDbEntity
  8
AM_6
100
AcDbText
 10
4.56
 20
-1.513182196891941
 30
0.0
 40
0.5
  1
1/8 x 27PTF
100
AcDbAttributeDefinition
  3

  2
T
 70
     8
280
     0
  0
ATTDEF
  5
F8
330
ED
100
AcDbEntity
  8
AM_6
100
AcDbText
 10
4.56
 20
-2.013182196891941
 30
0.0
 40
0.5
  1
baldor
100
AcDbAttributeDefinition
  3

  2
COMPANY
 70
     8
280
     0
  0
LWPOLYLINE
  5
F9
330
ED
100
AcDbEntity
  8
AM_9
100
AcDbPolyline
 90
        4
 70
     0
 43
0.0
 10
-0.6587500000000001
 20
1.034738809234293
 10
-0.7131916102741497
 20
1.061668937828155
 10
-0.7406200010907652
 20
1.074139297628135
 10
-0.7681250000000001
 20
1.085802727238339
  0
LWPOLYLINE
  5
FA
330
ED
100
AcDbEntity
  8
AM_9
100
AcDbPolyline
 90
        4
 70
     0
 43
0.0
 10
-0.5493750000000002
 20
1.085802727238339
 10
-0.5767187500000002
 20
1.074210181484753
 10
-0.6040625000000002
 20
1.061784273070537
 10
-0.6587500000000001
 20
1.034738809234293
  0
LWPOLYLINE
  5
FB
330
ED
100
AcDbEntity
  8
AM_9
100
AcDbPolyline
 90
        4
 70
     0
 43
0.0
 10
-0.7681250000000001
 20
1.015092049119685
 10
-0.7407812500000001
 20
1.004358516488529
 10
-0.7134375000000001
 20
0.9944583465180017
 10
-0.6587500000000001
 20
0.9768516535847609
  0
LWPOLYLINE
  5
FC
330
ED
100
AcDbEntity
  8
AM_9
100
AcDbPolyline
 90
        4
 70
     0
 43
0.0
 10
-0.6587500000000001
 20
0.9768516535847609
 10
-0.6043083897258504
 20
0.9943729136399415
 10
-0.576879998909235
 20
1.004297741162077
 10
-0.5493750000000001
 20
1.015092049119685
  0
ELLIPSE
  5
FD
330
ED
100
AcDbEntity
  8
AM_9
100
AcDbEllipse
 10
-0.6587499999999996
 20
1.414213562373096
 30
0.0
 11
0.1026779019331866
 21
0.0
 31
0.0
210
0.0
220
0.0
230
1.0
 40
0.707106781186546
 41
2.72567860148726
 42
7.853981633974483
  0
LINE
  5
FE
330
ED
100
AcDbEntity
  8
AM_9
100
AcDbLine
 10
-0.7526743440009287
 20
1.44354757973687
 30
0.0
 11
-0.7822408992236335
 21
1.39621312722698
 31
0.0
  0
LINE
  5
FF
330
ED
100
AcDbEntity
  8
AM_9
100
AcDbLine
 10
-0.5352591007763666
 20
1.39621312722698
 30
0.0
 11
-0.5648256559990714
 21
1.44354757973687
 31
0.0
  0
ELLIPSE
  5
100
330
ED
100
AcDbEntity
  8
AM_9
100
AcDbEllipse
 10
-0.6587500000000005
 20
1.414213562373096
 30
0.0
 11
0.1026779019331865
 21
1.530019967752494E-9
 31
0.0
210
0.0
220
0.0
230
1.0
 40
0.7071067811865448
 41
1.57079631625818
 42
2.725678582133817
  0
ELLIPSE
  5
101
330
ED
100
AcDbEntity
  8
AM_9
100
AcDbEllipse
 10
-0.6587500000000002
 20
1.357645019878172
 30
0.0
 11
0.1349999999999997
 21
0.0
 31
0.0
210
0.0
220
0.0
230
1.0
 40
0.7071067811865481
 41
0.4159140521025444
 42
3.289911431998272
  0
LWPOLYLINE
  5
102
330
ED
100
AcDbEntity
  8
AM_9
100
AcDbPolyline
 90
        4
 70
     0
 43
0.0
 10
-0.4400000000000001
 20
1.124043122773263
 10
-0.4944416102741497
 20
1.106521862718083
 10
-0.5218700010907652
 20
1.096597035195946
 10
-0.5493750000000002
 20
1.085802727238339
  0
LINE
  5
103
330
ED
100
AcDbEntity
  8
AM_9
100
AcDbLine
 10
-0.6587500000000001
 20
1.034738809234293
 30
0.0
 11
-0.6587500000000001
 21
0.9768516535847609
 31
0.0
  0
LWPOLYLINE
  5
104
330
ED
100
AcDbEntity
  8
AM_9
100
AcDbPolyline
 90
        4
 70
     0
 43
0.0
 10
-0.7681250000000001
 20
1.085802727238339
 10
-0.7954687500000001
 20
1.096536259869495
 10
-0.8228125000000001
 20
1.106436429840022
 10
-0.8775
 20
1.124043122773263
  0
LINE
  5
105
330
ED
100
AcDbEntity
  8
AM_9
100
AcDbLine
 10
-0.567817332602634
 20
1.278095506994684
 30
0.0
 11
-0.5418365704891008
 21
1.309915312148079
 31
0.0
  0
LINE
  5
106
330
ED
100
AcDbEntity
  8
AM_9
100
AcDbLine
 10
-0.7756634295108993
 20
1.309915312148079
 30
0.0
 11
-0.749682667397366
 21
1.278095506994684
 31
0.0
  0
ELLIPSE
  5
107
330
ED
100
AcDbEntity
  8
AM_9
100
AcDbEllipse
 10
-0.6587499999999977
 20
1.357645019878172
 30
0.0
 11
0.1350000000000023
 21
0.0
 31
0.0
210
0.0
220
0.0
230
1.0
 40
0.707106781186544
 41
3.28991143199827
 42
6.699099359282139
  0
LINE
  5
108
330
ED
100
AcDbEntity
  8
AM_9
100
AcDbLine
 10
-0.5537500000000001
 20
1.294005409571382
 30
0.0
 11
-0.5537500000000001
 21
1.315218613006978
 31
0.0
  0
LINE
  5
109
330
ED
100
AcDbEntity
  8
AM_9
100
AcDbLine
 10
-0.76375
 20
1.315218613006978
 30
0.0
 11
-0.76375
 21
1.294005409571382
 31
0.0
  0
ELLIPSE
  5
10A
330
ED
100
AcDbEntity
  8
AM_9
100
AcDbEllipse
 10
-0.6587500000000001
 20
1.294005409571382
 30
0.0
 11
0.1050000000000001
 21
0.0
 31
0.0
210
0.0
220
0.0
230
1.0
 40
0.7071067811865489
 41
2.698681609516156
 42
6.283185307179586
  0
ELLIPSE
  5
10B
330
ED
100
AcDbEntity
  8
AM_9
100
AcDbEllipse
 10
-0.6587499999999981
 20
1.219759197546794
 30
0.0
 11
0.218749999999998
 21
3.259629011154145E-9
 31
0.0
210
0.0
220
0.0
230
1.0
 40
0.7071067811865475
 41
5.235987742812092
 42
6.283187037607677
  0
ELLIPSE
  5
10C
330
ED
100
AcDbEntity
  8
AM_9
100
AcDbEllipse
 10
-0.6587500000000003
 20
1.294005409571382
 30
0.0
 11
0.1050000000000004
 21
0.0
 31
0.0
210
0.0
220
0.0
230
1.0
 40
0.7071067811865446
 41
0.4429110440736368
 42
1.570796326794897
  0
LINE
  5
10D
330
ED
100
AcDbEntity
  8
AM_9
100
AcDbLine
 10
-0.7536183298050514
 20
1.325825214724776
 30
0.0
 11
-0.766104891002899
 21
1.307211348295711
 31
0.0
  0
LINE
  5
10E
330
ED
100
AcDbEntity
  8
AM_9
100
AcDbLine
 10
-0.5513951089971011
 20
1.307211348295711
 30
0.0
 11
-0.5638816701949486
 21
1.325825214724776
 31
0.0
  0
ELLIPSE
  5
10F
330
ED
100
AcDbEntity
  8
AM_9
100
AcDbEllipse
 10
-0.6587499999999978
 20
1.294005409571378
 30
0.0
 11
0.1049999999999977
 21
1.564621925353971E-9
 31
0.0
210
0.0
220
0.0
230
1.0
 40
0.7071067811865519
 41
0.0000017304280906
 42
0.4429110249355815
  0
ELLIPSE
  5
110
330
ED
100
AcDbEntity
  8
AM_9
100
AcDbEllipse
 10
-0.6587499999999997
 20
1.294005409571382
 30
0.0
 11
0.1050000000000003
 21
0.0
 31
0.0
210
0.0
220
0.0
230
1.0
 40
0.7071067811865452
 41
1.570796326794897
 42
2.698681609516156
  0
ELLIPSE
  5
111
330
ED
100
AcDbEntity
  8
AM_9
100
AcDbEllipse
 10
-0.6587500000000001
 20
1.271203423195777
 30
0.0
 11
0.1188200907348975
 21
0.0
 31
0.0
210
0.0
220
0.0
230
1.0
 40
0.7071067811865483
 41
2.698681609516152
 42
6.726096351253224
  0
LWPOLYLINE
  5
112
330
ED
100
AcDbEntity
  8
AM_9
100
AcDbPolyline
 90
        4
 70
     0
 43
0.0
 10
-0.5493750000000001
 20
1.015092049119685
 10
-0.5220312500000001
 20
1.026684594873271
 10
-0.4946875000000001
 20
1.039110503287487
 10
-0.4400000000000001
 20
1.066155967123731
  0
LWPOLYLINE
  5
113
330
ED
100
AcDbEntity
  8
AM_9
100
AcDbPolyline
 90
        4
 70
     0
 43
0.0
 10
-0.8775
 20
1.066155967123731
 10
-0.8230583897258504
 20
1.039225838529869
 10
-0.7956299989092349
 20
1.026755478729889
 10
-0.7681250000000001
 20
1.015092049119685
  0
ELLIPSE
  5
114
330
ED
100
AcDbEntity
  8
AM_9
100
AcDbEllipse
 10
-0.6587499999999973
 20
1.232712119954177
 30
0.0
 11
0.1725340532829874
 21
0.0
 31
0.0
210
0.0
220
0.0
230
1.0
 40
0.7071067811866442
 41
1.407862057867257
 42
1.570796326794897
  0
ELLIPSE
  5
115
330
ED
100
AcDbEntity
  8
AM_9
100
AcDbEllipse
 10
-0.658749999999999
 20
1.271203423195755
 30
0.0
 11
0.1188200907348802
 21
0.0
 31
0.0
210
0.0
220
0.0
230
1.0
 40
0.7071067811868289
 41
0.4429110440737176
 42
2.698681609516084
  0
LINE
  5
116
330
ED
100
AcDbEntity
  8
AM_9
100
AcDbLine
 10
-0.6780243186691524
 20
1.354109136515455
 30
0.0
 11
-0.6867374918769158
 21
1.353096296324463
 31
0.0
  0
LINE
  5
117
330
ED
100
AcDbEntity
  8
AM_9
100
AcDbLine
 10
-0.6307625081230844
 20
1.353096296324463
 30
0.0
 11
-0.6394756813308478
 21
1.354109136515455
 31
0.0
  0
ELLIPSE
  5
118
330
ED
100
AcDbEntity
  8
AM_9
100
AcDbEllipse
 10
-0.6587500000000002
 20
1.232712119954174
 30
0.0
 11
0.1725340532830155
 21
0.0
 31
0.0
210
0.0
220
0.0
230
1.0
 40
0.707106781186547
 41
1.570796326794897
 42
7.691047365046854
  0
ELLIPSE
  5
119
330
ED
100
AcDbEntity
  8
AM_9
100
AcDbEllipse
 10
-0.6587500000000003
 20
1.219759197546795
 30
0.0
 11
0.2187499999999996
 21
0.0
 31
0.0
210
0.0
220
0.0
230
1.0
 40
0.7071067811865476
 41
0.0
 42
5.235987755982988
  0
ELLIPSE
  5
11A
330
ED
100
AcDbEntity
  8
AM_9
100
AcDbEllipse
 10
-0.6587500000000001
 20
1.219759197546794
 30
0.0
 11
-0.21375
 21
3.185123231361761E-9
 31
0.0
210
0.0
220
0.0
230
1.0
 40
0.7071067811865476
 41
0.0
 42
6.283185307179586
  0
ELLIPSE
  5
11B
330
ED
100
AcDbEntity
  8
AM_9
100
AcDbEllipse
 10
-0.6587500000000021
 20
1.14904851942814
 30
0.0
 11
0.2187499999999966
 21
0.0
 31
0.0
210
0.0
220
0.0
230
1.0
 40
0.7071067811865542
 41
3.141592653589793
 42
4.188790204786393
  0
ELLIPSE
  5
11C
330
ED
100
AcDbEntity
  8
AM_9
100
AcDbEllipse
 10
-0.6587500000000001
 20
1.149048519428139
 30
0.0
 11
0.2187499999999996
 21
0.0
 31
0.0
210
0.0
220
0.0
230
1.0
 40
0.707106781186544
 41
4.18879020478639
 42
5.235987755982991
  0
ELLIPSE
  5
11D
330
ED
100
AcDbEntity
  8
AM_9
100
AcDbEllipse
 10
-0.658750000000001
 20
1.14904851942814
 30
0.0
 11
0.218750000000001
 21
0.0
 31
0.0
210
0.0
220
0.0
230
1.0
 40
0.7071067811865449
 41
5.23598775598299
 42
9.42477796076938
  0
LWPOLYLINE
  5
11E
330
ED
100
AcDbEntity
  8
AM_9
100
AcDbPolyline
 90
        4
 70
     0
 43
0.0
 10
-0.7681250000000001
 20
1.35371566785525
 10
-0.74078125
 20
1.364449200486405
 10
-0.7134375000000001
 20
1.374349370456932
 10
-0.6587500000000001
 20
1.391956063390174
  0
LWPOLYLINE
  5
11F
330
ED
100
AcDbEntity
  8
AM_9
100
AcDbPolyline
 90
        4
 70
     0
 43
0.0
 10
-0.8775
 20
1.302651749851203
 10
-0.8230583897258504
 20
1.329581878445065
 10
-0.7956299989092349
 20
1.342052238245045
 10
-0.7681250000000001
 20
1.35371566785525
  0
LINE
  5
120
330
ED
100
AcDbEntity
  8
AM_9
100
AcDbLine
 10
-0.8775
 20
1.302651749851203
 30
0.0
 11
-0.8775
 21
1.066155967123731
 31
0.0
  0
LWPOLYLINE
  5
121
330
ED
100
AcDbEntity
  8
AM_9
100
AcDbPolyline
 90
        4
 70
     0
 43
0.0
 10
-0.7681250000000001
 20
1.283004989736595
 10
-0.79546875
 20
1.272271457105439
 10
-0.8228125000000001
 20
1.262371287134912
 10
-0.8775
 20
1.244764594201671
  0
LWPOLYLINE
  5
122
330
ED
100
AcDbEntity
  8
AM_9
100
AcDbPolyline
 90
        4
 70
     0
 43
0.0
 10
-0.6587500000000001
 20
1.334068907740641
 10
-0.7131916102741497
 20
1.307138779146779
 10
-0.7406200010907651
 20
1.294668419346799
 10
-0.7681250000000001
 20
1.283004989736595
  0
LINE
  5
123
330
ED
100
AcDbEntity
  8
AM_9
100
AcDbLine
 10
-0.4400000000000001
 20
1.302651749851203
 30
0.0
 11
-0.4400000000000001
 21
1.066155967123731
 31
0.0
  0
LWPOLYLINE
  5
124
330
ED
100
AcDbEntity
  8
AM_9
100
AcDbPolyline
 90
        4
 70
     0
 43
0.0
 10
-0.5493750000000002
 20
1.35371566785525
 10
-0.5220312500000001
 20
1.342123122101663
 10
-0.4946875000000001
 20
1.329697213687447
 10
-0.4400000000000001
 20
1.302651749851203
  0
LWPOLYLINE
  5
125
330
ED
100
AcDbEntity
  8
AM_9
100
AcDbPolyline
 90
        4
 70
     0
 43
0.0
 10
-0.6587500000000001
 20
1.391956063390174
 10
-0.6043083897258504
 20
1.374434803334993
 10
-0.576879998909235
 20
1.364509975812857
 10
-0.5493750000000002
 20
1.35371566785525
  0
LINE
  5
126
330
ED
100
AcDbEntity
  8
AM_9
100
AcDbLine
 10
-0.6587500000000001
 20
1.391956063390174
 30
0.0
 11
-0.6587500000000001
 21
1.334068907740641
 31
0.0
  0
LWPOLYLINE
  5
127
330
ED
100
AcDbEntity
  8
AM_9
100
AcDbPolyline
 90
        4
 70
     0
 43
0.0
 10
-0.5493750000000001
 20
1.283004989736595
 10
-0.57671875
 20
1.294597535490182
 10
-0.6040625000000001
 20
1.307023443904397
 10
-0.6587500000000001
 20
1.334068907740641
  0
LWPOLYLINE
  5
128
330
ED
100
AcDbEntity
  8
AM_9
100
AcDbPolyline
 90
        4
 70
     0
 43
0.0
 10
-0.4400000000000001
 20
1.244764594201671
 10
-0.4944416102741497
 20
1.262285854256852
 10
-0.5218700010907652
 20
1.272210681778988
 10
-0.5493750000000001
 20
1.283004989736595
  0
LINE
  5
129
330
ED
100
AcDbEntity
  8
AM_9
100
AcDbLine
 10
-0.4602293878686612
 20
0.9832373838621316
 30
0.0
 11
-0.4530986021565375
 21
1.14450177466279
 31
0.0
  0
LINE
  5
12A
330
ED
100
AcDbEntity
  8
AM_9
100
AcDbLine
 10
-0.8644013978434626
 20
1.14450177466279
 30
0.0
 11
-0.8572706121313388
 21
0.9832373838621316
 31
0.0
  0
ELLIPSE
  5
12B
330
ED
100
AcDbEntity
  8
AM_9
100
AcDbEllipse
 10
-0.6587500000000017
 20
0.9876264741551596
 30
0.0
 11
0.1986176267812136
 21
2.959633272606338E-9
 31
0.0
210
0.0
220
0.0
230
1.0
 40
0.7071067811865483
 41
3.172849283493429
 42
3.586877803721822
  0
ELLIPSE
  5
12C
330
ED
100
AcDbEntity
  8
AM_9
100
AcDbEllipse
 10
-0.6587500000000005
 20
0.9876264741551589
 30
0.0
 11
0.1986176267812148
 21
0.0
 31
0.0
210
0.0
220
0.0
230
1.0
 40
0.7071067811865483
 41
3.586877822840513
 42
8.979492791518663
  0
ELLIPSE
  5
12D
330
ED
100
AcDbEntity
  8
AM_9
100
AcDbEllipse
 10
-0.6587500000000027
 20
0.9876264741551591
 30
0.0
 11
0.1986176267812126
 21
0.0
 31
0.0
210
0.0
220
0.0
230
1.0
 40
0.7071067811865475
 41
2.696307484339071
 42
3.172849304556558
  0
ELLIPSE
  5
12E
330
ED
100
AcDbEntity
  8
AM_9
100
AcDbEllipse
 10
-0.6587500000000001
 20
0.9616652224137047
 30
0.0
 11
-0.161902872472269
 21
1.982738345459263E-17
 31
0.0
210
0.0
220
0.0
230
1.0
 40
0.7071067811865478
 41
0.0
 42
6.283185307179586
  0
ELLIPSE
  5
12F
330
ED
100
AcDbEntity
  8
AM_9
100
AcDbEllipse
 10
-0.6587499999999978
 20
1.315218613006976
 30
0.0
 11
0.1050000000000045
 21
0.0
 31
0.0
210
0.0
220
0.0
230
1.0
 40
0.7071067811865401
 41
0.0
 42
6.283185307179586
  0
ELLIPSE
  5
130
330
ED
100
AcDbEntity
  8
AM_9
100
AcDbEllipse
 10
-0.6587500000000068
 20
1.14904851942814
 30
0.0
 11
0.2057518972230628
 21
0.0
 31
0.0
210
0.0
220
0.0
230
1.0
 40
0.707106781186548
 41
0.0
 42
6.283185307179586
  0
ENDBLK
  5
F0
330
ED
100
AcDbEntity
  8
0
100
AcDbBlockEnd
  0
BLOCK
  5
133
330
131
100
AcDbEntity
  8
0
100
AcDbBlockBegin
  2
4_124443H_0_in_124443_2
 70
     2
 10
0.0
 20
0.0
 30
0.0
  3
4_124443H_0_in_124443_2
  1

  0
ATTDEF
  5
135
330
131
100
AcDbEntity
  8
AM_6
100
AcDbText
 10
5.0565
 20
1.625
 30
0.0
 40
0.5
  1
FB-SC -I-Housing
100
AcDbAttributeDefinition
  3

  2
NN
 70
     8
280
     0
  0
ATTDEF
  5
136
330
131
100
AcDbEntity
  8
AM_6
100
AcDbText
 10
5.0565
 20
1.125
 30
0.0
 40
0.5
  1
SC 3 Bolt Flange Bearings -(Normal Duty)
100
AcDbAttributeDefinition
  3

  2
NT
 70
     8
280
     0
  0
ATTDEF
  5
137
330
131
100
AcDbEntity
  8
AM_6
100
AcDbText
 10
5.0565
 20
0.625
 30
0.0
 40
0.5
  1
124443H
100
AcDbAttributeDefinition
  3

  2
NB
 70
     8
280
     0
  0
ATTDEF
  5
138
330
131
100
AcDbEntity
  8
AM_6
100
AcDbText
 10
5.0565
 20
0.125
 30
0.0
 40
0.5
  1
$PN.H
100
AcDbAttributeDefinition
  3

  2
NBSYN
 70
     8
280
     0
  0
ATTDEF
  5
139
330
131
100
AcDbEntity
  8
AM_6
100
AcDbText
 10
5.0565
 20
-0.375
 30
0.0
 40
0.5
  1
124443
100
AcDbAttributeDefinition
  3

  2
LINA
 70
     8
280
     0
  0
ATTDEF
  5
13A
330
131
100
AcDbEntity
  8
AM_6
100
AcDbText
 10
5.0565
 20
-0.875
 30
0.0
 40
0.5
  1
206
100
AcDbAttributeDefinition
  3

  2
SERIES
 70
     8
280
     0
  0
ATTDEF
  5
13B
330
131
100
AcDbEntity
  8
AM_6
100
AcDbText
 10
5.0565
 20
-1.375
 30
0.0
 40
0.5
  1
1-3/16
100
AcDbAttributeDefinition
  3

  2
SS
 70
     8
280
     0
  0
ATTDEF
  5
13C
330
131
100
AcDbEntity
  8
AM_6
100
AcDbText
 10
5.0565
 20
-1.875
 30
0.0
 40
0.5
  1
124443
100
AcDbAttributeDefinition
  3

  2
PN
 70
     8
280
     0
  0
ATTDEF
  5
13D
330
131
100
AcDbEntity
  8
AM_6
100
AcDbText
 10
5.0565
 20
-2.375
 30
0.0
 40
0.5
  1
FB-SC-103
100
AcDbAttributeDefinition
  3

  2
DESCRIPTION
 70
     8
280
     0
  0
ATTDEF
  5
13E
330
131
100
AcDbEntity
  8
AM_6
100
AcDbText
 10
5.0565
 20
-2.875
 30
0.0
 40
0.5
  1
1
100
AcDbAttributeDefinition
  3

  2
LF1
 70
     8
280
     0
  0
ATTDEF
  5
13F
330
131
100
AcDbEntity
  8
AM_6
100
AcDbText
 10
5.0565
 20
-3.375
 30
0.0
 40
0.5
  1
1.52
100
AcDbAttributeDefinition
  3

  2
A
 70
     8
280
     0
  0
ATTDEF
  5
140
330
131
100
AcDbEntity
  8
AM_6
100
AcDbText
 10
5.0565
 20
-3.875
 30
0.0
 40
0.5
  1
5.38
100
AcDbAttributeDefinition
  3

  2
B
 70
     8
280
     0
  0
ATTDEF
  5
141
330
131
100
AcDbEntity
  8
AM_6
100
AcDbText
 10
5.0565
 20
-4.375
 30
0.0
 40
0.5
  1
1.65
100
AcDbAttributeDefinition
  3

  2
C
 70
     8
280
     0
  0
ATTDEF
  5
142
330
131
100
AcDbEntity
  8
AM_6
100
AcDbText
 10
5.0565
 20
-4.875
 30
0.0
 40
0.5
  1
1.88
100
AcDbAttributeDefinition
  3

  2
D
 70
     8
280
     0
  0
ATTDEF
  5
143
330
131
100
AcDbEntity
  8
AM_6
100
AcDbText
 10
5.0565
 20
-5.375
 30
0.0
 40
0.5
  1
2.06
100
AcDbAttributeDefinition
  3

  2
E
 70
     8
280
     0
  0
ATTDEF
  5
144
330
131
100
AcDbEntity
  8
AM_6
100
AcDbText
 10
5.0565
 20
-5.875
 30
0.0
 40
0.5
  1
3/8
100
AcDbAttributeDefinition
  3

  2
F
 70
     8
280
     0
  0
ATTDEF
  5
145
330
131
100
AcDbEntity
  8
AM_6
100
AcDbText
 10
5.0565
 20
-6.375
 30
0.0
 40
0.5
  1
1.25
100
AcDbAttributeDefinition
  3

  2
G
 70
     8
280
     0
  0
ATTDEF
  5
146
330
131
100
AcDbEntity
  8
AM_6
100
AcDbText
 10
5.0565
 20
-6.875
 30
0.0
 40
0.5
  1
0.38
100
AcDbAttributeDefinition
  3

  2
H
 70
     8
280
     0
  0
ATTDEF
  5
147
330
131
100
AcDbEntity
  8
AM_6
100
AcDbText
 10
5.0565
 20
-7.375
 30
0.0
 40
0.5
  1
3.75
100
AcDbAttributeDefinition
  3

  2
I
 70
     8
280
     0
  0
ATTDEF
  5
148
330
131
100
AcDbEntity
  8
AM_6
100
AcDbText
 10
5.0565
 20
-7.875
 30
0.0
 40
0.5
  1
3.25
100
AcDbAttributeDefinition
  3

  2
J
 70
     8
280
     0
  0
ATTDEF
  5
149
330
131
100
AcDbEntity
  8
AM_6
100
AcDbText
 10
5.0565
 20
-8.375
 30
0.0
 40
0.5
  1
1.13
100
AcDbAttributeDefinition
  3

  2
K
 70
     8
280
     0
  0
ATTDEF
  5
14A
330
131
100
AcDbEntity
  8
AM_6
100
AcDbText
 10
5.0565
 20
-8.875
 30
0.0
 40
0.5
  1
1.57
100
AcDbAttributeDefinition
  3

  2
L
 70
     8
280
     0
  0
ATTDEF
  5
14B
330
131
100
AcDbEntity
  8
AM_6
100
AcDbText
 10
5.0565
 20
-9.375
 30
0.0
 40
0.5
  1
2.75
100
AcDbAttributeDefinition
  3

  2
M
 70
     8
280
     0
  0
ATTDEF
  5
14C
330
131
100
AcDbEntity
  8
AM_6
100
AcDbText
 10
5.0565
 20
-9.875
 30
0.0
 40
0.5
  1
baldor
100
AcDbAttributeDefinition
  3

  2
COMPANY
 70
     8
280
     0
  0
LINE
  5
14D
330
131
100
AcDbEntity
  8
AM_9
100
AcDbLine
 10
-0.7887499999999998
 20
1.100254255605194
 30
0.0
 11
-0.7887499999999998
 21
1.00762716319083
 31
0.0
  0
LINE
  5
14E
330
131
100
AcDbEntity
  8
AM_9
100
AcDbLine
 10
-0.52875
 20
1.00762716319083
 30
0.0
 11
-0.52875
 21
1.116310016179799
 31
0.0
  0
LWPOLYLINE
  5
14F
330
131
100
AcDbEntity
  8
AM_9
100
AcDbPolyline
 90
       20
 70
     0
 43
0.0
 10
-0.7887499991103055
 20
1.10024267113274
 10
-0.7876588846555616
 20
1.112069037704436
 10
-0.7830373711610766
 20
1.127227227323675
 10
-0.7748630459020959
 20
1.141653938026969
 10
-0.7634163172228294
 20
1.15499140666904
 10
-0.7489845746333746
 20
1.166886616214853
 10
-0.7320162267487189
 20
1.177082488864244
 10
-0.7129885733489509
 20
1.185309503792638
 10
-0.6924545302086209
 20
1.191422904524829
 10
-0.6709907547445008
 20
1.195258849312505
 10
-0.6492097564786304
 20
1.196765826616305
 10
-0.627640806735076
 20
1.195872036579841
 10
-0.6069611964266832
 20
1.192611697509379
 10
-0.5876293771947411
 20
1.186969324576683
 10
-0.5703103929437355
 20
1.179101009450152
 10
-0.5554851138150402
 20
1.169109794630275
 10
-0.5435982486923061
 20
1.157265192133426
 10
-0.535097856732277
 20
1.143926395605959
 10
-0.5300975023037535
 20
1.129377635928686
 10
-0.5287500007233176
 20
1.116328323707275
  0
LWPOLYLINE
  5
150
330
131
100
AcDbEntity
  8
AM_9
100
AcDbPolyline
 90
       11
 70
     0
 43
0.0
 10
-0.5287500007233176
 20
1.116328323707275
 10
-0.5287984858814637
 20
1.114195793723027
 10
-0.531103331659791
 20
1.098645017428715
 10
-0.5369473747485146
 20
1.083267820472821
 10
-0.546110524291903
 20
1.068426308898091
 10
-0.5584601601019048
 20
1.054488894504244
 10
-0.5735548596694476
 20
1.04196683507996
 10
-0.5912406031063259
 20
1.031148970825902
 10
-0.6108237715720741
 20
1.022521463134407
 10
-0.6245711018364658
 20
1.018174734452562
 10
-0.6387496330856615
 20
1.01497952561451
  0
LINE
  5
151
330
131
100
AcDbEntity
  8
AM_9
100
AcDbLine
 10
-0.3799999999999999
 20
-3.4975
 30
0.0
 11
0.0
 21
-3.4975
 31
0.0
  0
LINE
  5
152
330
131
100
AcDbEntity
  8
AM_9
100
AcDbLine
 10
0.0
 20
-3.1225
 30
0.0
 11
-0.3799999999999999
 21
-3.1225
 31
0.0
  0
LINE
  5
153
330
131
100
AcDbEntity
  8
AM_9
100
AcDbLine
 10
-0.3799999999999999
 20
-2.2475
 30
0.0
 11
0.0000000000000001
 21
-2.2475
 31
0.0
  0
LINE
  5
154
330
131
100
AcDbEntity
  8
AM_9
100
AcDbLine
 10
0.0000000000000001
 20
-1.8725
 30
0.0
 11
-0.3799999999999999
 21
-1.8725
 31
0.0
  0
LINE
  5
155
330
131
100
AcDbEntity
  8
AM_9
100
AcDbLine
 10
-0.6779999999999998
 20
-0.59375
 30
0.0
 11
-0.0949999999999999
 21
-0.59375
 31
0.0
  0
LINE
  5
156
330
131
100
AcDbEntity
  8
AM_9
100
AcDbLine
 10
-0.6779999999999998
 20
0.5937499999999991
 30
0.0
 11
-0.0949999999999999
 21
0.5937499999999991
 31
0.0
  0
LINE
  5
157
330
131
100
AcDbEntity
  8
AM_9
100
AcDbLine
 10
-1.13
 20
-1.22045
 30
0.0
 11
-0.0949999999999999
 21
-1.22045
 31
0.0
  0
LINE
  5
158
330
131
100
AcDbEntity
  8
AM_9
100
AcDbLine
 10
-0.0949999999999999
 20
1.22045
 30
0.0
 11
-1.13
 21
1.22045
 31
0.0
  0
LINE
  5
159
330
131
100
AcDbEntity
  8
AM_9
100
AcDbLine
 10
-0.6779999999999998
 20
-0.59375
 30
0.0
 11
-0.6779999999999998
 21
0.5937499999999991
 31
0.0
  0
LINE
  5
15A
330
131
100
AcDbEntity
  8
AM_9
100
AcDbLine
 10
-0.095
 20
-1.356055555555556
 30
0.0
 11
0.0
 21
-1.356055555555556
 31
0.0
  0
LINE
  5
15B
330
131
100
AcDbEntity
  8
AM_9
100
AcDbLine
 10
0.0
 20
1.356055555555556
 30
0.0
 11
-0.095
 21
1.356055555555556
 31
0.0
  0
LINE
  5
15C
330
131
100
AcDbEntity
  8
AM_9
100
AcDbLine
 10
-0.095
 20
1.356055555555556
 30
0.0
 11
-0.095
 21
-1.356055555555556
 31
0.0
  0
LWPOLYLINE
  5
15D
330
131
100
AcDbEntity
  8
AM_9
100
AcDbPolyline
 90
       12
 70
     0
 43
0.0
 10
-0.6387496330856615
 20
1.01497952561451
 10
-0.6605577336765417
 20
1.012461239257125
 10
-0.6823400796136809
 20
1.012740927768157
 10
-0.7034771748204972
 20
1.01585376332688
 10
-0.7233682596058182
 20
1.021650099440158
 10
-0.7413535259594334
 20
1.029931167098511
 10
-0.7570227032900909
 20
1.040395541921401
 10
-0.7698828981509692
 20
1.052710910311588
 10
-0.7796226389410874
 20
1.066461523709453
 10
-0.7859250616901061
 20
1.081247901741183
 10
-0.7886470666941162
 20
1.09659638911528
 10
-0.7887499991103055
 20
1.10024267113274
  0
ELLIPSE
  5
15E
330
131
100
AcDbEntity
  8
AM_9
100
AcDbEllipse
 10
-0.65875
 20
1.00762716319083
 30
0.0
 11
-0.1299999999999999
 21
1.592040838891558E-17
 31
0.0
210
0.0
220
0.0
230
1.0
 40
0.707106781186546
 41
0.0
 42
6.283185307179586
  0
LINE
  5
15F
330
131
100
AcDbEntity
  8
AM_7
100
AcDbLine
 10
0.019
 20
-3.31
 30
0.0
 11
-0.399
 21
-3.31
 31
0.0
  0
LINE
  5
160
330
131
100
AcDbEntity
  8
AM_7
100
AcDbLine
 10
0.0189999999999999
 20
-2.06
 30
0.0
 11
-0.3990000000000001
 21
-2.06
 31
0.0
  0
LINE
  5
161
330
131
100
AcDbEntity
  8
AM_7
100
AcDbLine
 10
-1.726
 20
0.0
 30
0.0
 11
0.0565
 21
0.0
 31
0.0
  0
LINE
  5
162
330
131
100
AcDbEntity
  8
AM_4
100
AcDbLine
 10
-1.13
 20
1.456496640990382
 30
0.0
 11
-1.13
 21
-1.534421277261289
 31
0.0
  0
LINE
  5
163
330
131
100
AcDbEntity
  8
AM_4
100
AcDbLine
 10
-1.059629912262469
 20
-1.682031182389887
 30
0.0
 11
-0.431348927435221
 21
-2.191219227904717
 31
0.0
  0
ARC
  5
164
330
131
100
AcDbEntity
  8
AM_4
100
AcDbCircle
 10
-0.549404761904753
 20
-2.336886897439512
 30
0.0
 40
0.1874999999999893
100
AcDbArc
 50
25.37905101622238
 51
50.97708772901201
  0
ARC
  5
165
330
131
100
AcDbEntity
  8
AM_4
100
AcDbCircle
 10
-0.9400000000000013
 20
-1.534421277261289
 30
0.0
 40
0.1899999999999986
100
AcDbArc
 50
180.0
 51
230.9770877290111
  0
LINE
  5
166
330
131
100
AcDbEntity
  8
AM_4
100
AcDbLine
 10
-0.3799999999999999
 20
-3.75
 30
0.0
 11
0.0
 21
-3.75
 31
0.0
  0
LINE
  5
167
330
131
100
AcDbEntity
  8
AM_4
100
AcDbLine
 10
-0.3799999999999999
 20
-3.573324321682555
 30
0.0
 11
0.0
 21
-3.573324321682555
 31
0.0
  0
LINE
  5
168
330
131
100
AcDbEntity
  8
AM_4
100
AcDbLine
 10
-0.3799999999999999
 20
-3.75
 30
0.0
 11
-0.3799999999999999
 21
-0.8019082095797134
 31
0.0
  0
LINE
  5
169
330
131
100
AcDbEntity
  8
AM_4
100
AcDbLine
 10
-0.3799999999999999
 20
-2.059999999999999
 30
0.0
 11
0.0000000000000001
 21
-2.059999999999999
 31
0.0
  0
LINE
  5
16A
330
131
100
AcDbEntity
  8
AM_4
100
AcDbLine
 10
-0.3799999999999999
 20
-2.320331999845253
 30
0.0
 11
0.0000000000000001
 21
-2.320331999845253
 31
0.0
  0
LWPOLYLINE
  5
16B
330
131
100
AcDbEntity
  8
AM_4
100
AcDbPolyline
 90
       10
 70
     0
 43
0.0
 10
-1.060623836448822
 20
-1.520381410436707
 10
-1.071146251803034
 20
-1.518698177755824
 10
-1.081532465587974
 20
-1.515470169785681
 10
-1.095358522936995
 20
-1.508337983625092
 10
-1.105358325132584
 20
-1.500536172270848
 10
-1.114152174096802
 20
-1.490889760001529
 10
-1.121004878095554
 20
-1.480217980022487
 10
-1.126123106956649
 20
-1.468217535018243
 10
-1.129000088930233
 20
-1.456443384228836
 10
-1.13
 20
-1.444050714212051
  0
ARC
  5
16C
330
131
100
AcDbEntity
  8
AM_4
100
AcDbCircle
 10
-1.054
 20
1.456496640990382
 30
0.0
 40
0.0759999999999995
100
AcDbArc
 50
94.99999999999972
 51
180.0
  0
LINE
  5
16D
330
131
100
AcDbEntity
  8
AM_4
100
AcDbLine
 10
-1.060623836448822
 20
-1.520381410436707
 30
0.0
 11
-0.3800000000000001
 21
-1.580373935684634
 31
0.0
  0
LINE
  5
16E
330
131
100
AcDbEntity
  8
AM_4
100
AcDbLine
 10
-0.3799999999999999
 20
-0.8019082095797134
 30
0.0
 11
0.0000000000000001
 21
-0.8660254037844388
 31
0.0
  0
LINE
  5
16F
330
131
100
AcDbEntity
  8
AM_4
100
AcDbLine
 10
0.0
 20
1.625
 30
0.0
 11
-1.060623836448822
 21
1.532207438045354
 31
0.0
  0
LINE
  5
170
330
131
100
AcDbEntity
  8
AM_4
100
AcDbLine
 10
-1.060623836448822
 20
1.532207438045354
 30
0.0
 11
-1.060623836448822
 21
-1.520381410436707
 31
0.0
  0
LINE
  5
171
330
131
100
AcDbEntity
  8
AM_4
100
AcDbLine
 10
0.0
 20
1.625
 30
0.0
 11
0.0
 21
-3.75
 31
0.0
  0
ENDBLK
  5
134
330
131
100
AcDbEntity
  8
0
100
AcDbBlockEnd
  0
ENDSEC
  0
SECTION
  2
ENTITIES
  0
INSERT
  5
6F
330
1F
100
AcDbEntity
  8
0
100
AcDbBlockReference
  2
1_124443_2
 10
0.0
 20
0.0
 30
0.0
  0
POINT
  5
173
330
1F
100
AcDbEntity
  8
ConnectionPoints
100
AcDbPoint
 10
-0.6587500000000001
 20
1.14904851942814
 30
-1.14904851942814
  0
POINT
  5
174
330
1F
100
AcDbEntity
  8
ConnectionPoints
100
AcDbPoint
 10
-0.6587500000000001
 20
1.14904851942814
 30
-1.14904851942814
  0
POINT
  5
175
330
1F
100
AcDbEntity
  8
ConnectionPoints
100
AcDbPoint
 10
-1.65
 20
0.0
 30
0.0000000000000001
  0
ENDSEC
  0
SECTION
  2
OBJECTS
  0
DICTIONARY
  5
C
330
0
100
AcDbDictionary
281
     1
  3
ACAD_DETAILVIEWSTYLE
350
17D
  3
ACAD_GROUP
350
D
  3
ACAD_LAYOUT
350
1A
  3
ACAD_MATERIAL
350
43
  3
ACAD_MLEADERSTYLE
350
6B
  3
ACAD_MLINESTYLE
350
17
  3
ACAD_PLOTSETTINGS
350
19
  3
ACAD_PLOTSTYLENAME
350
E
  3
ACAD_SCALELIST
350
47
  3
ACAD_SECTIONVIEWSTYLE
350
17E
  3
ACAD_TABLESTYLE
350
69
  3
ACAD_VISUALSTYLE
350
2A
  3
ACDB_RECOMPOSE_DATA
350
17A
  3
AcDbVariableDictionary
350
176
  0
SUN
  5
6D
330
29
100
AcDbSun
 90
        1
290
     0
 63
     7
421
 16777215
 40
1.0
291
     1
 91
  2455826
 92
 54000000
292
     0
 70
     2
 71
   256
280
     1
  0
DICTIONARY
  5
17D
102
{ACAD_REACTORS
330
C
102
}
330
C
100
AcDbDictionary
281
     1
  0
DICTIONARY
  5
D
102
{ACAD_REACTORS
330
C
102
}
330
C
100
AcDbDictionary
281
     1
  0
DICTIONARY
  5
1A
102
{ACAD_REACTORS
330
C
102
}
330
C
100
AcDbDictionary
281
     1
  3
Layout1
350
1E
  3
Layout2
350
26
  3
Model
350
22
  0
DICTIONARY
  5
43
102
{ACAD_REACTORS
330
C
102
}
330
C
100
AcDbDictionary
281
     1
  3
ByBlock
350
45
  3
ByLayer
350
44
  3
Global
350
46
  0
DICTIONARY
  5
6B
102
{ACAD_REACTORS
330
C
102
}
330
C
100
AcDbDictionary
281
     1
  3
Standard
350
6C
  0
DICTIONARY
  5
17
102
{ACAD_REACTORS
330
C
102
}
330
C
100
AcDbDictionary
281
     1
  3
Standard
350
18
  0
DICTIONARY
  5
19
102
{ACAD_REACTORS
330
C
102
}
330
C
100
AcDbDictionary
281
     1
  0
ACDBDICTIONARYWDFLT
  5
E
102
{ACAD_REACTORS
330
C
102
}
330
C
100
AcDbDictionary
281
     1
  3
Normal
350
F
100
AcDbDictionaryWithDefault
340
F
  0
DICTIONARY
  5
47
102
{ACAD_REACTORS
330
C
102
}
330
C
100
AcDbDictionary
281
     1
  3
A0
350
48
  3
A1
350
49
  3
A2
350
4A
  3
A3
350
4B
  3
A4
350
4C
  3
A5
350
4D
  3
A6
350
4E
  3
A7
350
4F
  3
A8
350
50
  3
A9
350
51
  3
B0
350
52
  3
B1
350
53
  3
B2
350
54
  3
B3
350
55
  3
B4
350
56
  3
B5
350
57
  3
B6
350
58
  3
B7
350
59
  3
B8
350
5A
  3
B9
350
5B
  3
C0
350
5C
  3
C1
350
5D
  3
C2
350
5E
  3
C3
350
5F
  3
C4
350
60
  3
C5
350
61
  3
C6
350
62
  3
C7
350
63
  3
C8
350
64
  3
C9
350
65
  3
D0
350
66
  3
D1
350
67
  3
D2
350
68
  0
DICTIONARY
  5
17E
102
{ACAD_REACTORS
330
C
102
}
330
C
100
AcDbDictionary
281
     1
  0
DICTIONARY
  5
69
102
{ACAD_REACTORS
330
C
102
}
330
C
100
AcDbDictionary
281
     1
  3
Standard
350
6A
  0
DICTIONARY
  5
2A
102
{ACAD_REACTORS
330
C
102
}
330
C
100
AcDbDictionary
281
     1
  3
2dWireframe
350
2F
  3
Basic
350
32
  3
Brighten
350
36
  3
ColorChange
350
3A
  3
Conceptual
350
34
  3
Dim
350
35
  3
EdgeColorOff
350
3D
  3
Facepattern
350
39
  3
Flat
350
2B
  3
FlatWithEdges
350
2C
  3
Gouraud
350
2D
  3
GouraudWithEdges
350
2E
  3
Hidden
350
31
  3
JitterOff
350
3B
  3
Linepattern
350
38
  3
OverhangOff
350
3C
  3
Realistic
350
33
  3
Shaded
350
42
  3
Shaded with edges
350
41
  3
Shades of Gray
350
3E
  3
Sketchy
350
3F
  3
Thicken
350
37
  3
Wireframe
350
30
  3
X-Ray
350
40
  0
XRECORD
  5
17A
102
{ACAD_REACTORS
330
C
102
}
330
C
100
AcDbXrecord
280
     1
 90
        1
330
6A
  0
DICTIONARY
  5
176
102
{ACAD_REACTORS
330
C
102
}
330
C
100
AcDbDictionary
281
     1
  3
CANNOSCALE
350
177
  3
CMLEADERSTYLE
350
17C
  3
CTABLESTYLE
350
17B
  0
LAYOUT
  5
1E
102
{ACAD_REACTORS
330
1A
102
}
330
1A
100
AcDbPlotSettings
  1

  2
none_device
  4

  6

 40
0.0
 41
0.0
 42
0.0
 43
0.0
 44
0.0
 45
0.0
 46
0.0
 47
0.0
 48
0.0
 49
0.0
140
0.0
141
0.0
142
1.0
143
1.0
 70
   688
 72
     0
 73
     0
 74
     5
  7

 75
    16
 76
     0
 77
     2
 78
   300
147
1.0
148
0.0
149
0.0
100
AcDbLayout
  1
Layout1
 70
     1
 71
     1
 10
0.0
 20
0.0
 11
12.0
 21
9.0
 12
0.0
 22
0.0
 32
0.0
 14
1.000000000000000E+20
 24
1.000000000000000E+20
 34
1.000000000000000E+20
 15
-1.000000000000000E+20
 25
-1.000000000000000E+20
 35
-1.000000000000000E+20
146
0.0
 13
0.0
 23
0.0
 33
0.0
 16
1.0
 26
0.0
 36
0.0
 17
0.0
 27
1.0
 37
0.0
 76
     0
330
1B
  0
LAYOUT
  5
26
102
{ACAD_REACTORS
330
1A
102
}
330
1A
100
AcDbPlotSettings
  1

  2
none_device
  4

  6

 40
0.0
 41
0.0
 42
0.0
 43
0.0
 44
0.0
 45
0.0
 46
0.0
 47
0.0
 48
0.0
 49
0.0
140
0.0
141
0.0
142
1.0
143
1.0
 70
   688
 72
     0
 73
     0
 74
     5
  7

 75
    16
 76
     0
 77
     2
 78
   300
147
1.0
148
0.0
149
0.0
100
AcDbLayout
  1
Layout2
 70
     1
 71
     2
 10
0.0
 20
0.0
 11
0.0
 21
0.0
 12
0.0
 22
0.0
 32
0.0
 14
0.0
 24
0.0
 34
0.0
 15
0.0
 25
0.0
 35
0.0
146
0.0
 13
0.0
 23
0.0
 33
0.0
 16
1.0
 26
0.0
 36
0.0
 17
0.0
 27
1.0
 37
0.0
 76
     0
330
23
  0
LAYOUT
  5
22
102
{ACAD_REACTORS
330
1A
102
}
330
1A
100
AcDbPlotSettings
  1

  2
none_device
  4
Letter_(8.50_x_11.00_Inches)
  6

 40
6.35
 41
6.35
 42
6.35000508
 43
6.35000508
 44
215.9
 45
279.4
 46
0.0
 47
0.0
 48
0.0
 49
0.0
140
0.0
141
0.0
142
1.0
143
1.0
 70
  1712
 72
     0
 73
     0
 74
     0
  7

 75
     0
 76
     0
 77
     2
 78
   300
147
1.0
148
0.0
149
0.0
100
AcDbLayout
  1
Model
 70
     1
 71
     0
 10
0.0
 20
0.0
 11
12.0
 21
9.0
 12
0.0
 22
0.0
 32
0.0
 14
1.000000000000000E+20
 24
1.000000000000000E+20
 34
1.000000000000000E+20
 15
-1.000000000000000E+20
 25
-1.000000000000000E+20
 35
-1.000000000000000E+20
146
0.0
 13
0.0
 23
0.0
 33
0.0
 16
1.0
 26
0.0
 36
0.0
 17
0.0
 27
1.0
 37
0.0
 76
     0
330
1F
331
29
  0
MATERIAL
  5
45
102
{ACAD_REACTORS
330
43
102
}
330
43
100
AcDbMaterial
  1
ByBlock
 72
     1
 94
      127
  0
MATERIAL
  5
44
102
{ACAD_REACTORS
330
43
102
}
330
43
100
AcDbMaterial
  1
ByLayer
 72
     1
 94
      127
  0
MATERIAL
  5
46
102
{ACAD_REACTORS
330
43
102
}
330
43
100
AcDbMaterial
  1
Global
 72
     1
 94
      127
  0
MLEADERSTYLE
  5
6C
102
{ACAD_REACTORS
330
6B
102
}
330
6B
100
AcDbMLeaderStyle
179
     2
170
     2
171
     1
172
     0
 90
        2
 40
0.0
 41
0.0
173
     1
 91
-1056964608
340
14
 92
       -2
290
     1
 42
0.09
291
     1
 43
0.36
  3
Standard
341
0
 44
0.18
300

342
11
174
     1
178
     6
175
     1
176
     0
 93
-1056964608
 45
0.18
292
     0
297
     0
 46
0.18
343
0
 94
-1056964608
 47
1.0
 49
1.0
140
1.0
293
     1
141
0.0
294
     1
177
     0
142
1.0
295
     0
296
     0
143
0.125
271
     0
272
     9
273
     9
298
     0
  0
MLINESTYLE
  5
18
102
{ACAD_REACTORS
330
17
102
}
330
17
100
AcDbMlineStyle
  2
Standard
 70
     0
  3

 62
   256
 51
90.0
 52
90.0
 71
     2
 49
0.5
 62
   256
  6
BYLAYER
 49
-0.5
 62
   256
  6
BYLAYER
  0
ACDBPLACEHOLDER
  5
F
102
{ACAD_REACTORS
330
E
102
}
330
E
  0
SCALE
  5
48
102
{ACAD_REACTORS
330
47
102
}
330
47
100
AcDbScale
 70
     0
300
1:1
140
1.0
141
1.0
290
     1
  0
SCALE
  5
49
102
{ACAD_REACTORS
330
47
102
}
330
47
100
AcDbScale
 70
     0
300
1:2
140
1.0
141
2.0
290
     0
  0
SCALE
  5
4A
102
{ACAD_REACTORS
330
47
102
}
330
47
100
AcDbScale
 70
     0
300
1:4
140
1.0
141
4.0
290
     0
  0
SCALE
  5
4B
102
{ACAD_REACTORS
330
47
102
}
330
47
100
AcDbScale
 70
     0
300
1:5
140
1.0
141
5.0
290
     0
  0
SCALE
  5
4C
102
{ACAD_REACTORS
330
47
102
}
330
47
100
AcDbScale
 70
     0
300
1:8
140
1.0
141
8.0
290
     0
  0
SCALE
  5
4D
102
{ACAD_REACTORS
330
47
102
}
330
47
100
AcDbScale
 70
     0
300
1:10
140
1.0
141
10.0
290
     0
  0
SCALE
  5
4E
102
{ACAD_REACTORS
330
47
102
}
330
47
100
AcDbScale
 70
     0
300
1:16
140
1.0
141
16.0
290
     0
  0
SCALE
  5
4F
102
{ACAD_REACTORS
330
47
102
}
330
47
100
AcDbScale
 70
     0
300
1:20
140
1.0
141
20.0
290
     0
  0
SCALE
  5
50
102
{ACAD_REACTORS
330
47
102
}
330
47
100
AcDbScale
 70
     0
300
1:30
140
1.0
141
30.0
290
     0
  0
SCALE
  5
51
102
{ACAD_REACTORS
330
47
102
}
330
47
100
AcDbScale
 70
     0
300
1:40
140
1.0
141
40.0
290
     0
  0
SCALE
  5
52
102
{ACAD_REACTORS
330
47
102
}
330
47
100
AcDbScale
 70
     0
300
1:50
140
1.0
141
50.0
290
     0
  0
SCALE
  5
53
102
{ACAD_REACTORS
330
47
102
}
330
47
100
AcDbScale
 70
     0
300
1:100
140
1.0
141
100.0
290
     0
  0
SCALE
  5
54
102
{ACAD_REACTORS
330
47
102
}
330
47
100
AcDbScale
 70
     0
300
2:1
140
2.0
141
1.0
290
     0
  0
SCALE
  5
55
102
{ACAD_REACTORS
330
47
102
}
330
47
100
AcDbScale
 70
     0
300
4:1
140
4.0
141
1.0
290
     0
  0
SCALE
  5
56
102
{ACAD_REACTORS
330
47
102
}
330
47
100
AcDbScale
 70
     0
300
8:1
140
8.0
141
1.0
290
     0
  0
SCALE
  5
57
102
{ACAD_REACTORS
330
47
102
}
330
47
100
AcDbScale
 70
     0
300
10:1
140
10.0
141
1.0
290
     0
  0
SCALE
  5
58
102
{ACAD_REACTORS
330
47
102
}
330
47
100
AcDbScale
 70
     0
300
100:1
140
100.0
141
1.0
290
     0
  0
SCALE
  5
59
102
{ACAD_REACTORS
330
47
102
}
330
47
100
AcDbScale
 70
     0
300
1/128" = 1'-0"
140
0.0078125
141
12.0
290
     0
  0
SCALE
  5
5A
102
{ACAD_REACTORS
330
47
102
}
330
47
100
AcDbScale
 70
     0
300
1/64" = 1'-0"
140
0.015625
141
12.0
290
     0
  0
SCALE
  5
5B
102
{ACAD_REACTORS
330
47
102
}
330
47
100
AcDbScale
 70
     0
300
1/32" = 1'-0"
140
0.03125
141
12.0
290
     0
  0
SCALE
  5
5C
102
{ACAD_REACTORS
330
47
102
}
330
47
100
AcDbScale
 70
     0
300
1/16" = 1'-0"
140
0.0625
141
12.0
290
     0
  0
SCALE
  5
5D
102
{ACAD_REACTORS
330
47
102
}
330
47
100
AcDbScale
 70
     0
300
3/32" = 1'-0"
140
0.09375
141
12.0
290
     0
  0
SCALE
  5
5E
102
{ACAD_REACTORS
330
47
102
}
330
47
100
AcDbScale
 70
     0
300
1/8" = 1'-0"
140
0.125
141
12.0
290
     0
  0
SCALE
  5
5F
102
{ACAD_REACTORS
330
47
102
}
330
47
100
AcDbScale
 70
     0
300
3/16" = 1'-0"
140
0.1875
141
12.0
290
     0
  0
SCALE
  5
60
102
{ACAD_REACTORS
330
47
102
}
330
47
100
AcDbScale
 70
     0
300
1/4" = 1'-0"
140
0.25
141
12.0
290
     0
  0
SCALE
  5
61
102
{ACAD_REACTORS
330
47
102
}
330
47
100
AcDbScale
 70
     0
300
3/8" = 1'-0"
140
0.375
141
12.0
290
     0
  0
SCALE
  5
62
102
{ACAD_REACTORS
330
47
102
}
330
47
100
AcDbScale
 70
     0
300
1/2" = 1'-0"
140
0.5
141
12.0
290
     0
  0
SCALE
  5
63
102
{ACAD_REACTORS
330
47
102
}
330
47
100
AcDbScale
 70
     0
300
3/4" = 1'-0"
140
0.75
141
12.0
290
     0
  0
SCALE
  5
64
102
{ACAD_REACTORS
330
47
102
}
330
47
100
AcDbScale
 70
     0
300
1" = 1'-0"
140
1.0
141
12.0
290
     0
  0
SCALE
  5
65
102
{ACAD_REACTORS
330
47
102
}
330
47
100
AcDbScale
 70
     0
300
1-1/2" = 1'-0"
140
1.5
141
12.0
290
     0
  0
SCALE
  5
66
102
{ACAD_REACTORS
330
47
102
}
330
47
100
AcDbScale
 70
     0
300
3" = 1'-0"
140
3.0
141
12.0
290
     0
  0
SCALE
  5
67
102
{ACAD_REACTORS
330
47
102
}
330
47
100
AcDbScale
 70
     0
300
6" = 1'-0"
140
6.0
141
12.0
290
     0
  0
SCALE
  5
68
102
{ACAD_REACTORS
330
47
102
}
330
47
100
AcDbScale
 70
     0
300
1'-0" = 1'-0"
140
12.0
141
12.0
290
     0
  0
TABLESTYLE
  5
6A
102
{ACAD_REACTORS
330
69
102
}
102
{ACAD_XDICTIONARY
360
178
102
}
330
69
100
AcDbTableStyle
  3
Standard
 70
     0
 71
     0
 40
0.06
 41
0.06
280
     0
281
     0
  7
Standard
140
0.18
170
     2
 62
     0
 63
   257
283
     0
 90
        4
 91
        0
  1

274
    -2
284
     1
 64
     0
275
    -2
285
     1
 65
     0
276
    -2
286
     1
 66
     0
277
    -2
287
     1
 67
     0
278
    -2
288
     1
 68
     0
279
    -2
289
     1
 69
     0
  7
Standard
140
0.25
170
     5
 62
     0
 63
   257
283
     0
 90
        4
 91
        0
  1

274
    -2
284
     1
 64
     0
275
    -2
285
     1
 65
     0
276
    -2
286
     1
 66
     0
277
    -2
287
     1
 67
     0
278
    -2
288
     1
 68
     0
279
    -2
289
     1
 69
     0
  7
Standard
140
0.18
170
     5
 62
     0
 63
   257
283
     0
 90
        4
 91
        0
  1

274
    -2
284
     1
 64
     0
275
    -2
285
     1
 65
     0
276
    -2
286
     1
 66
     0
277
    -2
287
     1
 67
     0
278
    -2
288
     1
 68
     0
279
    -2
289
     1
 69
     0
  0
VISUALSTYLE
  5
2F
102
{ACAD_REACTORS
330
2A
102
}
330
2A
100
AcDbVisualStyle
  2
2dWireframe
 70
     4
177
     3
291
     0
 70
    58
 90
        0
176
     1
 90
        2
176
     1
 90
        0
176
     1
 90
        0
176
     1
 40
0.6
176
     1
 40
30.0
176
     1
 62
     7
420
 16777215
176
     1
 90
        1
176
     1
 90
        4
176
     1
 62
     7
176
     1
 62
   257
176
     1
 90
        1
176
     1
 90
        1
176
     1
 40
1.0
176
     1
 90
        0
176
     1
 62
   257
176
     1
 40
1.0
176
     1
 90
        1
176
     1
 90
        6
176
     1
 90
        2
176
     1
 62
     7
176
     1
 90
        5
176
     1
 90
        0
176
     1
 90
        0
176
     1
290
     0
176
     1
 90
        1
176
     1
 40
0.0
176
     1
 90
        0
176
     1
290
     1
176
     1
290
     1
176
     1
290
     0
176
     1
290
     0
176
     1
290
     0
176
     1
290
     0
176
     1
290
     0
176
     1
290
     0
176
     1
290
     0
176
     1
 90
       50
176
     1
 40
0.0
176
     1
 40
1.0
176
     1
 90
        0
176
     1
 62
    18
420
        0
176
     1
 90
       50
176
     1
 90
        3
176
     1
 62
     5
420
      255
176
     1
290
     0
176
     1
 90
       50
176
     1
 90
       50
176
     1
 90
       50
176
     1
290
     0
176
     1
 90
       50
176
     1
 62
   256
176
     0
 40
1.0
176
     0
 90
        2
176
     1
  1
strokes_ogs.tif
176
     1
290
     0
176
     1
 40
1.0
176
     1
 40
1.0
176
     1
  0
VISUALSTYLE
  5
32
102
{ACAD_REACTORS
330
2A
102
}
330
2A
100
AcDbVisualStyle
  2
Basic
 70
     7
177
     3
291
     1
 70
    58
 90
        1
176
     1
 90
        0
176
     1
 90
        1
176
     1
 90
        0
176
     1
 40
0.6
176
     1
 40
30.0
176
     1
 62
     7
420
 16777215
176
     1
 90
        0
176
     1
 90
        4
176
     1
 62
     7
176
     1
 62
   257
176
     1
 90
        1
176
     1
 90
        1
176
     1
 40
1.0
176
     1
 90
        8
176
     1
 62
     7
176
     1
 40
1.0
176
     1
 90
        1
176
     1
 90
        6
176
     1
 90
        2
176
     1
 62
     7
176
     1
 90
        5
176
     1
 90
        0
176
     1
 90
        0
176
     1
290
     0
176
     1
 90
        1
176
     1
 40
0.0
176
     1
 90
        0
176
     1
290
     0
176
     1
290
     1
176
     1
290
     1
176
     1
290
     0
176
     1
290
     0
176
     1
290
     0
176
     1
290
     0
176
     1
290
     0
176
     1
290
     0
176
     1
 90
       50
176
     1
 40
0.0
176
     1
 40
1.0
176
     1
 90
        0
176
     1
 62
    18
420
        0
176
     1
 90
       50
176
     1
 90
        3
176
     1
 62
     5
420
      255
176
     1
290
     0
176
     1
 90
       50
176
     1
 90
       50
176
     1
 90
       50
176
     1
290
     0
176
     1
 90
       50
176
     1
 62
   256
176
     0
 40
1.0
176
     0
 90
        2
176
     1
  1
strokes_ogs.tif
176
     1
290
     0
176
     1
 40
1.0
176
     1
 40
1.0
176
     1
  0
VISUALSTYLE
  5
36
102
{ACAD_REACTORS
330
2A
102
}
330
2A
100
AcDbVisualStyle
  2
Brighten
 70
    12
177
     3
291
     1
 70
    58
 90
        2
176
     1
 90
        2
176
     1
 90
        0
176
     1
 90
        0
176
     1
 40
0.6
176
     1
 40
30.0
176
     1
 62
     7
420
 16777215
176
     1
 90
        1
176
     1
 90
        4
176
     1
 62
     7
176
     1
 62
   257
176
     1
 90
        1
176
     1
 90
        1
176
     1
 40
1.0
176
     1
 90
        8
176
     1
 62
     7
176
     1
 40
1.0
176
     1
 90
        1
176
     1
 90
        6
176
     1
 90
        2
176
     1
 62
     7
176
     1
 90
        5
176
     1
 90
        0
176
     1
 90
        0
176
     1
290
     0
176
     1
 90
        1
176
     1
 40
50.0
176
     1
 90
        0
176
     1
290
     0
176
     1
290
     1
176
     1
290
     1
176
     1
290
     0
176
     1
290
     0
176
     1
290
     0
176
     1
290
     0
176
     1
290
     0
176
     1
290
     0
176
     1
 90
       50
176
     1
 40
0.0
176
     1
 40
1.0
176
     1
 90
        0
176
     1
 62
    18
420
        0
176
     1
 90
       50
176
     1
 90
        3
176
     1
 62
     5
420
      255
176
     1
290
     0
176
     1
 90
       50
176
     1
 90
       50
176
     1
 90
       50
176
     1
290
     0
176
     1
 90
       50
176
     1
 62
   256
176
     0
 40
1.0
176
     0
 90
        2
176
     1
  1
strokes_ogs.tif
176
     1
290
     0
176
     1
 40
1.0
176
     1
 40
1.0
176
     1
  0
VISUALSTYLE
  5
3A
102
{ACAD_REACTORS
330
2A
102
}
330
2A
100
AcDbVisualStyle
  2
ColorChange
 70
    16
177
     3
291
     1
 70
    58
 90
        2
176
     1
 90
        2
176
     1
 90
        3
176
     1
 90
        0
176
     1
 40
0.6
176
     1
 40
30.0
176
     1
 62
     8
420
  8421504
176
     1
 90
        1
176
     1
 90
        4
176
     1
 62
     7
176
     1
 62
   257
176
     1
 90
        1
176
     1
 90
        1
176
     1
 40
1.0
176
     1
 90
        8
176
     1
 62
     8
420
  8421504
176
     1
 40
1.0
176
     1
 90
        1
176
     1
 90
        6
176
     1
 90
        2
176
     1
 62
     7
176
     1
 90
        5
176
     1
 90
        0
176
     1
 90
        0
176
     1
290
     0
176
     1
 90
        1
176
     1
 40
0.0
176
     1
 90
        0
176
     1
290
     0
176
     1
290
     1
176
     1
290
     1
176
     1
290
     0
176
     1
290
     0
176
     1
290
     0
176
     1
290
     0
176
     1
290
     0
176
     1
290
     0
176
     1
 90
       50
176
     1
 40
0.0
176
     1
 40
1.0
176
     1
 90
        0
176
     1
 62
    18
420
        0
176
     1
 90
       50
176
     1
 90
        3
176
     1
 62
     5
420
      255
176
     1
290
     0
176
     1
 90
       50
176
     1
 90
       50
176
     1
 90
       50
176
     1
290
     0
176
     1
 90
       50
176
     1
 62
   256
176
     0
 40
1.0
176
     0
 90
        2
176
     1
  1
strokes_ogs.tif
176
     1
290
     0
176
     1
 40
1.0
176
     1
 40
1.0
176
     1
  0
VISUALSTYLE
  5
34
102
{ACAD_REACTORS
330
2A
102
}
330
2A
100
AcDbVisualStyle
  2
Conceptual
 70
     9
177
     3
291
     0
 70
    58
 90
        3
176
     1
 90
        2
176
     1
 90
        0
176
     1
 90
        0
176
     1
 40
0.6
176
     1
 40
30.0
176
     1
 62
     7
420
 16777215
176
     1
 90
        2
176
     1
 90
        2
176
     1
 62
     7
176
     1
 62
   257
176
     1
 90
        1
176
     1
 90
        1
176
     1
 40
179.0
176
     1
 90
        8
176
     1
 62
     7
176
     1
 40
1.0
176
     1
 90
        1
176
     1
 90
        6
176
     1
 90
        2
176
     1
 62
     7
176
     1
 90
        3
176
     1
 90
        0
176
     1
 90
        0
176
     1
290
     0
176
     1
 90
        1
176
     1
 40
0.0
176
     1
 90
        0
176
     1
290
     0
176
     1
290
     1
176
     1
290
     1
176
     1
290
     0
176
     1
290
     0
176
     1
290
     0
176
     1
290
     0
176
     1
290
     0
176
     1
290
     0
176
     1
 90
       50
176
     1
 40
0.0
176
     1
 40
1.0
176
     1
 90
        0
176
     1
 62
    18
420
        0
176
     1
 90
       50
176
     1
 90
        3
176
     1
 62
     5
420
      255
176
     1
290
     0
176
     1
 90
       50
176
     1
 90
       50
176
     1
 90
       50
176
     1
290
     0
176
     1
 90
       50
176
     1
 62
   256
176
     0
 40
1.0
176
     0
 90
        2
176
     1
  1
strokes_ogs.tif
176
     1
290
     0
176
     1
 40
1.0
176
     1
 40
1.0
176
     1
  0
VISUALSTYLE
  5
35
102
{ACAD_REACTORS
330
2A
102
}
330
2A
100
AcDbVisualStyle
  2
Dim
 70
    11
177
     3
291
     1
 70
    58
 90
        2
176
     1
 90
        2
176
     1
 90
        0
176
     1
 90
        0
176
     1
 40
0.6
176
     1
 40
30.0
176
     1
 62
     7
420
 16777215
176
     1
 90
        1
176
     1
 90
        4
176
     1
 62
     7
176
     1
 62
   257
176
     1
 90
        1
176
     1
 90
        1
176
     1
 40
1.0
176
     1
 90
        8
176
     1
 62
     7
176
     1
 40
1.0
176
     1
 90
        1
176
     1
 90
        6
176
     1
 90
        2
176
     1
 62
     7
176
     1
 90
        5
176
     1
 90
        0
176
     1
 90
        0
176
     1
290
     0
176
     1
 90
        1
176
     1
 40
-50.0
176
     1
 90
        0
176
     1
290
     0
176
     1
290
     1
176
     1
290
     1
176
     1
290
     0
176
     1
290
     0
176
     1
290
     0
176
     1
290
     0
176
     1
290
     0
176
     1
290
     0
176
     1
 90
       50
176
     1
 40
0.0
176
     1
 40
1.0
176
     1
 90
        0
176
     1
 62
    18
420
        0
176
     1
 90
       50
176
     1
 90
        3
176
     1
 62
     5
420
      255
176
     1
290
     0
176
     1
 90
       50
176
     1
 90
       50
176
     1
 90
       50
176
     1
290
     0
176
     1
 90
       50
176
     1
 62
   256
176
     0
 40
1.0
176
     0
 90
        2
176
     1
  1
strokes_ogs.tif
176
     1
290
     0
176
     1
 40
1.0
176
     1
 40
1.0
176
     1
  0
VISUALSTYLE
  5
3D
102
{ACAD_REACTORS
330
2A
102
}
330
2A
100
AcDbVisualStyle
  2
EdgeColorOff
 70
    22
177
     3
291
     1
 70
    58
 90
        2
176
     0
 90
        2
176
     0
 90
        0
176
     0
 90
        0
176
     0
 40
0.6
176
     0
 40
30.0
176
     0
 62
     7
420
 16777215
176
     0
 90
        1
176
     0
 90
        4
176
     0
 62
     7
176
     0
 62
   257
176
     0
 90
        1
176
     0
 90
        1
176
     0
 40
1.0
176
     0
 90
        8
176
     2
 62
     7
176
     0
 40
1.0
176
     0
 90
        1
176
     0
 90
        6
176
     0
 90
        2
176
     0
 62
     7
176
     0
 90
        5
176
     0
 90
        0
176
     0
 90
        0
176
     0
290
     0
176
     0
 90
        1
176
     0
 40
0.0
176
     0
 90
        0
176
     0
290
     0
176
     0
290
     1
176
     0
290
     1
176
     0
290
     0
176
     0
290
     0
176
     0
290
     0
176
     0
290
     0
176
     0
290
     0
176
     0
290
     0
176
     0
 90
       50
176
     0
 40
0.0
176
     0
 40
1.0
176
     0
 90
        0
176
     0
 62
    18
420
        0
176
     0
 90
       50
176
     0
 90
        3
176
     0
 62
     5
420
      255
176
     0
290
     0
176
     0
 90
       50
176
     0
 90
       50
176
     0
 90
       50
176
     0
290
     0
176
     0
 90
       50
176
     0
 62
   256
176
     0
 40
1.0
176
     0
 90
        2
176
     0
  1
strokes_ogs.tif
176
     0
290
     0
176
     0
 40
1.0
176
     0
 40
1.0
176
     0
  0
VISUALSTYLE
  5
39
102
{ACAD_REACTORS
330
2A
102
}
330
2A
100
AcDbVisualStyle
  2
Facepattern
 70
    15
177
     3
291
     1
 70
    58
 90
        2
176
     1
 90
        2
176
     1
 90
        0
176
     1
 90
        0
176
     1
 40
0.6
176
     1
 40
30.0
176
     1
 62
     7
420
 16777215
176
     1
 90
        1
176
     1
 90
        4
176
     1
 62
     7
176
     1
 62
   257
176
     1
 90
        1
176
     1
 90
        1
176
     1
 40
1.0
176
     1
 90
        8
176
     1
 62
     7
176
     1
 40
1.0
176
     1
 90
        1
176
     1
 90
        6
176
     1
 90
        2
176
     1
 62
     7
176
     1
 90
        5
176
     1
 90
        0
176
     1
 90
        0
176
     1
290
     0
176
     1
 90
        1
176
     1
 40
0.0
176
     1
 90
        0
176
     1
290
     0
176
     1
290
     1
176
     1
290
     1
176
     1
290
     0
176
     1
290
     0
176
     1
290
     0
176
     1
290
     0
176
     1
290
     0
176
     1
290
     0
176
     1
 90
       50
176
     1
 40
0.0
176
     1
 40
1.0
176
     1
 90
        0
176
     1
 62
    18
420
        0
176
     1
 90
       50
176
     1
 90
        3
176
     1
 62
     5
420
      255
176
     1
290
     0
176
     1
 90
       50
176
     1
 90
       50
176
     1
 90
       50
176
     1
290
     0
176
     1
 90
       50
176
     1
 62
   256
176
     0
 40
1.0
176
     0
 90
        2
176
     1
  1
strokes_ogs.tif
176
     1
290
     0
176
     1
 40
1.0
176
     1
 40
1.0
176
     1
  0
VISUALSTYLE
  5
2B
102
{ACAD_REACTORS
330
2A
102
}
330
2A
100
AcDbVisualStyle
  2
Flat
 70
     0
177
     3
291
     1
 70
    58
 90
        2
176
     1
 90
        1
176
     1
 90
        1
176
     1
 90
        2
176
     1
 40
0.6
176
     1
 40
30.0
176
     1
 62
     7
420
 16777215
176
     1
 90
        0
176
     1
 90
        0
176
     1
 62
     7
176
     1
 62
   257
176
     1
 90
        1
176
     1
 90
        1
176
     1
 40
1.0
176
     1
 90
        8
176
     1
 62
     7
176
     1
 40
1.0
176
     1
 90
        1
176
     1
 90
        6
176
     1
 90
        2
176
     1
 62
     7
176
     1
 90
        5
176
     1
 90
        0
176
     1
 90
        0
176
     1
290
     0
176
     1
 90
       13
176
     1
 40
0.0
176
     1
 90
        0
176
     1
290
     0
176
     1
290
     1
176
     1
290
     1
176
     1
290
     0
176
     1
290
     0
176
     1
290
     0
176
     1
290
     0
176
     1
290
     0
176
     1
290
     0
176
     1
 90
       50
176
     1
 40
0.0
176
     1
 40
1.0
176
     1
 90
        0
176
     1
 62
    18
420
        0
176
     1
 90
       50
176
     1
 90
        3
176
     1
 62
     5
420
      255
176
     1
290
     0
176
     1
 90
       50
176
     1
 90
       50
176
     1
 90
       50
176
     1
290
     0
176
     1
 90
       50
176
     1
 62
   256
176
     0
 40
1.0
176
     0
 90
        2
176
     1
  1
strokes_ogs.tif
176
     1
290
     0
176
     1
 40
1.0
176
     1
 40
1.0
176
     1
  0
VISUALSTYLE
  5
2C
102
{ACAD_REACTORS
330
2A
102
}
330
2A
100
AcDbVisualStyle
  2
FlatWithEdges
 70
     1
177
     3
291
     1
 70
    58
 90
        2
176
     1
 90
        1
176
     1
 90
        1
176
     1
 90
        2
176
     1
 40
0.6
176
     1
 40
30.0
176
     1
 62
     7
420
 16777215
176
     1
 90
        1
176
     1
 90
        0
176
     1
 62
     7
176
     1
 62
   257
176
     1
 90
        1
176
     1
 90
        1
176
     1
 40
1.0
176
     1
 90
        0
176
     1
 62
   257
176
     1
 40
1.0
176
     1
 90
        1
176
     1
 90
        6
176
     1
 90
        2
176
     1
 62
     7
176
     1
 90
        5
176
     1
 90
        0
176
     1
 90
        0
176
     1
290
     0
176
     1
 90
       13
176
     1
 40
0.0
176
     1
 90
        0
176
     1
290
     0
176
     1
290
     1
176
     1
290
     1
176
     1
290
     0
176
     1
290
     0
176
     1
290
     0
176
     1
290
     0
176
     1
290
     0
176
     1
290
     0
176
     1
 90
       50
176
     1
 40
0.0
176
     1
 40
1.0
176
     1
 90
        0
176
     1
 62
    18
420
        0
176
     1
 90
       50
176
     1
 90
        3
176
     1
 62
     5
420
      255
176
     1
290
     0
176
     1
 90
       50
176
     1
 90
       50
176
     1
 90
       50
176
     1
290
     0
176
     1
 90
       50
176
     1
 62
   256
176
     0
 40
1.0
176
     0
 90
        2
176
     1
  1
strokes_ogs.tif
176
     1
290
     0
176
     1
 40
1.0
176
     1
 40
1.0
176
     1
  0
VISUALSTYLE
  5
2D
102
{ACAD_REACTORS
330
2A
102
}
330
2A
100
AcDbVisualStyle
  2
Gouraud
 70
     2
177
     3
291
     1
 70
    58
 90
        2
176
     1
 90
        2
176
     1
 90
        1
176
     1
 90
        2
176
     1
 40
0.6
176
     1
 40
30.0
176
     1
 62
     7
420
 16777215
176
     1
 90
        0
176
     1
 90
        0
176
     1
 62
     7
176
     1
 62
   257
176
     1
 90
        1
176
     1
 90
        1
176
     1
 40
1.0
176
     1
 90
        0
176
     1
 62
     7
176
     1
 40
1.0
176
     1
 90
        1
176
     1
 90
        6
176
     1
 90
        2
176
     1
 62
     7
176
     1
 90
        5
176
     1
 90
        0
176
     1
 90
        0
176
     1
290
     0
176
     1
 90
       13
176
     1
 40
0.0
176
     1
 90
        0
176
     1
290
     0
176
     1
290
     1
176
     1
290
     1
176
     1
290
     0
176
     1
290
     0
176
     1
290
     0
176
     1
290
     0
176
     1
290
     0
176
     1
290
     0
176
     1
 90
       50
176
     1
 40
0.0
176
     1
 40
1.0
176
     1
 90
        0
176
     1
 62
    18
420
        0
176
     1
 90
       50
176
     1
 90
        3
176
     1
 62
     5
420
      255
176
     1
290
     0
176
     1
 90
       50
176
     1
 90
       50
176
     1
 90
       50
176
     1
290
     0
176
     1
 90
       50
176
     1
 62
   256
176
     0
 40
1.0
176
     0
 90
        2
176
     1
  1
strokes_ogs.tif
176
     1
290
     0
176
     1
 40
1.0
176
     1
 40
1.0
176
     1
  0
VISUALSTYLE
  5
2E
102
{ACAD_REACTORS
330
2A
102
}
330
2A
100
AcDbVisualStyle
  2
GouraudWithEdges
 70
     3
177
     3
291
     1
 70
    58
 90
        2
176
     1
 90
        2
176
     1
 90
        1
176
     1
 90
        2
176
     1
 40
0.6
176
     1
 40
30.0
176
     1
 62
     7
420
 16777215
176
     1
 90
        1
176
     1
 90
        0
176
     1
 62
     7
176
     1
 62
   257
176
     1
 90
        1
176
     1
 90
        1
176
     1
 40
1.0
176
     1
 90
        0
176
     1
 62
   257
176
     1
 40
1.0
176
     1
 90
        1
176
     1
 90
        6
176
     1
 90
        2
176
     1
 62
     7
176
     1
 90
        5
176
     1
 90
        0
176
     1
 90
        0
176
     1
290
     0
176
     1
 90
       13
176
     1
 40
0.0
176
     1
 90
        0
176
     1
290
     0
176
     1
290
     1
176
     1
290
     1
176
     1
290
     0
176
     1
290
     0
176
     1
290
     0
176
     1
290
     0
176
     1
290
     0
176
     1
290
     0
176
     1
 90
       50
176
     1
 40
0.0
176
     1
 40
1.0
176
     1
 90
        0
176
     1
 62
    18
420
        0
176
     1
 90
       50
176
     1
 90
        3
176
     1
 62
     5
420
      255
176
     1
290
     0
176
     1
 90
       50
176
     1
 90
       50
176
     1
 90
       50
176
     1
290
     0
176
     1
 90
       50
176
     1
 62
   256
176
     0
 40
1.0
176
     0
 90
        2
176
     1
  1
strokes_ogs.tif
176
     1
290
     0
176
     1
 40
1.0
176
     1
 40
1.0
176
     1
  0
VISUALSTYLE
  5
31
102
{ACAD_REACTORS
330
2A
102
}
330
2A
100
AcDbVisualStyle
  2
Hidden
 70
     6
177
     3
291
     0
 70
    58
 90
        1
176
     1
 90
        2
176
     1
 90
        2
176
     1
 90
        0
176
     1
 40
0.6
176
     1
 40
30.0
176
     1
 62
     7
420
 16777215
176
     1
 90
        2
176
     1
 90
        2
176
     1
 62
     7
176
     1
 62
   257
176
     1
 90
        2
176
     1
 90
        1
176
     1
 40
40.0
176
     1
 90
        0
176
     1
 62
   257
176
     1
 40
1.0
176
     1
 90
        1
176
     1
 90
        6
176
     1
 90
        2
176
     1
 62
     7
176
     1
 90
        3
176
     1
 90
        0
176
     1
 90
        0
176
     1
290
     0
176
     1
 90
        1
176
     1
 40
0.0
176
     1
 90
        0
176
     1
290
     0
176
     1
290
     1
176
     1
290
     1
176
     1
290
     0
176
     1
290
     0
176
     1
290
     0
176
     1
290
     0
176
     1
290
     0
176
     1
290
     0
176
     1
 90
       50
176
     1
 40
0.0
176
     1
 40
1.0
176
     1
 90
        0
176
     1
 62
    18
420
        0
176
     1
 90
       50
176
     1
 90
        3
176
     1
 62
     5
420
      255
176
     1
290
     0
176
     1
 90
       50
176
     1
 90
       50
176
     1
 90
       50
176
     1
290
     0
176
     1
 90
       50
176
     1
 62
   256
176
     0
 40
1.0
176
     0
 90
        2
176
     1
  1
strokes_ogs.tif
176
     1
290
     0
176
     1
 40
1.0
176
     1
 40
1.0
176
     1
  0
VISUALSTYLE
  5
3B
102
{ACAD_REACTORS
330
2A
102
}
330
2A
100
AcDbVisualStyle
  2
JitterOff
 70
    20
177
     3
291
     1
 70
    58
 90
        2
176
     0
 90
        2
176
     0
 90
        0
176
     0
 90
        0
176
     0
 40
0.6
176
     0
 40
30.0
176
     0
 62
     7
420
 16777215
176
     0
 90
        1
176
     0
 90
        4
176
     0
 62
     7
176
     0
 62
   257
176
     0
 90
        1
176
     0
 90
        1
176
     0
 40
1.0
176
     0
 90
       10
176
     2
 62
     7
176
     0
 40
1.0
176
     0
 90
        1
176
     0
 90
        6
176
     0
 90
        2
176
     0
 62
     7
176
     0
 90
        5
176
     0
 90
        0
176
     0
 90
        0
176
     0
290
     0
176
     0
 90
        1
176
     0
 40
0.0
176
     0
 90
        0
176
     0
290
     0
176
     0
290
     1
176
     0
290
     1
176
     0
290
     0
176
     0
290
     0
176
     0
290
     0
176
     0
290
     0
176
     0
290
     0
176
     0
290
     0
176
     0
 90
       50
176
     0
 40
0.0
176
     0
 40
1.0
176
     0
 90
        0
176
     0
 62
    18
420
        0
176
     0
 90
       50
176
     0
 90
        3
176
     0
 62
     5
420
      255
176
     0
290
     0
176
     0
 90
       50
176
     0
 90
       50
176
     0
 90
       50
176
     0
290
     0
176
     0
 90
       50
176
     0
 62
   256
176
     0
 40
1.0
176
     0
 90
        2
176
     0
  1
strokes_ogs.tif
176
     0
290
     0
176
     0
 40
1.0
176
     0
 40
1.0
176
     0
  0
VISUALSTYLE
  5
38
102
{ACAD_REACTORS
330
2A
102
}
330
2A
100
AcDbVisualStyle
  2
Linepattern
 70
    14
177
     3
291
     1
 70
    58
 90
        2
176
     1
 90
        2
176
     1
 90
        0
176
     1
 90
        0
176
     1
 40
0.6
176
     1
 40
30.0
176
     1
 62
     7
420
 16777215
176
     1
 90
        1
176
     1
 90
        4
176
     1
 62
     7
176
     1
 62
   257
176
     1
 90
        7
176
     1
 90
        7
176
     1
 40
1.0
176
     1
 90
        8
176
     1
 62
     7
176
     1
 40
1.0
176
     1
 90
        1
176
     1
 90
        6
176
     1
 90
        2
176
     1
 62
     7
176
     1
 90
        5
176
     1
 90
        0
176
     1
 90
        0
176
     1
290
     0
176
     1
 90
        1
176
     1
 40
0.0
176
     1
 90
        0
176
     1
290
     0
176
     1
290
     1
176
     1
290
     1
176
     1
290
     0
176
     1
290
     0
176
     1
290
     0
176
     1
290
     0
176
     1
290
     0
176
     1
290
     0
176
     1
 90
       50
176
     1
 40
0.0
176
     1
 40
1.0
176
     1
 90
        0
176
     1
 62
    18
420
        0
176
     1
 90
       50
176
     1
 90
        3
176
     1
 62
     5
420
      255
176
     1
290
     0
176
     1
 90
       50
176
     1
 90
       50
176
     1
 90
       50
176
     1
290
     0
176
     1
 90
       50
176
     1
 62
   256
176
     0
 40
1.0
176
     0
 90
        2
176
     1
  1
strokes_ogs.tif
176
     1
290
     0
176
     1
 40
1.0
176
     1
 40
1.0
176
     1
  0
VISUALSTYLE
  5
3C
102
{ACAD_REACTORS
330
2A
102
}
330
2A
100
AcDbVisualStyle
  2
OverhangOff
 70
    21
177
     3
291
     1
 70
    58
 90
        2
176
     0
 90
        2
176
     0
 90
        0
176
     0
 90
        0
176
     0
 40
0.6
176
     0
 40
30.0
176
     0
 62
     7
420
 16777215
176
     0
 90
        1
176
     0
 90
        4
176
     0
 62
     7
176
     0
 62
   257
176
     0
 90
        1
176
     0
 90
        1
176
     0
 40
1.0
176
     0
 90
        9
176
     2
 62
     7
176
     0
 40
1.0
176
     0
 90
        1
176
     0
 90
        6
176
     0
 90
        2
176
     0
 62
     7
176
     0
 90
        5
176
     0
 90
        0
176
     0
 90
        0
176
     0
290
     0
176
     0
 90
        1
176
     0
 40
0.0
176
     0
 90
        0
176
     0
290
     0
176
     0
290
     1
176
     0
290
     1
176
     0
290
     0
176
     0
290
     0
176
     0
290
     0
176
     0
290
     0
176
     0
290
     0
176
     0
290
     0
176
     0
 90
       50
176
     0
 40
0.0
176
     0
 40
1.0
176
     0
 90
        0
176
     0
 62
    18
420
        0
176
     0
 90
       50
176
     0
 90
        3
176
     0
 62
     5
420
      255
176
     0
290
     0
176
     0
 90
       50
176
     0
 90
       50
176
     0
 90
       50
176
     0
290
     0
176
     0
 90
       50
176
     0
 62
   256
176
     0
 40
1.0
176
     0
 90
        2
176
     0
  1
strokes_ogs.tif
176
     0
290
     0
176
     0
 40
1.0
176
     0
 40
1.0
176
     0
  0
VISUALSTYLE
  5
33
102
{ACAD_REACTORS
330
2A
102
}
330
2A
100
AcDbVisualStyle
  2
Realistic
 70
     8
177
     3
291
     0
 70
    58
 90
        2
176
     1
 90
        3
176
     1
 90
        0
176
     1
 90
        2
176
     1
 40
0.6
176
     1
 40
30.0
176
     1
 62
     7
420
 16777215
176
     1
 90
        0
176
     1
 90
        0
176
     1
 62
     7
176
     1
 62
   257
176
     1
 90
        1
176
     1
 90
        1
176
     1
 40
1.0
176
     1
 90
        8
176
     1
 62
   257
176
     1
 40
1.0
176
     1
 90
        1
176
     1
 90
        6
176
     1
 90
        2
176
     1
 62
     7
176
     1
 90
        3
176
     1
 90
        0
176
     1
 90
        0
176
     1
290
     0
176
     1
 90
       13
176
     1
 40
0.0
176
     1
 90
        0
176
     1
290
     0
176
     1
290
     1
176
     1
290
     1
176
     1
290
     0
176
     1
290
     0
176
     1
290
     0
176
     1
290
     0
176
     1
290
     0
176
     1
290
     0
176
     1
 90
       50
176
     1
 40
0.0
176
     1
 40
1.0
176
     1
 90
        0
176
     1
 62
    18
420
        0
176
     1
 90
       50
176
     1
 90
        3
176
     1
 62
     5
420
      255
176
     1
290
     0
176
     1
 90
       50
176
     1
 90
       50
176
     1
 90
       50
176
     1
290
     0
176
     1
 90
       50
176
     1
 62
   256
176
     0
 40
1.0
176
     0
 90
        2
176
     1
  1
strokes_ogs.tif
176
     1
290
     0
176
     1
 40
1.0
176
     1
 40
1.0
176
     1
  0
VISUALSTYLE
  5
42
102
{ACAD_REACTORS
330
2A
102
}
330
2A
100
AcDbVisualStyle
  2
Shaded
 70
    27
177
     3
291
     0
 70
    58
 90
        2
176
     1
 90
        2
176
     1
 90
        1
176
     1
 90
        2
176
     1
 40
0.6
176
     1
 40
30.0
176
     1
 62
     7
420
 16777215
176
     1
 90
        0
176
     1
 90
        4
176
     1
 62
     7
176
     1
 62
   257
176
     1
 90
        1
176
     1
 90
        1
176
     1
 40
1.0
176
     1
 90
        8
176
     1
 62
   257
176
     1
 40
1.0
176
     1
 90
        1
176
     1
 90
        6
176
     1
 90
        2
176
     1
 62
     8
420
  7895160
176
     1
 90
        3
176
     1
 90
        0
176
     1
 90
        0
176
     1
290
     0
176
     1
 90
        5
176
     1
 40
0.0
176
     1
 90
        0
176
     1
290
     0
176
     1
290
     1
176
     1
290
     1
176
     1
290
     0
176
     1
290
     0
176
     1
290
     0
176
     1
290
     0
176
     1
290
     0
176
     1
290
     0
176
     1
 90
       50
176
     1
 40
0.0
176
     1
 40
1.0
176
     1
 90
        0
176
     1
 62
    18
420
        0
176
     1
 90
       50
176
     1
 90
        3
176
     1
 62
     5
420
      255
176
     1
290
     0
176
     1
 90
       50
176
     1
 90
       50
176
     1
 90
       50
176
     1
290
     0
176
     1
 90
       50
176
     1
 62
   256
176
     0
 40
1.0
176
     0
 90
        2
176
     1
  1
strokes_ogs.tif
176
     1
290
     0
176
     1
 40
1.0
176
     1
 40
1.0
176
     1
  0
VISUALSTYLE
  5
41
102
{ACAD_REACTORS
330
2A
102
}
330
2A
100
AcDbVisualStyle
  2
Shaded with edges
 70
    26
177
     3
291
     0
 70
    58
 90
        2
176
     1
 90
        2
176
     1
 90
        1
176
     1
 90
        2
176
     1
 40
0.6
176
     1
 40
30.0
176
     1
 62
     7
420
 16777215
176
     1
 90
        1
176
     1
 90
       10
176
     1
 62
     7
176
     1
 62
   257
176
     1
 90
        2
176
     1
 90
        1
176
     1
 40
1.0
176
     1
 90
        8
176
     1
 62
   257
176
     1
 40
1.0
176
     1
 90
        1
176
     1
 90
        6
176
     1
 90
        2
176
     1
 62
     7
176
     1
 90
        3
176
     1
 90
        0
176
     1
 90
        0
176
     1
290
     0
176
     1
 90
        5
176
     1
 40
0.0
176
     1
 90
        0
176
     1
290
     0
176
     1
290
     1
176
     1
290
     1
176
     1
290
     0
176
     1
290
     0
176
     1
290
     0
176
     1
290
     0
176
     1
290
     0
176
     1
290
     0
176
     1
 90
       50
176
     1
 40
0.0
176
     1
 40
1.0
176
     1
 90
        0
176
     1
 62
    18
420
        0
176
     1
 90
       50
176
     1
 90
        3
176
     1
 62
     5
420
      255
176
     1
290
     0
176
     1
 90
       50
176
     1
 90
       50
176
     1
 90
       50
176
     1
290
     0
176
     1
 90
       50
176
     1
 62
   256
176
     0
 40
1.0
176
     0
 90
        2
176
     1
  1
strokes_ogs.tif
176
     1
290
     0
176
     1
 40
1.0
176
     1
 40
1.0
176
     1
  0
VISUALSTYLE
  5
3E
102
{ACAD_REACTORS
330
2A
102
}
330
2A
100
AcDbVisualStyle
  2
Shades of Gray
 70
    23
177
     3
291
     0
 70
    58
 90
        2
176
     1
 90
        2
176
     1
 90
        3
176
     1
 90
        0
176
     1
 40
0.6
176
     1
 40
30.0
176
     1
 62
     7
420
 16777215
176
     1
 90
        2
176
     1
 90
        2
176
     1
 62
     7
176
     1
 62
     7
176
     1
 90
        1
176
     1
 90
        1
176
     1
 40
40.0
176
     1
 90
        8
176
     1
 62
     7
176
     1
 40
1.0
176
     1
 90
        1
176
     1
 90
        6
176
     1
 90
        2
176
     1
 62
     7
176
     1
 90
        3
176
     1
 90
        0
176
     1
 90
        0
176
     1
290
     0
176
     1
 90
        1
176
     1
 40
0.0
176
     1
 90
        0
176
     1
290
     0
176
     1
290
     1
176
     1
290
     1
176
     1
290
     0
176
     1
290
     0
176
     1
290
     0
176
     1
290
     0
176
     1
290
     0
176
     1
290
     0
176
     1
 90
       50
176
     1
 40
0.0
176
     1
 40
1.0
176
     1
 90
        0
176
     1
 62
    18
420
        0
176
     1
 90
       50
176
     1
 90
        3
176
     1
 62
     5
420
      255
176
     1
290
     0
176
     1
 90
       50
176
     1
 90
       50
176
     1
 90
       50
176
     1
290
     0
176
     1
 90
       50
176
     1
 62
   256
176
     0
 40
1.0
176
     0
 90
        2
176
     1
  1
strokes_ogs.tif
176
     1
290
     0
176
     1
 40
1.0
176
     1
 40
1.0
176
     1
  0
VISUALSTYLE
  5
3F
102
{ACAD_REACTORS
330
2A
102
}
330
2A
100
AcDbVisualStyle
  2
Sketchy
 70
    24
177
     3
291
     0
 70
    58
 90
        1
176
     1
 90
        2
176
     1
 90
        2
176
     1
 90
        0
176
     1
 40
0.6
176
     1
 40
30.0
176
     1
 62
     7
420
 16777215
176
     1
 90
        2
176
     1
 90
        2
176
     1
 62
     7
176
     1
 62
     7
176
     1
 90
        1
176
     1
 90
        1
176
     1
 40
40.0
176
     1
 90
       11
176
     1
 62
     7
176
     1
 40
1.0
176
     1
 90
        1
176
     1
 90
        6
176
     1
 90
        2
176
     1
 62
     7
176
     1
 90
        6
176
     1
 90
        0
176
     1
 90
        0
176
     1
290
     0
176
     1
 90
        1
176
     1
 40
0.0
176
     1
 90
        0
176
     1
290
     0
176
     1
290
     1
176
     1
290
     1
176
     1
290
     0
176
     1
290
     0
176
     1
290
     0
176
     1
290
     0
176
     1
290
     0
176
     1
290
     0
176
     1
 90
       50
176
     1
 40
0.0
176
     1
 40
1.0
176
     1
 90
        0
176
     1
 62
    18
420
        0
176
     1
 90
       50
176
     1
 90
        3
176
     1
 62
     5
420
      255
176
     1
290
     0
176
     1
 90
       50
176
     1
 90
       50
176
     1
 90
       50
176
     1
290
     0
176
     1
 90
       50
176
     1
 62
   256
176
     0
 40
1.0
176
     0
 90
        2
176
     1
  1
strokes_ogs.tif
176
     1
290
     0
176
     1
 40
1.0
176
     1
 40
1.0
176
     1
  0
VISUALSTYLE
  5
37
102
{ACAD_REACTORS
330
2A
102
}
330
2A
100
AcDbVisualStyle
  2
Thicken
 70
    13
177
     3
291
     1
 70
    58
 90
        2
176
     1
 90
        2
176
     1
 90
        0
176
     1
 90
        0
176
     1
 40
0.6
176
     1
 40
30.0
176
     1
 62
     7
420
 16777215
176
     1
 90
        1
176
     1
 90
        4
176
     1
 62
     7
176
     1
 62
   257
176
     1
 90
        1
176
     1
 90
        1
176
     1
 40
1.0
176
     1
 90
       12
176
     1
 62
     7
176
     1
 40
1.0
176
     1
 90
        1
176
     1
 90
        6
176
     1
 90
        2
176
     1
 62
     7
176
     1
 90
        5
176
     1
 90
        0
176
     1
 90
        0
176
     1
290
     0
176
     1
 90
        1
176
     1
 40
0.0
176
     1
 90
        0
176
     1
290
     0
176
     1
290
     1
176
     1
290
     1
176
     1
290
     0
176
     1
290
     0
176
     1
290
     0
176
     1
290
     0
176
     1
290
     0
176
     1
290
     0
176
     1
 90
       50
176
     1
 40
0.0
176
     1
 40
1.0
176
     1
 90
        0
176
     1
 62
    18
420
        0
176
     1
 90
       50
176
     1
 90
        3
176
     1
 62
     5
420
      255
176
     1
290
     0
176
     1
 90
       50
176
     1
 90
       50
176
     1
 90
       50
176
     1
290
     0
176
     1
 90
       50
176
     1
 62
   256
176
     0
 40
1.0
176
     0
 90
        2
176
     1
  1
strokes_ogs.tif
176
     1
290
     0
176
     1
 40
1.0
176
     1
 40
1.0
176
     1
  0
VISUALSTYLE
  5
30
102
{ACAD_REACTORS
330
2A
102
}
330
2A
100
AcDbVisualStyle
  2
Wireframe
 70
     5
177
     3
291
     0
 70
    58
 90
        0
176
     1
 90
        2
176
     1
 90
        0
176
     1
 90
        0
176
     1
 40
0.6
176
     1
 40
30.0
176
     1
 62
     7
420
 16777215
176
     1
 90
        1
176
     1
 90
        4
176
     1
 62
     7
176
     1
 62
   257
176
     1
 90
        1
176
     1
 90
        1
176
     1
 40
1.0
176
     1
 90
        0
176
     1
 62
   257
176
     1
 40
1.0
176
     1
 90
        1
176
     1
 90
        6
176
     1
 90
        2
176
     1
 62
     7
176
     1
 90
        3
176
     1
 90
        0
176
     1
 90
        0
176
     1
290
     0
176
     1
 90
        1
176
     1
 40
0.0
176
     1
 90
        0
176
     1
290
     0
176
     1
290
     1
176
     1
290
     1
176
     1
290
     0
176
     1
290
     0
176
     1
290
     0
176
     1
290
     0
176
     1
290
     0
176
     1
290
     0
176
     1
 90
       50
176
     1
 40
0.0
176
     1
 40
1.0
176
     1
 90
        0
176
     1
 62
    18
420
        0
176
     1
 90
       50
176
     1
 90
        3
176
     1
 62
     5
420
      255
176
     1
290
     0
176
     1
 90
       50
176
     1
 90
       50
176
     1
 90
       50
176
     1
290
     0
176
     1
 90
       50
176
     1
 62
   256
176
     0
 40
1.0
176
     0
 90
        2
176
     1
  1
strokes_ogs.tif
176
     1
290
     0
176
     1
 40
1.0
176
     1
 40
1.0
176
     1
  0
VISUALSTYLE
  5
40
102
{ACAD_REACTORS
330
2A
102
}
330
2A
100
AcDbVisualStyle
  2
X-Ray
 70
    25
177
     3
291
     0
 70
    58
 90
        2
176
     1
 90
        2
176
     1
 90
        1
176
     1
 90
        1
176
     1
 40
0.5
176
     1
 40
30.0
176
     1
 62
     7
420
 16777215
176
     1
 90
        1
176
     1
 90
        0
176
     1
 62
     7
176
     1
 62
   257
176
     1
 90
        1
176
     1
 90
        1
176
     1
 40
1.0
176
     1
 90
        8
176
     1
 62
     7
176
     1
 40
1.0
176
     1
 90
        1
176
     1
 90
        6
176
     1
 90
        2
176
     1
 62
     7
176
     1
 90
        3
176
     1
 90
        0
176
     1
 90
        0
176
     1
290
     0
176
     1
 90
       13
176
     1
 40
0.0
176
     1
 90
        0
176
     1
290
     0
176
     1
290
     1
176
     1
290
     1
176
     1
290
     0
176
     1
290
     0
176
     1
290
     0
176
     1
290
     0
176
     1
290
     0
176
     1
290
     0
176
     1
 90
       50
176
     1
 40
0.0
176
     1
 40
1.0
176
     1
 90
        0
176
     1
 62
    18
420
        0
176
     1
 90
       50
176
     1
 90
        3
176
     1
 62
     5
420
      255
176
     1
290
     0
176
     1
 90
       50
176
     1
 90
       50
176
     1
 90
       50
176
     1
290
     0
176
     1
 90
       50
176
     1
 62
   256
176
     0
 40
1.0
176
     0
 90
        2
176
     1
  1
strokes_ogs.tif
176
     1
290
     0
176
     1
 40
1.0
176
     1
 40
1.0
176
     1
  0
DICTIONARYVAR
  5
177
102
{ACAD_REACTORS
330
176
102
}
330
176
100
DictionaryVariables
280
     0
  1
1:1
  0
DICTIONARYVAR
  5
17C
102
{ACAD_REACTORS
330
176
102
}
330
176
100
DictionaryVariables
280
     0
  1
Standard
  0
DICTIONARYVAR
  5
17B
102
{ACAD_REACTORS
330
176
102
}
330
176
100
DictionaryVariables
280
     0
  1
Standard
  0
DICTIONARY
  5
178
330
6A
100
AcDbDictionary
280
     1
281
     1
  3
ACAD_ROUNDTRIP_2008_TABLESTYLE_CELLSTYLEMAP
360
179
  0
CELLSTYLEMAP
  5
179
102
{ACAD_REACTORS
330
178
102
}
330
178
100
AcDbCellStyleMap
 90
        3
300
CELLSTYLE
  1
TABLEFORMAT_BEGIN
 90
        5
170
     1
 91
        0
 92
    32768
 62
   257
 93
        1
300
CONTENTFORMAT
  1
CONTENTFORMAT_BEGIN
 90
        0
 91
        0
 92
        4
 93
        0
300

 40
0.0
140
1.0
 94
        5
 62
     0
340
11
144
0.25
309
CONTENTFORMAT_END
171
     1
301
MARGIN
  1
CELLMARGIN_BEGIN
 40
0.06
 40
0.06
 40
0.06
 40
0.06
 40
0.06
 40
0.06
309
CELLMARGIN_END
 94
        6
 95
        1
302
GRIDFORMAT
  1
GRIDFORMAT_BEGIN
 90
        0
 91
        1
 62
     0
 92
       -2
340
14
 93
        0
 40
0.045
309
GRIDFORMAT_END
 95
        2
302
GRIDFORMAT
  1
GRIDFORMAT_BEGIN
 90
        0
 91
        1
 62
     0
 92
       -2
340
14
 93
        0
 40
0.045
309
GRIDFORMAT_END
 95
        4
302
GRIDFORMAT
  1
GRIDFORMAT_BEGIN
 90
        0
 91
        1
 62
     0
 92
       -2
340
14
 93
        0
 40
0.045
309
GRIDFORMAT_END
 95
        8
302
GRIDFORMAT
  1
GRIDFORMAT_BEGIN
 90
        0
 91
        1
 62
     0
 92
       -2
340
14
 93
        0
 40
0.045
309
GRIDFORMAT_END
 95
       16
302
GRIDFORMAT
  1
GRIDFORMAT_BEGIN
 90
        0
 91
        1
 62
     0
 92
       -2
340
14
 93
        0
 40
0.045
309
GRIDFORMAT_END
 95
       32
302
GRIDFORMAT
  1
GRIDFORMAT_BEGIN
 90
        0
 91
        1
 62
     0
 92
       -2
340
14
 93
        0
 40
0.045
309
GRIDFORMAT_END
309
TABLEFORMAT_END
  1
CELLSTYLE_BEGIN
 90
        1
 91
        1
300
_TITLE
309
CELLSTYLE_END
300
CELLSTYLE
  1
TABLEFORMAT_BEGIN
 90
        5
170
     1
 91
        0
 92
        0
 62
   257
 93
        1
300
CONTENTFORMAT
  1
CONTENTFORMAT_BEGIN
 90
        0
 91
        0
 92
        4
 93
        0
300

 40
0.0
140
1.0
 94
        5
 62
     0
340
11
144
0.18
309
CONTENTFORMAT_END
171
     1
301
MARGIN
  1
CELLMARGIN_BEGIN
 40
0.06
 40
0.06
 40
0.06
 40
0.06
 40
0.06
 40
0.06
309
CELLMARGIN_END
 94
        6
 95
        1
302
GRIDFORMAT
  1
GRIDFORMAT_BEGIN
 90
        0
 91
        1
 62
     0
 92
       -2
340
14
 93
        0
 40
0.045
309
GRIDFORMAT_END
 95
        2
302
GRIDFORMAT
  1
GRIDFORMAT_BEGIN
 90
        0
 91
        1
 62
     0
 92
       -2
340
14
 93
        0
 40
0.045
309
GRIDFORMAT_END
 95
        4
302
GRIDFORMAT
  1
GRIDFORMAT_BEGIN
 90
        0
 91
        1
 62
     0
 92
       -2
340
14
 93
        0
 40
0.045
309
GRIDFORMAT_END
 95
        8
302
GRIDFORMAT
  1
GRIDFORMAT_BEGIN
 90
        0
 91
        1
 62
     0
 92
       -2
340
14
 93
        0
 40
0.045
309
GRIDFORMAT_END
 95
       16
302
GRIDFORMAT
  1
GRIDFORMAT_BEGIN
 90
        0
 91
        1
 62
     0
 92
       -2
340
14
 93
        0
 40
0.045
309
GRIDFORMAT_END
 95
       32
302
GRIDFORMAT
  1
GRIDFORMAT_BEGIN
 90
        0
 91
        1
 62
     0
 92
       -2
340
14
 93
        0
 40
0.045
309
GRIDFORMAT_END
309
TABLEFORMAT_END
  1
CELLSTYLE_BEGIN
 90
        2
 91
        1
300
_HEADER
309
CELLSTYLE_END
300
CELLSTYLE
  1
TABLEFORMAT_BEGIN
 90
        5
170
     1
 91
        0
 92
        0
 62
   257
 93
        1
300
CONTENTFORMAT
  1
CONTENTFORMAT_BEGIN
 90
        0
 91
        0
 92
        4
 93
        0
300

 40
0.0
140
1.0
 94
        2
 62
     0
340
11
144
0.18
309
CONTENTFORMAT_END
171
     1
301
MARGIN
  1
CELLMARGIN_BEGIN
 40
0.06
 40
0.06
 40
0.06
 40
0.06
 40
0.06
 40
0.06
309
CELLMARGIN_END
 94
        6
 95
        1
302
GRIDFORMAT
  1
GRIDFORMAT_BEGIN
 90
        0
 91
        1
 62
     0
 92
       -2
340
14
 93
        0
 40
0.045
309
GRIDFORMAT_END
 95
        2
302
GRIDFORMAT
  1
GRIDFORMAT_BEGIN
 90
        0
 91
        1
 62
     0
 92
       -2
340
14
 93
        0
 40
0.045
309
GRIDFORMAT_END
 95
        4
302
GRIDFORMAT
  1
GRIDFORMAT_BEGIN
 90
        0
 91
        1
 62
     0
 92
       -2
340
14
 93
        0
 40
0.045
309
GRIDFORMAT_END
 95
        8
302
GRIDFORMAT
  1
GRIDFORMAT_BEGIN
 90
        0
 91
        1
 62
     0
 92
       -2
340
14
 93
        0
 40
0.045
309
GRIDFORMAT_END
 95
       16
302
GRIDFORMAT
  1
GRIDFORMAT_BEGIN
 90
        0
 91
        1
 62
     0
 92
       -2
340
14
 93
        0
 40
0.045
309
GRIDFORMAT_END
 95
       32
302
GRIDFORMAT
  1
GRIDFORMAT_BEGIN
 90
        0
 91
        1
 62
     0
 92
       -2
340
14
 93
        0
 40
0.045
309
GRIDFORMAT_END
309
TABLEFORMAT_END
  1
CELLSTYLE_BEGIN
 90
        3
 91
        2
300
_DATA
309
CELLSTYLE_END
  0
ENDSEC
  0
EOF