0
SECTION
  2
HEADER
  9
$ACADVER
  1
AC1027
  9
$ACADMAINTVER
 70
     8
  9
$DWGCODEPAGE
  3
ANSI_1252
  9
$REQUIREDVERSIONS
160
                 0
  9
$COMMENTS
  1
File was created by Cadenas
  9
$CUSTOMPROPERTYTAG
  1
NN
  9
$CUSTOMPROPERTY
  1
Set Screw Flange Bracket Inch Bore
  9
$CUSTOMPROPERTYTAG
  1
NT
  9
$CUSTOMPROPERTY
  1
SC 3 Bolt Flange Bearings -(Normal Duty)
  9
$CUSTOMPROPERTYTAG
  1
NB
  9
$CUSTOMPROPERTY
  1
124442
  9
$CUSTOMPROPERTYTAG
  1
NBSYN
  9
$CUSTOMPROPERTY
  1
$PN.
  9
$CUSTOMPROPERTYTAG
  1
LINA
  9
$CUSTOMPROPERTY
  1
124442
  9
$CUSTOMPROPERTYTAG
  1
SERIES
  9
$CUSTOMPROPERTY
  1
206
  9
$CUSTOMPROPERTYTAG
  1
SS
  9
$CUSTOMPROPERTY
  1
1-1/8
  9
$CUSTOMPROPERTYTAG
  1
PN
  9
$CUSTOMPROPERTY
  1
124442
  9
$CUSTOMPROPERTYTAG
  1
DESCRIPTION
  9
$CUSTOMPROPERTY
  1
FB-SC-102
  9
$CUSTOMPROPERTYTAG
  1
WEIGHT
  9
$CUSTOMPROPERTY
  1
2.08
  9
$CUSTOMPROPERTYTAG
  1
A
  9
$CUSTOMPROPERTY
  1
1.52
  9
$CUSTOMPROPERTYTAG
  1
B
  9
$CUSTOMPROPERTY
  1
5.38
  9
$CUSTOMPROPERTYTAG
  1
C
  9
$CUSTOMPROPERTY
  1
1.65
  9
$CUSTOMPROPERTYTAG
  1
D
  9
$CUSTOMPROPERTY
  1
1.88
  9
$CUSTOMPROPERTYTAG
  1
E
  9
$CUSTOMPROPERTY
  1
2.06
  9
$CUSTOMPROPERTYTAG
  1
F
  9
$CUSTOMPROPERTY
  1
3/8
  9
$CUSTOMPROPERTYTAG
  1
G
  9
$CUSTOMPROPERTY
  1
1.25
  9
$CUSTOMPROPERTYTAG
  1
H
  9
$CUSTOMPROPERTY
  1
0.38
  9
$CUSTOMPROPERTYTAG
  1
I
  9
$CUSTOMPROPERTY
  1
3.75
  9
$CUSTOMPROPERTYTAG
  1
J
  9
$CUSTOMPROPERTY
  1
3.25
  9
$CUSTOMPROPERTYTAG
  1
K
  9
$CUSTOMPROPERTY
  1
1.13
  9
$CUSTOMPROPERTYTAG
  1
L
  9
$CUSTOMPROPERTY
  1
1.57
  9
$CUSTOMPROPERTYTAG
  1
M
  9
$CUSTOMPROPERTY
  1
2.75
  9
$CUSTOMPROPERTYTAG
  1
COMPANY
  9
$CUSTOMPROPERTY
  1
baldor
  9
$INSBASE
 10
0.0
 20
0.0
 30
0.0
  9
$EXTMIN
 10
1.000000000000000E+20
 20
1.000000000000000E+20
 30
1.000000000000000E+20
  9
$EXTMAX
 10
-1.000000000000000E+20
 20
-1.000000000000000E+20
 30
-1.000000000000000E+20
  9
$LIMMIN
 10
0.0
 20
0.0
  9
$LIMMAX
 10
12.0
 20
9.0
  9
$ORTHOMODE
 70
     0
  9
$REGENMODE
 70
     1
  9
$FILLMODE
 70
     1
  9
$QTEXTMODE
 70
     0
  9
$MIRRTEXT
 70
     1
  9
$LTSCALE
 40
1.0
  9
$ATTMODE
 70
     1
  9
$TEXTSIZE
 40
0.2
  9
$TRACEWID
 40
0.05
  9
$TEXTSTYLE
  7
Standard
  9
$CLAYER
  8
0
  9
$CELTYPE
  6
ByLayer
  9
$CECOLOR
 62
   256
  9
$CELTSCALE
 40
1.0
  9
$DISPSILH
 70
     0
  9
$DIMSCALE
 40
1.0
  9
$DIMASZ
 40
0.18
  9
$DIMEXO
 40
0.0625
  9
$DIMDLI
 40
0.38
  9
$DIMRND
 40
0.0
  9
$DIMDLE
 40
0.0
  9
$DIMEXE
 40
0.18
  9
$DIMTP
 40
0.0
  9
$DIMTM
 40
0.0
  9
$DIMTXT
 40
0.18
  9
$DIMCEN
 40
0.09
  9
$DIMTSZ
 40
0.0
  9
$DIMTOL
 70
     0
  9
$DIMLIM
 70
     0
  9
$DIMTIH
 70
     1
  9
$DIMTOH
 70
     1
  9
$DIMSE1
 70
     0
  9
$DIMSE2
 70
     0
  9
$DIMTAD
 70
     0
  9
$DIMZIN
 70
     0
  9
$DIMBLK
  1

  9
$DIMASO
 70
     1
  9
$DIMSHO
 70
     1
  9
$DIMPOST
  1

  9
$DIMAPOST
  1

  9
$DIMALT
 70
     0
  9
$DIMALTD
 70
     2
  9
$DIMALTF
 40
25.4
  9
$DIMLFAC
 40
1.0
  9
$DIMTOFL
 70
     0
  9
$DIMTVP
 40
0.0
  9
$DIMTIX
 70
     0
  9
$DIMSOXD
 70
     0
  9
$DIMSAH
 70
     0
  9
$DIMBLK1
  1

  9
$DIMBLK2
  1

  9
$DIMSTYLE
  2
Standard
  9
$DIMCLRD
 70
     0
  9
$DIMCLRE
 70
     0
  9
$DIMCLRT
 70
     0
  9
$DIMTFAC
 40
1.0
  9
$DIMGAP
 40
0.09
  9
$DIMJUST
 70
     0
  9
$DIMSD1
 70
     0
  9
$DIMSD2
 70
     0
  9
$DIMTOLJ
 70
     1
  9
$DIMTZIN
 70
     0
  9
$DIMALTZ
 70
     0
  9
$DIMALTTZ
 70
     0
  9
$DIMUPT
 70
     0
  9
$DIMDEC
 70
     4
  9
$DIMTDEC
 70
     4
  9
$DIMALTU
 70
     2
  9
$DIMALTTD
 70
     2
  9
$DIMTXSTY
  7
Standard
  9
$DIMAUNIT
 70
     0
  9
$DIMADEC
 70
     0
  9
$DIMALTRND
 40
0.0
  9
$DIMAZIN
 70
     0
  9
$DIMDSEP
 70
    46
  9
$DIMATFIT
 70
     3
  9
$DIMFRAC
 70
     0
  9
$DIMLDRBLK
  1

  9
$DIMLUNIT
 70
     2
  9
$DIMLWD
 70
    -2
  9
$DIMLWE
 70
    -2
  9
$DIMTMOVE
 70
     0
  9
$DIMFXL
 40
1.0
  9
$DIMFXLON
 70
     0
  9
$DIMJOGANG
 40
0.7853981633974483
  9
$DIMTFILL
 70
     0
  9
$DIMTFILLCLR
 70
     0
  9
$DIMARCSYM
 70
     0
  9
$DIMLTYPE
  6

  9
$DIMLTEX1
  6

  9
$DIMLTEX2
  6

  9
$DIMTXTDIRECTION
 70
     0
  9
$LUNITS
 70
     2
  9
$LUPREC
 70
     4
  9
$SKETCHINC
 40
0.1
  9
$FILLETRAD
 40
0.5
  9
$AUNITS
 70
     0
  9
$AUPREC
 70
     0
  9
$MENU
  1
.
  9
$ELEVATION
 40
0.0
  9
$PELEVATION
 40
0.0
  9
$THICKNESS
 40
0.0
  9
$LIMCHECK
 70
     0
  9
$CHAMFERA
 40
0.0
  9
$CHAMFERB
 40
0.0
  9
$CHAMFERC
 40
0.0
  9
$CHAMFERD
 40
0.0
  9
$SKPOLY
 70
     0
  9
$TDCREATE
 40
2458168.967599178
  9
$TDUCREATE
 40
2458168.925932512
  9
$TDUPDATE
 40
2458168.967599352
  9
$TDUUPDATE
 40
2458168.925932685
  9
$TDINDWG
 40
0.0000000116
  9
$TDUSRTIMER
 40
0.0000000116
  9
$USRTIMER
 70
     1
  9
$ANGBASE
 50
0.0
  9
$ANGDIR
 70
     0
  9
$PDMODE
 70
     0
  9
$PDSIZE
 40
0.0
  9
$PLINEWID
 40
0.0
  9
$SPLFRAME
 70
     0
  9
$SPLINETYPE
 70
     6
  9
$SPLINESEGS
 70
     8
  9
$HANDSEED
  5
17F
  9
$SURFTAB1
 70
     6
  9
$SURFTAB2
 70
     6
  9
$SURFTYPE
 70
     6
  9
$SURFU
 70
     6
  9
$SURFV
 70
     6
  9
$UCSBASE
  2

  9
$UCSNAME
  2

  9
$UCSORG
 10
0.0
 20
0.0
 30
0.0
  9
$UCSXDIR
 10
1.0
 20
0.0
 30
0.0
  9
$UCSYDIR
 10
0.0
 20
1.0
 30
0.0
  9
$UCSORTHOREF
  2

  9
$UCSORTHOVIEW
 70
     0
  9
$UCSORGTOP
 10
0.0
 20
0.0
 30
0.0
  9
$UCSORGBOTTOM
 10
0.0
 20
0.0
 30
0.0
  9
$UCSORGLEFT
 10
0.0
 20
0.0
 30
0.0
  9
$UCSORGRIGHT
 10
0.0
 20
0.0
 30
0.0
  9
$UCSORGFRONT
 10
0.0
 20
0.0
 30
0.0
  9
$UCSORGBACK
 10
0.0
 20
0.0
 30
0.0
  9
$PUCSBASE
  2

  9
$PUCSNAME
  2

  9
$PUCSORG
 10
0.0
 20
0.0
 30
0.0
  9
$PUCSXDIR
 10
1.0
 20
0.0
 30
0.0
  9
$PUCSYDIR
 10
0.0
 20
1.0
 30
0.0
  9
$PUCSORTHOREF
  2

  9
$PUCSORTHOVIEW
 70
     0
  9
$PUCSORGTOP
 10
0.0
 20
0.0
 30
0.0
  9
$PUCSORGBOTTOM
 10
0.0
 20
0.0
 30
0.0
  9
$PUCSORGLEFT
 10
0.0
 20
0.0
 30
0.0
  9
$PUCSORGRIGHT
 10
0.0
 20
0.0
 30
0.0
  9
$PUCSORGFRONT
 10
0.0
 20
0.0
 30
0.0
  9
$PUCSORGBACK
 10
0.0
 20
0.0
 30
0.0
  9
$USERI1
 70
     0
  9
$USERI2
 70
     0
  9
$USERI3
 70
     0
  9
$USERI4
 70
     0
  9
$USERI5
 70
     0
  9
$USERR1
 40
0.0
  9
$USERR2
 40
0.0
  9
$USERR3
 40
0.0
  9
$USERR4
 40
0.0
  9
$USERR5
 40
0.0
  9
$WORLDVIEW
 70
     1
  9
$SHADEDGE
 70
     3
  9
$SHADEDIF
 70
    70
  9
$TILEMODE
 70
     1
  9
$MAXACTVP
 70
    64
  9
$PINSBASE
 10
0.0
 20
0.0
 30
0.0
  9
$PLIMCHECK
 70
     0
  9
$PEXTMIN
 10
1.000000000000000E+20
 20
1.000000000000000E+20
 30
1.000000000000000E+20
  9
$PEXTMAX
 10
-1.000000000000000E+20
 20
-1.000000000000000E+20
 30
-1.000000000000000E+20
  9
$PLIMMIN
 10
0.0
 20
0.0
  9
$PLIMMAX
 10
12.0
 20
9.0
  9
$UNITMODE
 70
     0
  9
$VISRETAIN
 70
     1
  9
$PLINEGEN
 70
     0
  9
$PSLTSCALE
 70
     1
  9
$TREEDEPTH
 70
  3020
  9
$CMLSTYLE
  2
Standard
  9
$CMLJUST
 70
     0
  9
$CMLSCALE
 40
1.0
  9
$PROXYGRAPHICS
 70
     1
  9
$MEASUREMENT
 70
     0
  9
$CELWEIGHT
370
    -1
  9
$ENDCAPS
280
     0
  9
$JOINSTYLE
280
     0
  9
$LWDISPLAY
290
     0
  9
$INSUNITS
 70
     1
  9
$HYPERLINKBASE
  1

  9
$STYLESHEET
  1

  9
$XEDIT
290
     1
  9
$CEPSNTYPE
380
     0
  9
$PSTYLEMODE
290
     1
  9
$FINGERPRINTGUID
  2
{014E30A8-4BB9-48F4-AE97-7F3A7A43F3CE}
  9
$VERSIONGUID
  2
{FAEB1C32-E019-11D5-929B-00C0DF256EC4}
  9
$EXTNAMES
290
     1
  9
$PSVPSCALE
 40
0.0
  9
$OLESTARTUP
290
     0
  9
$SORTENTS
280
   127
  9
$INDEXCTL
280
     0
  9
$HIDETEXT
280
     1
  9
$XCLIPFRAME
280
     2
  9
$HALOGAP
280
     0
  9
$OBSCOLOR
 70
   257
  9
$OBSLTYPE
280
     0
  9
$INTERSECTIONDISPLAY
280
     0
  9
$INTERSECTIONCOLOR
 70
   257
  9
$DIMASSOC
280
     2
  9
$PROJECTNAME
  1

  9
$CAMERADISPLAY
290
     0
  9
$LENSLENGTH
 40
50.0
  9
$CAMERAHEIGHT
 40
0.0
  9
$STEPSPERSEC
 40
2.0
  9
$STEPSIZE
 40
6.0
  9
$3DDWFPREC
 40
2.0
  9
$PSOLWIDTH
 40
0.25
  9
$PSOLHEIGHT
 40
4.0
  9
$LOFTANG1
 40
1.570796326794897
  9
$LOFTANG2
 40
1.570796326794897
  9
$LOFTMAG1
 40
0.0
  9
$LOFTMAG2
 40
0.0
  9
$LOFTPARAM
 70
     7
  9
$LOFTNORMALS
280
     1
  9
$LATITUDE
 40
37.795
  9
$LONGITUDE
 40
-122.394
  9
$NORTHDIRECTION
 40
0.0
  9
$TIMEZONE
 70
 -8000
  9
$LIGHTGLYPHDISPLAY
280
     1
  9
$TILEMODELIGHTSYNCH
280
     1
  9
$CMATERIAL
347
44
  9
$SOLIDHIST
280
     0
  9
$SHOWHIST
280
     1
  9
$DWFFRAME
280
     2
  9
$DGNFRAME
280
     2
  9
$REALWORLDSCALE
290
     1
  9
$INTERFERECOLOR
 62
   256
  9
$CSHADOW
280
     0
  9
$SHADOWPLANELOCATION
 40
0.0
  0
ENDSEC
  0
SECTION
  2
CLASSES
  0
CLASS
  1
ACDBDICTIONARYWDFLT
  2
AcDbDictionaryWithDefault
  3
ObjectDBX Classes
 90
        0
 91
        4
280
     0
281
     0
  0
CLASS
  1
VISUALSTYLE
  2
AcDbVisualStyle
  3
ObjectDBX Classes
 90
     4095
 91
        4
280
     0
281
     0
  0
CLASS
  1
MATERIAL
  2
AcDbMaterial
  3
ObjectDBX Classes
 90
     1153
 91
        4
280
     0
281
     0
  0
CLASS
  1
SCALE
  2
AcDbScale
  3
ObjectDBX Classes
 90
     1153
 91
        4
280
     0
281
     0
  0
CLASS
  1
TABLESTYLE
  2
AcDbTableStyle
  3
ObjectDBX Classes
 90
     4095
 91
        4
280
     0
281
     0
  0
CLASS
  1
MLEADERSTYLE
  2
AcDbMLeaderStyle
  3
ACDB_MLEADERSTYLE_CLASS
 90
     4095
 91
        4
280
     0
281
     0
  0
CLASS
  1
SUN
  2
AcDbSun
  3
SCENEOE
 90
     1153
 91
        4
280
     0
281
     0
  0
CLASS
  1
DICTIONARYVAR
  2
AcDbDictionaryVar
  3
ObjectDBX Classes
 90
        0
 91
        4
280
     0
281
     0
  0
CLASS
  1
CELLSTYLEMAP
  2
AcDbCellStyleMap
  3
ObjectDBX Classes
 90
     1152
 91
        4
280
     0
281
     0
  0
ENDSEC
  0
SECTION
  2
TABLES
  0
TABLE
  2
VPORT
  5
8
330
0
100
AcDbSymbolTable
 70
     1
  0
VPORT
  5
29
330
8
100
AcDbSymbolTableRecord
100
AcDbViewportTableRecord
  2
*Active
 70
     0
 10
0.0
 20
0.0
 11
1.0
 21
1.0
 12
0.0
 22
-0.8347499999999997
 13
0.0
 23
0.0
 14
0.5
 24
0.5
 15
0.5
 25
0.5
 16
0.0
 26
0.0
 36
1.0
 17
0.0
 27
0.0
 37
0.0
 40
1.818149999999999
 41
1.823281907433381
 42
50.0
 43
0.0
 44
0.0
 50
0.0
 51
0.0
 71
     0
 72
   100
 73
     1
 74
     3
 75
     0
 76
     0
 77
     0
 78
     0
281
     0
 65
     1
110
0.0
120
0.0
130
0.0
111
1.0
121
0.0
131
0.0
112
0.0
122
1.0
132
0.0
 79
     0
146
0.0
348
2F
 60
     3
 61
     5
292
     1
282
     1
141
0.0
142
0.0
 63
   250
361
6D
  0
ENDTAB
  0
TABLE
  2
LTYPE
  5
5
330
0
100
AcDbSymbolTable
 70
     3
  0
LTYPE
  5
14
330
5
100
AcDbSymbolTableRecord
100
AcDbLinetypeTableRecord
  2
ByBlock
 70
     0
  3

 72
    65
 73
     0
 40
0.0
  0
LTYPE
  5
15
330
5
100
AcDbSymbolTableRecord
100
AcDbLinetypeTableRecord
  2
ByLayer
 70
     0
  3

 72
    65
 73
     0
 40
0.0
  0
LTYPE
  5
16
330
5
100
AcDbSymbolTableRecord
100
AcDbLinetypeTableRecord
  2
Continuous
 70
     0
  3
Solid line
 72
    65
 73
     0
 40
0.0
  0
LTYPE
  5
A1
330
5
100
AcDbSymbolTableRecord
100
AcDbLinetypeTableRecord
  2
Dashed
 70
     0
  3

 72
    65
 73
     2
 40
2.0
 49
1.0
 74
     0
 49
-1.0
 74
     0
  0
LTYPE
  5
D0
330
5
100
AcDbSymbolTableRecord
100
AcDbLinetypeTableRecord
  2
Center
 70
     0
  3

 72
    65
 73
     4
 40
1.5
 49
0.45
 74
     0
 49
-0.5
 74
     0
 49
0.05
 74
     0
 49
-0.5
 74
     0
  0
ENDTAB
  0
TABLE
  2
LAYER
  5
2
330
0
100
AcDbSymbolTable
 70
     7
  0
LAYER
  5
10
330
2
100
AcDbSymbolTableRecord
100
AcDbLayerTableRecord
  2
0
 70
     0
 62
     7
  6
Continuous
370
    -3
390
F
347
46
348
0
  0
LAYER
  5
72
330
2
100
AcDbSymbolTableRecord
100
AcDbLayerTableRecord
  2
AM_6
 70
     0
 62
    -2
  6
Continuous
370
    35
390
F
347
46
348
0
  0
LAYER
  5
A2
330
2
100
AcDbSymbolTableRecord
100
AcDbLayerTableRecord
  2
AM_9
 70
     0
 62
     6
  6
Dashed
370
    25
390
F
347
46
348
0
  0
LAYER
  5
D1
330
2
100
AcDbSymbolTableRecord
100
AcDbLayerTableRecord
  2
AM_7
 70
     0
 62
     7
  6
Center
370
    25
390
F
347
46
348
0
  0
LAYER
  5
D4
330
2
100
AcDbSymbolTableRecord
100
AcDbLayerTableRecord
  2
AM_4
 70
     0
 62
     7
  6
Continuous
370
    50
390
F
347
46
348
0
  0
LAYER
  5
E1
330
2
100
AcDbSymbolTableRecord
100
AcDbLayerTableRecord
  2
AM_5
 70
     0
 62
     3
  6
Continuous
370
    25
390
F
347
46
348
0
  0
LAYER
  5
172
330
2
100
AcDbSymbolTableRecord
100
AcDbLayerTableRecord
  2
ConnectionPoints
 70
     0
 62
     7
  6
Continuous
370
    50
390
F
347
46
348
0
  0
ENDTAB
  0
TABLE
  2
STYLE
  5
3
330
0
100
AcDbSymbolTable
 70
     1
  0
STYLE
  5
11
330
3
100
AcDbSymbolTableRecord
100
AcDbTextStyleTableRecord
  2
Standard
 70
     0
 40
0.0
 41
1.0
 50
0.0
 71
     0
 42
0.2
  3
txt
  4

  0
ENDTAB
  0
TABLE
  2
VIEW
  5
6
330
0
100
AcDbSymbolTable
 70
     0
  0
ENDTAB
  0
TABLE
  2
UCS
  5
7
330
0
100
AcDbSymbolTable
 70
     0
  0
ENDTAB
  0
TABLE
  2
APPID
  5
9
330
0
100
AcDbSymbolTable
 70
     1
  0
APPID
  5
12
330
9
100
AcDbSymbolTableRecord
100
AcDbRegAppTableRecord
  2
ACAD
 70
     0
  0
ENDTAB
  0
TABLE
  2
DIMSTYLE
  5
A
330
0
100
AcDbSymbolTable
 70
     1
100
AcDbDimStyleTable
  0
DIMSTYLE
105
27
330
A
100
AcDbSymbolTableRecord
100
AcDbDimStyleTableRecord
  2
Standard
 70
     0
178
     0
340
11
  0
ENDTAB
  0
TABLE
  2
BLOCK_RECORD
  5
1
330
0
100
AcDbSymbolTable
 70
     5
  0
BLOCK_RECORD
  5
1F
330
1
100
AcDbSymbolTableRecord
100
AcDbBlockTableRecord
  2
*Model_Space
340
22
 70
     0
280
     1
281
     0
  0
BLOCK_RECORD
  5
1B
330
1
100
AcDbSymbolTableRecord
100
AcDbBlockTableRecord
  2
*Paper_Space
340
1E
 70
     0
280
     1
281
     0
  0
BLOCK_RECORD
  5
23
330
1
100
AcDbSymbolTableRecord
100
AcDbBlockTableRecord
  2
*Paper_Space0
340
26
 70
     0
280
     1
281
     0
  0
BLOCK_RECORD
  5
6E
330
1
100
AcDbSymbolTableRecord
100
AcDbBlockTableRecord
  2
1_124442_4
340
0
102
{BLKREFS
331
6F
102
}
 70
     0
280
     1
281
     0
  0
BLOCK_RECORD
  5
8B
330
1
100
AcDbSymbolTableRecord
100
AcDbBlockTableRecord
  2
2_123337_0_in_124442_4
340
0
102
{BLKREFS
331
8C
102
}
 70
     0
280
     1
281
     0
  0
BLOCK_RECORD
  5
E4
330
1
100
AcDbSymbolTableRecord
100
AcDbBlockTableRecord
  2
3_405015E_Inch_0_in_124442_4
340
0
102
{BLKREFS
331
E5
102
}
 70
     0
280
     1
281
     0
  0
BLOCK_RECORD
  5
127
330
1
100
AcDbSymbolTableRecord
100
AcDbBlockTableRecord
  2
4_124442H_0_in_124442_4
340
0
102
{BLKREFS
331
128
102
}
 70
     0
280
     1
281
     0
  0
ENDTAB
  0
ENDSEC
  0
SECTION
  2
BLOCKS
  0
BLOCK
  5
20
330
1F
100
AcDbEntity
  8
0
100
AcDbBlockBegin
  2
*Model_Space
 70
     0
 10
0.0
 20
0.0
 30
0.0
  3
*Model_Space
  1

  0
ENDBLK
  5
21
330
1F
100
AcDbEntity
  8
0
100
AcDbBlockEnd
  0
BLOCK
  5
1C
330
1B
100
AcDbEntity
 67
     1
  8
0
100
AcDbBlockBegin
  2
*Paper_Space
 70
     0
 10
0.0
 20
0.0
 30
0.0
  3
*Paper_Space
  1

  0
ENDBLK
  5
1D
330
1B
100
AcDbEntity
 67
     1
  8
0
100
AcDbBlockEnd
  0
BLOCK
  5
24
330
23
100
AcDbEntity
  8
0
100
AcDbBlockBegin
  2
*Paper_Space0
 70
     0
 10
0.0
 20
0.0
 30
0.0
  3
*Paper_Space0
  1

  0
ENDBLK
  5
25
330
23
100
AcDbEntity
  8
0
100
AcDbBlockEnd
  0
BLOCK
  5
70
330
6E
100
AcDbEntity
  8
0
100
AcDbBlockBegin
  2
1_124442_4
 70
     2
 10
0.0
 20
0.0
 30
0.0
  3
1_124442_4
  1

  0
ATTDEF
  5
73
330
6E
100
AcDbEntity
  8
AM_6
100
AcDbText
 10
6.625
 20
0.0565
 30
0.0
 40
0.5
  1
Set Screw Flange Bracket Inch Bore
100
AcDbAttributeDefinition
  3

  2
NN
 70
     8
280
     0
  0
ATTDEF
  5
74
330
6E
100
AcDbEntity
  8
AM_6
100
AcDbText
 10
6.625
 20
-0.4435
 30
0.0
 40
0.5
  1
SC 3 Bolt Flange Bearings -(Normal Duty)
100
AcDbAttributeDefinition
  3

  2
NT
 70
     8
280
     0
  0
ATTDEF
  5
75
330
6E
100
AcDbEntity
  8
AM_6
100
AcDbText
 10
6.625
 20
-0.9435
 30
0.0
 40
0.5
  1
124442
100
AcDbAttributeDefinition
  3

  2
NB
 70
     8
280
     0
  0
ATTDEF
  5
76
330
6E
100
AcDbEntity
  8
AM_6
100
AcDbText
 10
6.625
 20
-1.4435
 30
0.0
 40
0.5
  1
$PN.
100
AcDbAttributeDefinition
  3

  2
NBSYN
 70
     8
280
     0
  0
ATTDEF
  5
77
330
6E
100
AcDbEntity
  8
AM_6
100
AcDbText
 10
6.625
 20
-1.9435
 30
0.0
 40
0.5
  1
124442
100
AcDbAttributeDefinition
  3

  2
LINA
 70
     8
280
     0
  0
ATTDEF
  5
78
330
6E
100
AcDbEntity
  8
AM_6
100
AcDbText
 10
6.625
 20
-2.4435
 30
0.0
 40
0.5
  1
206
100
AcDbAttributeDefinition
  3

  2
SERIES
 70
     8
280
     0
  0
ATTDEF
  5
79
330
6E
100
AcDbEntity
  8
AM_6
100
AcDbText
 10
6.625
 20
-2.9435
 30
0.0
 40
0.5
  1
1-1/8
100
AcDbAttributeDefinition
  3

  2
SS
 70
     8
280
     0
  0
ATTDEF
  5
7A
330
6E
100
AcDbEntity
  8
AM_6
100
AcDbText
 10
6.625
 20
-3.4435
 30
0.0
 40
0.5
  1
124442
100
AcDbAttributeDefinition
  3

  2
PN
 70
     8
280
     0
  0
ATTDEF
  5
7B
330
6E
100
AcDbEntity
  8
AM_6
100
AcDbText
 10
6.625
 20
-3.9435
 30
0.0
 40
0.5
  1
FB-SC-102
100
AcDbAttributeDefinition
  3

  2
DESCRIPTION
 70
     8
280
     0
  0
ATTDEF
  5
7C
330
6E
100
AcDbEntity
  8
AM_6
100
AcDbText
 10
6.625
 20
-4.4435
 30
0.0
 40
0.5
  1
2.08
100
AcDbAttributeDefinition
  3

  2
WEIGHT
 70
     8
280
     0
  0
ATTDEF
  5
7D
330
6E
100
AcDbEntity
  8
AM_6
100
AcDbText
 10
6.625
 20
-4.9435
 30
0.0
 40
0.5
  1
1.52
100
AcDbAttributeDefinition
  3

  2
A
 70
     8
280
     0
  0
ATTDEF
  5
7E
330
6E
100
AcDbEntity
  8
AM_6
100
AcDbText
 10
6.625
 20
-5.4435
 30
0.0
 40
0.5
  1
5.38
100
AcDbAttributeDefinition
  3

  2
B
 70
     8
280
     0
  0
ATTDEF
  5
7F
330
6E
100
AcDbEntity
  8
AM_6
100
AcDbText
 10
6.625
 20
-5.9435
 30
0.0
 40
0.5
  1
1.65
100
AcDbAttributeDefinition
  3

  2
C
 70
     8
280
     0
  0
ATTDEF
  5
80
330
6E
100
AcDbEntity
  8
AM_6
100
AcDbText
 10
6.625
 20
-6.4435
 30
0.0
 40
0.5
  1
1.88
100
AcDbAttributeDefinition
  3

  2
D
 70
     8
280
     0
  0
ATTDEF
  5
81
330
6E
100
AcDbEntity
  8
AM_6
100
AcDbText
 10
6.625
 20
-6.9435
 30
0.0
 40
0.5
  1
2.06
100
AcDbAttributeDefinition
  3

  2
E
 70
     8
280
     0
  0
ATTDEF
  5
82
330
6E
100
AcDbEntity
  8
AM_6
100
AcDbText
 10
6.625
 20
-7.4435
 30
0.0
 40
0.5
  1
3/8
100
AcDbAttributeDefinition
  3

  2
F
 70
     8
280
     0
  0
ATTDEF
  5
83
330
6E
100
AcDbEntity
  8
AM_6
100
AcDbText
 10
6.625
 20
-7.9435
 30
0.0
 40
0.5
  1
1.25
100
AcDbAttributeDefinition
  3

  2
G
 70
     8
280
     0
  0
ATTDEF
  5
84
330
6E
100
AcDbEntity
  8
AM_6
100
AcDbText
 10
6.625
 20
-8.4435
 30
0.0
 40
0.5
  1
0.38
100
AcDbAttributeDefinition
  3

  2
H
 70
     8
280
     0
  0
ATTDEF
  5
85
330
6E
100
AcDbEntity
  8
AM_6
100
AcDbText
 10
6.625
 20
-8.9435
 30
0.0
 40
0.5
  1
3.75
100
AcDbAttributeDefinition
  3

  2
I
 70
     8
280
     0
  0
ATTDEF
  5
86
330
6E
100
AcDbEntity
  8
AM_6
100
AcDbText
 10
6.625
 20
-9.4435
 30
0.0
 40
0.5
  1
3.25
100
AcDbAttributeDefinition
  3

  2
J
 70
     8
280
     0
  0
ATTDEF
  5
87
330
6E
100
AcDbEntity
  8
AM_6
100
AcDbText
 10
6.625
 20
-9.9435
 30
0.0
 40
0.5
  1
1.13
100
AcDbAttributeDefinition
  3

  2
K
 70
     8
280
     0
  0
ATTDEF
  5
88
330
6E
100
AcDbEntity
  8
AM_6
100
AcDbText
 10
6.625
 20
-10.4435
 30
0.0
 40
0.5
  1
1.57
100
AcDbAttributeDefinition
  3

  2
L
 70
     8
280
     0
  0
ATTDEF
  5
89
330
6E
100
AcDbEntity
  8
AM_6
100
AcDbText
 10
6.625
 20
-10.9435
 30
0.0
 40
0.5
  1
2.75
100
AcDbAttributeDefinition
  3

  2
M
 70
     8
280
     0
  0
ATTDEF
  5
8A
330
6E
100
AcDbEntity
  8
AM_6
100
AcDbText
 10
6.625
 20
-11.4435
 30
0.0
 40
0.5
  1
baldor
100
AcDbAttributeDefinition
  3

  2
COMPANY
 70
     8
280
     0
  0
INSERT
  5
8C
330
6E
100
AcDbEntity
  8
0
100
AcDbBlockReference
  2
2_123337_0_in_124442_4
 10
0.0
 20
0.0
 30
0.0
  0
INSERT
  5
E5
330
6E
100
AcDbEntity
  8
0
100
AcDbBlockReference
  2
3_405015E_Inch_0_in_124442_4
 10
0.0
 20
0.0
 30
0.0
  0
INSERT
  5
128
330
6E
100
AcDbEntity
  8
0
100
AcDbBlockReference
  2
4_124442H_0_in_124442_4
 10
0.0
 20
0.0
 30
0.0
  0
ENDBLK
  5
71
330
6E
100
AcDbEntity
  8
0
100
AcDbBlockEnd
  0
BLOCK
  5
8D
330
8B
100
AcDbEntity
  8
0
100
AcDbBlockBegin
  2
2_123337_0_in_124442_4
 70
     2
 10
0.0
 20
0.0
 30
0.0
  3
2_123337_0_in_124442_4
  1

  0
ATTDEF
  5
8F
330
8B
100
AcDbEntity
  8
AM_6
100
AcDbText
 10
6.219872827573638
 20
-0.13
 30
0.0
 40
0.5
  1
Set Screw Insert Inch Bore
100
AcDbAttributeDefinition
  3

  2
NN
 70
     8
280
     0
  0
ATTDEF
  5
90
330
8B
100
AcDbEntity
  8
AM_6
100
AcDbText
 10
6.219872827573638
 20
-0.63
 30
0.0
 40
0.5
  1
SC Normal Duty Bearing Inserts
100
AcDbAttributeDefinition
  3

  2
NT
 70
     8
280
     0
  0
ATTDEF
  5
91
330
8B
100
AcDbEntity
  8
AM_6
100
AcDbText
 10
6.219872827573638
 20
-1.13
 30
0.0
 40
0.5
  1
123337
100
AcDbAttributeDefinition
  3

  2
NB
 70
     8
280
     0
  0
ATTDEF
  5
92
330
8B
100
AcDbEntity
  8
AM_6
100
AcDbText
 10
6.219872827573638
 20
-1.63
 30
0.0
 40
0.5
  1
$PN.
100
AcDbAttributeDefinition
  3

  2
NBSYN
 70
     8
280
     0
  0
ATTDEF
  5
93
330
8B
100
AcDbEntity
  8
AM_6
100
AcDbText
 10
6.219872827573638
 20
-2.13
 30
0.0
 40
0.5
  1
123337
100
AcDbAttributeDefinition
  3

  2
LINA
 70
     8
280
     0
  0
ATTDEF
  5
94
330
8B
100
AcDbEntity
  8
AM_6
100
AcDbText
 10
6.219872827573638
 20
-2.63
 30
0.0
 40
0.5
  1
206
100
AcDbAttributeDefinition
  3

  2
SERIES
 70
     8
280
     0
  0
ATTDEF
  5
95
330
8B
100
AcDbEntity
  8
AM_6
100
AcDbText
 10
6.219872827573638
 20
-3.13
 30
0.0
 40
0.5
  1
1-1/8
100
AcDbAttributeDefinition
  3

  2
SS
 70
     8
280
     0
  0
ATTDEF
  5
96
330
8B
100
AcDbEntity
  8
AM_6
100
AcDbText
 10
6.219872827573638
 20
-3.63
 30
0.0
 40
0.5
  1
123337
100
AcDbAttributeDefinition
  3

  2
PN
 70
     8
280
     0
  0
ATTDEF
  5
97
330
8B
100
AcDbEntity
  8
AM_6
100
AcDbText
 10
6.219872827573638
 20
-4.13
 30
0.0
 40
0.5
  1
INS-SC-102
100
AcDbAttributeDefinition
  3

  2
DESCRIPTION
 70
     8
280
     0
  0
ATTDEF
  5
98
330
8B
100
AcDbEntity
  8
AM_6
100
AcDbText
 10
6.219872827573638
 20
-4.63
 30
0.0
 40
0.5
  1
1.52
100
AcDbAttributeDefinition
  3

  2
A
 70
     8
280
     0
  0
ATTDEF
  5
99
330
8B
100
AcDbEntity
  8
AM_6
100
AcDbText
 10
6.219872827573638
 20
-5.13
 30
0.0
 40
0.5
  1
0.69
100
AcDbAttributeDefinition
  3

  2
C
 70
     8
280
     0
  0
ATTDEF
  5
9A
330
8B
100
AcDbEntity
  8
AM_6
100
AcDbText
 10
6.219872827573638
 20
-5.63
 30
0.0
 40
0.5
  1
2.4409
100
AcDbAttributeDefinition
  3

  2
D
 70
     8
280
     0
  0
ATTDEF
  5
9B
330
8B
100
AcDbEntity
  8
AM_6
100
AcDbText
 10
6.219872827573638
 20
-6.13
 30
0.0
 40
0.5
  1
0.16
100
AcDbAttributeDefinition
  3

  2
J
 70
     8
280
     0
  0
ATTDEF
  5
9C
330
8B
100
AcDbEntity
  8
AM_6
100
AcDbText
 10
6.219872827573638
 20
-6.63
 30
0.0
 40
0.5
  1
1.57
100
AcDbAttributeDefinition
  3

  2
L
 70
     8
280
     0
  0
ATTDEF
  5
9D
330
8B
100
AcDbEntity
  8
AM_6
100
AcDbText
 10
6.219872827573638
 20
-7.13
 30
0.0
 40
0.5
  1
5/16 - 24
100
AcDbAttributeDefinition
  3

  2
N
 70
     8
280
     0
  0
ATTDEF
  5
9E
330
8B
100
AcDbEntity
  8
AM_6
100
AcDbText
 10
6.219872827573638
 20
-7.63
 30
0.0
 40
0.5
  1
0.58
100
AcDbAttributeDefinition
  3

  2
W
 70
     8
280
     0
  0
ATTDEF
  5
9F
330
8B
100
AcDbEntity
  8
AM_6
100
AcDbText
 10
6.219872827573638
 20
-8.129999999999999
 30
0.0
 40
0.5
  1
0.94
100
AcDbAttributeDefinition
  3

  2
Y
 70
     8
280
     0
  0
ATTDEF
  5
A0
330
8B
100
AcDbEntity
  8
AM_6
100
AcDbText
 10
6.219872827573638
 20
-8.629999999999999
 30
0.0
 40
0.5
  1
baldor
100
AcDbAttributeDefinition
  3

  2
COMPANY
 70
     8
280
     0
  0
LINE
  5
A3
330
8B
100
AcDbEntity
  8
AM_9
100
AcDbLine
 10
-1.191552996159735
 20
-0.445833333333338
 30
0.0
 11
-1.213972727272727
 21
-0.445833333333338
 31
0.0
  0
LINE
  5
A4
330
8B
100
AcDbEntity
  8
AM_9
100
AcDbLine
 10
-1.2767
 20
-0.5085606060606104
 30
0.0
 11
-1.2767
 21
-0.5914393939393896
 31
0.0
  0
ARC
  5
A5
330
8B
100
AcDbEntity
  8
AM_9
100
AcDbCircle
 10
-1.213972727272727
 20
-0.5914393939393896
 30
0.0
 40
0.0627272727272725
100
AcDbArc
 50
180.0
 51
265.2983094145258
  0
ARC
  5
A6
330
8B
100
AcDbEntity
  8
AM_9
100
AcDbCircle
 10
-1.213972727272728
 20
-0.5085606060606103
 30
0.0
 40
0.0627272727272724
100
AcDbArc
 50
90.0
 51
180.0
  0
LINE
  5
A7
330
8B
100
AcDbEntity
  8
AM_9
100
AcDbLine
 10
-1.213972727272727
 20
-0.4458333333333379
 30
0.0
 11
-1.213972727272727
 21
-0.6146321078326981
 31
0.0
  0
LINE
  5
A8
330
8B
100
AcDbEntity
  8
AM_9
100
AcDbLine
 10
0.5097098202905187
 20
-1.4787
 30
0.0
 11
0.6904184671652965
 21
-1.4787
 31
0.0
  0
LINE
  5
A9
330
8B
100
AcDbEntity
  8
AM_9
100
AcDbLine
 10
0.6904184671652965
 20
-1.2263
 30
0.0
 11
0.5097490899150117
 21
-1.2263
 31
0.0
  0
LWPOLYLINE
  5
AA
330
8B
100
AcDbEntity
  8
AM_9
100
AcDbPolyline
 90
       21
 70
     0
 43
0.0
 10
0.5097946542612971
 20
-1.478699999731993
 10
0.5151973814101155
 20
-1.478017928278699
 10
0.5229495753135238
 20
-1.474247821765556
 10
0.5299197040225471
 20
-1.467044026286473
 10
0.5356863587318152
 20
-1.456922399962424
 10
0.5405091204256808
 20
-1.443654451897714
 10
0.5442395684214867
 20
-1.427946400806497
 10
0.5470535887295875
 20
-1.409595078883473
 10
0.5488843321986562
 20
-1.390061005451857
 10
0.5499092833135342
 20
-1.368800678506958
 10
0.5501202165266288
 20
-1.348125032468126
 10
0.5495721288254527
 20
-1.326967672717826
 10
0.5482906034140583
 20
-1.307371925651412
 10
0.5461435589378638
 20
-1.288497472376392
 10
0.5431173809403511
 20
-1.271598745780696
 10
0.5389841616325706
 20
-1.256503666938728
 10
0.5337932324530842
 20
-1.244213500563231
 10
0.5272798567924771
 20
-1.234702851558413
 10
0.5199067847826763
 20
-1.228825901439908
 10
0.5113092084715627
 20
-1.22635136390584
 10
0.5098035783951061
 20
-1.226300000658475
  0
LWPOLYLINE
  5
AB
330
8B
100
AcDbEntity
  8
AM_9
100
AcDbPolyline
 90
       11
 70
     0
 43
0.0
 10
0.5098035783951061
 20
-1.226300000658475
 10
0.5024019683555125
 20
-1.227443847456475
 10
0.4927623493340729
 20
-1.232034724358321
 10
0.4832984254465616
 20
-1.239696582648961
 10
0.4738213618488025
 20
-1.250637229502295
 10
0.4650676009564844
 20
-1.26426048181585
 10
0.4571574713207268
 20
-1.280765862981084
 10
0.4508369308216093
 20
-1.299073326508617
 10
0.4462180503993174
 20
-1.319527816727875
 10
0.4441747180984988
 20
-1.33571002560222
 10
0.4434676027539643
 20
-1.3525
  0
ELLIPSE
  5
AC
330
8B
100
AcDbEntity
  8
AM_9
100
AcDbEllipse
 10
0.6904184671652972
 20
-1.352499999999999
 30
0.0
 11
-2.318256390785961E-17
 21
-0.1262000000000012
 31
0.0
210
0.0
220
0.0
230
1.0
 40
0.4226182617407015
 41
3.495780791094283
 42
5.945918388171937
  0
LINE
  5
AD
330
8B
100
AcDbEntity
  8
AM_9
100
AcDbLine
 10
0.6655482165162553
 20
-1.464139373797339
 30
0.0
 11
0.679758808047701
 21
-1.481864053989334
 31
0.0
  0
LINE
  5
AE
330
8B
100
AcDbEntity
  8
AM_9
100
AcDbLine
 10
0.6798046264373149
 20
-1.223078797347922
 30
0.0
 11
0.6655482165162553
 21
-1.240860626202662
 31
0.0
  0
LWPOLYLINE
  5
AF
330
8B
100
AcDbEntity
  8
AM_9
100
AcDbPolyline
 90
       11
 70
     0
 43
0.0
 10
0.4434676027539643
 20
-1.3525
 10
0.4445322342434518
 20
-1.373086525459764
 10
0.4477853541027391
 20
-1.393673050919528
 10
0.4528542119479995
 20
-1.412518268747714
 10
0.4597385120124737
 20
-1.430194159116009
 10
0.4678545335396059
 20
-1.44550970940773
 10
0.4771551117994692
 20
-1.458613007530141
 10
0.4868160847856229
 20
-1.468515049458147
 10
0.4968764162622681
 20
-1.475328924084208
 10
0.506205238307597
 20
-1.478422262830244
 10
0.5097946542612971
 20
-1.478699999731993
  0
LINE
  5
B0
330
8B
100
AcDbEntity
  8
AM_9
100
AcDbLine
 10
0.5625
 20
-1.6186
 30
0.0
 11
0.5625
 21
-0.1614000000000001
 31
0.0
  0
LINE
  5
B1
330
8B
100
AcDbEntity
  8
AM_9
100
AcDbLine
 10
-0.5625
 20
-0.1614000000000001
 30
0.0
 11
-0.5625
 21
-1.6186
 31
0.0
  0
LINE
  5
B2
330
8B
100
AcDbEntity
  8
AM_9
100
AcDbLine
 10
0.5625
 20
-0.1614000000000001
 30
0.0
 11
0.5939
 21
-0.13
 31
0.0
  0
LINE
  5
B3
330
8B
100
AcDbEntity
  8
AM_9
100
AcDbLine
 10
-0.5939
 20
-0.13
 30
0.0
 11
-0.5625
 21
-0.1614000000000001
 31
0.0
  0
LINE
  5
B4
330
8B
100
AcDbEntity
  8
AM_9
100
AcDbLine
 10
-0.5625
 20
-1.6186
 30
0.0
 11
-0.5939
 21
-1.65
 31
0.0
  0
LINE
  5
B5
330
8B
100
AcDbEntity
  8
AM_9
100
AcDbLine
 10
0.5939
 20
-1.65
 30
0.0
 11
0.5625
 21
-1.6186
 31
0.0
  0
LINE
  5
B6
330
8B
100
AcDbEntity
  8
AM_9
100
AcDbLine
 10
-0.7535999999999999
 20
-0.13
 30
0.0
 11
0.7535999999999999
 21
-0.13
 31
0.0
  0
LINE
  5
B7
330
8B
100
AcDbEntity
  8
AM_9
100
AcDbLine
 10
-0.7535999999999999
 20
-0.13
 30
0.0
 11
-0.7849999999999999
 21
-0.1614
 31
0.0
  0
LINE
  5
B8
330
8B
100
AcDbEntity
  8
AM_9
100
AcDbLine
 10
0.7849999999999999
 20
-0.1614
 30
0.0
 11
0.7535999999999999
 21
-0.13
 31
0.0
  0
LINE
  5
B9
330
8B
100
AcDbEntity
  8
AM_9
100
AcDbLine
 10
-0.7849999999999999
 20
-0.1614
 30
0.0
 11
0.7850000000000003
 21
-0.1614
 31
0.0
  0
LINE
  5
BA
330
8B
100
AcDbEntity
  8
AM_9
100
AcDbLine
 10
0.7850000000000003
 20
-0.365
 30
0.0
 11
0.7850000000000003
 21
-0.1614
 31
0.0
  0
LINE
  5
BB
330
8B
100
AcDbEntity
  8
AM_9
100
AcDbLine
 10
-0.7850000000000003
 20
-0.1614
 30
0.0
 11
-0.7850000000000003
 21
-0.365
 31
0.0
  0
LINE
  5
BC
330
8B
100
AcDbEntity
  8
AM_9
100
AcDbLine
 10
0.7850000000000003
 20
-1.13
 30
0.0
 11
0.7850000000000003
 21
-1.055
 31
0.0
  0
LINE
  5
BD
330
8B
100
AcDbEntity
  8
AM_9
100
AcDbLine
 10
-0.7850000000000003
 20
-1.055
 30
0.0
 11
-0.7850000000000003
 21
-1.13
 31
0.0
  0
LINE
  5
BE
330
8B
100
AcDbEntity
  8
AM_9
100
AcDbLine
 10
1.167116666666667
 20
-0.9019999999999998
 30
0.0
 11
1.167116666666667
 21
-0.838
 31
0.0
  0
LINE
  5
BF
330
8B
100
AcDbEntity
  8
AM_9
100
AcDbLine
 10
-1.167116666666667
 20
-0.838
 30
0.0
 11
-1.167116666666667
 21
-0.9019999999999998
 31
0.0
  0
LINE
  5
C0
330
8B
100
AcDbEntity
  8
AM_9
100
AcDbLine
 10
-1.146492216502145
 20
-0.365
 30
0.0
 11
1.146492216499253
 21
-0.365
 31
0.0
  0
ARC
  5
C1
330
8B
100
AcDbEntity
  8
AM_9
100
AcDbCircle
 10
1.146492216502145
 20
-0.3969999999999999
 30
0.0
 40
0.0319999999999998
100
AcDbArc
 50
15.27001663184375
 51
90.0
  0
ARC
  5
C2
330
8B
100
AcDbEntity
  8
AM_9
100
AcDbCircle
 10
-1.146492216502145
 20
-0.3969999999999999
 30
0.0
 40
0.0319999999999999
100
AcDbArc
 50
90.0
 51
164.7299833681563
  0
LINE
  5
C3
330
8B
100
AcDbEntity
  8
AM_9
100
AcDbLine
 10
-1.146492216502144
 20
-1.055
 30
0.0
 11
1.146492216499252
 21
-1.055
 31
0.0
  0
ARC
  5
C4
330
8B
100
AcDbEntity
  8
AM_9
100
AcDbCircle
 10
1.146492216502144
 20
-1.022999999999999
 30
0.0
 40
0.0320000000000005
100
AcDbArc
 50
270.0
 51
344.7299833681558
  0
ARC
  5
C5
330
8B
100
AcDbEntity
  8
AM_9
100
AcDbCircle
 10
-1.146492216502144
 20
-1.022999999999999
 30
0.0
 40
0.0320000000000004
100
AcDbArc
 50
195.2700166318441
 51
270.0
  0
LINE
  5
C6
330
8B
100
AcDbEntity
  8
AM_9
100
AcDbLine
 10
-1.177362468450538
 20
-1.031427784088518
 30
0.0
 11
1.177362468450545
 21
-1.031427784088518
 31
0.0
  0
LINE
  5
C7
330
8B
100
AcDbEntity
  8
AM_9
100
AcDbLine
 10
-1.205252754612077
 20
-0.9019999999999999
 30
0.0
 11
1.205252754612084
 21
-0.9019999999999999
 31
0.0
  0
ARC
  5
C8
330
8B
100
AcDbEntity
  8
AM_9
100
AcDbCircle
 10
0.0000000000039104
 20
-0.7100000000008417
 30
0.0
 40
1.220449999996012
100
AcDbArc
 50
344.729983368146
 51
350.9486832420336
  0
ARC
  5
C9
330
8B
100
AcDbEntity
  8
AM_9
100
AcDbCircle
 10
-0.000000000004023
 20
-0.710000000000866
 30
0.0
 40
1.220449999995897
100
AcDbArc
 50
189.051316757966
 51
195.2700166318542
  0
LINE
  5
CA
330
8B
100
AcDbEntity
  8
AM_9
100
AcDbLine
 10
-1.213719161297209
 20
-0.8379999999999996
 30
0.0
 11
1.213719161297201
 21
-0.8379999999999996
 31
0.0
  0
LINE
  5
CB
330
8B
100
AcDbEntity
  8
AM_9
100
AcDbLine
 10
-1.177362468450538
 20
-0.3885722159114813
 30
0.0
 11
1.17736246845053
 21
-0.3885722159114813
 31
0.0
  0
ARC
  5
CC
330
8B
100
AcDbEntity
  8
AM_9
100
AcDbCircle
 10
-0.0000000000002733
 20
-0.7100000000000212
 30
0.0
 40
1.220450000000261
100
AcDbArc
 50
353.9797846834512
 51
15.27001663184148
  0
ARC
  5
CD
330
8B
100
AcDbEntity
  8
AM_9
100
AcDbCircle
 10
-0.0000000000269123
 20
-0.7099999999931839
 30
0.0
 40
1.220449999972235
100
AcDbArc
 50
164.7299833681321
 51
167.5117622939334
  0
ARC
  5
CE
330
8B
100
AcDbEntity
  8
AM_9
100
AcDbCircle
 10
-0.00000000000004
 20
-0.7100000000000536
 30
0.0
 40
1.220449999999947
100
AcDbArc
 50
177.350430474963
 51
186.0202153165489
  0
LINE
  5
CF
330
8B
100
AcDbEntity
  8
AM_9
100
AcDbLine
 10
-1.219162327970007
 20
-0.6539516230501872
 30
0.0
 11
-1.191517593125636
 21
-0.4458333333512238
 31
0.0
  0
LINE
  5
D2
330
8B
100
AcDbEntity
  8
AM_7
100
AcDbLine
 10
-0.13251
 20
-1.3525
 30
0.0
 11
0.13251
 21
-1.3525
 31
0.0
  0
LINE
  5
D3
330
8B
100
AcDbEntity
  8
AM_7
100
AcDbLine
 10
-1.301285
 20
-0.5499999999999999
 30
0.0
 11
-0.760415
 21
-0.5499999999999999
 31
0.0
  0
ELLIPSE
  5
D5
330
8B
100
AcDbEntity
  8
AM_4
100
AcDbEllipse
 10
0.6904184671652964
 20
-1.3525
 30
0.0
 11
-2.318256390785941E-17
 21
-0.1262000000000001
 31
0.0
210
0.0
220
0.0
230
1.0
 40
0.4226182617407008
 41
5.945918388171947
 42
9.778966098273854
  0
LWPOLYLINE
  5
D6
330
8B
100
AcDbEntity
  8
AM_4
100
AcDbPolyline
 90
       14
 70
     0
 43
0.0
 10
0.6798835022309109
 20
-1.482019579150116
 10
0.67707592384444
 20
-1.478345625636964
 10
0.6682337437258293
 20
-1.464306033351306
 10
0.6603419029849585
 20
-1.447806848023355
 10
0.6531624336978935
 20
-1.427611154968721
 10
0.6476680082411794
 20
-1.405618501968656
 10
0.6439080686157626
 20
-1.38068569091338
 10
0.6424672674059304
 20
-1.355010337075125
 10
0.6435201660047403
 20
-1.32839454417829
 10
0.647069222368877
 20
-1.302456809424354
 10
0.6530118180801278
 20
-1.277903938688698
 10
0.6610350757548009
 20
-1.255549624771334
 10
0.6704838677817108
 20
-1.236746838826559
 10
0.6798927260099045
 20
-1.222968912438064
  0
LWPOLYLINE
  5
D7
330
8B
100
AcDbEntity
  8
AM_4
100
AcDbPolyline
 90
        6
 70
     0
 43
0.0
 10
0.6798927260099045
 20
-1.222968912438064
 10
0.681124681145968
 20
-1.221464028779264
 10
0.6916123561140156
 20
-1.211127631703202
 10
0.7022575099646128
 20
-1.204883959891522
 10
0.7082822669485951
 20
-1.203314918574031
 10
0.7141288361145189
 20
-1.203255265167715
  0
LINE
  5
D8
330
8B
100
AcDbEntity
  8
AM_4
100
AcDbLine
 10
-0.7535999999999999
 20
-1.65
 30
0.0
 11
0.7535999999999999
 21
-1.65
 31
0.0
  0
LINE
  5
D9
330
8B
100
AcDbEntity
  8
AM_4
100
AcDbLine
 10
0.7535999999999999
 20
-1.65
 30
0.0
 11
0.7849999999999999
 21
-1.6186
 31
0.0
  0
LINE
  5
DA
330
8B
100
AcDbEntity
  8
AM_4
100
AcDbLine
 10
-0.7849999999999999
 20
-1.6186
 30
0.0
 11
-0.7535999999999999
 21
-1.65
 31
0.0
  0
CIRCLE
  5
DB
330
8B
100
AcDbEntity
  8
AM_4
100
AcDbCircle
 10
0.0
 20
-1.3525
 30
0.0
 40
0.1262
  0
LINE
  5
DC
330
8B
100
AcDbEntity
  8
AM_4
100
AcDbLine
 10
-0.7849999999999999
 20
-1.6186
 30
0.0
 11
0.7850000000000003
 21
-1.6186
 31
0.0
  0
LWPOLYLINE
  5
DD
330
8B
100
AcDbEntity
  8
AM_4
100
AcDbPolyline
 90
       39
 70
     0
 43
0.0
 10
-0.0999276449278747
 20
-1.250179115483914
 10
-0.0851230071579829
 20
-1.235389271087825
 10
-0.0678727447565569
 20
-1.222707452978756
 10
-0.0469808987878562
 20
-1.212154323453981
 10
-0.0237193237918159
 20
-1.205350343069963
 10
-0.0022725532062696
 20
-1.203113065652087
 10
0.0199225440785353
 20
-1.204681851863557
 10
0.0399683904026653
 20
-1.20959469236034
 10
0.0594589184821158
 20
-1.217895099120408
 10
0.0774334466141278
 20
-1.229222521065817
 10
0.0938187571673219
 20
-1.24354580298771
 10
0.1085265366873161
 20
-1.261127590924366
 10
0.1206281099261564
 20
-1.281279517092963
 10
0.1299254127559685
 20
-1.304291665904582
 10
0.135610043383428
 20
-1.329151531618249
 10
0.1372840204660611
 20
-1.355165473493329
 10
0.134619679652629
 20
-1.381833094403494
 10
0.127693060024685
 20
-1.40729230687602
 10
0.1162282094493
 20
-1.431891924896666
 10
0.1013995489959877
 20
-1.453092374959912
 10
0.0824218687922674
 20
-1.471879708813864
 10
0.0622836769112924
 20
-1.485578829015865
 10
0.0391551872594439
 20
-1.495672799721713
 10
0.0175184594971844
 20
-1.500680049672804
 10
-0.0054158968240908
 20
-1.5017906200869
 10
-0.0260318502725275
 20
-1.499183741844183
 10
-0.0464913705468205
 20
-1.493039351439817
 10
-0.0652577343548838
 20
-1.483875354941052
 10
-0.0827767646521629
 20
-1.471588172974818
 10
-0.0987992426813484
 20
-1.456109917185921
 10
-0.1125675292362412
 20
-1.437897394924442
 10
-0.1239866034546582
 20
-1.416552198109002
 10
-0.1321225363013175
 20
-1.393062826860096
 10
-0.1365893209310044
 20
-1.367704520777829
 10
-0.1369130471996715
 20
-1.341235049545133
 10
-0.1329277906164438
 20
-1.315166311399683
 10
-0.1244096438524794
 20
-1.289423160007814
 10
-0.1138171788874646
 20
-1.269083044128707
 10
-0.0999276450167128
 20
-1.250179115425176
  0
LWPOLYLINE
  5
DE
330
8B
100
AcDbEntity
  8
AM_4
100
AcDbPolyline
 90
       23
 70
     0
 43
0.0
 10
0.7141288361145189
 20
-1.203255265167715
 10
0.7230143806215945
 20
-1.2063759991159
 10
0.7310207538191336
 20
-1.213263254747349
 10
0.7376717786815778
 20
-1.223086332483389
 10
0.7433464534131019
 20
-1.235697929555566
 10
0.748338681899073
 20
-1.251899915271871
 10
0.7522628857323058
 20
-1.270367113579667
 10
0.7553826334964447
 20
-1.292427631662574
 10
0.7574058464539329
 20
-1.315975968321238
 10
0.7584199619495908
 20
-1.341887645858185
 10
0.7583145394936364
 20
-1.368086351652826
 10
0.7570414853051516
 20
-1.394422596366129
 10
0.7545431385221542
 20
-1.419559955762052
 10
0.7507545303404238
 20
-1.442551324455014
 10
0.7455658063556974
 20
-1.462849541499679
 10
0.7391985186722896
 20
-1.478959721387407
 10
0.7314418311389533
 20
-1.491240190868011
 10
0.7231649186008782
 20
-1.498530475254919
 10
0.7139380655968276
 20
-1.501767293686992
 10
0.7048117691453124
 20
-1.500946696171614
 10
0.695374295356426
 20
-1.496580866676042
 10
0.6860745144466279
 20
-1.488947702829434
 10
0.6798835022309109
 20
-1.482019579150116
  0
LINE
  5
DF
330
8B
100
AcDbEntity
  8
AM_4
100
AcDbLine
 10
0.7850000000000003
 20
-1.6186
 30
0.0
 11
0.7850000000000003
 21
-1.13
 31
0.0
  0
LINE
  5
E0
330
8B
100
AcDbEntity
  8
AM_4
100
AcDbLine
 10
-0.7850000000000003
 20
-1.13
 30
0.0
 11
-0.7850000000000003
 21
-1.6186
 31
0.0
  0
ARC
  5
E2
330
8B
100
AcDbEntity
  8
AM_5
100
AcDbCircle
 10
0.0
 20
-1.3525
 30
0.0
 40
0.1562500000000001
100
AcDbArc
 50
75.0
 51
15.0
  0
ARC
  5
E3
330
8B
100
AcDbEntity
  8
AM_5
100
AcDbCircle
 10
0.0
 20
-1.3375
 30
0.0
 40
0.1562500000000001
100
AcDbArc
 50
75.00000000000001
 51
15.00000000000004
  0
ENDBLK
  5
8E
330
8B
100
AcDbEntity
  8
0
100
AcDbBlockEnd
  0
BLOCK
  5
E6
330
E4
100
AcDbEntity
  8
0
100
AcDbBlockBegin
  2
3_405015E_Inch_0_in_124442_4
 70
     2
 10
0.0
 20
0.0
 30
0.0
  3
3_405015E_Inch_0_in_124442_4
  1

  0
ATTDEF
  5
E8
330
E4
100
AcDbEntity
  8
AM_6
100
AcDbText
 10
4.152817396605018
 20
-0.4399999999999995
 30
0.0
 40
0.5
  1
405015E -Inch
100
AcDbAttributeDefinition
  3

  2
NN
 70
     8
280
     0
  0
ATTDEF
  5
E9
330
E4
100
AcDbEntity
  8
AM_6
100
AcDbText
 10
4.152817396605018
 20
-0.9399999999999995
 30
0.0
 40
0.5
  1
Grease Fitting
100
AcDbAttributeDefinition
  3

  2
NT
 70
     8
280
     0
  0
ATTDEF
  5
EA
330
E4
100
AcDbEntity
  8
AM_6
100
AcDbText
 10
4.152817396605018
 20
-1.44
 30
0.0
 40
0.5
  1
405015E-Inch
100
AcDbAttributeDefinition
  3

  2
NB
 70
     8
280
     0
  0
ATTDEF
  5
EB
330
E4
100
AcDbEntity
  8
AM_6
100
AcDbText
 10
4.152817396605018
 20
-1.94
 30
0.0
 40
0.5
  1
$MN.-Inch
100
AcDbAttributeDefinition
  3

  2
NBSYN
 70
     8
280
     0
  0
ATTDEF
  5
EC
330
E4
100
AcDbEntity
  8
AM_6
100
AcDbText
 10
4.152817396605018
 20
-2.44
 30
0.0
 40
0.5
  1
405015E
100
AcDbAttributeDefinition
  3

  2
LINA
 70
     8
280
     0
  0
ATTDEF
  5
ED
330
E4
100
AcDbEntity
  8
AM_6
100
AcDbText
 10
4.152817396605018
 20
-2.94
 30
0.0
 40
0.5
  1
405015E
100
AcDbAttributeDefinition
  3

  2
MN
 70
     8
280
     0
  0
ATTDEF
  5
EE
330
E4
100
AcDbEntity
  8
AM_6
100
AcDbText
 10
4.152817396605018
 20
-3.44
 30
0.0
 40
0.5
  1
1/8 x 27PTF
100
AcDbAttributeDefinition
  3

  2
T
 70
     8
280
     0
  0
ATTDEF
  5
EF
330
E4
100
AcDbEntity
  8
AM_6
100
AcDbText
 10
4.152817396605018
 20
-3.94
 30
0.0
 40
0.5
  1
baldor
100
AcDbAttributeDefinition
  3

  2
COMPANY
 70
     8
280
     0
  0
LWPOLYLINE
  5
F0
330
E4
100
AcDbEntity
  8
AM_9
100
AcDbPolyline
 90
        3
 70
     0
 43
0.0
 10
-1.334068907740641
 20
-0.6587499999999997
 10
-1.307138779146779
 20
-0.6043083897258502
 10
-1.283004989736595
 20
-0.5493749999999998
  0
LWPOLYLINE
  5
F1
330
E4
100
AcDbEntity
  8
AM_9
100
AcDbPolyline
 90
        3
 70
     0
 43
0.0
 10
-1.283004989736595
 20
-0.7681249999999997
 10
-1.307023443904397
 20
-0.7134374999999997
 10
-1.334068907740641
 20
-0.6587499999999997
  0
ELLIPSE
  5
F2
330
E4
100
AcDbEntity
  8
AM_9
100
AcDbEllipse
 10
-0.9616652224137048
 20
-0.6587499999999997
 30
0.0
 11
-2.974107518188895E-17
 21
-0.161902872472269
 31
0.0
210
0.0
220
0.0
230
1.0
 40
0.7071067811865478
 41
0.0
 42
6.283185307179586
  0
LWPOLYLINE
  5
F3
330
E4
100
AcDbEntity
  8
AM_9
100
AcDbPolyline
 90
        3
 70
     0
 43
0.0
 10
-1.35371566785525
 20
-0.5493749999999998
 10
-1.374349370456933
 20
-0.6040624999999998
 10
-1.391956063390174
 20
-0.6587499999999997
  0
LWPOLYLINE
  5
F4
330
E4
100
AcDbEntity
  8
AM_9
100
AcDbPolyline
 90
        3
 70
     0
 43
0.0
 10
-1.391956063390174
 20
-0.6587499999999997
 10
-1.374434803334993
 20
-0.7131916102741493
 10
-1.35371566785525
 20
-0.7681249999999997
  0
LWPOLYLINE
  5
F5
330
E4
100
AcDbEntity
  8
AM_9
100
AcDbPolyline
 90
        3
 70
     0
 43
0.0
 10
-1.244764594201671
 20
-0.8774999999999997
 10
-1.262285854256852
 20
-0.8230583897258501
 10
-1.283004989736595
 20
-0.7681249999999997
  0
LINE
  5
F6
330
E4
100
AcDbEntity
  8
AM_9
100
AcDbLine
 10
-1.391956063390174
 20
-0.6587499999999997
 30
0.0
 11
-1.334068907740641
 21
-0.6587499999999997
 31
0.0
  0
LWPOLYLINE
  5
F7
330
E4
100
AcDbEntity
  8
AM_9
100
AcDbPolyline
 90
        3
 70
     0
 43
0.0
 10
-1.283004989736595
 20
-0.5493749999999998
 10
-1.262371287134912
 20
-0.4946874999999998
 10
-1.244764594201671
 20
-0.4399999999999998
  0
LINE
  5
F8
330
E4
100
AcDbEntity
  8
AM_9
100
AcDbLine
 10
-1.343707106706486
 20
-0.525652033389782
 30
0.0
 11
-1.35371566785525
 21
-0.5493749999999998
 31
0.0
  0
LINE
  5
F9
330
E4
100
AcDbEntity
  8
AM_9
100
AcDbLine
 10
-1.35371566785525
 20
-0.7681249999999997
 30
0.0
 11
-1.343812409909499
 21
-0.7916060549597913
 31
0.0
  0
LINE
  5
FA
330
E4
100
AcDbEntity
  8
AM_9
100
AcDbLine
 10
-0.9832373838621316
 20
-0.460229387868661
 30
0.0
 11
-1.14450177466279
 21
-0.4530986021565372
 31
0.0
  0
LINE
  5
FB
330
E4
100
AcDbEntity
  8
AM_9
100
AcDbLine
 10
-1.14450177466279
 20
-0.8644013978434624
 30
0.0
 11
-0.9832373838621316
 21
-0.8572706121313386
 31
0.0
  0
ELLIPSE
  5
FC
330
E4
100
AcDbEntity
  8
AM_9
100
AcDbEllipse
 10
-1.219759197546824
 20
-0.6587500000000532
 30
0.0
 11
1.339457436566841E-17
 21
0.2187499999999058
 31
0.0
210
0.0
220
0.0
230
1.0
 40
0.7071067811866476
 41
0.9156936017142812
 42
2.225899051875152
  0
LINE
  5
FD
330
E4
100
AcDbEntity
  8
AM_9
100
AcDbLine
 10
-1.325825214724777
 20
-0.7536183298050512
 30
0.0
 11
-1.307211348295711
 21
-0.7661048910028987
 31
0.0
  0
LINE
  5
FE
330
E4
100
AcDbEntity
  8
AM_9
100
AcDbLine
 10
-1.307211348295711
 20
-0.5513951089971009
 30
0.0
 11
-1.325825214724777
 21
-0.5638816701949483
 31
0.0
  0
ELLIPSE
  5
FF
330
E4
100
AcDbEntity
  8
AM_9
100
AcDbEllipse
 10
-1.294005409571382
 20
-0.6587499999999997
 30
0.0
 11
6.429395695523603E-18
 21
0.105
 31
0.0
210
0.0
220
0.0
230
1.0
 40
0.7071067811865476
 41
0.0
 42
3.141592653589793
  0
ELLIPSE
  5
100
330
E4
100
AcDbEntity
  8
AM_9
100
AcDbEllipse
 10
-1.271203423195801
 20
-0.6587500000000823
 30
0.0
 11
7.275632189639037E-18
 21
0.118820090734808
 31
0.0
210
0.0
220
0.0
230
1.0
 40
0.7071067811865482
 41
0.3762206261003938
 42
2.765372027488889
  0
ELLIPSE
  5
101
330
E4
100
AcDbEntity
  8
AM_9
100
AcDbEllipse
 10
-1.219759197546795
 20
-0.6587499999999997
 30
0.0
 11
1.308841266588728E-17
 21
0.2137499999999991
 31
0.0
210
0.0
220
0.0
230
1.0
 40
0.7071067811865487
 41
0.9036552188402851
 42
2.237937434749581
  0
LINE
  5
102
330
E4
100
AcDbEntity
  8
AM_9
100
AcDbLine
 10
-1.29532440045392
 20
-0.5537499999999997
 30
0.0
 11
-1.315218613006979
 21
-0.5537499999999997
 31
0.0
  0
LINE
  5
103
330
E4
100
AcDbEntity
  8
AM_9
100
AcDbLine
 10
-1.315218613006979
 20
-0.7637499999999997
 30
0.0
 11
-1.29532440045392
 21
-0.7637499999999997
 31
0.0
  0
ELLIPSE
  5
104
330
E4
100
AcDbEntity
  8
AM_9
100
AcDbEllipse
 10
-1.315218613006979
 20
-0.6587499999999997
 30
0.0
 11
6.429395695523603E-18
 21
0.105
 31
0.0
210
0.0
220
0.0
230
1.0
 40
0.7071067811865476
 41
5.759586531581287
 42
9.94837673636768
  0
LINE
  5
105
330
E4
100
AcDbEntity
  8
AM_9
100
AcDbLine
 10
-1.354109136515455
 20
-0.6780243186691524
 30
0.0
 11
-1.353096296324463
 21
-0.6867374918769158
 31
0.0
  0
LINE
  5
106
330
E4
100
AcDbEntity
  8
AM_9
100
AcDbLine
 10
-1.353096296324463
 20
-0.6307625081230837
 30
0.0
 11
-1.354109136515455
 21
-0.6394756813308472
 31
0.0
  0
ELLIPSE
  5
107
330
E4
100
AcDbEntity
  8
AM_9
100
AcDbEllipse
 10
-1.232712119954175
 20
-0.6587500000000007
 30
0.0
 11
1.056466380484808E-17
 21
0.1725340532830137
 31
0.0
210
0.0
220
0.0
230
1.0
 40
0.7071067811865481
 41
0.7772913431419584
 42
2.364301310447952
  0
ELLIPSE
  5
108
330
E4
100
AcDbEntity
  8
AM_9
100
AcDbEllipse
 10
-1.357645019878171
 20
-0.6587499999999997
 30
0.0
 11
8.266365894244634E-18
 21
0.135
 31
0.0
210
0.0
220
0.0
230
1.0
 40
0.707106781186548
 41
0.4159140521025453
 42
2.725678601487248
  0
ELLIPSE
  5
109
330
E4
100
AcDbEntity
  8
AM_9
100
AcDbEllipse
 10
-1.14904851942814
 20
-0.6587499999999996
 30
0.0
 11
1.259867011763635E-17
 21
0.2057518972230694
 31
0.0
210
0.0
220
0.0
230
1.0
 40
0.7071067811865471
 41
0.0
 42
6.283185307179586
  0
ELLIPSE
  5
10A
330
E4
100
AcDbEntity
  8
AM_9
100
AcDbEllipse
 10
-0.9876264741551588
 20
-0.65875
 30
0.0
 11
1.216182204459295E-17
 21
0.1986176267812154
 31
0.0
210
0.0
220
0.0
230
1.0
 40
0.7071067811865477
 41
0.0
 42
6.283185307179586
  0
ELLIPSE
  5
10B
330
E4
100
AcDbEntity
  8
AM_9
100
AcDbEllipse
 10
-1.14904851942814
 20
-0.6587499999999997
 30
0.0
 11
1.339457436567419E-17
 21
0.2187500000000002
 31
0.0
210
0.0
220
0.0
230
1.0
 40
0.7071067811865475
 41
0.0
 42
6.283185307179586
  0
LWPOLYLINE
  5
10C
330
E4
100
AcDbEntity
  8
AM_4
100
AcDbPolyline
 90
        3
 70
     0
 43
0.0
 10
-1.302651749851203
 20
-0.4399999999999998
 10
-1.329581878445066
 20
-0.4944416102741494
 10
-1.343707106706486
 20
-0.525652033389782
  0
LWPOLYLINE
  5
10D
330
E4
100
AcDbEntity
  8
AM_4
100
AcDbPolyline
 90
        3
 70
     0
 43
0.0
 10
-1.343812409909499
 20
-0.7916060549597913
 10
-1.329697213687448
 20
-0.8228124999999997
 10
-1.302651749851203
 20
-0.8774999999999997
  0
ELLIPSE
  5
10E
330
E4
100
AcDbEntity
  8
AM_4
100
AcDbEllipse
 10
-1.219759197546794
 20
-0.6587499999999997
 30
0.0
 11
1.339457436567417E-17
 21
0.2187499999999999
 31
0.0
210
0.0
220
0.0
230
1.0
 40
0.7071067811865465
 41
2.22589905187516
 42
7.198878908894248
  0
ELLIPSE
  5
10F
330
E4
100
AcDbEntity
  8
AM_4
100
AcDbEllipse
 10
-1.271203423195777
 20
-0.6587499999999997
 30
0.0
 11
7.275632189644516E-18
 21
0.1188200907348975
 31
0.0
210
0.0
220
0.0
230
1.0
 40
0.7071067811865483
 41
2.765372027488876
 42
6.659405933280503
  0
ELLIPSE
  5
110
330
E4
100
AcDbEntity
  8
AM_4
100
AcDbEllipse
 10
-1.219759197546795
 20
-0.6587499999999997
 30
0.0
 11
1.308841266588734E-17
 21
0.21375
 31
0.0
210
0.0
220
0.0
230
1.0
 40
0.7071067811865476
 41
2.237937434749578
 42
7.186840526019873
  0
ELLIPSE
  5
111
330
E4
100
AcDbEntity
  8
AM_4
100
AcDbEllipse
 10
-1.294005409571382
 20
-0.65875
 30
0.0
 11
6.429395695523617E-18
 21
0.1050000000000002
 31
0.0
210
0.0
220
0.0
230
1.0
 40
0.707106781186546
 41
3.141592653589793
 42
6.283185307179586
  0
LINE
  5
112
330
E4
100
AcDbEntity
  8
AM_4
100
AcDbLine
 10
-1.294005409571382
 20
-0.5537499999999997
 30
0.0
 11
-1.29532440045392
 21
-0.5537499999999997
 31
0.0
  0
LINE
  5
113
330
E4
100
AcDbEntity
  8
AM_4
100
AcDbLine
 10
-1.29532440045392
 20
-0.7637499999999997
 30
0.0
 11
-1.294005409571382
 21
-0.7637499999999997
 31
0.0
  0
ELLIPSE
  5
114
330
E4
100
AcDbEntity
  8
AM_4
100
AcDbEllipse
 10
-1.232712119954174
 20
-0.6587499999999997
 30
0.0
 11
1.056466380484819E-17
 21
0.1725340532830154
 31
0.0
210
0.0
220
0.0
230
1.0
 40
0.7071067811865475
 41
2.364301310447949
 42
7.060476650321556
  0
LWPOLYLINE
  5
115
330
E4
100
AcDbEntity
  8
AM_4
100
AcDbPolyline
 90
        3
 70
     0
 43
0.0
 10
-1.124043122773263
 20
-0.8774999999999997
 10
-1.106521862718083
 20
-0.8230583897258501
 10
-1.085802727238339
 20
-0.7681249999999997
  0
LINE
  5
116
330
E4
100
AcDbEntity
  8
AM_4
100
AcDbLine
 10
-1.302651749851203
 20
-0.8774999999999997
 30
0.0
 11
-1.066155967123731
 21
-0.8774999999999997
 31
0.0
  0
LWPOLYLINE
  5
117
330
E4
100
AcDbEntity
  8
AM_4
100
AcDbPolyline
 90
        3
 70
     0
 43
0.0
 10
-1.015092049119685
 20
-0.7681249999999997
 10
-1.039110503287487
 20
-0.8228124999999997
 10
-1.066155967123731
 20
-0.8774999999999997
  0
LWPOLYLINE
  5
118
330
E4
100
AcDbEntity
  8
AM_4
100
AcDbPolyline
 90
        3
 70
     0
 43
0.0
 10
-0.976851653584761
 20
-0.6587499999999997
 10
-0.9943729136399416
 20
-0.7131916102741493
 10
-1.015092049119685
 20
-0.7681249999999997
  0
LINE
  5
119
330
E4
100
AcDbEntity
  8
AM_4
100
AcDbLine
 10
-1.302651749851203
 20
-0.4399999999999998
 30
0.0
 11
-1.066155967123731
 21
-0.4399999999999998
 31
0.0
  0
LWPOLYLINE
  5
11A
330
E4
100
AcDbEntity
  8
AM_4
100
AcDbPolyline
 90
        3
 70
     0
 43
0.0
 10
-1.085802727238339
 20
-0.5493749999999998
 10
-1.106436429840022
 20
-0.4946874999999998
 10
-1.124043122773263
 20
-0.4399999999999998
  0
LINE
  5
11B
330
E4
100
AcDbEntity
  8
AM_4
100
AcDbLine
 10
-1.034738809234294
 20
-0.6587499999999997
 30
0.0
 11
-0.976851653584761
 21
-0.6587499999999997
 31
0.0
  0
LWPOLYLINE
  5
11C
330
E4
100
AcDbEntity
  8
AM_4
100
AcDbPolyline
 90
        3
 70
     0
 43
0.0
 10
-1.015092049119685
 20
-0.5493749999999998
 10
-0.9944583465180019
 20
-0.6040624999999998
 10
-0.976851653584761
 20
-0.6587499999999997
  0
LWPOLYLINE
  5
11D
330
E4
100
AcDbEntity
  8
AM_4
100
AcDbPolyline
 90
        3
 70
     0
 43
0.0
 10
-1.066155967123731
 20
-0.4399999999999998
 10
-1.039225838529869
 20
-0.4944416102741494
 10
-1.015092049119685
 20
-0.5493749999999998
  0
LWPOLYLINE
  5
11E
330
E4
100
AcDbEntity
  8
AM_4
100
AcDbPolyline
 90
        3
 70
     0
 43
0.0
 10
-1.085802727238339
 20
-0.7681249999999997
 10
-1.061784273070538
 20
-0.7134374999999997
 10
-1.034738809234294
 20
-0.6587499999999997
  0
LWPOLYLINE
  5
11F
330
E4
100
AcDbEntity
  8
AM_4
100
AcDbPolyline
 90
        3
 70
     0
 43
0.0
 10
-1.034738809234294
 20
-0.6587499999999997
 10
-1.061668937828156
 20
-0.6043083897258502
 10
-1.085802727238339
 20
-0.5493749999999998
  0
ELLIPSE
  5
120
330
E4
100
AcDbEntity
  8
AM_4
100
AcDbEllipse
 10
-1.315218613006979
 20
-0.6587499999999998
 30
0.0
 11
6.429395695523624E-18
 21
0.1050000000000003
 31
0.0
210
0.0
220
0.0
230
1.0
 40
0.7071067811865474
 41
3.665191429188095
 42
5.759586531581284
  0
LINE
  5
121
330
E4
100
AcDbEntity
  8
AM_4
100
AcDbLine
 10
-1.278095506994685
 20
-0.5678173326026337
 30
0.0
 11
-1.309915312148079
 21
-0.5418365704891005
 31
0.0
  0
LINE
  5
122
330
E4
100
AcDbEntity
  8
AM_4
100
AcDbLine
 10
-1.309915312148079
 20
-0.775663429510899
 30
0.0
 11
-1.278095506994685
 21
-0.7496826673973658
 31
0.0
  0
ELLIPSE
  5
123
330
E4
100
AcDbEntity
  8
AM_4
100
AcDbEllipse
 10
-1.357645019878171
 20
-0.6587499999999997
 30
0.0
 11
8.266365894244642E-18
 21
0.1350000000000001
 31
0.0
210
0.0
220
0.0
230
1.0
 40
0.7071067811865458
 41
2.725678601487244
 42
6.699099359282136
  0
LINE
  5
124
330
E4
100
AcDbEntity
  8
AM_4
100
AcDbLine
 10
-1.44354757973687
 20
-0.7526743440009284
 30
0.0
 11
-1.39621312722698
 21
-0.7822408992236332
 31
0.0
  0
LINE
  5
125
330
E4
100
AcDbEntity
  8
AM_4
100
AcDbLine
 10
-1.39621312722698
 20
-0.5352591007763663
 30
0.0
 11
-1.44354757973687
 21
-0.5648256559990711
 31
0.0
  0
ELLIPSE
  5
126
330
E4
100
AcDbEntity
  8
AM_4
100
AcDbEllipse
 10
-1.414213562373095
 20
-0.6587499999999996
 30
0.0
 11
6.287208197282188E-18
 21
0.1026779019331874
 31
0.0
210
0.0
220
0.0
230
1.0
 40
0.7071067811865493
 41
0.0
 42
6.283185307179586
  0
ENDBLK
  5
E7
330
E4
100
AcDbEntity
  8
0
100
AcDbBlockEnd
  0
BLOCK
  5
129
330
127
100
AcDbEntity
  8
0
100
AcDbBlockBegin
  2
4_124442H_0_in_124442_4
 70
     2
 10
0.0
 20
0.0
 30
0.0
  3
4_124442H_0_in_124442_4
  1

  0
ATTDEF
  5
12B
330
127
100
AcDbEntity
  8
AM_6
100
AcDbText
 10
6.625
 20
0.0565
 30
0.0
 40
0.5
  1
FB-SC -I-Housing
100
AcDbAttributeDefinition
  3

  2
NN
 70
     8
280
     0
  0
ATTDEF
  5
12C
330
127
100
AcDbEntity
  8
AM_6
100
AcDbText
 10
6.625
 20
-0.4435
 30
0.0
 40
0.5
  1
SC 3 Bolt Flange Bearings -(Normal Duty)
100
AcDbAttributeDefinition
  3

  2
NT
 70
     8
280
     0
  0
ATTDEF
  5
12D
330
127
100
AcDbEntity
  8
AM_6
100
AcDbText
 10
6.625
 20
-0.9435
 30
0.0
 40
0.5
  1
124442H
100
AcDbAttributeDefinition
  3

  2
NB
 70
     8
280
     0
  0
ATTDEF
  5
12E
330
127
100
AcDbEntity
  8
AM_6
100
AcDbText
 10
6.625
 20
-1.4435
 30
0.0
 40
0.5
  1
$PN.H
100
AcDbAttributeDefinition
  3

  2
NBSYN
 70
     8
280
     0
  0
ATTDEF
  5
12F
330
127
100
AcDbEntity
  8
AM_6
100
AcDbText
 10
6.625
 20
-1.9435
 30
0.0
 40
0.5
  1
124442
100
AcDbAttributeDefinition
  3

  2
LINA
 70
     8
280
     0
  0
ATTDEF
  5
130
330
127
100
AcDbEntity
  8
AM_6
100
AcDbText
 10
6.625
 20
-2.4435
 30
0.0
 40
0.5
  1
206
100
AcDbAttributeDefinition
  3

  2
SERIES
 70
     8
280
     0
  0
ATTDEF
  5
131
330
127
100
AcDbEntity
  8
AM_6
100
AcDbText
 10
6.625
 20
-2.9435
 30
0.0
 40
0.5
  1
1-1/8
100
AcDbAttributeDefinition
  3

  2
SS
 70
     8
280
     0
  0
ATTDEF
  5
132
330
127
100
AcDbEntity
  8
AM_6
100
AcDbText
 10
6.625
 20
-3.4435
 30
0.0
 40
0.5
  1
124442
100
AcDbAttributeDefinition
  3

  2
PN
 70
     8
280
     0
  0
ATTDEF
  5
133
330
127
100
AcDbEntity
  8
AM_6
100
AcDbText
 10
6.625
 20
-3.9435
 30
0.0
 40
0.5
  1
FB-SC-102
100
AcDbAttributeDefinition
  3

  2
DESCRIPTION
 70
     8
280
     0
  0
ATTDEF
  5
134
330
127
100
AcDbEntity
  8
AM_6
100
AcDbText
 10
6.625
 20
-4.4435
 30
0.0
 40
0.5
  1
1
100
AcDbAttributeDefinition
  3

  2
LF1
 70
     8
280
     0
  0
ATTDEF
  5
135
330
127
100
AcDbEntity
  8
AM_6
100
AcDbText
 10
6.625
 20
-4.9435
 30
0.0
 40
0.5
  1
1.52
100
AcDbAttributeDefinition
  3

  2
A
 70
     8
280
     0
  0
ATTDEF
  5
136
330
127
100
AcDbEntity
  8
AM_6
100
AcDbText
 10
6.625
 20
-5.4435
 30
0.0
 40
0.5
  1
5.38
100
AcDbAttributeDefinition
  3

  2
B
 70
     8
280
     0
  0
ATTDEF
  5
137
330
127
100
AcDbEntity
  8
AM_6
100
AcDbText
 10
6.625
 20
-5.9435
 30
0.0
 40
0.5
  1
1.65
100
AcDbAttributeDefinition
  3

  2
C
 70
     8
280
     0
  0
ATTDEF
  5
138
330
127
100
AcDbEntity
  8
AM_6
100
AcDbText
 10
6.625
 20
-6.4435
 30
0.0
 40
0.5
  1
1.88
100
AcDbAttributeDefinition
  3

  2
D
 70
     8
280
     0
  0
ATTDEF
  5
139
330
127
100
AcDbEntity
  8
AM_6
100
AcDbText
 10
6.625
 20
-6.9435
 30
0.0
 40
0.5
  1
2.06
100
AcDbAttributeDefinition
  3

  2
E
 70
     8
280
     0
  0
ATTDEF
  5
13A
330
127
100
AcDbEntity
  8
AM_6
100
AcDbText
 10
6.625
 20
-7.4435
 30
0.0
 40
0.5
  1
3/8
100
AcDbAttributeDefinition
  3

  2
F
 70
     8
280
     0
  0
ATTDEF
  5
13B
330
127
100
AcDbEntity
  8
AM_6
100
AcDbText
 10
6.625
 20
-7.9435
 30
0.0
 40
0.5
  1
1.25
100
AcDbAttributeDefinition
  3

  2
G
 70
     8
280
     0
  0
ATTDEF
  5
13C
330
127
100
AcDbEntity
  8
AM_6
100
AcDbText
 10
6.625
 20
-8.4435
 30
0.0
 40
0.5
  1
0.38
100
AcDbAttributeDefinition
  3

  2
H
 70
     8
280
     0
  0
ATTDEF
  5
13D
330
127
100
AcDbEntity
  8
AM_6
100
AcDbText
 10
6.625
 20
-8.9435
 30
0.0
 40
0.5
  1
3.75
100
AcDbAttributeDefinition
  3

  2
I
 70
     8
280
     0
  0
ATTDEF
  5
13E
330
127
100
AcDbEntity
  8
AM_6
100
AcDbText
 10
6.625
 20
-9.4435
 30
0.0
 40
0.5
  1
3.25
100
AcDbAttributeDefinition
  3

  2
J
 70
     8
280
     0
  0
ATTDEF
  5
13F
330
127
100
AcDbEntity
  8
AM_6
100
AcDbText
 10
6.625
 20
-9.9435
 30
0.0
 40
0.5
  1
1.13
100
AcDbAttributeDefinition
  3

  2
K
 70
     8
280
     0
  0
ATTDEF
  5
140
330
127
100
AcDbEntity
  8
AM_6
100
AcDbText
 10
6.625
 20
-10.4435
 30
0.0
 40
0.5
  1
1.57
100
AcDbAttributeDefinition
  3

  2
L
 70
     8
280
     0
  0
ATTDEF
  5
141
330
127
100
AcDbEntity
  8
AM_6
100
AcDbText
 10
6.625
 20
-10.9435
 30
0.0
 40
0.5
  1
2.75
100
AcDbAttributeDefinition
  3

  2
M
 70
     8
280
     0
  0
ATTDEF
  5
142
330
127
100
AcDbEntity
  8
AM_6
100
AcDbText
 10
6.625
 20
-11.4435
 30
0.0
 40
0.5
  1
baldor
100
AcDbAttributeDefinition
  3

  2
COMPANY
 70
     8
280
     0
  0
LINE
  5
143
330
127
100
AcDbEntity
  8
AM_9
100
AcDbLine
 10
-0.3525057469182912
 20
-0.3800000000000002
 30
0.0
 11
-0.3525057469182912
 21
-0.0000000000000002
 31
0.0
  0
LINE
  5
144
330
127
100
AcDbEntity
  8
AM_9
100
AcDbLine
 10
0.3525057469182912
 20
-0.3800000000000002
 30
0.0
 11
0.3525057469182912
 21
-0.0000000000000002
 31
0.0
  0
LINE
  5
145
330
127
100
AcDbEntity
  8
AM_9
100
AcDbLine
 10
0.1875
 20
-0.3800000000000002
 30
0.0
 11
0.1875
 21
-0.0000000000000002
 31
0.0
  0
LINE
  5
146
330
127
100
AcDbEntity
  8
AM_9
100
AcDbLine
 10
-0.1875
 20
-0.0000000000000002
 30
0.0
 11
-0.1875
 21
-0.3800000000000002
 31
0.0
  0
LINE
  5
147
330
127
100
AcDbEntity
  8
AM_9
100
AcDbLine
 10
0.19
 20
-0.4313489274352211
 30
0.0
 11
-0.19
 21
-0.4313489274352211
 31
0.0
  0
LINE
  5
148
330
127
100
AcDbEntity
  8
AM_9
100
AcDbLine
 10
-1.28849999979422
 20
-0.3800000000000001
 30
0.0
 11
-1.28849999979422
 21
-0.0000000000000001
 31
0.0
  0
LINE
  5
149
330
127
100
AcDbEntity
  8
AM_9
100
AcDbLine
 10
1.288499999794219
 20
-0.3800000000000001
 30
0.0
 11
1.288499999794219
 21
-0.0000000000000001
 31
0.0
  0
LINE
  5
14A
330
127
100
AcDbEntity
  8
AM_9
100
AcDbLine
 10
-0.7525
 20
-0.3800000000000001
 30
0.0
 11
-0.7525
 21
-0.0000000000000001
 31
0.0
  0
LINE
  5
14B
330
127
100
AcDbEntity
  8
AM_9
100
AcDbLine
 10
-1.1275
 20
-0.0000000000000001
 30
0.0
 11
-1.1275
 21
-0.3800000000000001
 31
0.0
  0
LINE
  5
14C
330
127
100
AcDbEntity
  8
AM_9
100
AcDbLine
 10
1.1275
 20
-0.3800000000000001
 30
0.0
 11
1.1275
 21
-0.0000000000000001
 31
0.0
  0
LINE
  5
14D
330
127
100
AcDbEntity
  8
AM_9
100
AcDbLine
 10
0.7525
 20
-0.0000000000000001
 30
0.0
 11
0.7525
 21
-0.3800000000000001
 31
0.0
  0
LINE
  5
14E
330
127
100
AcDbEntity
  8
AM_9
100
AcDbLine
 10
0.19
 20
-1.059629912262469
 30
0.0
 11
-0.19
 21
-1.059629912262469
 31
0.0
  0
LINE
  5
14F
330
127
100
AcDbEntity
  8
AM_9
100
AcDbLine
 10
-1.08309369516215
 20
-0.6779999999999999
 30
0.0
 11
-1.2767
 21
-0.6779999999999999
 31
0.0
  0
LINE
  5
150
330
127
100
AcDbEntity
  8
AM_9
100
AcDbLine
 10
-1.146104986465027
 20
-0.6779999999999999
 30
0.0
 11
-1.146104986465027
 21
-0.0949999999999999
 31
0.0
  0
LINE
  5
151
330
127
100
AcDbEntity
  8
AM_9
100
AcDbLine
 10
-1.2767
 20
-0.5914393939393896
 30
0.0
 11
-1.2767
 21
-0.6779999999999999
 31
0.0
  0
LINE
  5
152
330
127
100
AcDbEntity
  8
AM_9
100
AcDbLine
 10
-1.2767
 20
-0.0949999999999999
 30
0.0
 11
-1.2767
 21
-0.5085606060606104
 31
0.0
  0
LINE
  5
153
330
127
100
AcDbEntity
  8
AM_9
100
AcDbLine
 10
1.2767
 20
-0.6779999999999999
 30
0.0
 11
1.08309369516215
 21
-0.6779999999999999
 31
0.0
  0
LINE
  5
154
330
127
100
AcDbEntity
  8
AM_9
100
AcDbLine
 10
1.146104986465027
 20
-0.6779999999999999
 30
0.0
 11
1.146104986465027
 21
-0.0949999999999999
 31
0.0
  0
LINE
  5
155
330
127
100
AcDbEntity
  8
AM_9
100
AcDbLine
 10
1.2767
 20
-0.6779999999999999
 30
0.0
 11
1.2767
 21
-0.0949999999999999
 31
0.0
  0
LINE
  5
156
330
127
100
AcDbEntity
  8
AM_9
100
AcDbLine
 10
-1.100254255605194
 20
-0.7887499999999998
 30
0.0
 11
-1.00762716319083
 21
-0.7887499999999998
 31
0.0
  0
LINE
  5
157
330
127
100
AcDbEntity
  8
AM_9
100
AcDbLine
 10
-1.00762716319083
 20
-0.5287499999999999
 30
0.0
 11
-1.116310016179799
 21
-0.5287499999999999
 31
0.0
  0
LWPOLYLINE
  5
158
330
127
100
AcDbEntity
  8
AM_9
100
AcDbPolyline
 90
       20
 70
     0
 43
0.0
 10
-1.100264180231954
 20
-0.7887499991103055
 10
-1.088442979668103
 20
-0.7876588846555616
 10
-1.073326404141301
 20
-0.7830373711610765
 10
-1.059018011855089
 20
-0.7748630459020958
 10
-1.045950478215455
 20
-0.7634163172228293
 10
-1.034566636162916
 20
-0.7489845746333745
 10
-1.025213729614652
 20
-0.7320162267487188
 10
-1.018248132980079
 20
-0.7129885733489507
 10
-1.013861621338341
 20
-0.6924545302086208
 10
-1.012246232551982
 20
-0.6709907547445007
 10
-1.013413794974695
 20
-0.6492097564786302
 10
-1.01738428793089
 20
-0.6276408067350758
 10
-1.023982400977344
 20
-0.606961196426683
 10
-1.033095701520896
 20
-0.587629377194741
 10
-1.044353572341066
 20
-0.5703103929437353
 10
-1.057459414784863
 20
-0.5554851138150401
 10
-1.071941406812204
 20
-0.543598248692306
 10
-1.087241643401389
 20
-0.5350978567322769
 10
-1.102975558869588
 20
-0.5300975023037533
 10
-1.116347717651921
 20
-0.5287500007233173
  0
LWPOLYLINE
  5
159
330
127
100
AcDbEntity
  8
AM_9
100
AcDbPolyline
 90
       11
 70
     0
 43
0.0
 10
-1.116347717651921
 20
-0.5287500007233173
 10
-1.118467181076273
 20
-0.5287984858814636
 10
-1.133468229849302
 20
-0.5311033316597908
 10
-1.147467998306581
 20
-0.5369473747485145
 10
-1.160212457223478
 20
-0.5461105242919029
 10
-1.171439848455232
 20
-0.5584601601019047
 10
-1.180832151585252
 20
-0.5735548596694475
 10
-1.188242722682447
 20
-0.5912406031063256
 10
-1.193419541699815
 20
-0.6108237715720739
 10
-1.195550986098064
 20
-0.6245711018364656
 10
-1.196638466067722
 20
-0.6387496330856614
  0
LINE
  5
15A
330
127
100
AcDbEntity
  8
AM_9
100
AcDbLine
 10
-1.08309369516215
 20
-0.6779999999999999
 30
0.0
 11
-1.08309369516215
 21
-0.0949999999999999
 31
0.0
  0
LINE
  5
15B
330
127
100
AcDbEntity
  8
AM_9
100
AcDbLine
 10
1.08309369516215
 20
-0.0949999999999999
 30
0.0
 11
1.08309369516215
 21
-0.6779999999999999
 31
0.0
  0
LINE
  5
15C
330
127
100
AcDbEntity
  8
AM_9
100
AcDbLine
 10
1.22045
 20
-1.13
 30
0.0
 11
1.22045
 21
-0.6779999999999999
 31
0.0
  0
LINE
  5
15D
330
127
100
AcDbEntity
  8
AM_9
100
AcDbLine
 10
-1.22045
 20
-0.6779999999999999
 30
0.0
 11
-1.22045
 21
-1.13
 31
0.0
  0
LINE
  5
15E
330
127
100
AcDbEntity
  8
AM_9
100
AcDbLine
 10
-1.356055555555556
 20
-0.095
 30
0.0
 11
1.356055555555556
 21
-0.095
 31
0.0
  0
LINE
  5
15F
330
127
100
AcDbEntity
  8
AM_9
100
AcDbLine
 10
1.356055555555556
 20
-0.095
 30
0.0
 11
1.356055555555556
 21
0.0
 31
0.0
  0
LINE
  5
160
330
127
100
AcDbEntity
  8
AM_9
100
AcDbLine
 10
-1.356055555555556
 20
0.0
 30
0.0
 11
-1.356055555555556
 21
-0.095
 31
0.0
  0
LINE
  5
161
330
127
100
AcDbEntity
  8
AM_9
100
AcDbLine
 10
0.19
 20
-0.3800000000000001
 30
0.0
 11
0.19
 21
-1.13
 31
0.0
  0
LINE
  5
162
330
127
100
AcDbEntity
  8
AM_9
100
AcDbLine
 10
-0.19
 20
-0.3800000000000001
 30
0.0
 11
-0.19
 21
-1.13
 31
0.0
  0
LINE
  5
163
330
127
100
AcDbEntity
  8
AM_9
100
AcDbLine
 10
1.375
 20
-0.3800000000000001
 30
0.0
 11
-1.375
 21
-0.3800000000000001
 31
0.0
  0
LINE
  5
164
330
127
100
AcDbEntity
  8
AM_9
100
AcDbLine
 10
1.375
 20
-0.3800000000000001
 30
0.0
 11
1.375
 21
-0.0000000000000001
 31
0.0
  0
LINE
  5
165
330
127
100
AcDbEntity
  8
AM_9
100
AcDbLine
 10
-1.375
 20
-0.0000000000000001
 30
0.0
 11
-1.375
 21
-0.3800000000000001
 31
0.0
  0
LWPOLYLINE
  5
166
330
127
100
AcDbEntity
  8
AM_9
100
AcDbPolyline
 90
       12
 70
     0
 43
0.0
 10
-1.196638466067722
 20
-0.6387496330856614
 10
-1.19627282420695
 20
-0.6605577336765416
 10
-1.193536437357417
 20
-0.6823400796136808
 10
-1.188457377285027
 20
-0.7034771748204971
 10
-1.181177404472964
 20
-0.7233682596058181
 10
-1.171869379965238
 20
-0.7413535259594333
 10
-1.16074898630965
 20
-0.7570227032900908
 10
-1.148063795119612
 20
-0.769882898150969
 10
-1.13413434181861
 20
-0.7796226389410873
 10
-1.11927701236405
 20
-0.785925061690106
 10
-1.103911040749398
 20
-0.7886470666941162
 10
-1.100264180231954
 20
-0.7887499991103055
  0
ELLIPSE
  5
167
330
127
100
AcDbEntity
  8
AM_9
100
AcDbEllipse
 10
-1.00762716319083
 20
-0.6587499999999998
 30
0.0
 11
-2.388061258337339E-17
 21
-0.13
 31
0.0
210
0.0
220
0.0
230
1.0
 40
0.7071067811865471
 41
0.0
 42
6.283185307179586
  0
LINE
  5
168
330
127
100
AcDbEntity
  8
AM_7
100
AcDbLine
 10
0.94
 20
0.0189999999999999
 30
0.0
 11
0.94
 21
-0.3990000000000001
 31
0.0
  0
LINE
  5
169
330
127
100
AcDbEntity
  8
AM_7
100
AcDbLine
 10
-0.94
 20
0.0189999999999999
 30
0.0
 11
-0.94
 21
-0.3990000000000001
 31
0.0
  0
LINE
  5
16A
330
127
100
AcDbEntity
  8
AM_7
100
AcDbLine
 10
0.0
 20
-1.726
 30
0.0
 11
0.0
 21
0.0565
 31
0.0
  0
LINE
  5
16B
330
127
100
AcDbEntity
  8
AM_4
100
AcDbLine
 10
-1.456496640990382
 20
-1.13
 30
0.0
 11
1.456496640990382
 21
-1.13
 31
0.0
  0
ARC
  5
16C
330
127
100
AcDbEntity
  8
AM_4
100
AcDbCircle
 10
1.456496640990382
 20
-1.054
 30
0.0
 40
0.0759999999999996
100
AcDbArc
 50
270.0
 51
355.0000000000002
  0
ARC
  5
16D
330
127
100
AcDbEntity
  8
AM_4
100
AcDbCircle
 10
-1.456496640990382
 20
-1.054
 30
0.0
 40
0.0759999999999995
100
AcDbArc
 50
184.9999999999996
 51
270.0
  0
LINE
  5
16E
330
127
100
AcDbEntity
  8
AM_4
100
AcDbLine
 10
1.532207438045354
 20
-1.060623836448822
 30
0.0
 11
1.625
 21
0.0
 31
0.0
  0
LINE
  5
16F
330
127
100
AcDbEntity
  8
AM_4
100
AcDbLine
 10
-1.625
 20
0.0
 30
0.0
 11
-1.532207438045354
 21
-1.060623836448822
 31
0.0
  0
LINE
  5
170
330
127
100
AcDbEntity
  8
AM_4
100
AcDbLine
 10
-1.532207438045354
 20
-1.060623836448822
 30
0.0
 11
1.532207438045354
 21
-1.060623836448822
 31
0.0
  0
LINE
  5
171
330
127
100
AcDbEntity
  8
AM_4
100
AcDbLine
 10
-1.625
 20
0.0
 30
0.0
 11
1.625
 21
0.0
 31
0.0
  0
ENDBLK
  5
12A
330
127
100
AcDbEntity
  8
0
100
AcDbBlockEnd
  0
ENDSEC
  0
SECTION
  2
ENTITIES
  0
INSERT
  5
6F
330
1F
100
AcDbEntity
  8
0
100
AcDbBlockReference
  2
1_124442_4
 10
0.0
 20
0.0
 30
0.0
  0
POINT
  5
173
330
1F
100
AcDbEntity
  8
ConnectionPoints
100
AcDbPoint
 10
-1.14904851942814
 20
-0.6587499999999998
 30
1.14904851942814
  0
POINT
  5
174
330
1F
100
AcDbEntity
  8
ConnectionPoints
100
AcDbPoint
 10
-1.14904851942814
 20
-0.6587499999999998
 30
1.14904851942814
  0
POINT
  5
175
330
1F
100
AcDbEntity
  8
ConnectionPoints
100
AcDbPoint
 10
0.0
 20
-1.65
 30
0.0000000000000001
  0
ENDSEC
  0
SECTION
  2
OBJECTS
  0
DICTIONARY
  5
C
330
0
100
AcDbDictionary
281
     1
  3
ACAD_DETAILVIEWSTYLE
350
17D
  3
ACAD_GROUP
350
D
  3
ACAD_LAYOUT
350
1A
  3
ACAD_MATERIAL
350
43
  3
ACAD_MLEADERSTYLE
350
6B
  3
ACAD_MLINESTYLE
350
17
  3
ACAD_PLOTSETTINGS
350
19
  3
ACAD_PLOTSTYLENAME
350
E
  3
ACAD_SCALELIST
350
47
  3
ACAD_SECTIONVIEWSTYLE
350
17E
  3
ACAD_TABLESTYLE
350
69
  3
ACAD_VISUALSTYLE
350
2A
  3
ACDB_RECOMPOSE_DATA
350
17A
  3
AcDbVariableDictionary
350
176
  0
SUN
  5
6D
330
29
100
AcDbSun
 90
        1
290
     0
 63
     7
421
 16777215
 40
1.0
291
     1
 91
  2455826
 92
 54000000
292
     0
 70
     2
 71
   256
280
     1
  0
DICTIONARY
  5
17D
102
{ACAD_REACTORS
330
C
102
}
330
C
100
AcDbDictionary
281
     1
  0
DICTIONARY
  5
D
102
{ACAD_REACTORS
330
C
102
}
330
C
100
AcDbDictionary
281
     1
  0
DICTIONARY
  5
1A
102
{ACAD_REACTORS
330
C
102
}
330
C
100
AcDbDictionary
281
     1
  3
Layout1
350
1E
  3
Layout2
350
26
  3
Model
350
22
  0
DICTIONARY
  5
43
102
{ACAD_REACTORS
330
C
102
}
330
C
100
AcDbDictionary
281
     1
  3
ByBlock
350
45
  3
ByLayer
350
44
  3
Global
350
46
  0
DICTIONARY
  5
6B
102
{ACAD_REACTORS
330
C
102
}
330
C
100
AcDbDictionary
281
     1
  3
Standard
350
6C
  0
DICTIONARY
  5
17
102
{ACAD_REACTORS
330
C
102
}
330
C
100
AcDbDictionary
281
     1
  3
Standard
350
18
  0
DICTIONARY
  5
19
102
{ACAD_REACTORS
330
C
102
}
330
C
100
AcDbDictionary
281
     1
  0
ACDBDICTIONARYWDFLT
  5
E
102
{ACAD_REACTORS
330
C
102
}
330
C
100
AcDbDictionary
281
     1
  3
Normal
350
F
100
AcDbDictionaryWithDefault
340
F
  0
DICTIONARY
  5
47
102
{ACAD_REACTORS
330
C
102
}
330
C
100
AcDbDictionary
281
     1
  3
A0
350
48
  3
A1
350
49
  3
A2
350
4A
  3
A3
350
4B
  3
A4
350
4C
  3
A5
350
4D
  3
A6
350
4E
  3
A7
350
4F
  3
A8
350
50
  3
A9
350
51
  3
B0
350
52
  3
B1
350
53
  3
B2
350
54
  3
B3
350
55
  3
B4
350
56
  3
B5
350
57
  3
B6
350
58
  3
B7
350
59
  3
B8
350
5A
  3
B9
350
5B
  3
C0
350
5C
  3
C1
350
5D
  3
C2
350
5E
  3
C3
350
5F
  3
C4
350
60
  3
C5
350
61
  3
C6
350
62
  3
C7
350
63
  3
C8
350
64
  3
C9
350
65
  3
D0
350
66
  3
D1
350
67
  3
D2
350
68
  0
DICTIONARY
  5
17E
102
{ACAD_REACTORS
330
C
102
}
330
C
100
AcDbDictionary
281
     1
  0
DICTIONARY
  5
69
102
{ACAD_REACTORS
330
C
102
}
330
C
100
AcDbDictionary
281
     1
  3
Standard
350
6A
  0
DICTIONARY
  5
2A
102
{ACAD_REACTORS
330
C
102
}
330
C
100
AcDbDictionary
281
     1
  3
2dWireframe
350
2F
  3
Basic
350
32
  3
Brighten
350
36
  3
ColorChange
350
3A
  3
Conceptual
350
34
  3
Dim
350
35
  3
EdgeColorOff
350
3D
  3
Facepattern
350
39
  3
Flat
350
2B
  3
FlatWithEdges
350
2C
  3
Gouraud
350
2D
  3
GouraudWithEdges
350
2E
  3
Hidden
350
31
  3
JitterOff
350
3B
  3
Linepattern
350
38
  3
OverhangOff
350
3C
  3
Realistic
350
33
  3
Shaded
350
42
  3
Shaded with edges
350
41
  3
Shades of Gray
350
3E
  3
Sketchy
350
3F
  3
Thicken
350
37
  3
Wireframe
350
30
  3
X-Ray
350
40
  0
XRECORD
  5
17A
102
{ACAD_REACTORS
330
C
102
}
330
C
100
AcDbXrecord
280
     1
 90
        1
330
6A
  0
DICTIONARY
  5
176
102
{ACAD_REACTORS
330
C
102
}
330
C
100
AcDbDictionary
281
     1
  3
CANNOSCALE
350
177
  3
CMLEADERSTYLE
350
17C
  3
CTABLESTYLE
350
17B
  0
LAYOUT
  5
1E
102
{ACAD_REACTORS
330
1A
102
}
330
1A
100
AcDbPlotSettings
  1

  2
none_device
  4

  6

 40
0.0
 41
0.0
 42
0.0
 43
0.0
 44
0.0
 45
0.0
 46
0.0
 47
0.0
 48
0.0
 49
0.0
140
0.0
141
0.0
142
1.0
143
1.0
 70
   688
 72
     0
 73
     0
 74
     5
  7

 75
    16
 76
     0
 77
     2
 78
   300
147
1.0
148
0.0
149
0.0
100
AcDbLayout
  1
Layout1
 70
     1
 71
     1
 10
0.0
 20
0.0
 11
12.0
 21
9.0
 12
0.0
 22
0.0
 32
0.0
 14
1.000000000000000E+20
 24
1.000000000000000E+20
 34
1.000000000000000E+20
 15
-1.000000000000000E+20
 25
-1.000000000000000E+20
 35
-1.000000000000000E+20
146
0.0
 13
0.0
 23
0.0
 33
0.0
 16
1.0
 26
0.0
 36
0.0
 17
0.0
 27
1.0
 37
0.0
 76
     0
330
1B
  0
LAYOUT
  5
26
102
{ACAD_REACTORS
330
1A
102
}
330
1A
100
AcDbPlotSettings
  1

  2
none_device
  4

  6

 40
0.0
 41
0.0
 42
0.0
 43
0.0
 44
0.0
 45
0.0
 46
0.0
 47
0.0
 48
0.0
 49
0.0
140
0.0
141
0.0
142
1.0
143
1.0
 70
   688
 72
     0
 73
     0
 74
     5
  7

 75
    16
 76
     0
 77
     2
 78
   300
147
1.0
148
0.0
149
0.0
100
AcDbLayout
  1
Layout2
 70
     1
 71
     2
 10
0.0
 20
0.0
 11
0.0
 21
0.0
 12
0.0
 22
0.0
 32
0.0
 14
0.0
 24
0.0
 34
0.0
 15
0.0
 25
0.0
 35
0.0
146
0.0
 13
0.0
 23
0.0
 33
0.0
 16
1.0
 26
0.0
 36
0.0
 17
0.0
 27
1.0
 37
0.0
 76
     0
330
23
  0
LAYOUT
  5
22
102
{ACAD_REACTORS
330
1A
102
}
330
1A
100
AcDbPlotSettings
  1

  2
none_device
  4
Letter_(8.50_x_11.00_Inches)
  6

 40
6.35
 41
6.35
 42
6.35000508
 43
6.35000508
 44
215.9
 45
279.4
 46
0.0
 47
0.0
 48
0.0
 49
0.0
140
0.0
141
0.0
142
1.0
143
1.0
 70
  1712
 72
     0
 73
     0
 74
     0
  7

 75
     0
 76
     0
 77
     2
 78
   300
147
1.0
148
0.0
149
0.0
100
AcDbLayout
  1
Model
 70
     1
 71
     0
 10
0.0
 20
0.0
 11
12.0
 21
9.0
 12
0.0
 22
0.0
 32
0.0
 14
1.000000000000000E+20
 24
1.000000000000000E+20
 34
1.000000000000000E+20
 15
-1.000000000000000E+20
 25
-1.000000000000000E+20
 35
-1.000000000000000E+20
146
0.0
 13
0.0
 23
0.0
 33
0.0
 16
1.0
 26
0.0
 36
0.0
 17
0.0
 27
1.0
 37
0.0
 76
     0
330
1F
331
29
  0
MATERIAL
  5
45
102
{ACAD_REACTORS
330
43
102
}
330
43
100
AcDbMaterial
  1
ByBlock
 72
     1
 94
      127
  0
MATERIAL
  5
44
102
{ACAD_REACTORS
330
43
102
}
330
43
100
AcDbMaterial
  1
ByLayer
 72
     1
 94
      127
  0
MATERIAL
  5
46
102
{ACAD_REACTORS
330
43
102
}
330
43
100
AcDbMaterial
  1
Global
 72
     1
 94
      127
  0
MLEADERSTYLE
  5
6C
102
{ACAD_REACTORS
330
6B
102
}
330
6B
100
AcDbMLeaderStyle
179
     2
170
     2
171
     1
172
     0
 90
        2
 40
0.0
 41
0.0
173
     1
 91
-1056964608
340
14
 92
       -2
290
     1
 42
0.09
291
     1
 43
0.36
  3
Standard
341
0
 44
0.18
300

342
11
174
     1
178
     6
175
     1
176
     0
 93
-1056964608
 45
0.18
292
     0
297
     0
 46
0.18
343
0
 94
-1056964608
 47
1.0
 49
1.0
140
1.0
293
     1
141
0.0
294
     1
177
     0
142
1.0
295
     0
296
     0
143
0.125
271
     0
272
     9
273
     9
298
     0
  0
MLINESTYLE
  5
18
102
{ACAD_REACTORS
330
17
102
}
330
17
100
AcDbMlineStyle
  2
Standard
 70
     0
  3

 62
   256
 51
90.0
 52
90.0
 71
     2
 49
0.5
 62
   256
  6
BYLAYER
 49
-0.5
 62
   256
  6
BYLAYER
  0
ACDBPLACEHOLDER
  5
F
102
{ACAD_REACTORS
330
E
102
}
330
E
  0
SCALE
  5
48
102
{ACAD_REACTORS
330
47
102
}
330
47
100
AcDbScale
 70
     0
300
1:1
140
1.0
141
1.0
290
     1
  0
SCALE
  5
49
102
{ACAD_REACTORS
330
47
102
}
330
47
100
AcDbScale
 70
     0
300
1:2
140
1.0
141
2.0
290
     0
  0
SCALE
  5
4A
102
{ACAD_REACTORS
330
47
102
}
330
47
100
AcDbScale
 70
     0
300
1:4
140
1.0
141
4.0
290
     0
  0
SCALE
  5
4B
102
{ACAD_REACTORS
330
47
102
}
330
47
100
AcDbScale
 70
     0
300
1:5
140
1.0
141
5.0
290
     0
  0
SCALE
  5
4C
102
{ACAD_REACTORS
330
47
102
}
330
47
100
AcDbScale
 70
     0
300
1:8
140
1.0
141
8.0
290
     0
  0
SCALE
  5
4D
102
{ACAD_REACTORS
330
47
102
}
330
47
100
AcDbScale
 70
     0
300
1:10
140
1.0
141
10.0
290
     0
  0
SCALE
  5
4E
102
{ACAD_REACTORS
330
47
102
}
330
47
100
AcDbScale
 70
     0
300
1:16
140
1.0
141
16.0
290
     0
  0
SCALE
  5
4F
102
{ACAD_REACTORS
330
47
102
}
330
47
100
AcDbScale
 70
     0
300
1:20
140
1.0
141
20.0
290
     0
  0
SCALE
  5
50
102
{ACAD_REACTORS
330
47
102
}
330
47
100
AcDbScale
 70
     0
300
1:30
140
1.0
141
30.0
290
     0
  0
SCALE
  5
51
102
{ACAD_REACTORS
330
47
102
}
330
47
100
AcDbScale
 70
     0
300
1:40
140
1.0
141
40.0
290
     0
  0
SCALE
  5
52
102
{ACAD_REACTORS
330
47
102
}
330
47
100
AcDbScale
 70
     0
300
1:50
140
1.0
141
50.0
290
     0
  0
SCALE
  5
53
102
{ACAD_REACTORS
330
47
102
}
330
47
100
AcDbScale
 70
     0
300
1:100
140
1.0
141
100.0
290
     0
  0
SCALE
  5
54
102
{ACAD_REACTORS
330
47
102
}
330
47
100
AcDbScale
 70
     0
300
2:1
140
2.0
141
1.0
290
     0
  0
SCALE
  5
55
102
{ACAD_REACTORS
330
47
102
}
330
47
100
AcDbScale
 70
     0
300
4:1
140
4.0
141
1.0
290
     0
  0
SCALE
  5
56
102
{ACAD_REACTORS
330
47
102
}
330
47
100
AcDbScale
 70
     0
300
8:1
140
8.0
141
1.0
290
     0
  0
SCALE
  5
57
102
{ACAD_REACTORS
330
47
102
}
330
47
100
AcDbScale
 70
     0
300
10:1
140
10.0
141
1.0
290
     0
  0
SCALE
  5
58
102
{ACAD_REACTORS
330
47
102
}
330
47
100
AcDbScale
 70
     0
300
100:1
140
100.0
141
1.0
290
     0
  0
SCALE
  5
59
102
{ACAD_REACTORS
330
47
102
}
330
47
100
AcDbScale
 70
     0
300
1/128" = 1'-0"
140
0.0078125
141
12.0
290
     0
  0
SCALE
  5
5A
102
{ACAD_REACTORS
330
47
102
}
330
47
100
AcDbScale
 70
     0
300
1/64" = 1'-0"
140
0.015625
141
12.0
290
     0
  0
SCALE
  5
5B
102
{ACAD_REACTORS
330
47
102
}
330
47
100
AcDbScale
 70
     0
300
1/32" = 1'-0"
140
0.03125
141
12.0
290
     0
  0
SCALE
  5
5C
102
{ACAD_REACTORS
330
47
102
}
330
47
100
AcDbScale
 70
     0
300
1/16" = 1'-0"
140
0.0625
141
12.0
290
     0
  0
SCALE
  5
5D
102
{ACAD_REACTORS
330
47
102
}
330
47
100
AcDbScale
 70
     0
300
3/32" = 1'-0"
140
0.09375
141
12.0
290
     0
  0
SCALE
  5
5E
102
{ACAD_REACTORS
330
47
102
}
330
47
100
AcDbScale
 70
     0
300
1/8" = 1'-0"
140
0.125
141
12.0
290
     0
  0
SCALE
  5
5F
102
{ACAD_REACTORS
330
47
102
}
330
47
100
AcDbScale
 70
     0
300
3/16" = 1'-0"
140
0.1875
141
12.0
290
     0
  0
SCALE
  5
60
102
{ACAD_REACTORS
330
47
102
}
330
47
100
AcDbScale
 70
     0
300
1/4" = 1'-0"
140
0.25
141
12.0
290
     0
  0
SCALE
  5
61
102
{ACAD_REACTORS
330
47
102
}
330
47
100
AcDbScale
 70
     0
300
3/8" = 1'-0"
140
0.375
141
12.0
290
     0
  0
SCALE
  5
62
102
{ACAD_REACTORS
330
47
102
}
330
47
100
AcDbScale
 70
     0
300
1/2" = 1'-0"
140
0.5
141
12.0
290
     0
  0
SCALE
  5
63
102
{ACAD_REACTORS
330
47
102
}
330
47
100
AcDbScale
 70
     0
300
3/4" = 1'-0"
140
0.75
141
12.0
290
     0
  0
SCALE
  5
64
102
{ACAD_REACTORS
330
47
102
}
330
47
100
AcDbScale
 70
     0
300
1" = 1'-0"
140
1.0
141
12.0
290
     0
  0
SCALE
  5
65
102
{ACAD_REACTORS
330
47
102
}
330
47
100
AcDbScale
 70
     0
300
1-1/2" = 1'-0"
140
1.5
141
12.0
290
     0
  0
SCALE
  5
66
102
{ACAD_REACTORS
330
47
102
}
330
47
100
AcDbScale
 70
     0
300
3" = 1'-0"
140
3.0
141
12.0
290
     0
  0
SCALE
  5
67
102
{ACAD_REACTORS
330
47
102
}
330
47
100
AcDbScale
 70
     0
300
6" = 1'-0"
140
6.0
141
12.0
290
     0
  0
SCALE
  5
68
102
{ACAD_REACTORS
330
47
102
}
330
47
100
AcDbScale
 70
     0
300
1'-0" = 1'-0"
140
12.0
141
12.0
290
     0
  0
TABLESTYLE
  5
6A
102
{ACAD_REACTORS
330
69
102
}
102
{ACAD_XDICTIONARY
360
178
102
}
330
69
100
AcDbTableStyle
  3
Standard
 70
     0
 71
     0
 40
0.06
 41
0.06
280
     0
281
     0
  7
Standard
140
0.18
170
     2
 62
     0
 63
   257
283
     0
 90
        4
 91
        0
  1

274
    -2
284
     1
 64
     0
275
    -2
285
     1
 65
     0
276
    -2
286
     1
 66
     0
277
    -2
287
     1
 67
     0
278
    -2
288
     1
 68
     0
279
    -2
289
     1
 69
     0
  7
Standard
140
0.25
170
     5
 62
     0
 63
   257
283
     0
 90
        4
 91
        0
  1

274
    -2
284
     1
 64
     0
275
    -2
285
     1
 65
     0
276
    -2
286
     1
 66
     0
277
    -2
287
     1
 67
     0
278
    -2
288
     1
 68
     0
279
    -2
289
     1
 69
     0
  7
Standard
140
0.18
170
     5
 62
     0
 63
   257
283
     0
 90
        4
 91
        0
  1

274
    -2
284
     1
 64
     0
275
    -2
285
     1
 65
     0
276
    -2
286
     1
 66
     0
277
    -2
287
     1
 67
     0
278
    -2
288
     1
 68
     0
279
    -2
289
     1
 69
     0
  0
VISUALSTYLE
  5
2F
102
{ACAD_REACTORS
330
2A
102
}
330
2A
100
AcDbVisualStyle
  2
2dWireframe
 70
     4
177
     3
291
     0
 70
    58
 90
        0
176
     1
 90
        2
176
     1
 90
        0
176
     1
 90
        0
176
     1
 40
0.6
176
     1
 40
30.0
176
     1
 62
     7
420
 16777215
176
     1
 90
        1
176
     1
 90
        4
176
     1
 62
     7
176
     1
 62
   257
176
     1
 90
        1
176
     1
 90
        1
176
     1
 40
1.0
176
     1
 90
        0
176
     1
 62
   257
176
     1
 40
1.0
176
     1
 90
        1
176
     1
 90
        6
176
     1
 90
        2
176
     1
 62
     7
176
     1
 90
        5
176
     1
 90
        0
176
     1
 90
        0
176
     1
290
     0
176
     1
 90
        1
176
     1
 40
0.0
176
     1
 90
        0
176
     1
290
     1
176
     1
290
     1
176
     1
290
     0
176
     1
290
     0
176
     1
290
     0
176
     1
290
     0
176
     1
290
     0
176
     1
290
     0
176
     1
290
     0
176
     1
 90
       50
176
     1
 40
0.0
176
     1
 40
1.0
176
     1
 90
        0
176
     1
 62
    18
420
        0
176
     1
 90
       50
176
     1
 90
        3
176
     1
 62
     5
420
      255
176
     1
290
     0
176
     1
 90
       50
176
     1
 90
       50
176
     1
 90
       50
176
     1
290
     0
176
     1
 90
       50
176
     1
 62
   256
176
     0
 40
1.0
176
     0
 90
        2
176
     1
  1
strokes_ogs.tif
176
     1
290
     0
176
     1
 40
1.0
176
     1
 40
1.0
176
     1
  0
VISUALSTYLE
  5
32
102
{ACAD_REACTORS
330
2A
102
}
330
2A
100
AcDbVisualStyle
  2
Basic
 70
     7
177
     3
291
     1
 70
    58
 90
        1
176
     1
 90
        0
176
     1
 90
        1
176
     1
 90
        0
176
     1
 40
0.6
176
     1
 40
30.0
176
     1
 62
     7
420
 16777215
176
     1
 90
        0
176
     1
 90
        4
176
     1
 62
     7
176
     1
 62
   257
176
     1
 90
        1
176
     1
 90
        1
176
     1
 40
1.0
176
     1
 90
        8
176
     1
 62
     7
176
     1
 40
1.0
176
     1
 90
        1
176
     1
 90
        6
176
     1
 90
        2
176
     1
 62
     7
176
     1
 90
        5
176
     1
 90
        0
176
     1
 90
        0
176
     1
290
     0
176
     1
 90
        1
176
     1
 40
0.0
176
     1
 90
        0
176
     1
290
     0
176
     1
290
     1
176
     1
290
     1
176
     1
290
     0
176
     1
290
     0
176
     1
290
     0
176
     1
290
     0
176
     1
290
     0
176
     1
290
     0
176
     1
 90
       50
176
     1
 40
0.0
176
     1
 40
1.0
176
     1
 90
        0
176
     1
 62
    18
420
        0
176
     1
 90
       50
176
     1
 90
        3
176
     1
 62
     5
420
      255
176
     1
290
     0
176
     1
 90
       50
176
     1
 90
       50
176
     1
 90
       50
176
     1
290
     0
176
     1
 90
       50
176
     1
 62
   256
176
     0
 40
1.0
176
     0
 90
        2
176
     1
  1
strokes_ogs.tif
176
     1
290
     0
176
     1
 40
1.0
176
     1
 40
1.0
176
     1
  0
VISUALSTYLE
  5
36
102
{ACAD_REACTORS
330
2A
102
}
330
2A
100
AcDbVisualStyle
  2
Brighten
 70
    12
177
     3
291
     1
 70
    58
 90
        2
176
     1
 90
        2
176
     1
 90
        0
176
     1
 90
        0
176
     1
 40
0.6
176
     1
 40
30.0
176
     1
 62
     7
420
 16777215
176
     1
 90
        1
176
     1
 90
        4
176
     1
 62
     7
176
     1
 62
   257
176
     1
 90
        1
176
     1
 90
        1
176
     1
 40
1.0
176
     1
 90
        8
176
     1
 62
     7
176
     1
 40
1.0
176
     1
 90
        1
176
     1
 90
        6
176
     1
 90
        2
176
     1
 62
     7
176
     1
 90
        5
176
     1
 90
        0
176
     1
 90
        0
176
     1
290
     0
176
     1
 90
        1
176
     1
 40
50.0
176
     1
 90
        0
176
     1
290
     0
176
     1
290
     1
176
     1
290
     1
176
     1
290
     0
176
     1
290
     0
176
     1
290
     0
176
     1
290
     0
176
     1
290
     0
176
     1
290
     0
176
     1
 90
       50
176
     1
 40
0.0
176
     1
 40
1.0
176
     1
 90
        0
176
     1
 62
    18
420
        0
176
     1
 90
       50
176
     1
 90
        3
176
     1
 62
     5
420
      255
176
     1
290
     0
176
     1
 90
       50
176
     1
 90
       50
176
     1
 90
       50
176
     1
290
     0
176
     1
 90
       50
176
     1
 62
   256
176
     0
 40
1.0
176
     0
 90
        2
176
     1
  1
strokes_ogs.tif
176
     1
290
     0
176
     1
 40
1.0
176
     1
 40
1.0
176
     1
  0
VISUALSTYLE
  5
3A
102
{ACAD_REACTORS
330
2A
102
}
330
2A
100
AcDbVisualStyle
  2
ColorChange
 70
    16
177
     3
291
     1
 70
    58
 90
        2
176
     1
 90
        2
176
     1
 90
        3
176
     1
 90
        0
176
     1
 40
0.6
176
     1
 40
30.0
176
     1
 62
     8
420
  8421504
176
     1
 90
        1
176
     1
 90
        4
176
     1
 62
     7
176
     1
 62
   257
176
     1
 90
        1
176
     1
 90
        1
176
     1
 40
1.0
176
     1
 90
        8
176
     1
 62
     8
420
  8421504
176
     1
 40
1.0
176
     1
 90
        1
176
     1
 90
        6
176
     1
 90
        2
176
     1
 62
     7
176
     1
 90
        5
176
     1
 90
        0
176
     1
 90
        0
176
     1
290
     0
176
     1
 90
        1
176
     1
 40
0.0
176
     1
 90
        0
176
     1
290
     0
176
     1
290
     1
176
     1
290
     1
176
     1
290
     0
176
     1
290
     0
176
     1
290
     0
176
     1
290
     0
176
     1
290
     0
176
     1
290
     0
176
     1
 90
       50
176
     1
 40
0.0
176
     1
 40
1.0
176
     1
 90
        0
176
     1
 62
    18
420
        0
176
     1
 90
       50
176
     1
 90
        3
176
     1
 62
     5
420
      255
176
     1
290
     0
176
     1
 90
       50
176
     1
 90
       50
176
     1
 90
       50
176
     1
290
     0
176
     1
 90
       50
176
     1
 62
   256
176
     0
 40
1.0
176
     0
 90
        2
176
     1
  1
strokes_ogs.tif
176
     1
290
     0
176
     1
 40
1.0
176
     1
 40
1.0
176
     1
  0
VISUALSTYLE
  5
34
102
{ACAD_REACTORS
330
2A
102
}
330
2A
100
AcDbVisualStyle
  2
Conceptual
 70
     9
177
     3
291
     0
 70
    58
 90
        3
176
     1
 90
        2
176
     1
 90
        0
176
     1
 90
        0
176
     1
 40
0.6
176
     1
 40
30.0
176
     1
 62
     7
420
 16777215
176
     1
 90
        2
176
     1
 90
        2
176
     1
 62
     7
176
     1
 62
   257
176
     1
 90
        1
176
     1
 90
        1
176
     1
 40
179.0
176
     1
 90
        8
176
     1
 62
     7
176
     1
 40
1.0
176
     1
 90
        1
176
     1
 90
        6
176
     1
 90
        2
176
     1
 62
     7
176
     1
 90
        3
176
     1
 90
        0
176
     1
 90
        0
176
     1
290
     0
176
     1
 90
        1
176
     1
 40
0.0
176
     1
 90
        0
176
     1
290
     0
176
     1
290
     1
176
     1
290
     1
176
     1
290
     0
176
     1
290
     0
176
     1
290
     0
176
     1
290
     0
176
     1
290
     0
176
     1
290
     0
176
     1
 90
       50
176
     1
 40
0.0
176
     1
 40
1.0
176
     1
 90
        0
176
     1
 62
    18
420
        0
176
     1
 90
       50
176
     1
 90
        3
176
     1
 62
     5
420
      255
176
     1
290
     0
176
     1
 90
       50
176
     1
 90
       50
176
     1
 90
       50
176
     1
290
     0
176
     1
 90
       50
176
     1
 62
   256
176
     0
 40
1.0
176
     0
 90
        2
176
     1
  1
strokes_ogs.tif
176
     1
290
     0
176
     1
 40
1.0
176
     1
 40
1.0
176
     1
  0
VISUALSTYLE
  5
35
102
{ACAD_REACTORS
330
2A
102
}
330
2A
100
AcDbVisualStyle
  2
Dim
 70
    11
177
     3
291
     1
 70
    58
 90
        2
176
     1
 90
        2
176
     1
 90
        0
176
     1
 90
        0
176
     1
 40
0.6
176
     1
 40
30.0
176
     1
 62
     7
420
 16777215
176
     1
 90
        1
176
     1
 90
        4
176
     1
 62
     7
176
     1
 62
   257
176
     1
 90
        1
176
     1
 90
        1
176
     1
 40
1.0
176
     1
 90
        8
176
     1
 62
     7
176
     1
 40
1.0
176
     1
 90
        1
176
     1
 90
        6
176
     1
 90
        2
176
     1
 62
     7
176
     1
 90
        5
176
     1
 90
        0
176
     1
 90
        0
176
     1
290
     0
176
     1
 90
        1
176
     1
 40
-50.0
176
     1
 90
        0
176
     1
290
     0
176
     1
290
     1
176
     1
290
     1
176
     1
290
     0
176
     1
290
     0
176
     1
290
     0
176
     1
290
     0
176
     1
290
     0
176
     1
290
     0
176
     1
 90
       50
176
     1
 40
0.0
176
     1
 40
1.0
176
     1
 90
        0
176
     1
 62
    18
420
        0
176
     1
 90
       50
176
     1
 90
        3
176
     1
 62
     5
420
      255
176
     1
290
     0
176
     1
 90
       50
176
     1
 90
       50
176
     1
 90
       50
176
     1
290
     0
176
     1
 90
       50
176
     1
 62
   256
176
     0
 40
1.0
176
     0
 90
        2
176
     1
  1
strokes_ogs.tif
176
     1
290
     0
176
     1
 40
1.0
176
     1
 40
1.0
176
     1
  0
VISUALSTYLE
  5
3D
102
{ACAD_REACTORS
330
2A
102
}
330
2A
100
AcDbVisualStyle
  2
EdgeColorOff
 70
    22
177
     3
291
     1
 70
    58
 90
        2
176
     0
 90
        2
176
     0
 90
        0
176
     0
 90
        0
176
     0
 40
0.6
176
     0
 40
30.0
176
     0
 62
     7
420
 16777215
176
     0
 90
        1
176
     0
 90
        4
176
     0
 62
     7
176
     0
 62
   257
176
     0
 90
        1
176
     0
 90
        1
176
     0
 40
1.0
176
     0
 90
        8
176
     2
 62
     7
176
     0
 40
1.0
176
     0
 90
        1
176
     0
 90
        6
176
     0
 90
        2
176
     0
 62
     7
176
     0
 90
        5
176
     0
 90
        0
176
     0
 90
        0
176
     0
290
     0
176
     0
 90
        1
176
     0
 40
0.0
176
     0
 90
        0
176
     0
290
     0
176
     0
290
     1
176
     0
290
     1
176
     0
290
     0
176
     0
290
     0
176
     0
290
     0
176
     0
290
     0
176
     0
290
     0
176
     0
290
     0
176
     0
 90
       50
176
     0
 40
0.0
176
     0
 40
1.0
176
     0
 90
        0
176
     0
 62
    18
420
        0
176
     0
 90
       50
176
     0
 90
        3
176
     0
 62
     5
420
      255
176
     0
290
     0
176
     0
 90
       50
176
     0
 90
       50
176
     0
 90
       50
176
     0
290
     0
176
     0
 90
       50
176
     0
 62
   256
176
     0
 40
1.0
176
     0
 90
        2
176
     0
  1
strokes_ogs.tif
176
     0
290
     0
176
     0
 40
1.0
176
     0
 40
1.0
176
     0
  0
VISUALSTYLE
  5
39
102
{ACAD_REACTORS
330
2A
102
}
330
2A
100
AcDbVisualStyle
  2
Facepattern
 70
    15
177
     3
291
     1
 70
    58
 90
        2
176
     1
 90
        2
176
     1
 90
        0
176
     1
 90
        0
176
     1
 40
0.6
176
     1
 40
30.0
176
     1
 62
     7
420
 16777215
176
     1
 90
        1
176
     1
 90
        4
176
     1
 62
     7
176
     1
 62
   257
176
     1
 90
        1
176
     1
 90
        1
176
     1
 40
1.0
176
     1
 90
        8
176
     1
 62
     7
176
     1
 40
1.0
176
     1
 90
        1
176
     1
 90
        6
176
     1
 90
        2
176
     1
 62
     7
176
     1
 90
        5
176
     1
 90
        0
176
     1
 90
        0
176
     1
290
     0
176
     1
 90
        1
176
     1
 40
0.0
176
     1
 90
        0
176
     1
290
     0
176
     1
290
     1
176
     1
290
     1
176
     1
290
     0
176
     1
290
     0
176
     1
290
     0
176
     1
290
     0
176
     1
290
     0
176
     1
290
     0
176
     1
 90
       50
176
     1
 40
0.0
176
     1
 40
1.0
176
     1
 90
        0
176
     1
 62
    18
420
        0
176
     1
 90
       50
176
     1
 90
        3
176
     1
 62
     5
420
      255
176
     1
290
     0
176
     1
 90
       50
176
     1
 90
       50
176
     1
 90
       50
176
     1
290
     0
176
     1
 90
       50
176
     1
 62
   256
176
     0
 40
1.0
176
     0
 90
        2
176
     1
  1
strokes_ogs.tif
176
     1
290
     0
176
     1
 40
1.0
176
     1
 40
1.0
176
     1
  0
VISUALSTYLE
  5
2B
102
{ACAD_REACTORS
330
2A
102
}
330
2A
100
AcDbVisualStyle
  2
Flat
 70
     0
177
     3
291
     1
 70
    58
 90
        2
176
     1
 90
        1
176
     1
 90
        1
176
     1
 90
        2
176
     1
 40
0.6
176
     1
 40
30.0
176
     1
 62
     7
420
 16777215
176
     1
 90
        0
176
     1
 90
        0
176
     1
 62
     7
176
     1
 62
   257
176
     1
 90
        1
176
     1
 90
        1
176
     1
 40
1.0
176
     1
 90
        8
176
     1
 62
     7
176
     1
 40
1.0
176
     1
 90
        1
176
     1
 90
        6
176
     1
 90
        2
176
     1
 62
     7
176
     1
 90
        5
176
     1
 90
        0
176
     1
 90
        0
176
     1
290
     0
176
     1
 90
       13
176
     1
 40
0.0
176
     1
 90
        0
176
     1
290
     0
176
     1
290
     1
176
     1
290
     1
176
     1
290
     0
176
     1
290
     0
176
     1
290
     0
176
     1
290
     0
176
     1
290
     0
176
     1
290
     0
176
     1
 90
       50
176
     1
 40
0.0
176
     1
 40
1.0
176
     1
 90
        0
176
     1
 62
    18
420
        0
176
     1
 90
       50
176
     1
 90
        3
176
     1
 62
     5
420
      255
176
     1
290
     0
176
     1
 90
       50
176
     1
 90
       50
176
     1
 90
       50
176
     1
290
     0
176
     1
 90
       50
176
     1
 62
   256
176
     0
 40
1.0
176
     0
 90
        2
176
     1
  1
strokes_ogs.tif
176
     1
290
     0
176
     1
 40
1.0
176
     1
 40
1.0
176
     1
  0
VISUALSTYLE
  5
2C
102
{ACAD_REACTORS
330
2A
102
}
330
2A
100
AcDbVisualStyle
  2
FlatWithEdges
 70
     1
177
     3
291
     1
 70
    58
 90
        2
176
     1
 90
        1
176
     1
 90
        1
176
     1
 90
        2
176
     1
 40
0.6
176
     1
 40
30.0
176
     1
 62
     7
420
 16777215
176
     1
 90
        1
176
     1
 90
        0
176
     1
 62
     7
176
     1
 62
   257
176
     1
 90
        1
176
     1
 90
        1
176
     1
 40
1.0
176
     1
 90
        0
176
     1
 62
   257
176
     1
 40
1.0
176
     1
 90
        1
176
     1
 90
        6
176
     1
 90
        2
176
     1
 62
     7
176
     1
 90
        5
176
     1
 90
        0
176
     1
 90
        0
176
     1
290
     0
176
     1
 90
       13
176
     1
 40
0.0
176
     1
 90
        0
176
     1
290
     0
176
     1
290
     1
176
     1
290
     1
176
     1
290
     0
176
     1
290
     0
176
     1
290
     0
176
     1
290
     0
176
     1
290
     0
176
     1
290
     0
176
     1
 90
       50
176
     1
 40
0.0
176
     1
 40
1.0
176
     1
 90
        0
176
     1
 62
    18
420
        0
176
     1
 90
       50
176
     1
 90
        3
176
     1
 62
     5
420
      255
176
     1
290
     0
176
     1
 90
       50
176
     1
 90
       50
176
     1
 90
       50
176
     1
290
     0
176
     1
 90
       50
176
     1
 62
   256
176
     0
 40
1.0
176
     0
 90
        2
176
     1
  1
strokes_ogs.tif
176
     1
290
     0
176
     1
 40
1.0
176
     1
 40
1.0
176
     1
  0
VISUALSTYLE
  5
2D
102
{ACAD_REACTORS
330
2A
102
}
330
2A
100
AcDbVisualStyle
  2
Gouraud
 70
     2
177
     3
291
     1
 70
    58
 90
        2
176
     1
 90
        2
176
     1
 90
        1
176
     1
 90
        2
176
     1
 40
0.6
176
     1
 40
30.0
176
     1
 62
     7
420
 16777215
176
     1
 90
        0
176
     1
 90
        0
176
     1
 62
     7
176
     1
 62
   257
176
     1
 90
        1
176
     1
 90
        1
176
     1
 40
1.0
176
     1
 90
        0
176
     1
 62
     7
176
     1
 40
1.0
176
     1
 90
        1
176
     1
 90
        6
176
     1
 90
        2
176
     1
 62
     7
176
     1
 90
        5
176
     1
 90
        0
176
     1
 90
        0
176
     1
290
     0
176
     1
 90
       13
176
     1
 40
0.0
176
     1
 90
        0
176
     1
290
     0
176
     1
290
     1
176
     1
290
     1
176
     1
290
     0
176
     1
290
     0
176
     1
290
     0
176
     1
290
     0
176
     1
290
     0
176
     1
290
     0
176
     1
 90
       50
176
     1
 40
0.0
176
     1
 40
1.0
176
     1
 90
        0
176
     1
 62
    18
420
        0
176
     1
 90
       50
176
     1
 90
        3
176
     1
 62
     5
420
      255
176
     1
290
     0
176
     1
 90
       50
176
     1
 90
       50
176
     1
 90
       50
176
     1
290
     0
176
     1
 90
       50
176
     1
 62
   256
176
     0
 40
1.0
176
     0
 90
        2
176
     1
  1
strokes_ogs.tif
176
     1
290
     0
176
     1
 40
1.0
176
     1
 40
1.0
176
     1
  0
VISUALSTYLE
  5
2E
102
{ACAD_REACTORS
330
2A
102
}
330
2A
100
AcDbVisualStyle
  2
GouraudWithEdges
 70
     3
177
     3
291
     1
 70
    58
 90
        2
176
     1
 90
        2
176
     1
 90
        1
176
     1
 90
        2
176
     1
 40
0.6
176
     1
 40
30.0
176
     1
 62
     7
420
 16777215
176
     1
 90
        1
176
     1
 90
        0
176
     1
 62
     7
176
     1
 62
   257
176
     1
 90
        1
176
     1
 90
        1
176
     1
 40
1.0
176
     1
 90
        0
176
     1
 62
   257
176
     1
 40
1.0
176
     1
 90
        1
176
     1
 90
        6
176
     1
 90
        2
176
     1
 62
     7
176
     1
 90
        5
176
     1
 90
        0
176
     1
 90
        0
176
     1
290
     0
176
     1
 90
       13
176
     1
 40
0.0
176
     1
 90
        0
176
     1
290
     0
176
     1
290
     1
176
     1
290
     1
176
     1
290
     0
176
     1
290
     0
176
     1
290
     0
176
     1
290
     0
176
     1
290
     0
176
     1
290
     0
176
     1
 90
       50
176
     1
 40
0.0
176
     1
 40
1.0
176
     1
 90
        0
176
     1
 62
    18
420
        0
176
     1
 90
       50
176
     1
 90
        3
176
     1
 62
     5
420
      255
176
     1
290
     0
176
     1
 90
       50
176
     1
 90
       50
176
     1
 90
       50
176
     1
290
     0
176
     1
 90
       50
176
     1
 62
   256
176
     0
 40
1.0
176
     0
 90
        2
176
     1
  1
strokes_ogs.tif
176
     1
290
     0
176
     1
 40
1.0
176
     1
 40
1.0
176
     1
  0
VISUALSTYLE
  5
31
102
{ACAD_REACTORS
330
2A
102
}
330
2A
100
AcDbVisualStyle
  2
Hidden
 70
     6
177
     3
291
     0
 70
    58
 90
        1
176
     1
 90
        2
176
     1
 90
        2
176
     1
 90
        0
176
     1
 40
0.6
176
     1
 40
30.0
176
     1
 62
     7
420
 16777215
176
     1
 90
        2
176
     1
 90
        2
176
     1
 62
     7
176
     1
 62
   257
176
     1
 90
        2
176
     1
 90
        1
176
     1
 40
40.0
176
     1
 90
        0
176
     1
 62
   257
176
     1
 40
1.0
176
     1
 90
        1
176
     1
 90
        6
176
     1
 90
        2
176
     1
 62
     7
176
     1
 90
        3
176
     1
 90
        0
176
     1
 90
        0
176
     1
290
     0
176
     1
 90
        1
176
     1
 40
0.0
176
     1
 90
        0
176
     1
290
     0
176
     1
290
     1
176
     1
290
     1
176
     1
290
     0
176
     1
290
     0
176
     1
290
     0
176
     1
290
     0
176
     1
290
     0
176
     1
290
     0
176
     1
 90
       50
176
     1
 40
0.0
176
     1
 40
1.0
176
     1
 90
        0
176
     1
 62
    18
420
        0
176
     1
 90
       50
176
     1
 90
        3
176
     1
 62
     5
420
      255
176
     1
290
     0
176
     1
 90
       50
176
     1
 90
       50
176
     1
 90
       50
176
     1
290
     0
176
     1
 90
       50
176
     1
 62
   256
176
     0
 40
1.0
176
     0
 90
        2
176
     1
  1
strokes_ogs.tif
176
     1
290
     0
176
     1
 40
1.0
176
     1
 40
1.0
176
     1
  0
VISUALSTYLE
  5
3B
102
{ACAD_REACTORS
330
2A
102
}
330
2A
100
AcDbVisualStyle
  2
JitterOff
 70
    20
177
     3
291
     1
 70
    58
 90
        2
176
     0
 90
        2
176
     0
 90
        0
176
     0
 90
        0
176
     0
 40
0.6
176
     0
 40
30.0
176
     0
 62
     7
420
 16777215
176
     0
 90
        1
176
     0
 90
        4
176
     0
 62
     7
176
     0
 62
   257
176
     0
 90
        1
176
     0
 90
        1
176
     0
 40
1.0
176
     0
 90
       10
176
     2
 62
     7
176
     0
 40
1.0
176
     0
 90
        1
176
     0
 90
        6
176
     0
 90
        2
176
     0
 62
     7
176
     0
 90
        5
176
     0
 90
        0
176
     0
 90
        0
176
     0
290
     0
176
     0
 90
        1
176
     0
 40
0.0
176
     0
 90
        0
176
     0
290
     0
176
     0
290
     1
176
     0
290
     1
176
     0
290
     0
176
     0
290
     0
176
     0
290
     0
176
     0
290
     0
176
     0
290
     0
176
     0
290
     0
176
     0
 90
       50
176
     0
 40
0.0
176
     0
 40
1.0
176
     0
 90
        0
176
     0
 62
    18
420
        0
176
     0
 90
       50
176
     0
 90
        3
176
     0
 62
     5
420
      255
176
     0
290
     0
176
     0
 90
       50
176
     0
 90
       50
176
     0
 90
       50
176
     0
290
     0
176
     0
 90
       50
176
     0
 62
   256
176
     0
 40
1.0
176
     0
 90
        2
176
     0
  1
strokes_ogs.tif
176
     0
290
     0
176
     0
 40
1.0
176
     0
 40
1.0
176
     0
  0
VISUALSTYLE
  5
38
102
{ACAD_REACTORS
330
2A
102
}
330
2A
100
AcDbVisualStyle
  2
Linepattern
 70
    14
177
     3
291
     1
 70
    58
 90
        2
176
     1
 90
        2
176
     1
 90
        0
176
     1
 90
        0
176
     1
 40
0.6
176
     1
 40
30.0
176
     1
 62
     7
420
 16777215
176
     1
 90
        1
176
     1
 90
        4
176
     1
 62
     7
176
     1
 62
   257
176
     1
 90
        7
176
     1
 90
        7
176
     1
 40
1.0
176
     1
 90
        8
176
     1
 62
     7
176
     1
 40
1.0
176
     1
 90
        1
176
     1
 90
        6
176
     1
 90
        2
176
     1
 62
     7
176
     1
 90
        5
176
     1
 90
        0
176
     1
 90
        0
176
     1
290
     0
176
     1
 90
        1
176
     1
 40
0.0
176
     1
 90
        0
176
     1
290
     0
176
     1
290
     1
176
     1
290
     1
176
     1
290
     0
176
     1
290
     0
176
     1
290
     0
176
     1
290
     0
176
     1
290
     0
176
     1
290
     0
176
     1
 90
       50
176
     1
 40
0.0
176
     1
 40
1.0
176
     1
 90
        0
176
     1
 62
    18
420
        0
176
     1
 90
       50
176
     1
 90
        3
176
     1
 62
     5
420
      255
176
     1
290
     0
176
     1
 90
       50
176
     1
 90
       50
176
     1
 90
       50
176
     1
290
     0
176
     1
 90
       50
176
     1
 62
   256
176
     0
 40
1.0
176
     0
 90
        2
176
     1
  1
strokes_ogs.tif
176
     1
290
     0
176
     1
 40
1.0
176
     1
 40
1.0
176
     1
  0
VISUALSTYLE
  5
3C
102
{ACAD_REACTORS
330
2A
102
}
330
2A
100
AcDbVisualStyle
  2
OverhangOff
 70
    21
177
     3
291
     1
 70
    58
 90
        2
176
     0
 90
        2
176
     0
 90
        0
176
     0
 90
        0
176
     0
 40
0.6
176
     0
 40
30.0
176
     0
 62
     7
420
 16777215
176
     0
 90
        1
176
     0
 90
        4
176
     0
 62
     7
176
     0
 62
   257
176
     0
 90
        1
176
     0
 90
        1
176
     0
 40
1.0
176
     0
 90
        9
176
     2
 62
     7
176
     0
 40
1.0
176
     0
 90
        1
176
     0
 90
        6
176
     0
 90
        2
176
     0
 62
     7
176
     0
 90
        5
176
     0
 90
        0
176
     0
 90
        0
176
     0
290
     0
176
     0
 90
        1
176
     0
 40
0.0
176
     0
 90
        0
176
     0
290
     0
176
     0
290
     1
176
     0
290
     1
176
     0
290
     0
176
     0
290
     0
176
     0
290
     0
176
     0
290
     0
176
     0
290
     0
176
     0
290
     0
176
     0
 90
       50
176
     0
 40
0.0
176
     0
 40
1.0
176
     0
 90
        0
176
     0
 62
    18
420
        0
176
     0
 90
       50
176
     0
 90
        3
176
     0
 62
     5
420
      255
176
     0
290
     0
176
     0
 90
       50
176
     0
 90
       50
176
     0
 90
       50
176
     0
290
     0
176
     0
 90
       50
176
     0
 62
   256
176
     0
 40
1.0
176
     0
 90
        2
176
     0
  1
strokes_ogs.tif
176
     0
290
     0
176
     0
 40
1.0
176
     0
 40
1.0
176
     0
  0
VISUALSTYLE
  5
33
102
{ACAD_REACTORS
330
2A
102
}
330
2A
100
AcDbVisualStyle
  2
Realistic
 70
     8
177
     3
291
     0
 70
    58
 90
        2
176
     1
 90
        3
176
     1
 90
        0
176
     1
 90
        2
176
     1
 40
0.6
176
     1
 40
30.0
176
     1
 62
     7
420
 16777215
176
     1
 90
        0
176
     1
 90
        0
176
     1
 62
     7
176
     1
 62
   257
176
     1
 90
        1
176
     1
 90
        1
176
     1
 40
1.0
176
     1
 90
        8
176
     1
 62
   257
176
     1
 40
1.0
176
     1
 90
        1
176
     1
 90
        6
176
     1
 90
        2
176
     1
 62
     7
176
     1
 90
        3
176
     1
 90
        0
176
     1
 90
        0
176
     1
290
     0
176
     1
 90
       13
176
     1
 40
0.0
176
     1
 90
        0
176
     1
290
     0
176
     1
290
     1
176
     1
290
     1
176
     1
290
     0
176
     1
290
     0
176
     1
290
     0
176
     1
290
     0
176
     1
290
     0
176
     1
290
     0
176
     1
 90
       50
176
     1
 40
0.0
176
     1
 40
1.0
176
     1
 90
        0
176
     1
 62
    18
420
        0
176
     1
 90
       50
176
     1
 90
        3
176
     1
 62
     5
420
      255
176
     1
290
     0
176
     1
 90
       50
176
     1
 90
       50
176
     1
 90
       50
176
     1
290
     0
176
     1
 90
       50
176
     1
 62
   256
176
     0
 40
1.0
176
     0
 90
        2
176
     1
  1
strokes_ogs.tif
176
     1
290
     0
176
     1
 40
1.0
176
     1
 40
1.0
176
     1
  0
VISUALSTYLE
  5
42
102
{ACAD_REACTORS
330
2A
102
}
330
2A
100
AcDbVisualStyle
  2
Shaded
 70
    27
177
     3
291
     0
 70
    58
 90
        2
176
     1
 90
        2
176
     1
 90
        1
176
     1
 90
        2
176
     1
 40
0.6
176
     1
 40
30.0
176
     1
 62
     7
420
 16777215
176
     1
 90
        0
176
     1
 90
        4
176
     1
 62
     7
176
     1
 62
   257
176
     1
 90
        1
176
     1
 90
        1
176
     1
 40
1.0
176
     1
 90
        8
176
     1
 62
   257
176
     1
 40
1.0
176
     1
 90
        1
176
     1
 90
        6
176
     1
 90
        2
176
     1
 62
     8
420
  7895160
176
     1
 90
        3
176
     1
 90
        0
176
     1
 90
        0
176
     1
290
     0
176
     1
 90
        5
176
     1
 40
0.0
176
     1
 90
        0
176
     1
290
     0
176
     1
290
     1
176
     1
290
     1
176
     1
290
     0
176
     1
290
     0
176
     1
290
     0
176
     1
290
     0
176
     1
290
     0
176
     1
290
     0
176
     1
 90
       50
176
     1
 40
0.0
176
     1
 40
1.0
176
     1
 90
        0
176
     1
 62
    18
420
        0
176
     1
 90
       50
176
     1
 90
        3
176
     1
 62
     5
420
      255
176
     1
290
     0
176
     1
 90
       50
176
     1
 90
       50
176
     1
 90
       50
176
     1
290
     0
176
     1
 90
       50
176
     1
 62
   256
176
     0
 40
1.0
176
     0
 90
        2
176
     1
  1
strokes_ogs.tif
176
     1
290
     0
176
     1
 40
1.0
176
     1
 40
1.0
176
     1
  0
VISUALSTYLE
  5
41
102
{ACAD_REACTORS
330
2A
102
}
330
2A
100
AcDbVisualStyle
  2
Shaded with edges
 70
    26
177
     3
291
     0
 70
    58
 90
        2
176
     1
 90
        2
176
     1
 90
        1
176
     1
 90
        2
176
     1
 40
0.6
176
     1
 40
30.0
176
     1
 62
     7
420
 16777215
176
     1
 90
        1
176
     1
 90
       10
176
     1
 62
     7
176
     1
 62
   257
176
     1
 90
        2
176
     1
 90
        1
176
     1
 40
1.0
176
     1
 90
        8
176
     1
 62
   257
176
     1
 40
1.0
176
     1
 90
        1
176
     1
 90
        6
176
     1
 90
        2
176
     1
 62
     7
176
     1
 90
        3
176
     1
 90
        0
176
     1
 90
        0
176
     1
290
     0
176
     1
 90
        5
176
     1
 40
0.0
176
     1
 90
        0
176
     1
290
     0
176
     1
290
     1
176
     1
290
     1
176
     1
290
     0
176
     1
290
     0
176
     1
290
     0
176
     1
290
     0
176
     1
290
     0
176
     1
290
     0
176
     1
 90
       50
176
     1
 40
0.0
176
     1
 40
1.0
176
     1
 90
        0
176
     1
 62
    18
420
        0
176
     1
 90
       50
176
     1
 90
        3
176
     1
 62
     5
420
      255
176
     1
290
     0
176
     1
 90
       50
176
     1
 90
       50
176
     1
 90
       50
176
     1
290
     0
176
     1
 90
       50
176
     1
 62
   256
176
     0
 40
1.0
176
     0
 90
        2
176
     1
  1
strokes_ogs.tif
176
     1
290
     0
176
     1
 40
1.0
176
     1
 40
1.0
176
     1
  0
VISUALSTYLE
  5
3E
102
{ACAD_REACTORS
330
2A
102
}
330
2A
100
AcDbVisualStyle
  2
Shades of Gray
 70
    23
177
     3
291
     0
 70
    58
 90
        2
176
     1
 90
        2
176
     1
 90
        3
176
     1
 90
        0
176
     1
 40
0.6
176
     1
 40
30.0
176
     1
 62
     7
420
 16777215
176
     1
 90
        2
176
     1
 90
        2
176
     1
 62
     7
176
     1
 62
     7
176
     1
 90
        1
176
     1
 90
        1
176
     1
 40
40.0
176
     1
 90
        8
176
     1
 62
     7
176
     1
 40
1.0
176
     1
 90
        1
176
     1
 90
        6
176
     1
 90
        2
176
     1
 62
     7
176
     1
 90
        3
176
     1
 90
        0
176
     1
 90
        0
176
     1
290
     0
176
     1
 90
        1
176
     1
 40
0.0
176
     1
 90
        0
176
     1
290
     0
176
     1
290
     1
176
     1
290
     1
176
     1
290
     0
176
     1
290
     0
176
     1
290
     0
176
     1
290
     0
176
     1
290
     0
176
     1
290
     0
176
     1
 90
       50
176
     1
 40
0.0
176
     1
 40
1.0
176
     1
 90
        0
176
     1
 62
    18
420
        0
176
     1
 90
       50
176
     1
 90
        3
176
     1
 62
     5
420
      255
176
     1
290
     0
176
     1
 90
       50
176
     1
 90
       50
176
     1
 90
       50
176
     1
290
     0
176
     1
 90
       50
176
     1
 62
   256
176
     0
 40
1.0
176
     0
 90
        2
176
     1
  1
strokes_ogs.tif
176
     1
290
     0
176
     1
 40
1.0
176
     1
 40
1.0
176
     1
  0
VISUALSTYLE
  5
3F
102
{ACAD_REACTORS
330
2A
102
}
330
2A
100
AcDbVisualStyle
  2
Sketchy
 70
    24
177
     3
291
     0
 70
    58
 90
        1
176
     1
 90
        2
176
     1
 90
        2
176
     1
 90
        0
176
     1
 40
0.6
176
     1
 40
30.0
176
     1
 62
     7
420
 16777215
176
     1
 90
        2
176
     1
 90
        2
176
     1
 62
     7
176
     1
 62
     7
176
     1
 90
        1
176
     1
 90
        1
176
     1
 40
40.0
176
     1
 90
       11
176
     1
 62
     7
176
     1
 40
1.0
176
     1
 90
        1
176
     1
 90
        6
176
     1
 90
        2
176
     1
 62
     7
176
     1
 90
        6
176
     1
 90
        0
176
     1
 90
        0
176
     1
290
     0
176
     1
 90
        1
176
     1
 40
0.0
176
     1
 90
        0
176
     1
290
     0
176
     1
290
     1
176
     1
290
     1
176
     1
290
     0
176
     1
290
     0
176
     1
290
     0
176
     1
290
     0
176
     1
290
     0
176
     1
290
     0
176
     1
 90
       50
176
     1
 40
0.0
176
     1
 40
1.0
176
     1
 90
        0
176
     1
 62
    18
420
        0
176
     1
 90
       50
176
     1
 90
        3
176
     1
 62
     5
420
      255
176
     1
290
     0
176
     1
 90
       50
176
     1
 90
       50
176
     1
 90
       50
176
     1
290
     0
176
     1
 90
       50
176
     1
 62
   256
176
     0
 40
1.0
176
     0
 90
        2
176
     1
  1
strokes_ogs.tif
176
     1
290
     0
176
     1
 40
1.0
176
     1
 40
1.0
176
     1
  0
VISUALSTYLE
  5
37
102
{ACAD_REACTORS
330
2A
102
}
330
2A
100
AcDbVisualStyle
  2
Thicken
 70
    13
177
     3
291
     1
 70
    58
 90
        2
176
     1
 90
        2
176
     1
 90
        0
176
     1
 90
        0
176
     1
 40
0.6
176
     1
 40
30.0
176
     1
 62
     7
420
 16777215
176
     1
 90
        1
176
     1
 90
        4
176
     1
 62
     7
176
     1
 62
   257
176
     1
 90
        1
176
     1
 90
        1
176
     1
 40
1.0
176
     1
 90
       12
176
     1
 62
     7
176
     1
 40
1.0
176
     1
 90
        1
176
     1
 90
        6
176
     1
 90
        2
176
     1
 62
     7
176
     1
 90
        5
176
     1
 90
        0
176
     1
 90
        0
176
     1
290
     0
176
     1
 90
        1
176
     1
 40
0.0
176
     1
 90
        0
176
     1
290
     0
176
     1
290
     1
176
     1
290
     1
176
     1
290
     0
176
     1
290
     0
176
     1
290
     0
176
     1
290
     0
176
     1
290
     0
176
     1
290
     0
176
     1
 90
       50
176
     1
 40
0.0
176
     1
 40
1.0
176
     1
 90
        0
176
     1
 62
    18
420
        0
176
     1
 90
       50
176
     1
 90
        3
176
     1
 62
     5
420
      255
176
     1
290
     0
176
     1
 90
       50
176
     1
 90
       50
176
     1
 90
       50
176
     1
290
     0
176
     1
 90
       50
176
     1
 62
   256
176
     0
 40
1.0
176
     0
 90
        2
176
     1
  1
strokes_ogs.tif
176
     1
290
     0
176
     1
 40
1.0
176
     1
 40
1.0
176
     1
  0
VISUALSTYLE
  5
30
102
{ACAD_REACTORS
330
2A
102
}
330
2A
100
AcDbVisualStyle
  2
Wireframe
 70
     5
177
     3
291
     0
 70
    58
 90
        0
176
     1
 90
        2
176
     1
 90
        0
176
     1
 90
        0
176
     1
 40
0.6
176
     1
 40
30.0
176
     1
 62
     7
420
 16777215
176
     1
 90
        1
176
     1
 90
        4
176
     1
 62
     7
176
     1
 62
   257
176
     1
 90
        1
176
     1
 90
        1
176
     1
 40
1.0
176
     1
 90
        0
176
     1
 62
   257
176
     1
 40
1.0
176
     1
 90
        1
176
     1
 90
        6
176
     1
 90
        2
176
     1
 62
     7
176
     1
 90
        3
176
     1
 90
        0
176
     1
 90
        0
176
     1
290
     0
176
     1
 90
        1
176
     1
 40
0.0
176
     1
 90
        0
176
     1
290
     0
176
     1
290
     1
176
     1
290
     1
176
     1
290
     0
176
     1
290
     0
176
     1
290
     0
176
     1
290
     0
176
     1
290
     0
176
     1
290
     0
176
     1
 90
       50
176
     1
 40
0.0
176
     1
 40
1.0
176
     1
 90
        0
176
     1
 62
    18
420
        0
176
     1
 90
       50
176
     1
 90
        3
176
     1
 62
     5
420
      255
176
     1
290
     0
176
     1
 90
       50
176
     1
 90
       50
176
     1
 90
       50
176
     1
290
     0
176
     1
 90
       50
176
     1
 62
   256
176
     0
 40
1.0
176
     0
 90
        2
176
     1
  1
strokes_ogs.tif
176
     1
290
     0
176
     1
 40
1.0
176
     1
 40
1.0
176
     1
  0
VISUALSTYLE
  5
40
102
{ACAD_REACTORS
330
2A
102
}
330
2A
100
AcDbVisualStyle
  2
X-Ray
 70
    25
177
     3
291
     0
 70
    58
 90
        2
176
     1
 90
        2
176
     1
 90
        1
176
     1
 90
        1
176
     1
 40
0.5
176
     1
 40
30.0
176
     1
 62
     7
420
 16777215
176
     1
 90
        1
176
     1
 90
        0
176
     1
 62
     7
176
     1
 62
   257
176
     1
 90
        1
176
     1
 90
        1
176
     1
 40
1.0
176
     1
 90
        8
176
     1
 62
     7
176
     1
 40
1.0
176
     1
 90
        1
176
     1
 90
        6
176
     1
 90
        2
176
     1
 62
     7
176
     1
 90
        3
176
     1
 90
        0
176
     1
 90
        0
176
     1
290
     0
176
     1
 90
       13
176
     1
 40
0.0
176
     1
 90
        0
176
     1
290
     0
176
     1
290
     1
176
     1
290
     1
176
     1
290
     0
176
     1
290
     0
176
     1
290
     0
176
     1
290
     0
176
     1
290
     0
176
     1
290
     0
176
     1
 90
       50
176
     1
 40
0.0
176
     1
 40
1.0
176
     1
 90
        0
176
     1
 62
    18
420
        0
176
     1
 90
       50
176
     1
 90
        3
176
     1
 62
     5
420
      255
176
     1
290
     0
176
     1
 90
       50
176
     1
 90
       50
176
     1
 90
       50
176
     1
290
     0
176
     1
 90
       50
176
     1
 62
   256
176
     0
 40
1.0
176
     0
 90
        2
176
     1
  1
strokes_ogs.tif
176
     1
290
     0
176
     1
 40
1.0
176
     1
 40
1.0
176
     1
  0
DICTIONARYVAR
  5
177
102
{ACAD_REACTORS
330
176
102
}
330
176
100
DictionaryVariables
280
     0
  1
1:1
  0
DICTIONARYVAR
  5
17C
102
{ACAD_REACTORS
330
176
102
}
330
176
100
DictionaryVariables
280
     0
  1
Standard
  0
DICTIONARYVAR
  5
17B
102
{ACAD_REACTORS
330
176
102
}
330
176
100
DictionaryVariables
280
     0
  1
Standard
  0
DICTIONARY
  5
178
330
6A
100
AcDbDictionary
280
     1
281
     1
  3
ACAD_ROUNDTRIP_2008_TABLESTYLE_CELLSTYLEMAP
360
179
  0
CELLSTYLEMAP
  5
179
102
{ACAD_REACTORS
330
178
102
}
330
178
100
AcDbCellStyleMap
 90
        3
300
CELLSTYLE
  1
TABLEFORMAT_BEGIN
 90
        5
170
     1
 91
        0
 92
    32768
 62
   257
 93
        1
300
CONTENTFORMAT
  1
CONTENTFORMAT_BEGIN
 90
        0
 91
        0
 92
        4
 93
        0
300

 40
0.0
140
1.0
 94
        5
 62
     0
340
11
144
0.25
309
CONTENTFORMAT_END
171
     1
301
MARGIN
  1
CELLMARGIN_BEGIN
 40
0.06
 40
0.06
 40
0.06
 40
0.06
 40
0.06
 40
0.06
309
CELLMARGIN_END
 94
        6
 95
        1
302
GRIDFORMAT
  1
GRIDFORMAT_BEGIN
 90
        0
 91
        1
 62
     0
 92
       -2
340
14
 93
        0
 40
0.045
309
GRIDFORMAT_END
 95
        2
302
GRIDFORMAT
  1
GRIDFORMAT_BEGIN
 90
        0
 91
        1
 62
     0
 92
       -2
340
14
 93
        0
 40
0.045
309
GRIDFORMAT_END
 95
        4
302
GRIDFORMAT
  1
GRIDFORMAT_BEGIN
 90
        0
 91
        1
 62
     0
 92
       -2
340
14
 93
        0
 40
0.045
309
GRIDFORMAT_END
 95
        8
302
GRIDFORMAT
  1
GRIDFORMAT_BEGIN
 90
        0
 91
        1
 62
     0
 92
       -2
340
14
 93
        0
 40
0.045
309
GRIDFORMAT_END
 95
       16
302
GRIDFORMAT
  1
GRIDFORMAT_BEGIN
 90
        0
 91
        1
 62
     0
 92
       -2
340
14
 93
        0
 40
0.045
309
GRIDFORMAT_END
 95
       32
302
GRIDFORMAT
  1
GRIDFORMAT_BEGIN
 90
        0
 91
        1
 62
     0
 92
       -2
340
14
 93
        0
 40
0.045
309
GRIDFORMAT_END
309
TABLEFORMAT_END
  1
CELLSTYLE_BEGIN
 90
        1
 91
        1
300
_TITLE
309
CELLSTYLE_END
300
CELLSTYLE
  1
TABLEFORMAT_BEGIN
 90
        5
170
     1
 91
        0
 92
        0
 62
   257
 93
        1
300
CONTENTFORMAT
  1
CONTENTFORMAT_BEGIN
 90
        0
 91
        0
 92
        4
 93
        0
300

 40
0.0
140
1.0
 94
        5
 62
     0
340
11
144
0.18
309
CONTENTFORMAT_END
171
     1
301
MARGIN
  1
CELLMARGIN_BEGIN
 40
0.06
 40
0.06
 40
0.06
 40
0.06
 40
0.06
 40
0.06
309
CELLMARGIN_END
 94
        6
 95
        1
302
GRIDFORMAT
  1
GRIDFORMAT_BEGIN
 90
        0
 91
        1
 62
     0
 92
       -2
340
14
 93
        0
 40
0.045
309
GRIDFORMAT_END
 95
        2
302
GRIDFORMAT
  1
GRIDFORMAT_BEGIN
 90
        0
 91
        1
 62
     0
 92
       -2
340
14
 93
        0
 40
0.045
309
GRIDFORMAT_END
 95
        4
302
GRIDFORMAT
  1
GRIDFORMAT_BEGIN
 90
        0
 91
        1
 62
     0
 92
       -2
340
14
 93
        0
 40
0.045
309
GRIDFORMAT_END
 95
        8
302
GRIDFORMAT
  1
GRIDFORMAT_BEGIN
 90
        0
 91
        1
 62
     0
 92
       -2
340
14
 93
        0
 40
0.045
309
GRIDFORMAT_END
 95
       16
302
GRIDFORMAT
  1
GRIDFORMAT_BEGIN
 90
        0
 91
        1
 62
     0
 92
       -2
340
14
 93
        0
 40
0.045
309
GRIDFORMAT_END
 95
       32
302
GRIDFORMAT
  1
GRIDFORMAT_BEGIN
 90
        0
 91
        1
 62
     0
 92
       -2
340
14
 93
        0
 40
0.045
309
GRIDFORMAT_END
309
TABLEFORMAT_END
  1
CELLSTYLE_BEGIN
 90
        2
 91
        1
300
_HEADER
309
CELLSTYLE_END
300
CELLSTYLE
  1
TABLEFORMAT_BEGIN
 90
        5
170
     1
 91
        0
 92
        0
 62
   257
 93
        1
300
CONTENTFORMAT
  1
CONTENTFORMAT_BEGIN
 90
        0
 91
        0
 92
        4
 93
        0
300

 40
0.0
140
1.0
 94
        2
 62
     0
340
11
144
0.18
309
CONTENTFORMAT_END
171
     1
301
MARGIN
  1
CELLMARGIN_BEGIN
 40
0.06
 40
0.06
 40
0.06
 40
0.06
 40
0.06
 40
0.06
309
CELLMARGIN_END
 94
        6
 95
        1
302
GRIDFORMAT
  1
GRIDFORMAT_BEGIN
 90
        0
 91
        1
 62
     0
 92
       -2
340
14
 93
        0
 40
0.045
309
GRIDFORMAT_END
 95
        2
302
GRIDFORMAT
  1
GRIDFORMAT_BEGIN
 90
        0
 91
        1
 62
     0
 92
       -2
340
14
 93
        0
 40
0.045
309
GRIDFORMAT_END
 95
        4
302
GRIDFORMAT
  1
GRIDFORMAT_BEGIN
 90
        0
 91
        1
 62
     0
 92
       -2
340
14
 93
        0
 40
0.045
309
GRIDFORMAT_END
 95
        8
302
GRIDFORMAT
  1
GRIDFORMAT_BEGIN
 90
        0
 91
        1
 62
     0
 92
       -2
340
14
 93
        0
 40
0.045
309
GRIDFORMAT_END
 95
       16
302
GRIDFORMAT
  1
GRIDFORMAT_BEGIN
 90
        0
 91
        1
 62
     0
 92
       -2
340
14
 93
        0
 40
0.045
309
GRIDFORMAT_END
 95
       32
302
GRIDFORMAT
  1
GRIDFORMAT_BEGIN
 90
        0
 91
        1
 62
     0
 92
       -2
340
14
 93
        0
 40
0.045
309
GRIDFORMAT_END
309
TABLEFORMAT_END
  1
CELLSTYLE_BEGIN
 90
        3
 91
        2
300
_DATA
309
CELLSTYLE_END
  0
ENDSEC
  0
EOF