0
SECTION
  2
HEADER
  9
$ACADVER
  1
AC1027
  9
$ACADMAINTVER
 70
     8
  9
$DWGCODEPAGE
  3
ANSI_1252
  9
$REQUIREDVERSIONS
160
                 0
  9
$COMMENTS
  1
File was created by Cadenas
  9
$CUSTOMPROPERTYTAG
  1
NN
  9
$CUSTOMPROPERTY
  1
Set Screw Flange Bracket Inch Bore
  9
$CUSTOMPROPERTYTAG
  1
NT
  9
$CUSTOMPROPERTY
  1
SC 3 Bolt Flange Bearings -(Normal Duty)
  9
$CUSTOMPROPERTYTAG
  1
NB
  9
$CUSTOMPROPERTY
  1
124438
  9
$CUSTOMPROPERTYTAG
  1
NBSYN
  9
$CUSTOMPROPERTY
  1
$PN.
  9
$CUSTOMPROPERTYTAG
  1
LINA
  9
$CUSTOMPROPERTY
  1
124438
  9
$CUSTOMPROPERTYTAG
  1
SERIES
  9
$CUSTOMPROPERTY
  1
205
  9
$CUSTOMPROPERTYTAG
  1
SS
  9
$CUSTOMPROPERTY
  1
7/8
  9
$CUSTOMPROPERTYTAG
  1
PN
  9
$CUSTOMPROPERTY
  1
124438
  9
$CUSTOMPROPERTYTAG
  1
DESCRIPTION
  9
$CUSTOMPROPERTY
  1
FB-SC-014
  9
$CUSTOMPROPERTYTAG
  1
WEIGHT
  9
$CUSTOMPROPERTY
  1
1.81
  9
$CUSTOMPROPERTYTAG
  1
A
  9
$CUSTOMPROPERTY
  1
1.34
  9
$CUSTOMPROPERTYTAG
  1
B
  9
$CUSTOMPROPERTY
  1
4.75
  9
$CUSTOMPROPERTYTAG
  1
C
  9
$CUSTOMPROPERTY
  1
1.51
  9
$CUSTOMPROPERTYTAG
  1
D
  9
$CUSTOMPROPERTY
  1
1.63
  9
$CUSTOMPROPERTYTAG
  1
E
  9
$CUSTOMPROPERTY
  1
1.81
  9
$CUSTOMPROPERTYTAG
  1
F
  9
$CUSTOMPROPERTY
  1
3/8
  9
$CUSTOMPROPERTYTAG
  1
G
  9
$CUSTOMPROPERTY
  1
1.13
  9
$CUSTOMPROPERTYTAG
  1
H
  9
$CUSTOMPROPERTY
  1
0.38
  9
$CUSTOMPROPERTYTAG
  1
I
  9
$CUSTOMPROPERTY
  1
3.38
  9
$CUSTOMPROPERTYTAG
  1
J
  9
$CUSTOMPROPERTY
  1
2.75
  9
$CUSTOMPROPERTYTAG
  1
K
  9
$CUSTOMPROPERTY
  1
1.11
  9
$CUSTOMPROPERTYTAG
  1
L
  9
$CUSTOMPROPERTY
  1
1.32
  9
$CUSTOMPROPERTYTAG
  1
M
  9
$CUSTOMPROPERTY
  1
2.5
  9
$CUSTOMPROPERTYTAG
  1
COMPANY
  9
$CUSTOMPROPERTY
  1
baldor
  9
$INSBASE
 10
0.0
 20
0.0
 30
0.0
  9
$EXTMIN
 10
1.000000000000000E+20
 20
1.000000000000000E+20
 30
1.000000000000000E+20
  9
$EXTMAX
 10
-1.000000000000000E+20
 20
-1.000000000000000E+20
 30
-1.000000000000000E+20
  9
$LIMMIN
 10
0.0
 20
0.0
  9
$LIMMAX
 10
12.0
 20
9.0
  9
$ORTHOMODE
 70
     0
  9
$REGENMODE
 70
     1
  9
$FILLMODE
 70
     1
  9
$QTEXTMODE
 70
     0
  9
$MIRRTEXT
 70
     1
  9
$LTSCALE
 40
1.0
  9
$ATTMODE
 70
     1
  9
$TEXTSIZE
 40
0.2
  9
$TRACEWID
 40
0.05
  9
$TEXTSTYLE
  7
Standard
  9
$CLAYER
  8
0
  9
$CELTYPE
  6
ByLayer
  9
$CECOLOR
 62
   256
  9
$CELTSCALE
 40
1.0
  9
$DISPSILH
 70
     0
  9
$DIMSCALE
 40
1.0
  9
$DIMASZ
 40
0.18
  9
$DIMEXO
 40
0.0625
  9
$DIMDLI
 40
0.38
  9
$DIMRND
 40
0.0
  9
$DIMDLE
 40
0.0
  9
$DIMEXE
 40
0.18
  9
$DIMTP
 40
0.0
  9
$DIMTM
 40
0.0
  9
$DIMTXT
 40
0.18
  9
$DIMCEN
 40
0.09
  9
$DIMTSZ
 40
0.0
  9
$DIMTOL
 70
     0
  9
$DIMLIM
 70
     0
  9
$DIMTIH
 70
     1
  9
$DIMTOH
 70
     1
  9
$DIMSE1
 70
     0
  9
$DIMSE2
 70
     0
  9
$DIMTAD
 70
     0
  9
$DIMZIN
 70
     0
  9
$DIMBLK
  1

  9
$DIMASO
 70
     1
  9
$DIMSHO
 70
     1
  9
$DIMPOST
  1

  9
$DIMAPOST
  1

  9
$DIMALT
 70
     0
  9
$DIMALTD
 70
     2
  9
$DIMALTF
 40
25.4
  9
$DIMLFAC
 40
1.0
  9
$DIMTOFL
 70
     0
  9
$DIMTVP
 40
0.0
  9
$DIMTIX
 70
     0
  9
$DIMSOXD
 70
     0
  9
$DIMSAH
 70
     0
  9
$DIMBLK1
  1

  9
$DIMBLK2
  1

  9
$DIMSTYLE
  2
Standard
  9
$DIMCLRD
 70
     0
  9
$DIMCLRE
 70
     0
  9
$DIMCLRT
 70
     0
  9
$DIMTFAC
 40
1.0
  9
$DIMGAP
 40
0.09
  9
$DIMJUST
 70
     0
  9
$DIMSD1
 70
     0
  9
$DIMSD2
 70
     0
  9
$DIMTOLJ
 70
     1
  9
$DIMTZIN
 70
     0
  9
$DIMALTZ
 70
     0
  9
$DIMALTTZ
 70
     0
  9
$DIMUPT
 70
     0
  9
$DIMDEC
 70
     4
  9
$DIMTDEC
 70
     4
  9
$DIMALTU
 70
     2
  9
$DIMALTTD
 70
     2
  9
$DIMTXSTY
  7
Standard
  9
$DIMAUNIT
 70
     0
  9
$DIMADEC
 70
     0
  9
$DIMALTRND
 40
0.0
  9
$DIMAZIN
 70
     0
  9
$DIMDSEP
 70
    46
  9
$DIMATFIT
 70
     3
  9
$DIMFRAC
 70
     0
  9
$DIMLDRBLK
  1

  9
$DIMLUNIT
 70
     2
  9
$DIMLWD
 70
    -2
  9
$DIMLWE
 70
    -2
  9
$DIMTMOVE
 70
     0
  9
$DIMFXL
 40
1.0
  9
$DIMFXLON
 70
     0
  9
$DIMJOGANG
 40
0.7853981633974483
  9
$DIMTFILL
 70
     0
  9
$DIMTFILLCLR
 70
     0
  9
$DIMARCSYM
 70
     0
  9
$DIMLTYPE
  6

  9
$DIMLTEX1
  6

  9
$DIMLTEX2
  6

  9
$DIMTXTDIRECTION
 70
     0
  9
$LUNITS
 70
     2
  9
$LUPREC
 70
     4
  9
$SKETCHINC
 40
0.1
  9
$FILLETRAD
 40
0.5
  9
$AUNITS
 70
     0
  9
$AUPREC
 70
     0
  9
$MENU
  1
.
  9
$ELEVATION
 40
0.0
  9
$PELEVATION
 40
0.0
  9
$THICKNESS
 40
0.0
  9
$LIMCHECK
 70
     0
  9
$CHAMFERA
 40
0.0
  9
$CHAMFERB
 40
0.0
  9
$CHAMFERC
 40
0.0
  9
$CHAMFERD
 40
0.0
  9
$SKPOLY
 70
     0
  9
$TDCREATE
 40
2458169.004481597
  9
$TDUCREATE
 40
2458168.96281493
  9
$TDUPDATE
 40
2458169.004481597
  9
$TDUUPDATE
 40
2458168.96281493
  9
$TDINDWG
 40
0.0000000116
  9
$TDUSRTIMER
 40
0.0000000116
  9
$USRTIMER
 70
     1
  9
$ANGBASE
 50
0.0
  9
$ANGDIR
 70
     0
  9
$PDMODE
 70
     0
  9
$PDSIZE
 40
0.0
  9
$PLINEWID
 40
0.0
  9
$SPLFRAME
 70
     0
  9
$SPLINETYPE
 70
     6
  9
$SPLINESEGS
 70
     8
  9
$HANDSEED
  5
192
  9
$SURFTAB1
 70
     6
  9
$SURFTAB2
 70
     6
  9
$SURFTYPE
 70
     6
  9
$SURFU
 70
     6
  9
$SURFV
 70
     6
  9
$UCSBASE
  2

  9
$UCSNAME
  2

  9
$UCSORG
 10
0.0
 20
0.0
 30
0.0
  9
$UCSXDIR
 10
1.0
 20
0.0
 30
0.0
  9
$UCSYDIR
 10
0.0
 20
1.0
 30
0.0
  9
$UCSORTHOREF
  2

  9
$UCSORTHOVIEW
 70
     0
  9
$UCSORGTOP
 10
0.0
 20
0.0
 30
0.0
  9
$UCSORGBOTTOM
 10
0.0
 20
0.0
 30
0.0
  9
$UCSORGLEFT
 10
0.0
 20
0.0
 30
0.0
  9
$UCSORGRIGHT
 10
0.0
 20
0.0
 30
0.0
  9
$UCSORGFRONT
 10
0.0
 20
0.0
 30
0.0
  9
$UCSORGBACK
 10
0.0
 20
0.0
 30
0.0
  9
$PUCSBASE
  2

  9
$PUCSNAME
  2

  9
$PUCSORG
 10
0.0
 20
0.0
 30
0.0
  9
$PUCSXDIR
 10
1.0
 20
0.0
 30
0.0
  9
$PUCSYDIR
 10
0.0
 20
1.0
 30
0.0
  9
$PUCSORTHOREF
  2

  9
$PUCSORTHOVIEW
 70
     0
  9
$PUCSORGTOP
 10
0.0
 20
0.0
 30
0.0
  9
$PUCSORGBOTTOM
 10
0.0
 20
0.0
 30
0.0
  9
$PUCSORGLEFT
 10
0.0
 20
0.0
 30
0.0
  9
$PUCSORGRIGHT
 10
0.0
 20
0.0
 30
0.0
  9
$PUCSORGFRONT
 10
0.0
 20
0.0
 30
0.0
  9
$PUCSORGBACK
 10
0.0
 20
0.0
 30
0.0
  9
$USERI1
 70
     0
  9
$USERI2
 70
     0
  9
$USERI3
 70
     0
  9
$USERI4
 70
     0
  9
$USERI5
 70
     0
  9
$USERR1
 40
0.0
  9
$USERR2
 40
0.0
  9
$USERR3
 40
0.0
  9
$USERR4
 40
0.0
  9
$USERR5
 40
0.0
  9
$WORLDVIEW
 70
     1
  9
$SHADEDGE
 70
     3
  9
$SHADEDIF
 70
    70
  9
$TILEMODE
 70
     1
  9
$MAXACTVP
 70
    64
  9
$PINSBASE
 10
0.0
 20
0.0
 30
0.0
  9
$PLIMCHECK
 70
     0
  9
$PEXTMIN
 10
1.000000000000000E+20
 20
1.000000000000000E+20
 30
1.000000000000000E+20
  9
$PEXTMAX
 10
-1.000000000000000E+20
 20
-1.000000000000000E+20
 30
-1.000000000000000E+20
  9
$PLIMMIN
 10
0.0
 20
0.0
  9
$PLIMMAX
 10
12.0
 20
9.0
  9
$UNITMODE
 70
     0
  9
$VISRETAIN
 70
     1
  9
$PLINEGEN
 70
     0
  9
$PSLTSCALE
 70
     1
  9
$TREEDEPTH
 70
  3020
  9
$CMLSTYLE
  2
Standard
  9
$CMLJUST
 70
     0
  9
$CMLSCALE
 40
1.0
  9
$PROXYGRAPHICS
 70
     1
  9
$MEASUREMENT
 70
     0
  9
$CELWEIGHT
370
    -1
  9
$ENDCAPS
280
     0
  9
$JOINSTYLE
280
     0
  9
$LWDISPLAY
290
     0
  9
$INSUNITS
 70
     1
  9
$HYPERLINKBASE
  1

  9
$STYLESHEET
  1

  9
$XEDIT
290
     1
  9
$CEPSNTYPE
380
     0
  9
$PSTYLEMODE
290
     1
  9
$FINGERPRINTGUID
  2
{1CD9AD49-BFFA-452F-BCF8-CA85E0BA8743}
  9
$VERSIONGUID
  2
{FAEB1C32-E019-11D5-929B-00C0DF256EC4}
  9
$EXTNAMES
290
     1
  9
$PSVPSCALE
 40
0.0
  9
$OLESTARTUP
290
     0
  9
$SORTENTS
280
   127
  9
$INDEXCTL
280
     0
  9
$HIDETEXT
280
     1
  9
$XCLIPFRAME
280
     2
  9
$HALOGAP
280
     0
  9
$OBSCOLOR
 70
   257
  9
$OBSLTYPE
280
     0
  9
$INTERSECTIONDISPLAY
280
     0
  9
$INTERSECTIONCOLOR
 70
   257
  9
$DIMASSOC
280
     2
  9
$PROJECTNAME
  1

  9
$CAMERADISPLAY
290
     0
  9
$LENSLENGTH
 40
50.0
  9
$CAMERAHEIGHT
 40
0.0
  9
$STEPSPERSEC
 40
2.0
  9
$STEPSIZE
 40
6.0
  9
$3DDWFPREC
 40
2.0
  9
$PSOLWIDTH
 40
0.25
  9
$PSOLHEIGHT
 40
4.0
  9
$LOFTANG1
 40
1.570796326794897
  9
$LOFTANG2
 40
1.570796326794897
  9
$LOFTMAG1
 40
0.0
  9
$LOFTMAG2
 40
0.0
  9
$LOFTPARAM
 70
     7
  9
$LOFTNORMALS
280
     1
  9
$LATITUDE
 40
37.795
  9
$LONGITUDE
 40
-122.394
  9
$NORTHDIRECTION
 40
0.0
  9
$TIMEZONE
 70
 -8000
  9
$LIGHTGLYPHDISPLAY
280
     1
  9
$TILEMODELIGHTSYNCH
280
     1
  9
$CMATERIAL
347
44
  9
$SOLIDHIST
280
     0
  9
$SHOWHIST
280
     1
  9
$DWFFRAME
280
     2
  9
$DGNFRAME
280
     2
  9
$REALWORLDSCALE
290
     1
  9
$INTERFERECOLOR
 62
   256
  9
$CSHADOW
280
     0
  9
$SHADOWPLANELOCATION
 40
0.0
  0
ENDSEC
  0
SECTION
  2
CLASSES
  0
CLASS
  1
ACDBDICTIONARYWDFLT
  2
AcDbDictionaryWithDefault
  3
ObjectDBX Classes
 90
        0
 91
        4
280
     0
281
     0
  0
CLASS
  1
VISUALSTYLE
  2
AcDbVisualStyle
  3
ObjectDBX Classes
 90
     4095
 91
        4
280
     0
281
     0
  0
CLASS
  1
MATERIAL
  2
AcDbMaterial
  3
ObjectDBX Classes
 90
     1153
 91
        4
280
     0
281
     0
  0
CLASS
  1
SCALE
  2
AcDbScale
  3
ObjectDBX Classes
 90
     1153
 91
        4
280
     0
281
     0
  0
CLASS
  1
TABLESTYLE
  2
AcDbTableStyle
  3
ObjectDBX Classes
 90
     4095
 91
        4
280
     0
281
     0
  0
CLASS
  1
MLEADERSTYLE
  2
AcDbMLeaderStyle
  3
ACDB_MLEADERSTYLE_CLASS
 90
     4095
 91
        4
280
     0
281
     0
  0
CLASS
  1
SUN
  2
AcDbSun
  3
SCENEOE
 90
     1153
 91
        4
280
     0
281
     0
  0
CLASS
  1
DICTIONARYVAR
  2
AcDbDictionaryVar
  3
ObjectDBX Classes
 90
        0
 91
        4
280
     0
281
     0
  0
CLASS
  1
CELLSTYLEMAP
  2
AcDbCellStyleMap
  3
ObjectDBX Classes
 90
     1152
 91
        4
280
     0
281
     0
  0
ENDSEC
  0
SECTION
  2
TABLES
  0
TABLE
  2
VPORT
  5
8
330
0
100
AcDbSymbolTable
 70
     1
  0
VPORT
  5
29
330
8
100
AcDbSymbolTableRecord
100
AcDbViewportTableRecord
  2
*Active
 70
     0
 10
0.0
 20
0.0
 11
1.0
 21
1.0
 12
-0.7607499999999998
 22
-0.9686881853580509
 13
0.0
 23
0.0
 14
0.5
 24
0.5
 15
0.5
 25
0.5
 16
0.0
 26
0.0
 36
1.0
 17
0.0
 27
0.0
 37
0.0
 40
4.919076101869578
 41
0.3385086885252969
 42
50.0
 43
0.0
 44
0.0
 50
0.0
 51
0.0
 71
     0
 72
   100
 73
     1
 74
     3
 75
     0
 76
     0
 77
     0
 78
     0
281
     0
 65
     1
110
0.0
120
0.0
130
0.0
111
1.0
121
0.0
131
0.0
112
0.0
122
1.0
132
0.0
 79
     0
146
0.0
348
2F
 60
     3
 61
     5
292
     1
282
     1
141
0.0
142
0.0
 63
   250
361
6D
  0
ENDTAB
  0
TABLE
  2
LTYPE
  5
5
330
0
100
AcDbSymbolTable
 70
     3
  0
LTYPE
  5
14
330
5
100
AcDbSymbolTableRecord
100
AcDbLinetypeTableRecord
  2
ByBlock
 70
     0
  3

 72
    65
 73
     0
 40
0.0
  0
LTYPE
  5
15
330
5
100
AcDbSymbolTableRecord
100
AcDbLinetypeTableRecord
  2
ByLayer
 70
     0
  3

 72
    65
 73
     0
 40
0.0
  0
LTYPE
  5
16
330
5
100
AcDbSymbolTableRecord
100
AcDbLinetypeTableRecord
  2
Continuous
 70
     0
  3
Solid line
 72
    65
 73
     0
 40
0.0
  0
LTYPE
  5
A1
330
5
100
AcDbSymbolTableRecord
100
AcDbLinetypeTableRecord
  2
Dashed
 70
     0
  3

 72
    65
 73
     2
 40
2.0
 49
1.0
 74
     0
 49
-1.0
 74
     0
  0
LTYPE
  5
D6
330
5
100
AcDbSymbolTableRecord
100
AcDbLinetypeTableRecord
  2
Center
 70
     0
  3

 72
    65
 73
     4
 40
1.5
 49
0.45
 74
     0
 49
-0.5
 74
     0
 49
0.05
 74
     0
 49
-0.5
 74
     0
  0
ENDTAB
  0
TABLE
  2
LAYER
  5
2
330
0
100
AcDbSymbolTable
 70
     7
  0
LAYER
  5
10
330
2
100
AcDbSymbolTableRecord
100
AcDbLayerTableRecord
  2
0
 70
     0
 62
     7
  6
Continuous
370
    -3
390
F
347
46
348
0
  0
LAYER
  5
72
330
2
100
AcDbSymbolTableRecord
100
AcDbLayerTableRecord
  2
AM_6
 70
     0
 62
    -2
  6
Continuous
370
    35
390
F
347
46
348
0
  0
LAYER
  5
A2
330
2
100
AcDbSymbolTableRecord
100
AcDbLayerTableRecord
  2
AM_9
 70
     0
 62
     6
  6
Dashed
370
    25
390
F
347
46
348
0
  0
LAYER
  5
D3
330
2
100
AcDbSymbolTableRecord
100
AcDbLayerTableRecord
  2
AM_5
 70
     0
 62
     3
  6
Continuous
370
    25
390
F
347
46
348
0
  0
LAYER
  5
D7
330
2
100
AcDbSymbolTableRecord
100
AcDbLayerTableRecord
  2
AM_7
 70
     0
 62
     7
  6
Center
370
    25
390
F
347
46
348
0
  0
LAYER
  5
DA
330
2
100
AcDbSymbolTableRecord
100
AcDbLayerTableRecord
  2
AM_4
 70
     0
 62
     7
  6
Continuous
370
    50
390
F
347
46
348
0
  0
LAYER
  5
185
330
2
100
AcDbSymbolTableRecord
100
AcDbLayerTableRecord
  2
ConnectionPoints
 70
     0
 62
     7
  6
Continuous
370
    50
390
F
347
46
348
0
  0
ENDTAB
  0
TABLE
  2
STYLE
  5
3
330
0
100
AcDbSymbolTable
 70
     1
  0
STYLE
  5
11
330
3
100
AcDbSymbolTableRecord
100
AcDbTextStyleTableRecord
  2
Standard
 70
     0
 40
0.0
 41
1.0
 50
0.0
 71
     0
 42
0.2
  3
txt
  4

  0
ENDTAB
  0
TABLE
  2
VIEW
  5
6
330
0
100
AcDbSymbolTable
 70
     0
  0
ENDTAB
  0
TABLE
  2
UCS
  5
7
330
0
100
AcDbSymbolTable
 70
     0
  0
ENDTAB
  0
TABLE
  2
APPID
  5
9
330
0
100
AcDbSymbolTable
 70
     1
  0
APPID
  5
12
330
9
100
AcDbSymbolTableRecord
100
AcDbRegAppTableRecord
  2
ACAD
 70
     0
  0
ENDTAB
  0
TABLE
  2
DIMSTYLE
  5
A
330
0
100
AcDbSymbolTable
 70
     1
100
AcDbDimStyleTable
  0
DIMSTYLE
105
27
330
A
100
AcDbSymbolTableRecord
100
AcDbDimStyleTableRecord
  2
Standard
 70
     0
178
     0
340
11
  0
ENDTAB
  0
TABLE
  2
BLOCK_RECORD
  5
1
330
0
100
AcDbSymbolTable
 70
     5
  0
BLOCK_RECORD
  5
1F
330
1
100
AcDbSymbolTableRecord
100
AcDbBlockTableRecord
  2
*Model_Space
340
22
 70
     0
280
     1
281
     0
  0
BLOCK_RECORD
  5
1B
330
1
100
AcDbSymbolTableRecord
100
AcDbBlockTableRecord
  2
*Paper_Space
340
1E
 70
     0
280
     1
281
     0
  0
BLOCK_RECORD
  5
23
330
1
100
AcDbSymbolTableRecord
100
AcDbBlockTableRecord
  2
*Paper_Space0
340
26
 70
     0
280
     1
281
     0
  0
BLOCK_RECORD
  5
6E
330
1
100
AcDbSymbolTableRecord
100
AcDbBlockTableRecord
  2
1_124438_2
340
0
102
{BLKREFS
331
6F
102
}
 70
     0
280
     1
281
     0
  0
BLOCK_RECORD
  5
8B
330
1
100
AcDbSymbolTableRecord
100
AcDbBlockTableRecord
  2
2_123333_0_in_124438_2
340
0
102
{BLKREFS
331
8C
102
}
 70
     0
280
     1
281
     0
  0
BLOCK_RECORD
  5
E7
330
1
100
AcDbSymbolTableRecord
100
AcDbBlockTableRecord
  2
3_405015E_Inch_0_in_124438_2
340
0
102
{BLKREFS
331
E8
102
}
 70
     0
280
     1
281
     0
  0
BLOCK_RECORD
  5
13E
330
1
100
AcDbSymbolTableRecord
100
AcDbBlockTableRecord
  2
4_124438H_0_in_124438_2
340
0
102
{BLKREFS
331
13F
102
}
 70
     0
280
     1
281
     0
  0
ENDTAB
  0
ENDSEC
  0
SECTION
  2
BLOCKS
  0
BLOCK
  5
20
330
1F
100
AcDbEntity
  8
0
100
AcDbBlockBegin
  2
*Model_Space
 70
     0
 10
0.0
 20
0.0
 30
0.0
  3
*Model_Space
  1

  0
ENDBLK
  5
21
330
1F
100
AcDbEntity
  8
0
100
AcDbBlockEnd
  0
BLOCK
  5
1C
330
1B
100
AcDbEntity
 67
     1
  8
0
100
AcDbBlockBegin
  2
*Paper_Space
 70
     0
 10
0.0
 20
0.0
 30
0.0
  3
*Paper_Space
  1

  0
ENDBLK
  5
1D
330
1B
100
AcDbEntity
 67
     1
  8
0
100
AcDbBlockEnd
  0
BLOCK
  5
24
330
23
100
AcDbEntity
  8
0
100
AcDbBlockBegin
  2
*Paper_Space0
 70
     0
 10
0.0
 20
0.0
 30
0.0
  3
*Paper_Space0
  1

  0
ENDBLK
  5
25
330
23
100
AcDbEntity
  8
0
100
AcDbBlockEnd
  0
BLOCK
  5
70
330
6E
100
AcDbEntity
  8
0
100
AcDbBlockBegin
  2
1_124438_2
 70
     2
 10
0.0
 20
0.0
 30
0.0
  3
1_124438_2
  1

  0
ATTDEF
  5
73
330
6E
100
AcDbEntity
  8
AM_6
100
AcDbText
 10
5.0555
 20
1.4426236292839
 30
0.0
 40
0.5
  1
Set Screw Flange Bracket Inch Bore
100
AcDbAttributeDefinition
  3

  2
NN
 70
     8
280
     0
  0
ATTDEF
  5
74
330
6E
100
AcDbEntity
  8
AM_6
100
AcDbText
 10
5.0555
 20
0.9426236292838999
 30
0.0
 40
0.5
  1
SC 3 Bolt Flange Bearings -(Normal Duty)
100
AcDbAttributeDefinition
  3

  2
NT
 70
     8
280
     0
  0
ATTDEF
  5
75
330
6E
100
AcDbEntity
  8
AM_6
100
AcDbText
 10
5.0555
 20
0.4426236292838999
 30
0.0
 40
0.5
  1
124438
100
AcDbAttributeDefinition
  3

  2
NB
 70
     8
280
     0
  0
ATTDEF
  5
76
330
6E
100
AcDbEntity
  8
AM_6
100
AcDbText
 10
5.0555
 20
-0.0573763707161001
 30
0.0
 40
0.5
  1
$PN.
100
AcDbAttributeDefinition
  3

  2
NBSYN
 70
     8
280
     0
  0
ATTDEF
  5
77
330
6E
100
AcDbEntity
  8
AM_6
100
AcDbText
 10
5.0555
 20
-0.5573763707161001
 30
0.0
 40
0.5
  1
124438
100
AcDbAttributeDefinition
  3

  2
LINA
 70
     8
280
     0
  0
ATTDEF
  5
78
330
6E
100
AcDbEntity
  8
AM_6
100
AcDbText
 10
5.0555
 20
-1.0573763707161
 30
0.0
 40
0.5
  1
205
100
AcDbAttributeDefinition
  3

  2
SERIES
 70
     8
280
     0
  0
ATTDEF
  5
79
330
6E
100
AcDbEntity
  8
AM_6
100
AcDbText
 10
5.0555
 20
-1.5573763707161
 30
0.0
 40
0.5
  1
7/8
100
AcDbAttributeDefinition
  3

  2
SS
 70
     8
280
     0
  0
ATTDEF
  5
7A
330
6E
100
AcDbEntity
  8
AM_6
100
AcDbText
 10
5.0555
 20
-2.0573763707161
 30
0.0
 40
0.5
  1
124438
100
AcDbAttributeDefinition
  3

  2
PN
 70
     8
280
     0
  0
ATTDEF
  5
7B
330
6E
100
AcDbEntity
  8
AM_6
100
AcDbText
 10
5.0555
 20
-2.5573763707161
 30
0.0
 40
0.5
  1
FB-SC-014
100
AcDbAttributeDefinition
  3

  2
DESCRIPTION
 70
     8
280
     0
  0
ATTDEF
  5
7C
330
6E
100
AcDbEntity
  8
AM_6
100
AcDbText
 10
5.0555
 20
-3.0573763707161
 30
0.0
 40
0.5
  1
1.81
100
AcDbAttributeDefinition
  3

  2
WEIGHT
 70
     8
280
     0
  0
ATTDEF
  5
7D
330
6E
100
AcDbEntity
  8
AM_6
100
AcDbText
 10
5.0555
 20
-3.5573763707161
 30
0.0
 40
0.5
  1
1.34
100
AcDbAttributeDefinition
  3

  2
A
 70
     8
280
     0
  0
ATTDEF
  5
7E
330
6E
100
AcDbEntity
  8
AM_6
100
AcDbText
 10
5.0555
 20
-4.0573763707161
 30
0.0
 40
0.5
  1
4.75
100
AcDbAttributeDefinition
  3

  2
B
 70
     8
280
     0
  0
ATTDEF
  5
7F
330
6E
100
AcDbEntity
  8
AM_6
100
AcDbText
 10
5.0555
 20
-4.5573763707161
 30
0.0
 40
0.5
  1
1.51
100
AcDbAttributeDefinition
  3

  2
C
 70
     8
280
     0
  0
ATTDEF
  5
80
330
6E
100
AcDbEntity
  8
AM_6
100
AcDbText
 10
5.0555
 20
-5.0573763707161
 30
0.0
 40
0.5
  1
1.63
100
AcDbAttributeDefinition
  3

  2
D
 70
     8
280
     0
  0
ATTDEF
  5
81
330
6E
100
AcDbEntity
  8
AM_6
100
AcDbText
 10
5.0555
 20
-5.5573763707161
 30
0.0
 40
0.5
  1
1.81
100
AcDbAttributeDefinition
  3

  2
E
 70
     8
280
     0
  0
ATTDEF
  5
82
330
6E
100
AcDbEntity
  8
AM_6
100
AcDbText
 10
5.0555
 20
-6.0573763707161
 30
0.0
 40
0.5
  1
3/8
100
AcDbAttributeDefinition
  3

  2
F
 70
     8
280
     0
  0
ATTDEF
  5
83
330
6E
100
AcDbEntity
  8
AM_6
100
AcDbText
 10
5.0555
 20
-6.5573763707161
 30
0.0
 40
0.5
  1
1.13
100
AcDbAttributeDefinition
  3

  2
G
 70
     8
280
     0
  0
ATTDEF
  5
84
330
6E
100
AcDbEntity
  8
AM_6
100
AcDbText
 10
5.0555
 20
-7.0573763707161
 30
0.0
 40
0.5
  1
0.38
100
AcDbAttributeDefinition
  3

  2
H
 70
     8
280
     0
  0
ATTDEF
  5
85
330
6E
100
AcDbEntity
  8
AM_6
100
AcDbText
 10
5.0555
 20
-7.5573763707161
 30
0.0
 40
0.5
  1
3.38
100
AcDbAttributeDefinition
  3

  2
I
 70
     8
280
     0
  0
ATTDEF
  5
86
330
6E
100
AcDbEntity
  8
AM_6
100
AcDbText
 10
5.0555
 20
-8.0573763707161
 30
0.0
 40
0.5
  1
2.75
100
AcDbAttributeDefinition
  3

  2
J
 70
     8
280
     0
  0
ATTDEF
  5
87
330
6E
100
AcDbEntity
  8
AM_6
100
AcDbText
 10
5.0555
 20
-8.5573763707161
 30
0.0
 40
0.5
  1
1.11
100
AcDbAttributeDefinition
  3

  2
K
 70
     8
280
     0
  0
ATTDEF
  5
88
330
6E
100
AcDbEntity
  8
AM_6
100
AcDbText
 10
5.0555
 20
-9.0573763707161
 30
0.0
 40
0.5
  1
1.32
100
AcDbAttributeDefinition
  3

  2
L
 70
     8
280
     0
  0
ATTDEF
  5
89
330
6E
100
AcDbEntity
  8
AM_6
100
AcDbText
 10
5.0555
 20
-9.5573763707161
 30
0.0
 40
0.5
  1
2.5
100
AcDbAttributeDefinition
  3

  2
M
 70
     8
280
     0
  0
ATTDEF
  5
8A
330
6E
100
AcDbEntity
  8
AM_6
100
AcDbText
 10
5.0555
 20
-10.0573763707161
 30
0.0
 40
0.5
  1
baldor
100
AcDbAttributeDefinition
  3

  2
COMPANY
 70
     8
280
     0
  0
INSERT
  5
8C
330
6E
100
AcDbEntity
  8
0
100
AcDbBlockReference
  2
2_123333_0_in_124438_2
 10
0.0
 20
0.0
 30
0.0
  0
INSERT
  5
E8
330
6E
100
AcDbEntity
  8
0
100
AcDbBlockReference
  2
3_405015E_Inch_0_in_124438_2
 10
0.0
 20
0.0
 30
0.0
  0
INSERT
  5
13F
330
6E
100
AcDbEntity
  8
0
100
AcDbBlockReference
  2
4_124438H_0_in_124438_2
 10
0.0
 20
0.0
 30
0.0
  0
ENDBLK
  5
71
330
6E
100
AcDbEntity
  8
0
100
AcDbBlockEnd
  0
BLOCK
  5
8D
330
8B
100
AcDbEntity
  8
0
100
AcDbBlockBegin
  2
2_123333_0_in_124438_2
 70
     2
 10
0.0
 20
0.0
 30
0.0
  3
2_123333_0_in_124438_2
  1

  0
ATTDEF
  5
8F
330
8B
100
AcDbEntity
  8
AM_6
100
AcDbText
 10
4.83
 20
1.023071041524576
 30
0.0
 40
0.5
  1
Set Screw Insert Inch Bore
100
AcDbAttributeDefinition
  3

  2
NN
 70
     8
280
     0
  0
ATTDEF
  5
90
330
8B
100
AcDbEntity
  8
AM_6
100
AcDbText
 10
4.83
 20
0.5230710415245758
 30
0.0
 40
0.5
  1
SC Normal Duty Bearing Inserts
100
AcDbAttributeDefinition
  3

  2
NT
 70
     8
280
     0
  0
ATTDEF
  5
91
330
8B
100
AcDbEntity
  8
AM_6
100
AcDbText
 10
4.83
 20
0.0230710415245758
 30
0.0
 40
0.5
  1
123333
100
AcDbAttributeDefinition
  3

  2
NB
 70
     8
280
     0
  0
ATTDEF
  5
92
330
8B
100
AcDbEntity
  8
AM_6
100
AcDbText
 10
4.83
 20
-0.4769289584754242
 30
0.0
 40
0.5
  1
$PN.
100
AcDbAttributeDefinition
  3

  2
NBSYN
 70
     8
280
     0
  0
ATTDEF
  5
93
330
8B
100
AcDbEntity
  8
AM_6
100
AcDbText
 10
4.83
 20
-0.9769289584754242
 30
0.0
 40
0.5
  1
123333
100
AcDbAttributeDefinition
  3

  2
LINA
 70
     8
280
     0
  0
ATTDEF
  5
94
330
8B
100
AcDbEntity
  8
AM_6
100
AcDbText
 10
4.83
 20
-1.476928958475424
 30
0.0
 40
0.5
  1
205
100
AcDbAttributeDefinition
  3

  2
SERIES
 70
     8
280
     0
  0
ATTDEF
  5
95
330
8B
100
AcDbEntity
  8
AM_6
100
AcDbText
 10
4.83
 20
-1.976928958475424
 30
0.0
 40
0.5
  1
7/8
100
AcDbAttributeDefinition
  3

  2
SS
 70
     8
280
     0
  0
ATTDEF
  5
96
330
8B
100
AcDbEntity
  8
AM_6
100
AcDbText
 10
4.83
 20
-2.476928958475424
 30
0.0
 40
0.5
  1
123333
100
AcDbAttributeDefinition
  3

  2
PN
 70
     8
280
     0
  0
ATTDEF
  5
97
330
8B
100
AcDbEntity
  8
AM_6
100
AcDbText
 10
4.83
 20
-2.976928958475424
 30
0.0
 40
0.5
  1
INS-SC-014
100
AcDbAttributeDefinition
  3

  2
DESCRIPTION
 70
     8
280
     0
  0
ATTDEF
  5
98
330
8B
100
AcDbEntity
  8
AM_6
100
AcDbText
 10
4.83
 20
-3.476928958475424
 30
0.0
 40
0.5
  1
1.34
100
AcDbAttributeDefinition
  3

  2
A
 70
     8
280
     0
  0
ATTDEF
  5
99
330
8B
100
AcDbEntity
  8
AM_6
100
AcDbText
 10
4.83
 20
-3.976928958475424
 30
0.0
 40
0.5
  1
0.59
100
AcDbAttributeDefinition
  3

  2
C
 70
     8
280
     0
  0
ATTDEF
  5
9A
330
8B
100
AcDbEntity
  8
AM_6
100
AcDbText
 10
4.83
 20
-4.476928958475424
 30
0.0
 40
0.5
  1
2.0472
100
AcDbAttributeDefinition
  3

  2
D
 70
     8
280
     0
  0
ATTDEF
  5
9B
330
8B
100
AcDbEntity
  8
AM_6
100
AcDbText
 10
4.83
 20
-4.976928958475424
 30
0.0
 40
0.5
  1
0.16
100
AcDbAttributeDefinition
  3

  2
J
 70
     8
280
     0
  0
ATTDEF
  5
9C
330
8B
100
AcDbEntity
  8
AM_6
100
AcDbText
 10
4.83
 20
-5.476928958475424
 30
0.0
 40
0.5
  1
1.32
100
AcDbAttributeDefinition
  3

  2
L
 70
     8
280
     0
  0
ATTDEF
  5
9D
330
8B
100
AcDbEntity
  8
AM_6
100
AcDbText
 10
4.83
 20
-5.976928958475424
 30
0.0
 40
0.5
  1
1/4-28
100
AcDbAttributeDefinition
  3

  2
N
 70
     8
280
     0
  0
ATTDEF
  5
9E
330
8B
100
AcDbEntity
  8
AM_6
100
AcDbText
 10
4.83
 20
-6.476928958475424
 30
0.0
 40
0.5
  1
0.56
100
AcDbAttributeDefinition
  3

  2
W
 70
     8
280
     0
  0
ATTDEF
  5
9F
330
8B
100
AcDbEntity
  8
AM_6
100
AcDbText
 10
4.83
 20
-6.976928958475424
 30
0.0
 40
0.5
  1
0.78
100
AcDbAttributeDefinition
  3

  2
Y
 70
     8
280
     0
  0
ATTDEF
  5
A0
330
8B
100
AcDbEntity
  8
AM_6
100
AcDbText
 10
4.83
 20
-7.476928958475424
 30
0.0
 40
0.5
  1
baldor
100
AcDbAttributeDefinition
  3

  2
COMPANY
 70
     8
280
     0
  0
ARC
  5
A3
330
8B
100
AcDbEntity
  8
AM_9
100
AcDbCircle
 10
-0.5699999999999932
 20
0.0000000000000001
 30
0.0
 40
0.0833333333333312
100
AcDbArc
 50
354.7132356643168
 51
4.601816375448431
  0
CIRCLE
  5
A4
330
8B
100
AcDbEntity
  8
AM_9
100
AcDbCircle
 10
-0.5700000000000001
 20
-0.0000000000000001
 30
0.0
 40
0.0296969696969725
  0
LINE
  5
A5
330
8B
100
AcDbEntity
  8
AM_9
100
AcDbLine
 10
-0.6106078594303755
 20
0.0727689071237447
 30
0.0
 11
-0.608758815606401
 21
0.0737712590189041
 31
0.0
  0
LWPOLYLINE
  5
A6
330
8B
100
AcDbEntity
  8
AM_9
100
AcDbPolyline
 90
       14
 70
     0
 43
0.0
 10
-0.6104037314125409
 20
-0.0728826329856393
 10
-0.6201366440181367
 20
-0.0665166738631429
 10
-0.630191033874245
 20
-0.057477524013388
 10
-0.6387894557308067
 20
-0.0466484990263069
 10
-0.6454975576460457
 20
-0.0345267989910646
 10
-0.6501285722249737
 20
-0.0213524849207994
 10
-0.6525371002086824
 20
-0.0075827243306417
 10
-0.6526215005641872
 20
0.0064722465232069
 10
-0.6503933538338068
 20
0.0203451803404582
 10
-0.6458737323512528
 20
0.033655154301354
 10
-0.6392192279641357
 20
0.0460120648236516
 10
-0.630614518644147
 20
0.0570120269770391
 10
-0.6203094063613575
 20
0.066394566800613
 10
-0.6106078594303755
 20
0.0727689071237447
  0
LINE
  5
A7
330
8B
100
AcDbEntity
  8
AM_9
100
AcDbLine
 10
-1.16955
 20
0.4375
 30
0.0
 11
-1.16955
 21
0.6410047816350097
 31
0.0
  0
LINE
  5
A8
330
8B
100
AcDbEntity
  8
AM_9
100
AcDbLine
 10
-1.36545
 20
0.6410047816350097
 30
0.0
 11
-1.36545
 21
0.4374999999999999
 31
0.0
  0
LINE
  5
A9
330
8B
100
AcDbEntity
  8
AM_9
100
AcDbLine
 10
-1.36545
 20
0.6410047816350097
 30
0.0
 11
-1.16955
 21
0.6410047816350097
 31
0.0
  0
LINE
  5
AA
330
8B
100
AcDbEntity
  8
AM_9
100
AcDbLine
 10
-1.16955
 20
0.6410047816350097
 30
0.0
 11
-1.15055478163501
 21
0.6599999999999998
 31
0.0
  0
LINE
  5
AB
330
8B
100
AcDbEntity
  8
AM_9
100
AcDbLine
 10
-1.38444521836499
 20
0.6599999999999998
 30
0.0
 11
-1.36545
 21
0.6410047816350097
 31
0.0
  0
LWPOLYLINE
  5
AC
330
8B
100
AcDbEntity
  8
AM_9
100
AcDbPolyline
 90
       20
 70
     0
 43
0.0
 10
-1.36545
 20
0.4375
 10
-1.364136831480812
 20
0.4372078735551899
 10
-1.360085643026355
 20
0.4363303207371723
 10
-1.353652548834625
 20
0.4350107000646105
 10
-1.344666127895219
 20
0.4333205035471334
 10
-1.33368304530263
 20
0.4314999918719928
 10
-1.320503952371264
 20
0.4296760017349995
 10
-1.306032763506039
 20
0.4281317803707315
 10
-1.289969939060574
 20
0.4269858846160912
 10
-1.273972747782576
 20
0.426443365482284
 10
-1.257303007728137
 20
0.4265161499303308
 10
-1.241701722859527
 20
0.4271739676097043
 10
-1.226391674033727
 20
0.4283712665010916
 10
-1.212506246079318
 20
0.4299259941784033
 10
-1.199774084235613
 20
0.4317393277964434
 10
-1.188987949653902
 20
0.4335622095496195
 10
-1.180147893368445
 20
0.4352498570165998
 10
-1.173990768010006
 20
0.436527231644669
 10
-1.170372223557114
 20
0.4373166501023478
 10
-1.169550000001386
 20
0.4374999999996896
  0
LINE
  5
AD
330
8B
100
AcDbEntity
  8
AM_9
100
AcDbLine
 10
-1.4836
 20
-0.4375
 30
0.0
 11
-0.666
 21
-0.4375
 31
0.0
  0
LINE
  5
AE
330
8B
100
AcDbEntity
  8
AM_9
100
AcDbLine
 10
-0.666
 20
0.4375
 30
0.0
 11
-1.16955
 21
0.4375
 31
0.0
  0
LINE
  5
AF
330
8B
100
AcDbEntity
  8
AM_9
100
AcDbLine
 10
-1.36545
 20
0.4375
 30
0.0
 11
-1.4836
 21
0.4375
 31
0.0
  0
LINE
  5
B0
330
8B
100
AcDbEntity
  8
AM_9
100
AcDbLine
 10
-0.1963999999999999
 20
-0.4375
 30
0.0
 11
-0.17
 21
-0.4639
 31
0.0
  0
LINE
  5
B1
330
8B
100
AcDbEntity
  8
AM_9
100
AcDbLine
 10
-0.17
 20
0.4639
 30
0.0
 11
-0.1963999999999999
 21
0.4375
 31
0.0
  0
LINE
  5
B2
330
8B
100
AcDbEntity
  8
AM_9
100
AcDbLine
 10
-1.4836
 20
0.4375
 30
0.0
 11
-1.51
 21
0.4639
 31
0.0
  0
LINE
  5
B3
330
8B
100
AcDbEntity
  8
AM_9
100
AcDbLine
 10
-1.51
 20
-0.4639
 30
0.0
 11
-1.4836
 21
-0.4375
 31
0.0
  0
LWPOLYLINE
  5
B4
330
8B
100
AcDbEntity
  8
AM_9
100
AcDbPolyline
 90
        5
 70
     0
 43
0.0
 10
-1.352594391621446
 20
0.2277197308154212
 10
-1.357546932997538
 20
0.219110533601281
 10
-1.362834524334585
 20
0.2050285991845961
 10
-1.365234741047366
 20
0.1907572758692567
 10
-1.365449999791014
 20
0.1849012884769907
  0
LINE
  5
B5
330
8B
100
AcDbEntity
  8
AM_9
100
AcDbLine
 10
-1.16955
 20
0.1848778566028024
 30
0.0
 11
-1.16955
 21
0.2709003265820645
 31
0.0
  0
LINE
  5
B6
330
8B
100
AcDbEntity
  8
AM_9
100
AcDbLine
 10
-1.36545
 20
0.2709003265820645
 30
0.0
 11
-1.36545
 21
0.1848636025076076
 31
0.0
  0
LWPOLYLINE
  5
B7
330
8B
100
AcDbEntity
  8
AM_9
100
AcDbPolyline
 90
       21
 70
     0
 43
0.0
 10
-1.365449999791014
 20
0.1849012884769907
 10
-1.364920105467638
 20
0.175624024964749
 10
-1.361992766971642
 20
0.1611967548331695
 10
-1.356399841019361
 20
0.1468077179853244
 10
-1.348542062582912
 20
0.1335695926835865
 10
-1.338241867403823
 20
0.1212646700943984
 10
-1.326048819190598
 20
0.1107246827096291
 10
-1.311804435211044
 20
0.1019994175409277
 10
-1.296642843622313
 20
0.0958697872699287
 10
-1.280141996915131
 20
0.0922508230791846
 10
-1.264093807138676
 20
0.0914885863829896
 10
-1.247672072509849
 20
0.0934617426963661
 10
-1.232461702132212
 20
0.0979105932147598
 10
-1.21781151466764
 20
0.104918845889921
 10
-1.204696188710886
 20
0.1140229317066295
 10
-1.19298126454721
 20
0.1253191298152342
 10
-1.183444769113294
 20
0.1380932330239888
 10
-1.176065886517374
 20
0.1524613565248776
 10
-1.171507209448946
 20
0.1670544810537271
 10
-1.169589412479321
 20
0.182373700845006
 10
-1.169550000509762
 20
0.1848864326240826
  0
LWPOLYLINE
  5
B8
330
8B
100
AcDbEntity
  8
AM_9
100
AcDbPolyline
 90
        5
 70
     0
 43
0.0
 10
-1.169550000509762
 20
0.1848864326240826
 10
-1.170440081407895
 20
0.196752036653578
 10
-1.174006399855144
 20
0.2109550537624326
 10
-1.179956597063237
 20
0.2237801438847781
 10
-1.182215186438108
 20
0.2274313673565662
  0
LINE
  5
B9
330
8B
100
AcDbEntity
  8
AM_9
100
AcDbLine
 10
-0.17
 20
0.6336
 30
0.0
 11
-0.1963999999999999
 21
0.66
 31
0.0
  0
LINE
  5
BA
330
8B
100
AcDbEntity
  8
AM_9
100
AcDbLine
 10
-0.1963999999999999
 20
-0.66
 30
0.0
 11
-0.17
 21
-0.6336
 31
0.0
  0
LINE
  5
BB
330
8B
100
AcDbEntity
  8
AM_9
100
AcDbLine
 10
-0.17
 20
0.6336
 30
0.0
 11
-0.17
 21
-0.6336
 31
0.0
  0
LINE
  5
BC
330
8B
100
AcDbEntity
  8
AM_9
100
AcDbLine
 10
-0.435
 20
-0.6599999999999998
 30
0.0
 11
-0.1963999999999999
 21
-0.6599999999999998
 31
0.0
  0
LINE
  5
BD
330
8B
100
AcDbEntity
  8
AM_9
100
AcDbLine
 10
-0.1963999999999999
 20
0.6599999999999998
 30
0.0
 11
-0.435
 21
0.6599999999999998
 31
0.0
  0
LINE
  5
BE
330
8B
100
AcDbEntity
  8
AM_9
100
AcDbLine
 10
-0.1963999999999999
 20
0.6599999999999998
 30
0.0
 11
-0.1963999999999999
 21
-0.6599999999999998
 31
0.0
  0
LINE
  5
BF
330
8B
100
AcDbEntity
  8
AM_9
100
AcDbLine
 10
-1.11
 20
-0.6599999999999998
 30
0.0
 11
-1.025
 21
-0.6599999999999998
 31
0.0
  0
LINE
  5
C0
330
8B
100
AcDbEntity
  8
AM_9
100
AcDbLine
 10
-1.025
 20
0.6599999999999998
 30
0.0
 11
-1.11
 21
0.6599999999999998
 31
0.0
  0
LINE
  5
C1
330
8B
100
AcDbEntity
  8
AM_9
100
AcDbLine
 10
-0.922
 20
-0.9702666666666667
 30
0.0
 11
-0.858
 21
-0.9702666666666667
 31
0.0
  0
LINE
  5
C2
330
8B
100
AcDbEntity
  8
AM_9
100
AcDbLine
 10
-0.858
 20
0.9702666666666667
 30
0.0
 11
-0.922
 21
0.9702666666666667
 31
0.0
  0
LINE
  5
C3
330
8B
100
AcDbEntity
  8
AM_9
100
AcDbLine
 10
-0.435
 20
0.9560865860370598
 30
0.0
 11
-0.435
 21
-0.9560865860370598
 31
0.0
  0
ARC
  5
C4
330
8B
100
AcDbEntity
  8
AM_9
100
AcDbCircle
 10
-0.4669999999999999
 20
-0.9560865860370601
 30
0.0
 40
0.0319999999999998
100
AcDbArc
 50
285.3804988373585
 51
0.0
  0
ARC
  5
C5
330
8B
100
AcDbEntity
  8
AM_9
100
AcDbCircle
 10
-0.4669999999999999
 20
0.9560865860370601
 30
0.0
 40
0.0319999999999999
100
AcDbArc
 50
0.0
 51
74.61950116264151
  0
LINE
  5
C6
330
8B
100
AcDbEntity
  8
AM_9
100
AcDbLine
 10
-1.025
 20
0.9560865860370598
 30
0.0
 11
-1.025
 21
-0.9560865860370598
 31
0.0
  0
ARC
  5
C7
330
8B
100
AcDbEntity
  8
AM_9
100
AcDbCircle
 10
-0.9930000000000003
 20
-0.9560865860370601
 30
0.0
 40
0.0319999999999996
100
AcDbArc
 50
180.0
 51
254.6195040508827
  0
ARC
  5
C8
330
8B
100
AcDbEntity
  8
AM_9
100
AcDbCircle
 10
-0.9930000000000005
 20
0.9560865860370602
 30
0.0
 40
0.0319999999999994
100
AcDbArc
 50
105.380495949117
 51
180.0
  0
ARC
  5
C9
330
8B
100
AcDbEntity
  8
AM_9
100
AcDbCircle
 10
-0.7300000000001222
 20
0.0000000000005194
 30
0.0
 40
1.023599999999467
100
AcDbArc
 50
100.8111968128513
 51
105.3804959491188
  0
ARC
  5
CA
330
8B
100
AcDbEntity
  8
AM_9
100
AcDbCircle
 10
-0.7299999999643754
 20
0.0000000001532596
 30
0.0
 40
1.023600000157096
100
AcDbArc
 50
254.619504051233
 51
259.1888031867965
  0
LINE
  5
CB
330
8B
100
AcDbEntity
  8
AM_9
100
AcDbLine
 10
-1.001487293263413
 20
0.9869405299188527
 30
0.0
 11
-1.001487293263413
 21
-0.9869405299187242
 31
0.0
  0
LINE
  5
CC
330
8B
100
AcDbEntity
  8
AM_9
100
AcDbLine
 10
-0.922
 20
1.005431728164573
 30
0.0
 11
-0.922
 21
-1.005431728164445
 31
0.0
  0
LINE
  5
CD
330
8B
100
AcDbEntity
  8
AM_9
100
AcDbLine
 10
-0.6087588156064085
 20
-0.0737712590189003
 30
0.0
 11
-0.6104037314125409
 21
-0.0728826329856393
 31
0.0
  0
LWPOLYLINE
  5
CE
330
8B
100
AcDbEntity
  8
AM_9
100
AcDbPolyline
 90
       26
 70
     0
 43
0.0
 10
-0.6087588156064085
 20
-0.0737712590189002
 10
-0.5956912379050657
 20
-0.0792654435515585
 10
-0.5819023956283436
 20
-0.0824789513921681
 10
-0.5677513952569158
 20
-0.0832946885492661
 10
-0.5536642274338038
 20
-0.0817165037132081
 10
-0.54000644770607
 20
-0.0777393632872551
 10
-0.5272003695507264
 20
-0.0715026997941395
 10
-0.5156780961779704
 20
-0.0631831807886268
 10
-0.5057062592081112
 20
-0.0530165949437594
 10
-0.4976856685727646
 20
-0.0413957820984337
 10
-0.4917175982706369
 20
-0.0285711397029911
 10
-0.4880494652091102
 20
-0.0150700806970942
 10
-0.4866744223067395
 20
-0.0011369021636187
 10
-0.4876505125935659
 20
0.0127124159470336
 10
-0.4908934841090334
 20
0.0262031217231359
 10
-0.4963322781832145
 20
0.0389378454814067
 10
-0.5037770166012663
 20
0.0505861731525153
 10
-0.5131096835745587
 20
0.0608819047342288
 10
-0.5239903930120537
 20
0.0694806484516369
 10
-0.5362810786024413
 20
0.0761980621300428
 10
-0.5494982704249174
 20
0.0807720467047568
 10
-0.5634417937289541
 20
0.0830666515328722
 10
-0.5775689178234368
 20
0.0829888903855648
 10
-0.5915625274907574
 20
0.0804865793966898
 10
-0.6049465499576313
 20
0.0756517223234475
 10
-0.608758815606401
 20
0.0737712590189041
  0
ARC
  5
CF
330
8B
100
AcDbEntity
  8
AM_9
100
AcDbCircle
 10
-0.7300000000000041
 20
-0.0000000000000557
 30
0.0
 40
1.023600000000055
100
AcDbArc
 50
74.61950396059012
 51
97.18357665371009
  0
ARC
  5
D0
330
8B
100
AcDbEntity
  8
AM_9
100
AcDbCircle
 10
-0.7300000000000139
 20
0.0000000000002054
 30
0.0
 40
1.023600000000193
100
AcDbArc
 50
262.8164233462915
 51
285.3804960394083
  0
LINE
  5
D1
330
8B
100
AcDbEntity
  8
AM_9
100
AcDbLine
 10
-0.8579999999999999
 20
1.015565340093881
 30
0.0
 11
-0.8579999999999999
 21
-1.015565340093872
 31
0.0
  0
LINE
  5
D2
330
8B
100
AcDbEntity
  8
AM_9
100
AcDbLine
 10
-0.4585127051812612
 20
0.9869405294910142
 30
0.0
 11
-0.4585127051812612
 21
-0.9869405294910052
 31
0.0
  0
LINE
  5
D4
330
8B
100
AcDbEntity
  8
AM_5
100
AcDbLine
 10
-1.1425
 20
0.4375000000000001
 30
0.0
 11
-1.1425
 21
0.6599999999999998
 31
0.0
  0
LINE
  5
D5
330
8B
100
AcDbEntity
  8
AM_5
100
AcDbLine
 10
-1.3925
 20
0.4375000000000001
 30
0.0
 11
-1.3925
 21
0.6599999999999998
 31
0.0
  0
LINE
  5
D8
330
8B
100
AcDbEntity
  8
AM_7
100
AcDbLine
 10
-0.5700000000000001
 20
-0.0311818181818212
 30
0.0
 11
-0.5700000000000001
 21
0.0311818181818211
 31
0.0
  0
LINE
  5
D9
330
8B
100
AcDbEntity
  8
AM_7
100
AcDbLine
 10
-1.2675
 20
0.6814943834276997
 30
0.0
 11
-1.2675
 21
0.3858231439885204
 31
0.0
  0
LWPOLYLINE
  5
DB
330
8B
100
AcDbEntity
  8
AM_4
100
AcDbPolyline
 90
        8
 70
     0
 43
0.0
 10
-1.2675
 20
0.2689748400644917
 10
-1.283479191730239
 20
0.2679120919172858
 10
-1.299458383460478
 20
0.2646222536177129
 10
-1.314086024269056
 20
0.2593638998265836
 10
-1.327805986590095
 20
0.2519479526833525
 10
-1.339692849307077
 20
0.2427638376198474
 10
-1.349862486205457
 20
0.2315811503073286
 10
-1.352594391621446
 20
0.2277197308154212
  0
LWPOLYLINE
  5
DC
330
8B
100
AcDbEntity
  8
AM_4
100
AcDbPolyline
 90
        8
 70
     0
 43
0.0
 10
-1.182215186438108
 20
0.2274313673565662
 10
-1.18845207737065
 20
0.2356945712146663
 10
-1.199028961669034
 20
0.2459904407841137
 10
-1.211842699413147
 20
0.2547796712356147
 10
-1.226053537630908
 20
0.2614852413946751
 10
-1.241929988301795
 20
0.2662203531988847
 10
-1.25447978180443
 20
0.2682710453860984
 10
-1.2675
 20
0.2689748400644917
  0
LINE
  5
DD
330
8B
100
AcDbEntity
  8
AM_4
100
AcDbLine
 10
-1.51
 20
-0.6336
 30
0.0
 11
-1.4836
 21
-0.66
 31
0.0
  0
LINE
  5
DE
330
8B
100
AcDbEntity
  8
AM_4
100
AcDbLine
 10
-1.4836
 20
0.66
 30
0.0
 11
-1.51
 21
0.6336
 31
0.0
  0
LINE
  5
DF
330
8B
100
AcDbEntity
  8
AM_4
100
AcDbLine
 10
-1.51
 20
0.6336
 30
0.0
 11
-1.51
 21
-0.6336
 31
0.0
  0
LWPOLYLINE
  5
E0
330
8B
100
AcDbEntity
  8
AM_4
100
AcDbPolyline
 90
       39
 70
     0
 43
0.0
 10
-1.150661474984024
 20
0.2747496993626046
 10
-1.153006819058029
 20
0.2589268953188114
 10
-1.158276128652837
 20
0.2435347413480874
 10
-1.165934902515988
 20
0.2295730863123447
 10
-1.175823652189493
 20
0.2167838686633846
 10
-1.188496280114024
 20
0.204785884196659
 10
-1.202969948175179
 20
0.1947177643390278
 10
-1.220196411308244
 20
0.1862806071916221
 10
-1.238599959255026
 20
0.1805295769206162
 10
-1.258816094441521
 20
0.1775494416395138
 10
-1.279267126662734
 20
0.1777840020908433
 10
-1.299835029701715
 20
0.181383760186516
 10
-1.319478796956315
 20
0.1882421821255527
 10
-1.337465628912856
 20
0.1981430486101681
 10
-1.353365888499601
 20
0.2108143316084803
 10
-1.366043947361664
 20
0.225234307047035
 10
-1.375752302949632
 20
0.2414236703803242
 10
-1.381610434439099
 20
0.2574289313067232
 10
-1.384294110804165
 20
0.2739540770169126
 10
-1.38377593986702
 20
0.2892252011485631
 10
-1.38044152159019
 20
0.3040234672692083
 10
-1.374504045401551
 20
0.3177308355725635
 10
-1.36619464771862
 20
0.3302924191042326
 10
-1.35519732793276
 20
0.3419733544985236
 10
-1.342241683316725
 20
0.3519494540433006
 10
-1.32644574307289
 20
0.3606409378324031
 10
-1.309228919764285
 20
0.3670944909756368
 10
-1.289766506256269
 20
0.3714155205989789
 10
-1.269716684261795
 20
0.3730683048788331
 10
-1.248940280368348
 20
0.3719253269484317
 10
-1.228685776923959
 20
0.3679281415066465
 10
-1.209501830047856
 20
0.3610661668525831
 10
-1.192024590524754
 20
0.3514641221075212
 10
-1.177291218718429
 20
0.3396204484745914
 10
-1.165287806208792
 20
0.3255391045333328
 10
-1.15708916634594
 20
0.3106864109588431
 10
-1.152081376444721
 20
0.2945650323562777
 10
-1.150764578441331
 20
0.2847318319226947
 10
-1.150661460616964
 20
0.2747496862793714
  0
LINE
  5
E1
330
8B
100
AcDbEntity
  8
AM_4
100
AcDbLine
 10
-1.4836
 20
-0.6599999999999998
 30
0.0
 11
-1.11
 21
-0.6599999999999998
 31
0.0
  0
LINE
  5
E2
330
8B
100
AcDbEntity
  8
AM_4
100
AcDbLine
 10
-1.11
 20
0.6599999999999998
 30
0.0
 11
-1.15055478163501
 21
0.6599999999999998
 31
0.0
  0
LINE
  5
E3
330
8B
100
AcDbEntity
  8
AM_4
100
AcDbLine
 10
-1.38444521836499
 20
0.6599999999999999
 30
0.0
 11
-1.4836
 21
0.6599999999999998
 31
0.0
  0
LINE
  5
E4
330
8B
100
AcDbEntity
  8
AM_4
100
AcDbLine
 10
-1.4836
 20
0.6599999999999998
 30
0.0
 11
-1.4836
 21
-0.6599999999999998
 31
0.0
  0
LWPOLYLINE
  5
E5
330
8B
100
AcDbEntity
  8
AM_4
100
AcDbPolyline
 90
       20
 70
     0
 43
0.0
 10
-1.150554781635199
 20
0.6599999999999714
 10
-1.15186226962869
 20
0.6598042487147425
 10
-1.1558068200913
 20
0.6592264484058573
 10
-1.162441661049538
 20
0.6582979989657364
 10
-1.171465764128041
 20
0.6571232456520627
 10
-1.182869123517471
 20
0.6557852061745101
 10
-1.196783926965304
 20
0.6543762611678848
 10
-1.212721640052605
 20
0.6530679658486555
 10
-1.230806114771613
 20
0.6519825085941158
 10
-1.250320626995202
 20
0.651291056094025
 10
-1.270654510009623
 20
0.6511032745384523
 10
-1.29147020688523
 20
0.6514749680500729
 10
-1.311292320159569
 20
0.6523577463412169
 10
-1.330411433840605
 20
0.653694632074233
 10
-1.346843687088498
 20
0.6552207402206923
 10
-1.361367623867852
 20
0.6568563949699773
 10
-1.371947943830127
 20
0.6582153302738686
 10
-1.379708239114298
 20
0.6593008046797804
 10
-1.383548644503008
 20
0.6598655424087831
 10
-1.384445218364502
 20
0.6599999999999263
  0
ELLIPSE
  5
E6
330
8B
100
AcDbEntity
  8
AM_4
100
AcDbEllipse
 10
-1.2675
 20
0.2709003265820645
 30
0.0
 11
0.09794999999999998
 21
0.0
 31
0.0
210
0.0
220
0.0
230
1.0
 40
0.90630778703665
 41
0.0
 42
6.283185307179586
  0
ENDBLK
  5
8E
330
8B
100
AcDbEntity
  8
0
100
AcDbBlockEnd
  0
BLOCK
  5
E9
330
E7
100
AcDbEntity
  8
0
100
AcDbBlockBegin
  2
3_405015E_Inch_0_in_124438_2
 70
     2
 10
0.0
 20
0.0
 30
0.0
  3
3_405015E_Inch_0_in_124438_2
  1

  0
ATTDEF
  5
EB
330
E7
100
AcDbEntity
  8
AM_6
100
AcDbText
 10
4.57
 20
1.4426236292839
 30
0.0
 40
0.5
  1
405015E -Inch
100
AcDbAttributeDefinition
  3

  2
NN
 70
     8
280
     0
  0
ATTDEF
  5
EC
330
E7
100
AcDbEntity
  8
AM_6
100
AcDbText
 10
4.57
 20
0.9426236292838999
 30
0.0
 40
0.5
  1
Grease Fitting
100
AcDbAttributeDefinition
  3

  2
NT
 70
     8
280
     0
  0
ATTDEF
  5
ED
330
E7
100
AcDbEntity
  8
AM_6
100
AcDbText
 10
4.57
 20
0.4426236292838999
 30
0.0
 40
0.5
  1
405015E-Inch
100
AcDbAttributeDefinition
  3

  2
NB
 70
     8
280
     0
  0
ATTDEF
  5
EE
330
E7
100
AcDbEntity
  8
AM_6
100
AcDbText
 10
4.57
 20
-0.0573763707161001
 30
0.0
 40
0.5
  1
$MN.-Inch
100
AcDbAttributeDefinition
  3

  2
NBSYN
 70
     8
280
     0
  0
ATTDEF
  5
EF
330
E7
100
AcDbEntity
  8
AM_6
100
AcDbText
 10
4.57
 20
-0.5573763707161001
 30
0.0
 40
0.5
  1
405015E
100
AcDbAttributeDefinition
  3

  2
LINA
 70
     8
280
     0
  0
ATTDEF
  5
F0
330
E7
100
AcDbEntity
  8
AM_6
100
AcDbText
 10
4.57
 20
-1.0573763707161
 30
0.0
 40
0.5
  1
405015E
100
AcDbAttributeDefinition
  3

  2
MN
 70
     8
280
     0
  0
ATTDEF
  5
F1
330
E7
100
AcDbEntity
  8
AM_6
100
AcDbText
 10
4.57
 20
-1.5573763707161
 30
0.0
 40
0.5
  1
1/8 x 27PTF
100
AcDbAttributeDefinition
  3

  2
T
 70
     8
280
     0
  0
ATTDEF
  5
F2
330
E7
100
AcDbEntity
  8
AM_6
100
AcDbText
 10
4.57
 20
-2.0573763707161
 30
0.0
 40
0.5
  1
baldor
100
AcDbAttributeDefinition
  3

  2
COMPANY
 70
     8
280
     0
  0
LWPOLYLINE
  5
F3
330
E7
100
AcDbEntity
  8
AM_9
100
AcDbPolyline
 90
        4
 70
     0
 43
0.0
 10
-0.64875
 20
0.9905446354101339
 10
-0.7031916102741496
 20
1.017474764003996
 10
-0.7306200010907652
 20
1.029945123803976
 10
-0.7581249999999999
 20
1.04160855341418
  0
LWPOLYLINE
  5
F4
330
E7
100
AcDbEntity
  8
AM_9
100
AcDbPolyline
 90
        4
 70
     0
 43
0.0
 10
-0.539375
 20
1.04160855341418
 10
-0.56671875
 20
1.030016007660593
 10
-0.5940625
 20
1.017590099246378
 10
-0.64875
 20
0.9905446354101339
  0
LWPOLYLINE
  5
F5
330
E7
100
AcDbEntity
  8
AM_9
100
AcDbPolyline
 90
        4
 70
     0
 43
0.0
 10
-0.7581249999999999
 20
0.9708978752955253
 10
-0.73078125
 20
0.9601643426643696
 10
-0.7034375
 20
0.9502641726938423
 10
-0.64875
 20
0.9326574797606015
  0
LWPOLYLINE
  5
F6
330
E7
100
AcDbEntity
  8
AM_9
100
AcDbPolyline
 90
        4
 70
     0
 43
0.0
 10
-0.64875
 20
0.9326574797606015
 10
-0.5943083897258504
 20
0.9501787398157822
 10
-0.5668799989092349
 20
0.9601035673379182
 10
-0.539375
 20
0.9708978752955253
  0
ELLIPSE
  5
F7
330
E7
100
AcDbEntity
  8
AM_9
100
AcDbEllipse
 10
-0.648749999999999
 20
1.37001938854894
 30
0.0
 11
0.1026779019331862
 21
0.0
 31
0.0
210
0.0
220
0.0
230
1.0
 40
0.7071067811865254
 41
2.725678601487289
 42
7.193207993336197
  0
LINE
  5
F8
330
E7
100
AcDbEntity
  8
AM_9
100
AcDbLine
 10
-0.7426743440009288
 20
1.39935340591271
 30
0.0
 11
-0.7722408992236336
 21
1.35201895340282
 31
0.0
  0
LINE
  5
F9
330
E7
100
AcDbEntity
  8
AM_9
100
AcDbLine
 10
-0.5252591007763666
 20
1.35201895340282
 30
0.0
 11
-0.5548256559990714
 21
1.39935340591271
 31
0.0
  0
ELLIPSE
  5
FA
330
E7
100
AcDbEntity
  8
AM_9
100
AcDbEllipse
 10
-0.6487499999999995
 20
1.370019388548939
 30
0.0
 11
0.1026779019331884
 21
0.0
 31
0.0
210
0.0
220
0.0
230
1.0
 40
0.7071067811865251
 41
2.231569967433185
 42
2.725678601487275
  0
ELLIPSE
  5
FB
330
E7
100
AcDbEntity
  8
AM_9
100
AcDbEllipse
 10
-0.648749999999996
 20
1.313450846054011
 30
0.0
 11
0.1349999999999958
 21
0.0
 31
0.0
210
0.0
220
0.0
230
1.0
 40
0.7071067811865471
 41
5.759586531581282
 42
6.134794251500816
  0
ELLIPSE
  5
FC
330
E7
100
AcDbEntity
  8
AM_9
100
AcDbEllipse
 10
-0.6487500000000042
 20
1.313450846054012
 30
0.0
 11
0.1350000000000041
 21
0.0
 31
0.0
210
0.0
220
0.0
230
1.0
 40
0.7071067811865479
 41
6.134794251500812
 42
6.699099359282118
  0
ELLIPSE
  5
FD
330
E7
100
AcDbEntity
  8
AM_9
100
AcDbEllipse
 10
-0.6487500000000002
 20
1.313450846054013
 30
0.0
 11
0.1349999999999998
 21
0.0
 31
0.0
210
0.0
220
0.0
230
1.0
 40
0.707106781186541
 41
1.570796326794897
 42
2.725678601487254
  0
LWPOLYLINE
  5
FE
330
E7
100
AcDbEntity
  8
AM_9
100
AcDbPolyline
 90
        4
 70
     0
 43
0.0
 10
-0.43
 20
1.079848948949104
 10
-0.4844416102741497
 20
1.062327688893923
 10
-0.5118700010907652
 20
1.052402861371787
 10
-0.539375
 20
1.04160855341418
  0
LINE
  5
FF
330
E7
100
AcDbEntity
  8
AM_9
100
AcDbLine
 10
-0.64875
 20
0.9905446354101339
 30
0.0
 11
-0.64875
 21
0.9326574797606015
 31
0.0
  0
LWPOLYLINE
  5
100
330
E7
100
AcDbEntity
  8
AM_9
100
AcDbPolyline
 90
        4
 70
     0
 43
0.0
 10
-0.7581249999999999
 20
1.04160855341418
 10
-0.7854687499999999
 20
1.052342086045336
 10
-0.8128124999999999
 20
1.062242256015863
 10
-0.8674999999999999
 20
1.079848948949104
  0
ELLIPSE
  5
101
330
E7
100
AcDbEntity
  8
AM_9
100
AcDbEllipse
 10
-0.6487499999999998
 20
1.313450846054013
 30
0.0
 11
0.1349999999999995
 21
0.0
 31
0.0
210
0.0
220
0.0
230
1.0
 40
0.7071067811865411
 41
0.41591405210254
 42
1.570796326794897
  0
LINE
  5
102
330
E7
100
AcDbEntity
  8
AM_9
100
AcDbLine
 10
-0.557817332602634
 20
1.233901333170525
 30
0.0
 11
-0.5318365704891008
 21
1.26572113832392
 31
0.0
  0
LINE
  5
103
330
E7
100
AcDbEntity
  8
AM_9
100
AcDbLine
 10
-0.7656634295108992
 20
1.26572113832392
 30
0.0
 11
-0.7396826673973662
 21
1.233901333170525
 31
0.0
  0
ELLIPSE
  5
104
330
E7
100
AcDbEntity
  8
AM_9
100
AcDbEllipse
 10
-0.6487499999999999
 20
1.313450846054012
 30
0.0
 11
0.1350000000000001
 21
0.0
 31
0.0
210
0.0
220
0.0
230
1.0
 40
0.7071067811865475
 41
3.289648196974889
 42
5.759586531581287
  0
ELLIPSE
  5
105
330
E7
100
AcDbEntity
  8
AM_9
100
AcDbEllipse
 10
-0.6487499999999999
 20
1.313450846054012
 30
0.0
 11
0.135
 21
0.0
 31
0.0
210
0.0
220
0.0
230
1.0
 40
0.707106781186548
 41
2.72567860148725
 42
3.214866211713624
  0
ELLIPSE
  5
106
330
E7
100
AcDbEntity
  8
AM_9
100
AcDbEllipse
 10
-0.6487500000001646
 20
1.313450846054158
 30
0.0
 11
0.1349999999998345
 21
0.0
 31
0.0
210
0.0
220
0.0
230
1.0
 40
0.7071067811866766
 41
3.214866211715218
 42
3.289648196976551
  0
ELLIPSE
  5
107
330
E7
100
AcDbEntity
  8
AM_9
100
AcDbEllipse
 10
-0.6487500000000004
 20
1.271024439182817
 30
0.0
 11
0.1050000000000004
 21
0.0
 31
0.0
210
0.0
220
0.0
230
1.0
 40
0.7071067811865572
 41
3.141592653589793
 42
7.066965935138825
  0
ELLIPSE
  5
108
330
E7
100
AcDbEntity
  8
AM_9
100
AcDbEllipse
 10
-0.6487500000000068
 20
1.271024439182721
 30
0.0
 11
0.1050000000001383
 21
1.564621925356065E-9
 31
0.0
210
0.0
220
0.0
230
1.0
 40
0.7071067811865485
 41
0.7837806121380009
 42
1.57079631625812
  0
LINE
  5
109
330
E7
100
AcDbEntity
  8
AM_9
100
AcDbLine
 10
-0.5437500000000001
 20
1.249811235747223
 30
0.0
 11
-0.5437500000000001
 21
1.271024439182819
 31
0.0
  0
LINE
  5
10A
330
E7
100
AcDbEntity
  8
AM_9
100
AcDbLine
 10
-0.75375
 20
1.271024439182819
 30
0.0
 11
-0.75375
 21
1.249811235747223
 31
0.0
  0
ELLIPSE
  5
10B
330
E7
100
AcDbEntity
  8
AM_9
100
AcDbEllipse
 10
-0.6487500000000044
 20
1.271024439182781
 30
0.0
 11
0.1049999999998938
 21
1.564621925352422E-9
 31
0.0
210
0.0
220
0.0
230
1.0
 40
0.7071067811876196
 41
1.570796316258143
 42
1.659618823864264
  0
ELLIPSE
  5
10C
330
E7
100
AcDbEntity
  8
AM_9
100
AcDbEllipse
 10
-0.6487500000000005
 20
1.271024439182816
 30
0.0
 11
0.1049999999999995
 21
0.0
 31
0.0
210
0.0
220
0.0
230
1.0
 40
0.707106781186559
 41
1.659618834483832
 42
3.141592653589793
  0
ELLIPSE
  5
10D
330
E7
100
AcDbEntity
  8
AM_9
100
AcDbEllipse
 10
-0.64875
 20
1.249811235747223
 30
0.0
 11
0.105
 21
0.0
 31
0.0
210
0.0
220
0.0
230
1.0
 40
0.7071067811865476
 41
2.698681609516157
 42
6.283185307179586
  0
ELLIPSE
  5
10E
330
E7
100
AcDbEntity
  8
AM_9
100
AcDbEllipse
 10
-0.6487499999999986
 20
1.175565023722635
 30
0.0
 11
0.2187499999999986
 21
0.0
 31
0.0
210
0.0
220
0.0
230
1.0
 40
0.7071067811865488
 41
5.235987755982984
 42
6.283185307179586
  0
ELLIPSE
  5
10F
330
E7
100
AcDbEntity
  8
AM_9
100
AcDbEllipse
 10
-0.6487500000000002
 20
1.249811235747223
 30
0.0
 11
0.1050000000000004
 21
0.0
 31
0.0
210
0.0
220
0.0
230
1.0
 40
0.7071067811865425
 41
0.4429110440736412
 42
1.277854881279481
  0
ELLIPSE
  5
110
330
E7
100
AcDbEntity
  8
AM_9
100
AcDbEllipse
 10
-0.6487499999999966
 20
1.249811235747236
 30
0.0
 11
0.1049999999999736
 21
0.0
 31
0.0
210
0.0
220
0.0
230
1.0
 40
0.7071067811865964
 41
1.277854881279439
 42
1.570796326794897
  0
LINE
  5
111
330
E7
100
AcDbEntity
  8
AM_9
100
AcDbLine
 10
-0.7436183298050514
 20
1.281631040900617
 30
0.0
 11
-0.7561048910028989
 21
1.263017174471552
 31
0.0
  0
LINE
  5
112
330
E7
100
AcDbEntity
  8
AM_9
100
AcDbLine
 10
-0.5413951089971011
 20
1.263017174471552
 30
0.0
 11
-0.5538816701949486
 21
1.281631040900617
 31
0.0
  0
ELLIPSE
  5
113
330
E7
100
AcDbEntity
  8
AM_9
100
AcDbEllipse
 10
-0.6487499999999985
 20
1.249811235747223
 30
0.0
 11
0.1049999999999984
 21
1.564621925353981E-9
 31
0.0
210
0.0
220
0.0
230
1.0
 40
0.7071067811865474
 41
0.0000017304280906
 42
0.4429110249355297
  0
ELLIPSE
  5
114
330
E7
100
AcDbEntity
  8
AM_9
100
AcDbEllipse
 10
-0.6487499999999999
 20
1.249811235747223
 30
0.0
 11
0.105
 21
0.0
 31
0.0
210
0.0
220
0.0
230
1.0
 40
0.7071067811865476
 41
1.570796326794897
 42
2.10994182841145
  0
ELLIPSE
  5
115
330
E7
100
AcDbEntity
  8
AM_9
100
AcDbEllipse
 10
-0.6487499999999986
 20
1.249811235747223
 30
0.0
 11
0.1050000000000018
 21
0.0
 31
0.0
210
0.0
220
0.0
230
1.0
 40
0.7071067811865419
 41
2.109941828411459
 42
2.698681609516162
  0
LWPOLYLINE
  5
116
330
E7
100
AcDbEntity
  8
AM_9
100
AcDbPolyline
 90
        4
 70
     0
 43
0.0
 10
-0.8506061087427361
 20
1.013328077476253
 10
-0.8130583897258504
 20
0.9950316647057094
 10
-0.7856299989092348
 20
0.9825613049057295
 10
-0.7581249999999999
 20
0.9708978752955253
  0
LINE
  5
117
330
E7
100
AcDbEntity
  8
AM_9
100
AcDbLine
 10
-0.8674999999999999
 20
1.021961793299571
 30
0.0
 11
-0.8506061087427361
 21
1.013328077476253
 31
0.0
  0
LINE
  5
118
330
E7
100
AcDbEntity
  8
AM_9
100
AcDbLine
 10
-0.4468935262495929
 20
1.013328261522301
 30
0.0
 11
-0.43
 21
1.021961793299571
 31
0.0
  0
LWPOLYLINE
  5
119
330
E7
100
AcDbEntity
  8
AM_9
100
AcDbPolyline
 90
        3
 70
     0
 43
0.0
 10
-0.487153595893023
 20
0.9937630360551024
 10
-0.4846875
 20
0.9949163294633273
 10
-0.4468935262495929
 20
1.013328261522301
  0
LWPOLYLINE
  5
11A
330
E7
100
AcDbEntity
  8
AM_9
100
AcDbPolyline
 90
        3
 70
     0
 43
0.0
 10
-0.539375
 20
0.9708978752955253
 10
-0.51203125
 20
0.9824904210491121
 10
-0.487153595893023
 20
0.9937630360551024
  0
ELLIPSE
  5
11B
330
E7
100
AcDbEntity
  8
AM_9
100
AcDbEllipse
 10
-0.6487500000000042
 20
1.188517946129949
 30
0.0
 11
0.1725340532830609
 21
2.570957739398791E-9
 31
0.0
210
0.0
220
0.0
230
1.0
 40
0.7071067811867405
 41
1.733730584908489
 42
7.853981623437747
  0
ELLIPSE
  5
11C
330
E7
100
AcDbEntity
  8
AM_9
100
AcDbEllipse
 10
-0.6487499999999998
 20
1.227009249371596
 30
0.0
 11
0.1188200907349033
 21
0.0
 31
0.0
210
0.0
220
0.0
230
1.0
 40
0.7071067811866878
 41
1.733730595722519
 42
7.853981633974483
  0
LINE
  5
11D
330
E7
100
AcDbEntity
  8
AM_9
100
AcDbLine
 10
-0.6680243186691522
 20
1.309914962691295
 30
0.0
 11
-0.6767374918769157
 21
1.308902122500304
 31
0.0
  0
LINE
  5
11E
330
E7
100
AcDbEntity
  8
AM_9
100
AcDbLine
 10
-0.6207625081230843
 20
1.308902122500304
 30
0.0
 11
-0.6294756813308477
 21
1.309914962691295
 31
0.0
  0
ELLIPSE
  5
11F
330
E7
100
AcDbEntity
  8
AM_9
100
AcDbEllipse
 10
-0.6487500000000002
 20
1.227009249371597
 30
0.0
 11
0.1188200907349025
 21
0.0
 31
0.0
210
0.0
220
0.0
230
1.0
 40
0.7071067811866868
 41
1.570796326794897
 42
1.733730595722517
  0
ELLIPSE
  5
120
330
E7
100
AcDbEntity
  8
AM_9
100
AcDbEllipse
 10
-0.6487499999999959
 20
1.188517946129949
 30
0.0
 11
0.1725340532830605
 21
0.0
 31
0.0
210
0.0
220
0.0
230
1.0
 40
0.7071067811867411
 41
1.570796326794897
 42
1.733730595722506
  0
ELLIPSE
  5
121
330
E7
100
AcDbEntity
  8
AM_9
100
AcDbEllipse
 10
-0.6487499999999992
 20
1.175565023722634
 30
0.0
 11
0.2187500000000008
 21
0.0
 31
0.0
210
0.0
220
0.0
230
1.0
 40
0.7071067811865477
 41
2.094395102393196
 42
5.235987755982985
  0
ELLIPSE
  5
122
330
E7
100
AcDbEntity
  8
AM_9
100
AcDbEllipse
 10
-0.6487500000000007
 20
1.175565023722634
 30
0.0
 11
0.2187500000000007
 21
0.0
 31
0.0
210
0.0
220
0.0
230
1.0
 40
0.707106781186548
 41
0.0
 42
2.094395102393191
  0
ELLIPSE
  5
123
330
E7
100
AcDbEntity
  8
AM_9
100
AcDbEllipse
 10
-0.64875
 20
1.175565023722635
 30
0.0
 11
-0.21375
 21
3.185123231361761E-9
 31
0.0
210
0.0
220
0.0
230
1.0
 40
0.7071067811865476
 41
0.0
 42
6.283185307179586
  0
ELLIPSE
  5
124
330
E7
100
AcDbEntity
  8
AM_9
100
AcDbEllipse
 10
-0.6487499999999918
 20
1.104854345603984
 30
0.0
 11
0.2187500000000093
 21
0.0
 31
0.0
210
0.0
220
0.0
230
1.0
 40
0.7071067811865475
 41
2.094395102393237
 42
4.188790204786368
  0
ELLIPSE
  5
125
330
E7
100
AcDbEntity
  8
AM_9
100
AcDbEllipse
 10
-0.6487499999999999
 20
1.104854345603979
 30
0.0
 11
0.2187499999999992
 21
0.0
 31
0.0
210
0.0
220
0.0
230
1.0
 40
0.707106781186544
 41
4.18879020478639
 42
5.23598775598299
  0
ELLIPSE
  5
126
330
E7
100
AcDbEntity
  8
AM_9
100
AcDbEllipse
 10
-0.6487499999999962
 20
1.104854345603974
 30
0.0
 11
0.2187499999999961
 21
0.0
 31
0.0
210
0.0
220
0.0
230
1.0
 40
0.7071067811865425
 41
5.235987755982991
 42
7.330382858376223
  0
ELLIPSE
  5
127
330
E7
100
AcDbEntity
  8
AM_9
100
AcDbEllipse
 10
-0.6487499999999999
 20
1.104854345603981
 30
0.0
 11
0.2187499999999999
 21
0.0
 31
0.0
210
0.0
220
0.0
230
1.0
 40
0.7071067811865455
 41
1.047197551196598
 42
2.094395102393196
  0
LWPOLYLINE
  5
128
330
E7
100
AcDbEntity
  8
AM_9
100
AcDbPolyline
 90
        4
 70
     0
 43
0.0
 10
-0.7581249999999999
 20
1.30952149403109
 10
-0.7307812499999999
 20
1.320255026662246
 10
-0.7034375
 20
1.330155196632773
 10
-0.64875
 20
1.347761889566014
  0
LINE
  5
129
330
E7
100
AcDbEntity
  8
AM_9
100
AcDbLine
 10
-0.7606472630820524
 20
1.308488111112198
 30
0.0
 11
-0.7581249999999999
 21
1.30952149403109
 31
0.0
  0
LWPOLYLINE
  5
12A
330
E7
100
AcDbEntity
  8
AM_9
100
AcDbPolyline
 90
        4
 70
     0
 43
0.0
 10
-0.8674999999999999
 20
1.258457576027044
 10
-0.8130583897258504
 20
1.285387704620906
 10
-0.7856299989092348
 20
1.297858064420886
 10
-0.7606472630820524
 20
1.308488111112198
  0
LINE
  5
12B
330
E7
100
AcDbEntity
  8
AM_9
100
AcDbLine
 10
-0.8674999999999999
 20
1.258457576027044
 30
0.0
 11
-0.8674999999999999
 21
1.021961793299571
 31
0.0
  0
LWPOLYLINE
  5
12C
330
E7
100
AcDbEntity
  8
AM_9
100
AcDbPolyline
 90
        4
 70
     0
 43
0.0
 10
-0.7581249999999999
 20
1.238810815912435
 10
-0.7854687499999999
 20
1.22807728328128
 10
-0.8128124999999999
 20
1.218177113310753
 10
-0.8674999999999999
 20
1.200570420377512
  0
LWPOLYLINE
  5
12D
330
E7
100
AcDbEntity
  8
AM_9
100
AcDbPolyline
 90
        4
 70
     0
 43
0.0
 10
-0.64875
 20
1.289874733916482
 10
-0.7031916102741496
 20
1.262944605322619
 10
-0.730620001090765
 20
1.250474245522639
 10
-0.7581249999999999
 20
1.238810815912435
  0
LINE
  5
12E
330
E7
100
AcDbEntity
  8
AM_9
100
AcDbLine
 10
-0.43
 20
1.258457576027044
 30
0.0
 11
-0.43
 21
1.021961793299571
 31
0.0
  0
LWPOLYLINE
  5
12F
330
E7
100
AcDbEntity
  8
AM_9
100
AcDbPolyline
 90
        4
 70
     0
 43
0.0
 10
-0.539375
 20
1.30952149403109
 10
-0.51203125
 20
1.297928948277504
 10
-0.4846875
 20
1.285503039863288
 10
-0.43
 20
1.258457576027044
  0
LWPOLYLINE
  5
130
330
E7
100
AcDbEntity
  8
AM_9
100
AcDbPolyline
 90
        3
 70
     0
 43
0.0
 10
-0.5782112879831991
 20
1.32451439449617
 10
-0.5668799989092349
 20
1.320315801988697
 10
-0.539375
 20
1.30952149403109
  0
LWPOLYLINE
  5
131
330
E7
100
AcDbEntity
  8
AM_9
100
AcDbPolyline
 90
        3
 70
     0
 43
0.0
 10
-0.64875
 20
1.347761889566014
 10
-0.5943083897258504
 20
1.330240629510833
 10
-0.5782112879831991
 20
1.32451439449617
  0
LINE
  5
132
330
E7
100
AcDbEntity
  8
AM_9
100
AcDbLine
 10
-0.64875
 20
1.347761889566014
 30
0.0
 11
-0.64875
 21
1.289874733916482
 31
0.0
  0
LWPOLYLINE
  5
133
330
E7
100
AcDbEntity
  8
AM_9
100
AcDbPolyline
 90
        4
 70
     0
 43
0.0
 10
-0.539375
 20
1.238810815912435
 10
-0.5667187499999999
 20
1.250403361666022
 10
-0.5940625
 20
1.262829270080237
 10
-0.64875
 20
1.289874733916482
  0
LWPOLYLINE
  5
134
330
E7
100
AcDbEntity
  8
AM_9
100
AcDbPolyline
 90
        4
 70
     0
 43
0.0
 10
-0.43
 20
1.200570420377512
 10
-0.4844416102741497
 20
1.218091680432692
 10
-0.5118700010907651
 20
1.228016507954828
 10
-0.539375
 20
1.238810815912435
  0
LINE
  5
135
330
E7
100
AcDbEntity
  8
AM_9
100
AcDbLine
 10
-0.4502293878686612
 20
0.9390432100379722
 30
0.0
 11
-0.4430986021565375
 21
1.100307600838631
 31
0.0
  0
LINE
  5
136
330
E7
100
AcDbEntity
  8
AM_9
100
AcDbLine
 10
-0.8544013978434626
 20
1.100307600838631
 30
0.0
 11
-0.8472706121313388
 21
0.9390432100379722
 31
0.0
  0
ELLIPSE
  5
137
330
E7
100
AcDbEntity
  8
AM_9
100
AcDbEllipse
 10
-0.6487499999999999
 20
0.9434323003309995
 30
0.0
 11
0.1986176267812154
 21
0.0
 31
0.0
210
0.0
220
0.0
230
1.0
 40
0.7071067811865532
 41
2.564584687814242
 42
6.251928656212824
  0
ELLIPSE
  5
138
330
E7
100
AcDbEntity
  8
AM_9
100
AcDbEllipse
 10
-0.6487500000000002
 20
0.9434323003309992
 30
0.0
 11
0.1986176267812154
 21
0.0
 31
0.0
210
0.0
220
0.0
230
1.0
 40
0.7071067811865477
 41
1.570796326794897
 42
2.564584687814237
  0
ELLIPSE
  5
139
330
E7
100
AcDbEntity
  8
AM_9
100
AcDbEllipse
 10
-0.6487499999999973
 20
0.943432300330994
 30
0.0
 11
0.1986176267812126
 21
0.0
 31
0.0
210
0.0
220
0.0
230
1.0
 40
0.7071067811865526
 41
6.251928656212863
 42
7.853981633974483
  0
ELLIPSE
  5
13A
330
E7
100
AcDbEntity
  8
AM_9
100
AcDbEllipse
 10
-0.6487499999999995
 20
1.104854345603981
 30
0.0
 11
0.2057518972230691
 21
3.065942186460929E-9
 31
0.0
210
0.0
220
0.0
230
1.0
 40
0.7071067811865476
 41
0.0
 42
6.283185307179586
  0
ELLIPSE
  5
13B
330
E7
100
AcDbEntity
  8
AM_9
100
AcDbEllipse
 10
-0.6487499999999989
 20
0.9174710485895445
 30
0.0
 11
0.1619028724722742
 21
0.0
 31
0.0
210
0.0
220
0.0
230
1.0
 40
0.7071067811865291
 41
0.0
 42
6.283185307179586
  0
ELLIPSE
  5
13C
330
E7
100
AcDbEntity
  8
AM_4
100
AcDbEllipse
 10
-0.6487500000000002
 20
1.370019388548938
 30
0.0
 11
0.1026779019331883
 21
0.0
 31
0.0
210
0.0
220
0.0
230
1.0
 40
0.7071067811865195
 41
0.9100226861566192
 42
1.570796326794897
  0
ELLIPSE
  5
13D
330
E7
100
AcDbEntity
  8
AM_4
100
AcDbEllipse
 10
-0.64875
 20
1.370019388548938
 30
0.0
 11
0.1026779019331874
 21
0.0
 31
0.0
210
0.0
220
0.0
230
1.0
 40
0.707106781186519
 41
1.570796326794897
 42
2.231569967433176
  0
ENDBLK
  5
EA
330
E7
100
AcDbEntity
  8
0
100
AcDbBlockEnd
  0
BLOCK
  5
140
330
13E
100
AcDbEntity
  8
0
100
AcDbBlockBegin
  2
4_124438H_0_in_124438_2
 70
     2
 10
0.0
 20
0.0
 30
0.0
  3
4_124438H_0_in_124438_2
  1

  0
ATTDEF
  5
142
330
13E
100
AcDbEntity
  8
AM_6
100
AcDbText
 10
5.0555
 20
1.427341719019272
 30
0.0
 40
0.5
  1
FB-SC -I-Housing
100
AcDbAttributeDefinition
  3

  2
NN
 70
     8
280
     0
  0
ATTDEF
  5
143
330
13E
100
AcDbEntity
  8
AM_6
100
AcDbText
 10
5.0555
 20
0.9273417190192723
 30
0.0
 40
0.5
  1
SC 3 Bolt Flange Bearings -(Normal Duty)
100
AcDbAttributeDefinition
  3

  2
NT
 70
     8
280
     0
  0
ATTDEF
  5
144
330
13E
100
AcDbEntity
  8
AM_6
100
AcDbText
 10
5.0555
 20
0.4273417190192723
 30
0.0
 40
0.5
  1
124438H
100
AcDbAttributeDefinition
  3

  2
NB
 70
     8
280
     0
  0
ATTDEF
  5
145
330
13E
100
AcDbEntity
  8
AM_6
100
AcDbText
 10
5.0555
 20
-0.0726582809807277
 30
0.0
 40
0.5
  1
$PN.H
100
AcDbAttributeDefinition
  3

  2
NBSYN
 70
     8
280
     0
  0
ATTDEF
  5
146
330
13E
100
AcDbEntity
  8
AM_6
100
AcDbText
 10
5.0555
 20
-0.5726582809807277
 30
0.0
 40
0.5
  1
124438
100
AcDbAttributeDefinition
  3

  2
LINA
 70
     8
280
     0
  0
ATTDEF
  5
147
330
13E
100
AcDbEntity
  8
AM_6
100
AcDbText
 10
5.0555
 20
-1.072658280980728
 30
0.0
 40
0.5
  1
205
100
AcDbAttributeDefinition
  3

  2
SERIES
 70
     8
280
     0
  0
ATTDEF
  5
148
330
13E
100
AcDbEntity
  8
AM_6
100
AcDbText
 10
5.0555
 20
-1.572658280980728
 30
0.0
 40
0.5
  1
7/8
100
AcDbAttributeDefinition
  3

  2
SS
 70
     8
280
     0
  0
ATTDEF
  5
149
330
13E
100
AcDbEntity
  8
AM_6
100
AcDbText
 10
5.0555
 20
-2.072658280980728
 30
0.0
 40
0.5
  1
124438
100
AcDbAttributeDefinition
  3

  2
PN
 70
     8
280
     0
  0
ATTDEF
  5
14A
330
13E
100
AcDbEntity
  8
AM_6
100
AcDbText
 10
5.0555
 20
-2.572658280980728
 30
0.0
 40
0.5
  1
FB-SC-014
100
AcDbAttributeDefinition
  3

  2
DESCRIPTION
 70
     8
280
     0
  0
ATTDEF
  5
14B
330
13E
100
AcDbEntity
  8
AM_6
100
AcDbText
 10
5.0555
 20
-3.072658280980728
 30
0.0
 40
0.5
  1
1
100
AcDbAttributeDefinition
  3

  2
LF1
 70
     8
280
     0
  0
ATTDEF
  5
14C
330
13E
100
AcDbEntity
  8
AM_6
100
AcDbText
 10
5.0555
 20
-3.572658280980728
 30
0.0
 40
0.5
  1
1.34
100
AcDbAttributeDefinition
  3

  2
A
 70
     8
280
     0
  0
ATTDEF
  5
14D
330
13E
100
AcDbEntity
  8
AM_6
100
AcDbText
 10
5.0555
 20
-4.072658280980727
 30
0.0
 40
0.5
  1
4.75
100
AcDbAttributeDefinition
  3

  2
B
 70
     8
280
     0
  0
ATTDEF
  5
14E
330
13E
100
AcDbEntity
  8
AM_6
100
AcDbText
 10
5.0555
 20
-4.572658280980727
 30
0.0
 40
0.5
  1
1.51
100
AcDbAttributeDefinition
  3

  2
C
 70
     8
280
     0
  0
ATTDEF
  5
14F
330
13E
100
AcDbEntity
  8
AM_6
100
AcDbText
 10
5.0555
 20
-5.072658280980727
 30
0.0
 40
0.5
  1
1.63
100
AcDbAttributeDefinition
  3

  2
D
 70
     8
280
     0
  0
ATTDEF
  5
150
330
13E
100
AcDbEntity
  8
AM_6
100
AcDbText
 10
5.0555
 20
-5.572658280980727
 30
0.0
 40
0.5
  1
1.81
100
AcDbAttributeDefinition
  3

  2
E
 70
     8
280
     0
  0
ATTDEF
  5
151
330
13E
100
AcDbEntity
  8
AM_6
100
AcDbText
 10
5.0555
 20
-6.072658280980727
 30
0.0
 40
0.5
  1
3/8
100
AcDbAttributeDefinition
  3

  2
F
 70
     8
280
     0
  0
ATTDEF
  5
152
330
13E
100
AcDbEntity
  8
AM_6
100
AcDbText
 10
5.0555
 20
-6.572658280980727
 30
0.0
 40
0.5
  1
1.13
100
AcDbAttributeDefinition
  3

  2
G
 70
     8
280
     0
  0
ATTDEF
  5
153
330
13E
100
AcDbEntity
  8
AM_6
100
AcDbText
 10
5.0555
 20
-7.072658280980727
 30
0.0
 40
0.5
  1
0.38
100
AcDbAttributeDefinition
  3

  2
H
 70
     8
280
     0
  0
ATTDEF
  5
154
330
13E
100
AcDbEntity
  8
AM_6
100
AcDbText
 10
5.0555
 20
-7.572658280980727
 30
0.0
 40
0.5
  1
3.38
100
AcDbAttributeDefinition
  3

  2
I
 70
     8
280
     0
  0
ATTDEF
  5
155
330
13E
100
AcDbEntity
  8
AM_6
100
AcDbText
 10
5.0555
 20
-8.072658280980727
 30
0.0
 40
0.5
  1
2.75
100
AcDbAttributeDefinition
  3

  2
J
 70
     8
280
     0
  0
ATTDEF
  5
156
330
13E
100
AcDbEntity
  8
AM_6
100
AcDbText
 10
5.0555
 20
-8.572658280980727
 30
0.0
 40
0.5
  1
1.11
100
AcDbAttributeDefinition
  3

  2
K
 70
     8
280
     0
  0
ATTDEF
  5
157
330
13E
100
AcDbEntity
  8
AM_6
100
AcDbText
 10
5.0555
 20
-9.072658280980727
 30
0.0
 40
0.5
  1
1.32
100
AcDbAttributeDefinition
  3

  2
L
 70
     8
280
     0
  0
ATTDEF
  5
158
330
13E
100
AcDbEntity
  8
AM_6
100
AcDbText
 10
5.0555
 20
-9.572658280980727
 30
0.0
 40
0.5
  1
2.5
100
AcDbAttributeDefinition
  3

  2
M
 70
     8
280
     0
  0
ATTDEF
  5
159
330
13E
100
AcDbEntity
  8
AM_6
100
AcDbText
 10
5.0555
 20
-10.07265828098073
 30
0.0
 40
0.5
  1
baldor
100
AcDbAttributeDefinition
  3

  2
COMPANY
 70
     8
280
     0
  0
LINE
  5
15A
330
13E
100
AcDbEntity
  8
AM_9
100
AcDbLine
 10
-1.11
 20
0.8043339635996978
 30
0.0
 11
-0.0000000000000001
 21
0.8043339635996978
 31
0.0
  0
LINE
  5
15B
330
13E
100
AcDbEntity
  8
AM_9
100
AcDbLine
 10
-1.11
 20
0.698267946421716
 30
0.0
 11
-0.0000000000000001
 21
0.698267946421716
 31
0.0
  0
LINE
  5
15C
330
13E
100
AcDbEntity
  8
AM_9
100
AcDbLine
 10
-0.0000000000000001
 20
0.5521576560435665
 30
0.0
 11
-1.040623836448822
 21
0.4826720934987965
 31
0.0
  0
LINE
  5
15D
330
13E
100
AcDbEntity
  8
AM_9
100
AcDbLine
 10
-0.7787500000000003
 20
1.104854345603981
 30
0.0
 11
-0.7787500000000003
 21
0.963432989366671
 31
0.0
  0
LINE
  5
15E
330
13E
100
AcDbEntity
  8
AM_9
100
AcDbLine
 10
-0.5187499999999999
 20
0.963432989366671
 30
0.0
 11
-0.5187499999999999
 21
1.104854345603981
 31
0.0
  0
LWPOLYLINE
  5
15F
330
13E
100
AcDbEntity
  8
AM_9
100
AcDbPolyline
 90
        9
 70
     0
 43
0.0
 10
-1.11
 20
0.4242188760678373
 10
-1.109134472557589
 20
0.4330940138247899
 10
-1.105777978943074
 20
0.4435800691622875
 10
-1.099700417613468
 20
0.4537989744881447
 10
-1.091722337863576
 20
0.4624645287991525
 10
-1.081293108042401
 20
0.470206904628765
 10
-1.070384845464193
 20
0.4757687810571201
 10
-1.057798593276387
 20
0.479959065559294
 10
-1.040623836448822
 20
0.4826720934987965
  0
LINE
  5
160
330
13E
100
AcDbEntity
  8
AM_9
100
AcDbLine
 10
-0.3799999999999999
 20
-3.1275
 30
0.0
 11
0.0
 21
-3.1275
 31
0.0
  0
LINE
  5
161
330
13E
100
AcDbEntity
  8
AM_9
100
AcDbLine
 10
0.0
 20
-2.7525
 30
0.0
 11
-0.3799999999999999
 21
-2.7525
 31
0.0
  0
LINE
  5
162
330
13E
100
AcDbEntity
  8
AM_9
100
AcDbLine
 10
-0.666
 20
-0.4375
 30
0.0
 11
-0.095
 21
-0.4375
 31
0.0
  0
LINE
  5
163
330
13E
100
AcDbEntity
  8
AM_9
100
AcDbLine
 10
-0.666
 20
0.4374999999999988
 30
0.0
 11
-0.095
 21
0.4374999999999988
 31
0.0
  0
LINE
  5
164
330
13E
100
AcDbEntity
  8
AM_9
100
AcDbLine
 10
-0.3799999999999999
 20
-1.9975
 30
0.0
 11
0.0
 21
-1.9975
 31
0.0
  0
LINE
  5
165
330
13E
100
AcDbEntity
  8
AM_9
100
AcDbLine
 10
0.0
 20
-1.6225
 30
0.0
 11
-0.3799999999999999
 21
-1.6225
 31
0.0
  0
LINE
  5
166
330
13E
100
AcDbEntity
  8
AM_9
100
AcDbLine
 10
-1.11
 20
-1.0236
 30
0.0
 11
-0.0950000000000001
 21
-1.0236
 31
0.0
  0
LINE
  5
167
330
13E
100
AcDbEntity
  8
AM_9
100
AcDbLine
 10
-0.0950000000000001
 20
1.0236
 30
0.0
 11
-1.11
 21
1.0236
 31
0.0
  0
LINE
  5
168
330
13E
100
AcDbEntity
  8
AM_9
100
AcDbLine
 10
-0.666
 20
-0.4375
 30
0.0
 11
-0.666
 21
0.4374999999999988
 31
0.0
  0
LINE
  5
169
330
13E
100
AcDbEntity
  8
AM_9
100
AcDbLine
 10
-0.095
 20
-1.137333333333333
 30
0.0
 11
0.0
 21
-1.137333333333333
 31
0.0
  0
LINE
  5
16A
330
13E
100
AcDbEntity
  8
AM_9
100
AcDbLine
 10
0.0
 20
1.137333333333333
 30
0.0
 11
-0.095
 21
1.137333333333333
 31
0.0
  0
LINE
  5
16B
330
13E
100
AcDbEntity
  8
AM_9
100
AcDbLine
 10
-0.095
 20
1.137333333333333
 30
0.0
 11
-0.095
 21
-1.137333333333333
 31
0.0
  0
LWPOLYLINE
  5
16C
330
13E
100
AcDbEntity
  8
AM_9
100
AcDbPolyline
 90
       10
 70
     0
 43
0.0
 10
-1.040623836448822
 20
1.189778874685344
 10
-1.052436162420614
 20
1.188257961099601
 10
-1.064048075835267
 20
1.185245125937396
 10
-1.074472381484962
 20
1.18103256185967
 10
-1.084051690297902
 20
1.175542515717819
 10
-1.092388436311021
 20
1.168963646101754
 10
-1.099350988612949
 20
1.161364815807667
 10
-1.104843227972087
 20
1.152650862917059
 10
-1.108440366787958
 20
1.143208103255342
 10
-1.11
 20
1.131325657254384
  0
LINE
  5
16D
330
13E
100
AcDbEntity
  8
AM_9
100
AcDbLine
 10
-1.040623836448822
 20
1.189778874685344
 30
0.0
 11
0.0
 21
1.259264437230114
 31
0.0
  0
ELLIPSE
  5
16E
330
13E
100
AcDbEntity
  8
AM_9
100
AcDbEllipse
 10
-0.6487499999999999
 20
0.9634329893666709
 30
0.0
 11
-0.1300000000000003
 21
1.592040838891563E-17
 31
0.0
210
0.0
220
0.0
230
1.0
 40
0.707106781186547
 41
0.0
 42
6.283185307179586
  0
ELLIPSE
  5
16F
330
13E
100
AcDbEntity
  8
AM_9
100
AcDbEllipse
 10
-0.6487499999999995
 20
1.10485434560398
 30
0.0
 11
-0.1299999999999994
 21
1.592040838891553E-17
 31
0.0
210
0.0
220
0.0
230
1.0
 40
0.7071067811865501
 41
0.0
 42
6.283185307179586
  0
LINE
  5
170
330
13E
100
AcDbEntity
  8
AM_7
100
AcDbLine
 10
0.019
 20
-2.94
 30
0.0
 11
-0.399
 21
-2.94
 31
0.0
  0
LINE
  5
171
330
13E
100
AcDbEntity
  8
AM_7
100
AcDbLine
 10
0.019
 20
-1.81
 30
0.0
 11
-0.3990000000000001
 21
-1.81
 31
0.0
  0
LINE
  5
172
330
13E
100
AcDbEntity
  8
AM_7
100
AcDbLine
 10
-1.577
 20
0.0
 30
0.0
 11
0.0555
 21
0.0
 31
0.0
  0
LINE
  5
173
330
13E
100
AcDbEntity
  8
AM_4
100
AcDbLine
 10
0.0
 20
1.427341719019272
 30
0.0
 11
-1.11
 21
1.427341719019272
 31
0.0
  0
LINE
  5
174
330
13E
100
AcDbEntity
  8
AM_4
100
AcDbLine
 10
-1.11
 20
1.405374727608263
 30
0.0
 11
0.0
 21
1.405374727608263
 31
0.0
  0
LINE
  5
175
330
13E
100
AcDbEntity
  8
AM_4
100
AcDbLine
 10
-1.11
 20
1.427341719019272
 30
0.0
 11
-1.11
 21
-1.285925288827879
 31
0.0
  0
ARC
  5
176
330
13E
100
AcDbEntity
  8
AM_4
100
AcDbCircle
 10
-0.5494047619047593
 20
-2.085402675498802
 30
0.0
 40
0.1874999999999973
100
AcDbArc
 50
25.37905101622302
 51
50.23570763413023
  0
ARC
  5
177
330
13E
100
AcDbEntity
  8
AM_4
100
AcDbCircle
 10
-0.9199999999999974
 20
-1.285925288827878
 30
0.0
 40
0.1900000000000027
100
AcDbArc
 50
180.0
 51
230.2357076341294
  0
LINE
  5
178
330
13E
100
AcDbEntity
  8
AM_4
100
AcDbLine
 10
-1.041529846069927
 20
-1.431974925986689
 30
0.0
 11
-0.4294739927568082
 21
-1.941274744092083
 31
0.0
  0
LINE
  5
179
330
13E
100
AcDbEntity
  8
AM_4
100
AcDbLine
 10
-0.3799999999999999
 20
-3.38
 30
0.0
 11
0.0
 21
-3.38
 31
0.0
  0
LINE
  5
17A
330
13E
100
AcDbEntity
  8
AM_4
100
AcDbLine
 10
-0.3799999999999999
 20
-3.196102819983546
 30
0.0
 11
0.0
 21
-3.196102819983546
 31
0.0
  0
LINE
  5
17B
330
13E
100
AcDbEntity
  8
AM_4
100
AcDbLine
 10
-0.3799999999999999
 20
-2.063192560665551
 30
0.0
 11
0.0000000000000001
 21
-2.063192560665551
 31
0.0
  0
LINE
  5
17C
330
13E
100
AcDbEntity
  8
AM_4
100
AcDbLine
 10
-0.3799999999999999
 20
-3.38
 30
0.0
 11
-0.3799999999999999
 21
-0.4876521533442323
 31
0.0
  0
LINE
  5
17D
330
13E
100
AcDbEntity
  8
AM_4
100
AcDbLine
 10
-0.3799999999999999
 20
-1.81
 30
0.0
 11
0.0000000000000001
 21
-1.81
 31
0.0
  0
LWPOLYLINE
  5
17E
330
13E
100
AcDbEntity
  8
AM_4
100
AcDbPolyline
 90
       10
 70
     0
 43
0.0
 10
-1.040623836448821
 20
-1.269821294706564
 10
-1.058705440680968
 20
-1.265940032740664
 10
-1.072645196102745
 20
-1.25943642273996
 10
-1.082959630777882
 20
-1.252040782692163
 10
-1.092142147902534
 20
-1.24274981731095
 10
-1.09942568361732
 20
-1.232357141432097
 10
-1.105033410047134
 20
-1.220569981689759
 10
-1.108532654307427
 20
-1.208260963107848
 10
-1.109975221843117
 20
-1.195178834234514
 10
-1.11
 20
-1.193213894309946
  0
ARC
  5
17F
330
13E
100
AcDbEntity
  8
AM_4
100
AcDbCircle
 10
-1.034
 20
1.2082464142609
 30
0.0
 40
0.0760000000000002
100
AcDbArc
 50
95.00000000000018
 51
180.0
  0
LINE
  5
180
330
13E
100
AcDbEntity
  8
AM_4
100
AcDbLine
 10
-1.040623836448821
 20
-1.269821294706564
 30
0.0
 11
-0.3800000000000001
 21
-1.328233647616739
 31
0.0
  0
LWPOLYLINE
  5
181
330
13E
100
AcDbEntity
  8
AM_4
100
AcDbPolyline
 90
        3
 70
     0
 43
0.0
 10
-0.3799999999999999
 20
-0.4876521533442323
 10
-0.193504615645551
 20
-0.5309007355885055
 10
0.0000000000000001
 20
-0.5728219618694796
  0
LINE
  5
182
330
13E
100
AcDbEntity
  8
AM_4
100
AcDbLine
 10
0.0
 20
1.375
 30
0.0
 11
-1.040623836448822
 21
1.283957211315873
 31
0.0
  0
LINE
  5
183
330
13E
100
AcDbEntity
  8
AM_4
100
AcDbLine
 10
-1.040623836448822
 20
1.283957211315873
 30
0.0
 11
-1.040623836448821
 21
-1.269821294706564
 31
0.0
  0
LINE
  5
184
330
13E
100
AcDbEntity
  8
AM_4
100
AcDbLine
 10
0.0
 20
1.427341719019272
 30
0.0
 11
0.0
 21
-3.38
 31
0.0
  0
ENDBLK
  5
141
330
13E
100
AcDbEntity
  8
0
100
AcDbBlockEnd
  0
ENDSEC
  0
SECTION
  2
ENTITIES
  0
INSERT
  5
6F
330
1F
100
AcDbEntity
  8
0
100
AcDbBlockReference
  2
1_124438_2
 10
0.0
 20
0.0
 30
0.0
  0
POINT
  5
186
330
1F
100
AcDbEntity
  8
ConnectionPoints
100
AcDbPoint
 10
-0.6487500000000002
 20
1.10485434560398
 30
-1.104854345603981
  0
POINT
  5
187
330
1F
100
AcDbEntity
  8
ConnectionPoints
100
AcDbPoint
 10
-0.6487500000000002
 20
1.10485434560398
 30
-1.104854345603981
  0
POINT
  5
188
330
1F
100
AcDbEntity
  8
ConnectionPoints
100
AcDbPoint
 10
-1.51
 20
0.0
 30
0.0000000000000001
  0
ENDSEC
  0
SECTION
  2
OBJECTS
  0
DICTIONARY
  5
C
330
0
100
AcDbDictionary
281
     1
  3
ACAD_DETAILVIEWSTYLE
350
190
  3
ACAD_GROUP
350
D
  3
ACAD_LAYOUT
350
1A
  3
ACAD_MATERIAL
350
43
  3
ACAD_MLEADERSTYLE
350
6B
  3
ACAD_MLINESTYLE
350
17
  3
ACAD_PLOTSETTINGS
350
19
  3
ACAD_PLOTSTYLENAME
350
E
  3
ACAD_SCALELIST
350
47
  3
ACAD_SECTIONVIEWSTYLE
350
191
  3
ACAD_TABLESTYLE
350
69
  3
ACAD_VISUALSTYLE
350
2A
  3
ACDB_RECOMPOSE_DATA
350
18D
  3
AcDbVariableDictionary
350
189
  0
SUN
  5
6D
330
29
100
AcDbSun
 90
        1
290
     0
 63
     7
421
 16777215
 40
1.0
291
     1
 91
  2455826
 92
 54000000
292
     0
 70
     2
 71
   256
280
     1
  0
DICTIONARY
  5
190
102
{ACAD_REACTORS
330
C
102
}
330
C
100
AcDbDictionary
281
     1
  0
DICTIONARY
  5
D
102
{ACAD_REACTORS
330
C
102
}
330
C
100
AcDbDictionary
281
     1
  0
DICTIONARY
  5
1A
102
{ACAD_REACTORS
330
C
102
}
330
C
100
AcDbDictionary
281
     1
  3
Layout1
350
1E
  3
Layout2
350
26
  3
Model
350
22
  0
DICTIONARY
  5
43
102
{ACAD_REACTORS
330
C
102
}
330
C
100
AcDbDictionary
281
     1
  3
ByBlock
350
45
  3
ByLayer
350
44
  3
Global
350
46
  0
DICTIONARY
  5
6B
102
{ACAD_REACTORS
330
C
102
}
330
C
100
AcDbDictionary
281
     1
  3
Standard
350
6C
  0
DICTIONARY
  5
17
102
{ACAD_REACTORS
330
C
102
}
330
C
100
AcDbDictionary
281
     1
  3
Standard
350
18
  0
DICTIONARY
  5
19
102
{ACAD_REACTORS
330
C
102
}
330
C
100
AcDbDictionary
281
     1
  0
ACDBDICTIONARYWDFLT
  5
E
102
{ACAD_REACTORS
330
C
102
}
330
C
100
AcDbDictionary
281
     1
  3
Normal
350
F
100
AcDbDictionaryWithDefault
340
F
  0
DICTIONARY
  5
47
102
{ACAD_REACTORS
330
C
102
}
330
C
100
AcDbDictionary
281
     1
  3
A0
350
48
  3
A1
350
49
  3
A2
350
4A
  3
A3
350
4B
  3
A4
350
4C
  3
A5
350
4D
  3
A6
350
4E
  3
A7
350
4F
  3
A8
350
50
  3
A9
350
51
  3
B0
350
52
  3
B1
350
53
  3
B2
350
54
  3
B3
350
55
  3
B4
350
56
  3
B5
350
57
  3
B6
350
58
  3
B7
350
59
  3
B8
350
5A
  3
B9
350
5B
  3
C0
350
5C
  3
C1
350
5D
  3
C2
350
5E
  3
C3
350
5F
  3
C4
350
60
  3
C5
350
61
  3
C6
350
62
  3
C7
350
63
  3
C8
350
64
  3
C9
350
65
  3
D0
350
66
  3
D1
350
67
  3
D2
350
68
  0
DICTIONARY
  5
191
102
{ACAD_REACTORS
330
C
102
}
330
C
100
AcDbDictionary
281
     1
  0
DICTIONARY
  5
69
102
{ACAD_REACTORS
330
C
102
}
330
C
100
AcDbDictionary
281
     1
  3
Standard
350
6A
  0
DICTIONARY
  5
2A
102
{ACAD_REACTORS
330
C
102
}
330
C
100
AcDbDictionary
281
     1
  3
2dWireframe
350
2F
  3
Basic
350
32
  3
Brighten
350
36
  3
ColorChange
350
3A
  3
Conceptual
350
34
  3
Dim
350
35
  3
EdgeColorOff
350
3D
  3
Facepattern
350
39
  3
Flat
350
2B
  3
FlatWithEdges
350
2C
  3
Gouraud
350
2D
  3
GouraudWithEdges
350
2E
  3
Hidden
350
31
  3
JitterOff
350
3B
  3
Linepattern
350
38
  3
OverhangOff
350
3C
  3
Realistic
350
33
  3
Shaded
350
42
  3
Shaded with edges
350
41
  3
Shades of Gray
350
3E
  3
Sketchy
350
3F
  3
Thicken
350
37
  3
Wireframe
350
30
  3
X-Ray
350
40
  0
XRECORD
  5
18D
102
{ACAD_REACTORS
330
C
102
}
330
C
100
AcDbXrecord
280
     1
 90
        1
330
6A
  0
DICTIONARY
  5
189
102
{ACAD_REACTORS
330
C
102
}
330
C
100
AcDbDictionary
281
     1
  3
CANNOSCALE
350
18A
  3
CMLEADERSTYLE
350
18F
  3
CTABLESTYLE
350
18E
  0
LAYOUT
  5
1E
102
{ACAD_REACTORS
330
1A
102
}
330
1A
100
AcDbPlotSettings
  1

  2
none_device
  4

  6

 40
0.0
 41
0.0
 42
0.0
 43
0.0
 44
0.0
 45
0.0
 46
0.0
 47
0.0
 48
0.0
 49
0.0
140
0.0
141
0.0
142
1.0
143
1.0
 70
   688
 72
     0
 73
     0
 74
     5
  7

 75
    16
 76
     0
 77
     2
 78
   300
147
1.0
148
0.0
149
0.0
100
AcDbLayout
  1
Layout1
 70
     1
 71
     1
 10
0.0
 20
0.0
 11
12.0
 21
9.0
 12
0.0
 22
0.0
 32
0.0
 14
1.000000000000000E+20
 24
1.000000000000000E+20
 34
1.000000000000000E+20
 15
-1.000000000000000E+20
 25
-1.000000000000000E+20
 35
-1.000000000000000E+20
146
0.0
 13
0.0
 23
0.0
 33
0.0
 16
1.0
 26
0.0
 36
0.0
 17
0.0
 27
1.0
 37
0.0
 76
     0
330
1B
  0
LAYOUT
  5
26
102
{ACAD_REACTORS
330
1A
102
}
330
1A
100
AcDbPlotSettings
  1

  2
none_device
  4

  6

 40
0.0
 41
0.0
 42
0.0
 43
0.0
 44
0.0
 45
0.0
 46
0.0
 47
0.0
 48
0.0
 49
0.0
140
0.0
141
0.0
142
1.0
143
1.0
 70
   688
 72
     0
 73
     0
 74
     5
  7

 75
    16
 76
     0
 77
     2
 78
   300
147
1.0
148
0.0
149
0.0
100
AcDbLayout
  1
Layout2
 70
     1
 71
     2
 10
0.0
 20
0.0
 11
0.0
 21
0.0
 12
0.0
 22
0.0
 32
0.0
 14
0.0
 24
0.0
 34
0.0
 15
0.0
 25
0.0
 35
0.0
146
0.0
 13
0.0
 23
0.0
 33
0.0
 16
1.0
 26
0.0
 36
0.0
 17
0.0
 27
1.0
 37
0.0
 76
     0
330
23
  0
LAYOUT
  5
22
102
{ACAD_REACTORS
330
1A
102
}
330
1A
100
AcDbPlotSettings
  1

  2
none_device
  4
Letter_(8.50_x_11.00_Inches)
  6

 40
6.35
 41
6.35
 42
6.35000508
 43
6.35000508
 44
215.9
 45
279.4
 46
0.0
 47
0.0
 48
0.0
 49
0.0
140
0.0
141
0.0
142
1.0
143
1.0
 70
  1712
 72
     0
 73
     0
 74
     0
  7

 75
     0
 76
     0
 77
     2
 78
   300
147
1.0
148
0.0
149
0.0
100
AcDbLayout
  1
Model
 70
     1
 71
     0
 10
0.0
 20
0.0
 11
12.0
 21
9.0
 12
0.0
 22
0.0
 32
0.0
 14
1.000000000000000E+20
 24
1.000000000000000E+20
 34
1.000000000000000E+20
 15
-1.000000000000000E+20
 25
-1.000000000000000E+20
 35
-1.000000000000000E+20
146
0.0
 13
0.0
 23
0.0
 33
0.0
 16
1.0
 26
0.0
 36
0.0
 17
0.0
 27
1.0
 37
0.0
 76
     0
330
1F
331
29
  0
MATERIAL
  5
45
102
{ACAD_REACTORS
330
43
102
}
330
43
100
AcDbMaterial
  1
ByBlock
 72
     1
 94
      127
  0
MATERIAL
  5
44
102
{ACAD_REACTORS
330
43
102
}
330
43
100
AcDbMaterial
  1
ByLayer
 72
     1
 94
      127
  0
MATERIAL
  5
46
102
{ACAD_REACTORS
330
43
102
}
330
43
100
AcDbMaterial
  1
Global
 72
     1
 94
      127
  0
MLEADERSTYLE
  5
6C
102
{ACAD_REACTORS
330
6B
102
}
330
6B
100
AcDbMLeaderStyle
179
     2
170
     2
171
     1
172
     0
 90
        2
 40
0.0
 41
0.0
173
     1
 91
-1056964608
340
14
 92
       -2
290
     1
 42
0.09
291
     1
 43
0.36
  3
Standard
341
0
 44
0.18
300

342
11
174
     1
178
     6
175
     1
176
     0
 93
-1056964608
 45
0.18
292
     0
297
     0
 46
0.18
343
0
 94
-1056964608
 47
1.0
 49
1.0
140
1.0
293
     1
141
0.0
294
     1
177
     0
142
1.0
295
     0
296
     0
143
0.125
271
     0
272
     9
273
     9
298
     0
  0
MLINESTYLE
  5
18
102
{ACAD_REACTORS
330
17
102
}
330
17
100
AcDbMlineStyle
  2
Standard
 70
     0
  3

 62
   256
 51
90.0
 52
90.0
 71
     2
 49
0.5
 62
   256
  6
BYLAYER
 49
-0.5
 62
   256
  6
BYLAYER
  0
ACDBPLACEHOLDER
  5
F
102
{ACAD_REACTORS
330
E
102
}
330
E
  0
SCALE
  5
48
102
{ACAD_REACTORS
330
47
102
}
330
47
100
AcDbScale
 70
     0
300
1:1
140
1.0
141
1.0
290
     1
  0
SCALE
  5
49
102
{ACAD_REACTORS
330
47
102
}
330
47
100
AcDbScale
 70
     0
300
1:2
140
1.0
141
2.0
290
     0
  0
SCALE
  5
4A
102
{ACAD_REACTORS
330
47
102
}
330
47
100
AcDbScale
 70
     0
300
1:4
140
1.0
141
4.0
290
     0
  0
SCALE
  5
4B
102
{ACAD_REACTORS
330
47
102
}
330
47
100
AcDbScale
 70
     0
300
1:5
140
1.0
141
5.0
290
     0
  0
SCALE
  5
4C
102
{ACAD_REACTORS
330
47
102
}
330
47
100
AcDbScale
 70
     0
300
1:8
140
1.0
141
8.0
290
     0
  0
SCALE
  5
4D
102
{ACAD_REACTORS
330
47
102
}
330
47
100
AcDbScale
 70
     0
300
1:10
140
1.0
141
10.0
290
     0
  0
SCALE
  5
4E
102
{ACAD_REACTORS
330
47
102
}
330
47
100
AcDbScale
 70
     0
300
1:16
140
1.0
141
16.0
290
     0
  0
SCALE
  5
4F
102
{ACAD_REACTORS
330
47
102
}
330
47
100
AcDbScale
 70
     0
300
1:20
140
1.0
141
20.0
290
     0
  0
SCALE
  5
50
102
{ACAD_REACTORS
330
47
102
}
330
47
100
AcDbScale
 70
     0
300
1:30
140
1.0
141
30.0
290
     0
  0
SCALE
  5
51
102
{ACAD_REACTORS
330
47
102
}
330
47
100
AcDbScale
 70
     0
300
1:40
140
1.0
141
40.0
290
     0
  0
SCALE
  5
52
102
{ACAD_REACTORS
330
47
102
}
330
47
100
AcDbScale
 70
     0
300
1:50
140
1.0
141
50.0
290
     0
  0
SCALE
  5
53
102
{ACAD_REACTORS
330
47
102
}
330
47
100
AcDbScale
 70
     0
300
1:100
140
1.0
141
100.0
290
     0
  0
SCALE
  5
54
102
{ACAD_REACTORS
330
47
102
}
330
47
100
AcDbScale
 70
     0
300
2:1
140
2.0
141
1.0
290
     0
  0
SCALE
  5
55
102
{ACAD_REACTORS
330
47
102
}
330
47
100
AcDbScale
 70
     0
300
4:1
140
4.0
141
1.0
290
     0
  0
SCALE
  5
56
102
{ACAD_REACTORS
330
47
102
}
330
47
100
AcDbScale
 70
     0
300
8:1
140
8.0
141
1.0
290
     0
  0
SCALE
  5
57
102
{ACAD_REACTORS
330
47
102
}
330
47
100
AcDbScale
 70
     0
300
10:1
140
10.0
141
1.0
290
     0
  0
SCALE
  5
58
102
{ACAD_REACTORS
330
47
102
}
330
47
100
AcDbScale
 70
     0
300
100:1
140
100.0
141
1.0
290
     0
  0
SCALE
  5
59
102
{ACAD_REACTORS
330
47
102
}
330
47
100
AcDbScale
 70
     0
300
1/128" = 1'-0"
140
0.0078125
141
12.0
290
     0
  0
SCALE
  5
5A
102
{ACAD_REACTORS
330
47
102
}
330
47
100
AcDbScale
 70
     0
300
1/64" = 1'-0"
140
0.015625
141
12.0
290
     0
  0
SCALE
  5
5B
102
{ACAD_REACTORS
330
47
102
}
330
47
100
AcDbScale
 70
     0
300
1/32" = 1'-0"
140
0.03125
141
12.0
290
     0
  0
SCALE
  5
5C
102
{ACAD_REACTORS
330
47
102
}
330
47
100
AcDbScale
 70
     0
300
1/16" = 1'-0"
140
0.0625
141
12.0
290
     0
  0
SCALE
  5
5D
102
{ACAD_REACTORS
330
47
102
}
330
47
100
AcDbScale
 70
     0
300
3/32" = 1'-0"
140
0.09375
141
12.0
290
     0
  0
SCALE
  5
5E
102
{ACAD_REACTORS
330
47
102
}
330
47
100
AcDbScale
 70
     0
300
1/8" = 1'-0"
140
0.125
141
12.0
290
     0
  0
SCALE
  5
5F
102
{ACAD_REACTORS
330
47
102
}
330
47
100
AcDbScale
 70
     0
300
3/16" = 1'-0"
140
0.1875
141
12.0
290
     0
  0
SCALE
  5
60
102
{ACAD_REACTORS
330
47
102
}
330
47
100
AcDbScale
 70
     0
300
1/4" = 1'-0"
140
0.25
141
12.0
290
     0
  0
SCALE
  5
61
102
{ACAD_REACTORS
330
47
102
}
330
47
100
AcDbScale
 70
     0
300
3/8" = 1'-0"
140
0.375
141
12.0
290
     0
  0
SCALE
  5
62
102
{ACAD_REACTORS
330
47
102
}
330
47
100
AcDbScale
 70
     0
300
1/2" = 1'-0"
140
0.5
141
12.0
290
     0
  0
SCALE
  5
63
102
{ACAD_REACTORS
330
47
102
}
330
47
100
AcDbScale
 70
     0
300
3/4" = 1'-0"
140
0.75
141
12.0
290
     0
  0
SCALE
  5
64
102
{ACAD_REACTORS
330
47
102
}
330
47
100
AcDbScale
 70
     0
300
1" = 1'-0"
140
1.0
141
12.0
290
     0
  0
SCALE
  5
65
102
{ACAD_REACTORS
330
47
102
}
330
47
100
AcDbScale
 70
     0
300
1-1/2" = 1'-0"
140
1.5
141
12.0
290
     0
  0
SCALE
  5
66
102
{ACAD_REACTORS
330
47
102
}
330
47
100
AcDbScale
 70
     0
300
3" = 1'-0"
140
3.0
141
12.0
290
     0
  0
SCALE
  5
67
102
{ACAD_REACTORS
330
47
102
}
330
47
100
AcDbScale
 70
     0
300
6" = 1'-0"
140
6.0
141
12.0
290
     0
  0
SCALE
  5
68
102
{ACAD_REACTORS
330
47
102
}
330
47
100
AcDbScale
 70
     0
300
1'-0" = 1'-0"
140
12.0
141
12.0
290
     0
  0
TABLESTYLE
  5
6A
102
{ACAD_REACTORS
330
69
102
}
102
{ACAD_XDICTIONARY
360
18B
102
}
330
69
100
AcDbTableStyle
  3
Standard
 70
     0
 71
     0
 40
0.06
 41
0.06
280
     0
281
     0
  7
Standard
140
0.18
170
     2
 62
     0
 63
   257
283
     0
 90
        4
 91
        0
  1

274
    -2
284
     1
 64
     0
275
    -2
285
     1
 65
     0
276
    -2
286
     1
 66
     0
277
    -2
287
     1
 67
     0
278
    -2
288
     1
 68
     0
279
    -2
289
     1
 69
     0
  7
Standard
140
0.25
170
     5
 62
     0
 63
   257
283
     0
 90
        4
 91
        0
  1

274
    -2
284
     1
 64
     0
275
    -2
285
     1
 65
     0
276
    -2
286
     1
 66
     0
277
    -2
287
     1
 67
     0
278
    -2
288
     1
 68
     0
279
    -2
289
     1
 69
     0
  7
Standard
140
0.18
170
     5
 62
     0
 63
   257
283
     0
 90
        4
 91
        0
  1

274
    -2
284
     1
 64
     0
275
    -2
285
     1
 65
     0
276
    -2
286
     1
 66
     0
277
    -2
287
     1
 67
     0
278
    -2
288
     1
 68
     0
279
    -2
289
     1
 69
     0
  0
VISUALSTYLE
  5
2F
102
{ACAD_REACTORS
330
2A
102
}
330
2A
100
AcDbVisualStyle
  2
2dWireframe
 70
     4
177
     3
291
     0
 70
    58
 90
        0
176
     1
 90
        2
176
     1
 90
        0
176
     1
 90
        0
176
     1
 40
0.6
176
     1
 40
30.0
176
     1
 62
     7
420
 16777215
176
     1
 90
        1
176
     1
 90
        4
176
     1
 62
     7
176
     1
 62
   257
176
     1
 90
        1
176
     1
 90
        1
176
     1
 40
1.0
176
     1
 90
        0
176
     1
 62
   257
176
     1
 40
1.0
176
     1
 90
        1
176
     1
 90
        6
176
     1
 90
        2
176
     1
 62
     7
176
     1
 90
        5
176
     1
 90
        0
176
     1
 90
        0
176
     1
290
     0
176
     1
 90
        1
176
     1
 40
0.0
176
     1
 90
        0
176
     1
290
     1
176
     1
290
     1
176
     1
290
     0
176
     1
290
     0
176
     1
290
     0
176
     1
290
     0
176
     1
290
     0
176
     1
290
     0
176
     1
290
     0
176
     1
 90
       50
176
     1
 40
0.0
176
     1
 40
1.0
176
     1
 90
        0
176
     1
 62
    18
420
        0
176
     1
 90
       50
176
     1
 90
        3
176
     1
 62
     5
420
      255
176
     1
290
     0
176
     1
 90
       50
176
     1
 90
       50
176
     1
 90
       50
176
     1
290
     0
176
     1
 90
       50
176
     1
 62
   256
176
     0
 40
1.0
176
     0
 90
        2
176
     1
  1
strokes_ogs.tif
176
     1
290
     0
176
     1
 40
1.0
176
     1
 40
1.0
176
     1
  0
VISUALSTYLE
  5
32
102
{ACAD_REACTORS
330
2A
102
}
330
2A
100
AcDbVisualStyle
  2
Basic
 70
     7
177
     3
291
     1
 70
    58
 90
        1
176
     1
 90
        0
176
     1
 90
        1
176
     1
 90
        0
176
     1
 40
0.6
176
     1
 40
30.0
176
     1
 62
     7
420
 16777215
176
     1
 90
        0
176
     1
 90
        4
176
     1
 62
     7
176
     1
 62
   257
176
     1
 90
        1
176
     1
 90
        1
176
     1
 40
1.0
176
     1
 90
        8
176
     1
 62
     7
176
     1
 40
1.0
176
     1
 90
        1
176
     1
 90
        6
176
     1
 90
        2
176
     1
 62
     7
176
     1
 90
        5
176
     1
 90
        0
176
     1
 90
        0
176
     1
290
     0
176
     1
 90
        1
176
     1
 40
0.0
176
     1
 90
        0
176
     1
290
     0
176
     1
290
     1
176
     1
290
     1
176
     1
290
     0
176
     1
290
     0
176
     1
290
     0
176
     1
290
     0
176
     1
290
     0
176
     1
290
     0
176
     1
 90
       50
176
     1
 40
0.0
176
     1
 40
1.0
176
     1
 90
        0
176
     1
 62
    18
420
        0
176
     1
 90
       50
176
     1
 90
        3
176
     1
 62
     5
420
      255
176
     1
290
     0
176
     1
 90
       50
176
     1
 90
       50
176
     1
 90
       50
176
     1
290
     0
176
     1
 90
       50
176
     1
 62
   256
176
     0
 40
1.0
176
     0
 90
        2
176
     1
  1
strokes_ogs.tif
176
     1
290
     0
176
     1
 40
1.0
176
     1
 40
1.0
176
     1
  0
VISUALSTYLE
  5
36
102
{ACAD_REACTORS
330
2A
102
}
330
2A
100
AcDbVisualStyle
  2
Brighten
 70
    12
177
     3
291
     1
 70
    58
 90
        2
176
     1
 90
        2
176
     1
 90
        0
176
     1
 90
        0
176
     1
 40
0.6
176
     1
 40
30.0
176
     1
 62
     7
420
 16777215
176
     1
 90
        1
176
     1
 90
        4
176
     1
 62
     7
176
     1
 62
   257
176
     1
 90
        1
176
     1
 90
        1
176
     1
 40
1.0
176
     1
 90
        8
176
     1
 62
     7
176
     1
 40
1.0
176
     1
 90
        1
176
     1
 90
        6
176
     1
 90
        2
176
     1
 62
     7
176
     1
 90
        5
176
     1
 90
        0
176
     1
 90
        0
176
     1
290
     0
176
     1
 90
        1
176
     1
 40
50.0
176
     1
 90
        0
176
     1
290
     0
176
     1
290
     1
176
     1
290
     1
176
     1
290
     0
176
     1
290
     0
176
     1
290
     0
176
     1
290
     0
176
     1
290
     0
176
     1
290
     0
176
     1
 90
       50
176
     1
 40
0.0
176
     1
 40
1.0
176
     1
 90
        0
176
     1
 62
    18
420
        0
176
     1
 90
       50
176
     1
 90
        3
176
     1
 62
     5
420
      255
176
     1
290
     0
176
     1
 90
       50
176
     1
 90
       50
176
     1
 90
       50
176
     1
290
     0
176
     1
 90
       50
176
     1
 62
   256
176
     0
 40
1.0
176
     0
 90
        2
176
     1
  1
strokes_ogs.tif
176
     1
290
     0
176
     1
 40
1.0
176
     1
 40
1.0
176
     1
  0
VISUALSTYLE
  5
3A
102
{ACAD_REACTORS
330
2A
102
}
330
2A
100
AcDbVisualStyle
  2
ColorChange
 70
    16
177
     3
291
     1
 70
    58
 90
        2
176
     1
 90
        2
176
     1
 90
        3
176
     1
 90
        0
176
     1
 40
0.6
176
     1
 40
30.0
176
     1
 62
     8
420
  8421504
176
     1
 90
        1
176
     1
 90
        4
176
     1
 62
     7
176
     1
 62
   257
176
     1
 90
        1
176
     1
 90
        1
176
     1
 40
1.0
176
     1
 90
        8
176
     1
 62
     8
420
  8421504
176
     1
 40
1.0
176
     1
 90
        1
176
     1
 90
        6
176
     1
 90
        2
176
     1
 62
     7
176
     1
 90
        5
176
     1
 90
        0
176
     1
 90
        0
176
     1
290
     0
176
     1
 90
        1
176
     1
 40
0.0
176
     1
 90
        0
176
     1
290
     0
176
     1
290
     1
176
     1
290
     1
176
     1
290
     0
176
     1
290
     0
176
     1
290
     0
176
     1
290
     0
176
     1
290
     0
176
     1
290
     0
176
     1
 90
       50
176
     1
 40
0.0
176
     1
 40
1.0
176
     1
 90
        0
176
     1
 62
    18
420
        0
176
     1
 90
       50
176
     1
 90
        3
176
     1
 62
     5
420
      255
176
     1
290
     0
176
     1
 90
       50
176
     1
 90
       50
176
     1
 90
       50
176
     1
290
     0
176
     1
 90
       50
176
     1
 62
   256
176
     0
 40
1.0
176
     0
 90
        2
176
     1
  1
strokes_ogs.tif
176
     1
290
     0
176
     1
 40
1.0
176
     1
 40
1.0
176
     1
  0
VISUALSTYLE
  5
34
102
{ACAD_REACTORS
330
2A
102
}
330
2A
100
AcDbVisualStyle
  2
Conceptual
 70
     9
177
     3
291
     0
 70
    58
 90
        3
176
     1
 90
        2
176
     1
 90
        0
176
     1
 90
        0
176
     1
 40
0.6
176
     1
 40
30.0
176
     1
 62
     7
420
 16777215
176
     1
 90
        2
176
     1
 90
        2
176
     1
 62
     7
176
     1
 62
   257
176
     1
 90
        1
176
     1
 90
        1
176
     1
 40
179.0
176
     1
 90
        8
176
     1
 62
     7
176
     1
 40
1.0
176
     1
 90
        1
176
     1
 90
        6
176
     1
 90
        2
176
     1
 62
     7
176
     1
 90
        3
176
     1
 90
        0
176
     1
 90
        0
176
     1
290
     0
176
     1
 90
        1
176
     1
 40
0.0
176
     1
 90
        0
176
     1
290
     0
176
     1
290
     1
176
     1
290
     1
176
     1
290
     0
176
     1
290
     0
176
     1
290
     0
176
     1
290
     0
176
     1
290
     0
176
     1
290
     0
176
     1
 90
       50
176
     1
 40
0.0
176
     1
 40
1.0
176
     1
 90
        0
176
     1
 62
    18
420
        0
176
     1
 90
       50
176
     1
 90
        3
176
     1
 62
     5
420
      255
176
     1
290
     0
176
     1
 90
       50
176
     1
 90
       50
176
     1
 90
       50
176
     1
290
     0
176
     1
 90
       50
176
     1
 62
   256
176
     0
 40
1.0
176
     0
 90
        2
176
     1
  1
strokes_ogs.tif
176
     1
290
     0
176
     1
 40
1.0
176
     1
 40
1.0
176
     1
  0
VISUALSTYLE
  5
35
102
{ACAD_REACTORS
330
2A
102
}
330
2A
100
AcDbVisualStyle
  2
Dim
 70
    11
177
     3
291
     1
 70
    58
 90
        2
176
     1
 90
        2
176
     1
 90
        0
176
     1
 90
        0
176
     1
 40
0.6
176
     1
 40
30.0
176
     1
 62
     7
420
 16777215
176
     1
 90
        1
176
     1
 90
        4
176
     1
 62
     7
176
     1
 62
   257
176
     1
 90
        1
176
     1
 90
        1
176
     1
 40
1.0
176
     1
 90
        8
176
     1
 62
     7
176
     1
 40
1.0
176
     1
 90
        1
176
     1
 90
        6
176
     1
 90
        2
176
     1
 62
     7
176
     1
 90
        5
176
     1
 90
        0
176
     1
 90
        0
176
     1
290
     0
176
     1
 90
        1
176
     1
 40
-50.0
176
     1
 90
        0
176
     1
290
     0
176
     1
290
     1
176
     1
290
     1
176
     1
290
     0
176
     1
290
     0
176
     1
290
     0
176
     1
290
     0
176
     1
290
     0
176
     1
290
     0
176
     1
 90
       50
176
     1
 40
0.0
176
     1
 40
1.0
176
     1
 90
        0
176
     1
 62
    18
420
        0
176
     1
 90
       50
176
     1
 90
        3
176
     1
 62
     5
420
      255
176
     1
290
     0
176
     1
 90
       50
176
     1
 90
       50
176
     1
 90
       50
176
     1
290
     0
176
     1
 90
       50
176
     1
 62
   256
176
     0
 40
1.0
176
     0
 90
        2
176
     1
  1
strokes_ogs.tif
176
     1
290
     0
176
     1
 40
1.0
176
     1
 40
1.0
176
     1
  0
VISUALSTYLE
  5
3D
102
{ACAD_REACTORS
330
2A
102
}
330
2A
100
AcDbVisualStyle
  2
EdgeColorOff
 70
    22
177
     3
291
     1
 70
    58
 90
        2
176
     0
 90
        2
176
     0
 90
        0
176
     0
 90
        0
176
     0
 40
0.6
176
     0
 40
30.0
176
     0
 62
     7
420
 16777215
176
     0
 90
        1
176
     0
 90
        4
176
     0
 62
     7
176
     0
 62
   257
176
     0
 90
        1
176
     0
 90
        1
176
     0
 40
1.0
176
     0
 90
        8
176
     2
 62
     7
176
     0
 40
1.0
176
     0
 90
        1
176
     0
 90
        6
176
     0
 90
        2
176
     0
 62
     7
176
     0
 90
        5
176
     0
 90
        0
176
     0
 90
        0
176
     0
290
     0
176
     0
 90
        1
176
     0
 40
0.0
176
     0
 90
        0
176
     0
290
     0
176
     0
290
     1
176
     0
290
     1
176
     0
290
     0
176
     0
290
     0
176
     0
290
     0
176
     0
290
     0
176
     0
290
     0
176
     0
290
     0
176
     0
 90
       50
176
     0
 40
0.0
176
     0
 40
1.0
176
     0
 90
        0
176
     0
 62
    18
420
        0
176
     0
 90
       50
176
     0
 90
        3
176
     0
 62
     5
420
      255
176
     0
290
     0
176
     0
 90
       50
176
     0
 90
       50
176
     0
 90
       50
176
     0
290
     0
176
     0
 90
       50
176
     0
 62
   256
176
     0
 40
1.0
176
     0
 90
        2
176
     0
  1
strokes_ogs.tif
176
     0
290
     0
176
     0
 40
1.0
176
     0
 40
1.0
176
     0
  0
VISUALSTYLE
  5
39
102
{ACAD_REACTORS
330
2A
102
}
330
2A
100
AcDbVisualStyle
  2
Facepattern
 70
    15
177
     3
291
     1
 70
    58
 90
        2
176
     1
 90
        2
176
     1
 90
        0
176
     1
 90
        0
176
     1
 40
0.6
176
     1
 40
30.0
176
     1
 62
     7
420
 16777215
176
     1
 90
        1
176
     1
 90
        4
176
     1
 62
     7
176
     1
 62
   257
176
     1
 90
        1
176
     1
 90
        1
176
     1
 40
1.0
176
     1
 90
        8
176
     1
 62
     7
176
     1
 40
1.0
176
     1
 90
        1
176
     1
 90
        6
176
     1
 90
        2
176
     1
 62
     7
176
     1
 90
        5
176
     1
 90
        0
176
     1
 90
        0
176
     1
290
     0
176
     1
 90
        1
176
     1
 40
0.0
176
     1
 90
        0
176
     1
290
     0
176
     1
290
     1
176
     1
290
     1
176
     1
290
     0
176
     1
290
     0
176
     1
290
     0
176
     1
290
     0
176
     1
290
     0
176
     1
290
     0
176
     1
 90
       50
176
     1
 40
0.0
176
     1
 40
1.0
176
     1
 90
        0
176
     1
 62
    18
420
        0
176
     1
 90
       50
176
     1
 90
        3
176
     1
 62
     5
420
      255
176
     1
290
     0
176
     1
 90
       50
176
     1
 90
       50
176
     1
 90
       50
176
     1
290
     0
176
     1
 90
       50
176
     1
 62
   256
176
     0
 40
1.0
176
     0
 90
        2
176
     1
  1
strokes_ogs.tif
176
     1
290
     0
176
     1
 40
1.0
176
     1
 40
1.0
176
     1
  0
VISUALSTYLE
  5
2B
102
{ACAD_REACTORS
330
2A
102
}
330
2A
100
AcDbVisualStyle
  2
Flat
 70
     0
177
     3
291
     1
 70
    58
 90
        2
176
     1
 90
        1
176
     1
 90
        1
176
     1
 90
        2
176
     1
 40
0.6
176
     1
 40
30.0
176
     1
 62
     7
420
 16777215
176
     1
 90
        0
176
     1
 90
        0
176
     1
 62
     7
176
     1
 62
   257
176
     1
 90
        1
176
     1
 90
        1
176
     1
 40
1.0
176
     1
 90
        8
176
     1
 62
     7
176
     1
 40
1.0
176
     1
 90
        1
176
     1
 90
        6
176
     1
 90
        2
176
     1
 62
     7
176
     1
 90
        5
176
     1
 90
        0
176
     1
 90
        0
176
     1
290
     0
176
     1
 90
       13
176
     1
 40
0.0
176
     1
 90
        0
176
     1
290
     0
176
     1
290
     1
176
     1
290
     1
176
     1
290
     0
176
     1
290
     0
176
     1
290
     0
176
     1
290
     0
176
     1
290
     0
176
     1
290
     0
176
     1
 90
       50
176
     1
 40
0.0
176
     1
 40
1.0
176
     1
 90
        0
176
     1
 62
    18
420
        0
176
     1
 90
       50
176
     1
 90
        3
176
     1
 62
     5
420
      255
176
     1
290
     0
176
     1
 90
       50
176
     1
 90
       50
176
     1
 90
       50
176
     1
290
     0
176
     1
 90
       50
176
     1
 62
   256
176
     0
 40
1.0
176
     0
 90
        2
176
     1
  1
strokes_ogs.tif
176
     1
290
     0
176
     1
 40
1.0
176
     1
 40
1.0
176
     1
  0
VISUALSTYLE
  5
2C
102
{ACAD_REACTORS
330
2A
102
}
330
2A
100
AcDbVisualStyle
  2
FlatWithEdges
 70
     1
177
     3
291
     1
 70
    58
 90
        2
176
     1
 90
        1
176
     1
 90
        1
176
     1
 90
        2
176
     1
 40
0.6
176
     1
 40
30.0
176
     1
 62
     7
420
 16777215
176
     1
 90
        1
176
     1
 90
        0
176
     1
 62
     7
176
     1
 62
   257
176
     1
 90
        1
176
     1
 90
        1
176
     1
 40
1.0
176
     1
 90
        0
176
     1
 62
   257
176
     1
 40
1.0
176
     1
 90
        1
176
     1
 90
        6
176
     1
 90
        2
176
     1
 62
     7
176
     1
 90
        5
176
     1
 90
        0
176
     1
 90
        0
176
     1
290
     0
176
     1
 90
       13
176
     1
 40
0.0
176
     1
 90
        0
176
     1
290
     0
176
     1
290
     1
176
     1
290
     1
176
     1
290
     0
176
     1
290
     0
176
     1
290
     0
176
     1
290
     0
176
     1
290
     0
176
     1
290
     0
176
     1
 90
       50
176
     1
 40
0.0
176
     1
 40
1.0
176
     1
 90
        0
176
     1
 62
    18
420
        0
176
     1
 90
       50
176
     1
 90
        3
176
     1
 62
     5
420
      255
176
     1
290
     0
176
     1
 90
       50
176
     1
 90
       50
176
     1
 90
       50
176
     1
290
     0
176
     1
 90
       50
176
     1
 62
   256
176
     0
 40
1.0
176
     0
 90
        2
176
     1
  1
strokes_ogs.tif
176
     1
290
     0
176
     1
 40
1.0
176
     1
 40
1.0
176
     1
  0
VISUALSTYLE
  5
2D
102
{ACAD_REACTORS
330
2A
102
}
330
2A
100
AcDbVisualStyle
  2
Gouraud
 70
     2
177
     3
291
     1
 70
    58
 90
        2
176
     1
 90
        2
176
     1
 90
        1
176
     1
 90
        2
176
     1
 40
0.6
176
     1
 40
30.0
176
     1
 62
     7
420
 16777215
176
     1
 90
        0
176
     1
 90
        0
176
     1
 62
     7
176
     1
 62
   257
176
     1
 90
        1
176
     1
 90
        1
176
     1
 40
1.0
176
     1
 90
        0
176
     1
 62
     7
176
     1
 40
1.0
176
     1
 90
        1
176
     1
 90
        6
176
     1
 90
        2
176
     1
 62
     7
176
     1
 90
        5
176
     1
 90
        0
176
     1
 90
        0
176
     1
290
     0
176
     1
 90
       13
176
     1
 40
0.0
176
     1
 90
        0
176
     1
290
     0
176
     1
290
     1
176
     1
290
     1
176
     1
290
     0
176
     1
290
     0
176
     1
290
     0
176
     1
290
     0
176
     1
290
     0
176
     1
290
     0
176
     1
 90
       50
176
     1
 40
0.0
176
     1
 40
1.0
176
     1
 90
        0
176
     1
 62
    18
420
        0
176
     1
 90
       50
176
     1
 90
        3
176
     1
 62
     5
420
      255
176
     1
290
     0
176
     1
 90
       50
176
     1
 90
       50
176
     1
 90
       50
176
     1
290
     0
176
     1
 90
       50
176
     1
 62
   256
176
     0
 40
1.0
176
     0
 90
        2
176
     1
  1
strokes_ogs.tif
176
     1
290
     0
176
     1
 40
1.0
176
     1
 40
1.0
176
     1
  0
VISUALSTYLE
  5
2E
102
{ACAD_REACTORS
330
2A
102
}
330
2A
100
AcDbVisualStyle
  2
GouraudWithEdges
 70
     3
177
     3
291
     1
 70
    58
 90
        2
176
     1
 90
        2
176
     1
 90
        1
176
     1
 90
        2
176
     1
 40
0.6
176
     1
 40
30.0
176
     1
 62
     7
420
 16777215
176
     1
 90
        1
176
     1
 90
        0
176
     1
 62
     7
176
     1
 62
   257
176
     1
 90
        1
176
     1
 90
        1
176
     1
 40
1.0
176
     1
 90
        0
176
     1
 62
   257
176
     1
 40
1.0
176
     1
 90
        1
176
     1
 90
        6
176
     1
 90
        2
176
     1
 62
     7
176
     1
 90
        5
176
     1
 90
        0
176
     1
 90
        0
176
     1
290
     0
176
     1
 90
       13
176
     1
 40
0.0
176
     1
 90
        0
176
     1
290
     0
176
     1
290
     1
176
     1
290
     1
176
     1
290
     0
176
     1
290
     0
176
     1
290
     0
176
     1
290
     0
176
     1
290
     0
176
     1
290
     0
176
     1
 90
       50
176
     1
 40
0.0
176
     1
 40
1.0
176
     1
 90
        0
176
     1
 62
    18
420
        0
176
     1
 90
       50
176
     1
 90
        3
176
     1
 62
     5
420
      255
176
     1
290
     0
176
     1
 90
       50
176
     1
 90
       50
176
     1
 90
       50
176
     1
290
     0
176
     1
 90
       50
176
     1
 62
   256
176
     0
 40
1.0
176
     0
 90
        2
176
     1
  1
strokes_ogs.tif
176
     1
290
     0
176
     1
 40
1.0
176
     1
 40
1.0
176
     1
  0
VISUALSTYLE
  5
31
102
{ACAD_REACTORS
330
2A
102
}
330
2A
100
AcDbVisualStyle
  2
Hidden
 70
     6
177
     3
291
     0
 70
    58
 90
        1
176
     1
 90
        2
176
     1
 90
        2
176
     1
 90
        0
176
     1
 40
0.6
176
     1
 40
30.0
176
     1
 62
     7
420
 16777215
176
     1
 90
        2
176
     1
 90
        2
176
     1
 62
     7
176
     1
 62
   257
176
     1
 90
        2
176
     1
 90
        1
176
     1
 40
40.0
176
     1
 90
        0
176
     1
 62
   257
176
     1
 40
1.0
176
     1
 90
        1
176
     1
 90
        6
176
     1
 90
        2
176
     1
 62
     7
176
     1
 90
        3
176
     1
 90
        0
176
     1
 90
        0
176
     1
290
     0
176
     1
 90
        1
176
     1
 40
0.0
176
     1
 90
        0
176
     1
290
     0
176
     1
290
     1
176
     1
290
     1
176
     1
290
     0
176
     1
290
     0
176
     1
290
     0
176
     1
290
     0
176
     1
290
     0
176
     1
290
     0
176
     1
 90
       50
176
     1
 40
0.0
176
     1
 40
1.0
176
     1
 90
        0
176
     1
 62
    18
420
        0
176
     1
 90
       50
176
     1
 90
        3
176
     1
 62
     5
420
      255
176
     1
290
     0
176
     1
 90
       50
176
     1
 90
       50
176
     1
 90
       50
176
     1
290
     0
176
     1
 90
       50
176
     1
 62
   256
176
     0
 40
1.0
176
     0
 90
        2
176
     1
  1
strokes_ogs.tif
176
     1
290
     0
176
     1
 40
1.0
176
     1
 40
1.0
176
     1
  0
VISUALSTYLE
  5
3B
102
{ACAD_REACTORS
330
2A
102
}
330
2A
100
AcDbVisualStyle
  2
JitterOff
 70
    20
177
     3
291
     1
 70
    58
 90
        2
176
     0
 90
        2
176
     0
 90
        0
176
     0
 90
        0
176
     0
 40
0.6
176
     0
 40
30.0
176
     0
 62
     7
420
 16777215
176
     0
 90
        1
176
     0
 90
        4
176
     0
 62
     7
176
     0
 62
   257
176
     0
 90
        1
176
     0
 90
        1
176
     0
 40
1.0
176
     0
 90
       10
176
     2
 62
     7
176
     0
 40
1.0
176
     0
 90
        1
176
     0
 90
        6
176
     0
 90
        2
176
     0
 62
     7
176
     0
 90
        5
176
     0
 90
        0
176
     0
 90
        0
176
     0
290
     0
176
     0
 90
        1
176
     0
 40
0.0
176
     0
 90
        0
176
     0
290
     0
176
     0
290
     1
176
     0
290
     1
176
     0
290
     0
176
     0
290
     0
176
     0
290
     0
176
     0
290
     0
176
     0
290
     0
176
     0
290
     0
176
     0
 90
       50
176
     0
 40
0.0
176
     0
 40
1.0
176
     0
 90
        0
176
     0
 62
    18
420
        0
176
     0
 90
       50
176
     0
 90
        3
176
     0
 62
     5
420
      255
176
     0
290
     0
176
     0
 90
       50
176
     0
 90
       50
176
     0
 90
       50
176
     0
290
     0
176
     0
 90
       50
176
     0
 62
   256
176
     0
 40
1.0
176
     0
 90
        2
176
     0
  1
strokes_ogs.tif
176
     0
290
     0
176
     0
 40
1.0
176
     0
 40
1.0
176
     0
  0
VISUALSTYLE
  5
38
102
{ACAD_REACTORS
330
2A
102
}
330
2A
100
AcDbVisualStyle
  2
Linepattern
 70
    14
177
     3
291
     1
 70
    58
 90
        2
176
     1
 90
        2
176
     1
 90
        0
176
     1
 90
        0
176
     1
 40
0.6
176
     1
 40
30.0
176
     1
 62
     7
420
 16777215
176
     1
 90
        1
176
     1
 90
        4
176
     1
 62
     7
176
     1
 62
   257
176
     1
 90
        7
176
     1
 90
        7
176
     1
 40
1.0
176
     1
 90
        8
176
     1
 62
     7
176
     1
 40
1.0
176
     1
 90
        1
176
     1
 90
        6
176
     1
 90
        2
176
     1
 62
     7
176
     1
 90
        5
176
     1
 90
        0
176
     1
 90
        0
176
     1
290
     0
176
     1
 90
        1
176
     1
 40
0.0
176
     1
 90
        0
176
     1
290
     0
176
     1
290
     1
176
     1
290
     1
176
     1
290
     0
176
     1
290
     0
176
     1
290
     0
176
     1
290
     0
176
     1
290
     0
176
     1
290
     0
176
     1
 90
       50
176
     1
 40
0.0
176
     1
 40
1.0
176
     1
 90
        0
176
     1
 62
    18
420
        0
176
     1
 90
       50
176
     1
 90
        3
176
     1
 62
     5
420
      255
176
     1
290
     0
176
     1
 90
       50
176
     1
 90
       50
176
     1
 90
       50
176
     1
290
     0
176
     1
 90
       50
176
     1
 62
   256
176
     0
 40
1.0
176
     0
 90
        2
176
     1
  1
strokes_ogs.tif
176
     1
290
     0
176
     1
 40
1.0
176
     1
 40
1.0
176
     1
  0
VISUALSTYLE
  5
3C
102
{ACAD_REACTORS
330
2A
102
}
330
2A
100
AcDbVisualStyle
  2
OverhangOff
 70
    21
177
     3
291
     1
 70
    58
 90
        2
176
     0
 90
        2
176
     0
 90
        0
176
     0
 90
        0
176
     0
 40
0.6
176
     0
 40
30.0
176
     0
 62
     7
420
 16777215
176
     0
 90
        1
176
     0
 90
        4
176
     0
 62
     7
176
     0
 62
   257
176
     0
 90
        1
176
     0
 90
        1
176
     0
 40
1.0
176
     0
 90
        9
176
     2
 62
     7
176
     0
 40
1.0
176
     0
 90
        1
176
     0
 90
        6
176
     0
 90
        2
176
     0
 62
     7
176
     0
 90
        5
176
     0
 90
        0
176
     0
 90
        0
176
     0
290
     0
176
     0
 90
        1
176
     0
 40
0.0
176
     0
 90
        0
176
     0
290
     0
176
     0
290
     1
176
     0
290
     1
176
     0
290
     0
176
     0
290
     0
176
     0
290
     0
176
     0
290
     0
176
     0
290
     0
176
     0
290
     0
176
     0
 90
       50
176
     0
 40
0.0
176
     0
 40
1.0
176
     0
 90
        0
176
     0
 62
    18
420
        0
176
     0
 90
       50
176
     0
 90
        3
176
     0
 62
     5
420
      255
176
     0
290
     0
176
     0
 90
       50
176
     0
 90
       50
176
     0
 90
       50
176
     0
290
     0
176
     0
 90
       50
176
     0
 62
   256
176
     0
 40
1.0
176
     0
 90
        2
176
     0
  1
strokes_ogs.tif
176
     0
290
     0
176
     0
 40
1.0
176
     0
 40
1.0
176
     0
  0
VISUALSTYLE
  5
33
102
{ACAD_REACTORS
330
2A
102
}
330
2A
100
AcDbVisualStyle
  2
Realistic
 70
     8
177
     3
291
     0
 70
    58
 90
        2
176
     1
 90
        3
176
     1
 90
        0
176
     1
 90
        2
176
     1
 40
0.6
176
     1
 40
30.0
176
     1
 62
     7
420
 16777215
176
     1
 90
        0
176
     1
 90
        0
176
     1
 62
     7
176
     1
 62
   257
176
     1
 90
        1
176
     1
 90
        1
176
     1
 40
1.0
176
     1
 90
        8
176
     1
 62
   257
176
     1
 40
1.0
176
     1
 90
        1
176
     1
 90
        6
176
     1
 90
        2
176
     1
 62
     7
176
     1
 90
        3
176
     1
 90
        0
176
     1
 90
        0
176
     1
290
     0
176
     1
 90
       13
176
     1
 40
0.0
176
     1
 90
        0
176
     1
290
     0
176
     1
290
     1
176
     1
290
     1
176
     1
290
     0
176
     1
290
     0
176
     1
290
     0
176
     1
290
     0
176
     1
290
     0
176
     1
290
     0
176
     1
 90
       50
176
     1
 40
0.0
176
     1
 40
1.0
176
     1
 90
        0
176
     1
 62
    18
420
        0
176
     1
 90
       50
176
     1
 90
        3
176
     1
 62
     5
420
      255
176
     1
290
     0
176
     1
 90
       50
176
     1
 90
       50
176
     1
 90
       50
176
     1
290
     0
176
     1
 90
       50
176
     1
 62
   256
176
     0
 40
1.0
176
     0
 90
        2
176
     1
  1
strokes_ogs.tif
176
     1
290
     0
176
     1
 40
1.0
176
     1
 40
1.0
176
     1
  0
VISUALSTYLE
  5
42
102
{ACAD_REACTORS
330
2A
102
}
330
2A
100
AcDbVisualStyle
  2
Shaded
 70
    27
177
     3
291
     0
 70
    58
 90
        2
176
     1
 90
        2
176
     1
 90
        1
176
     1
 90
        2
176
     1
 40
0.6
176
     1
 40
30.0
176
     1
 62
     7
420
 16777215
176
     1
 90
        0
176
     1
 90
        4
176
     1
 62
     7
176
     1
 62
   257
176
     1
 90
        1
176
     1
 90
        1
176
     1
 40
1.0
176
     1
 90
        8
176
     1
 62
   257
176
     1
 40
1.0
176
     1
 90
        1
176
     1
 90
        6
176
     1
 90
        2
176
     1
 62
     8
420
  7895160
176
     1
 90
        3
176
     1
 90
        0
176
     1
 90
        0
176
     1
290
     0
176
     1
 90
        5
176
     1
 40
0.0
176
     1
 90
        0
176
     1
290
     0
176
     1
290
     1
176
     1
290
     1
176
     1
290
     0
176
     1
290
     0
176
     1
290
     0
176
     1
290
     0
176
     1
290
     0
176
     1
290
     0
176
     1
 90
       50
176
     1
 40
0.0
176
     1
 40
1.0
176
     1
 90
        0
176
     1
 62
    18
420
        0
176
     1
 90
       50
176
     1
 90
        3
176
     1
 62
     5
420
      255
176
     1
290
     0
176
     1
 90
       50
176
     1
 90
       50
176
     1
 90
       50
176
     1
290
     0
176
     1
 90
       50
176
     1
 62
   256
176
     0
 40
1.0
176
     0
 90
        2
176
     1
  1
strokes_ogs.tif
176
     1
290
     0
176
     1
 40
1.0
176
     1
 40
1.0
176
     1
  0
VISUALSTYLE
  5
41
102
{ACAD_REACTORS
330
2A
102
}
330
2A
100
AcDbVisualStyle
  2
Shaded with edges
 70
    26
177
     3
291
     0
 70
    58
 90
        2
176
     1
 90
        2
176
     1
 90
        1
176
     1
 90
        2
176
     1
 40
0.6
176
     1
 40
30.0
176
     1
 62
     7
420
 16777215
176
     1
 90
        1
176
     1
 90
       10
176
     1
 62
     7
176
     1
 62
   257
176
     1
 90
        2
176
     1
 90
        1
176
     1
 40
1.0
176
     1
 90
        8
176
     1
 62
   257
176
     1
 40
1.0
176
     1
 90
        1
176
     1
 90
        6
176
     1
 90
        2
176
     1
 62
     7
176
     1
 90
        3
176
     1
 90
        0
176
     1
 90
        0
176
     1
290
     0
176
     1
 90
        5
176
     1
 40
0.0
176
     1
 90
        0
176
     1
290
     0
176
     1
290
     1
176
     1
290
     1
176
     1
290
     0
176
     1
290
     0
176
     1
290
     0
176
     1
290
     0
176
     1
290
     0
176
     1
290
     0
176
     1
 90
       50
176
     1
 40
0.0
176
     1
 40
1.0
176
     1
 90
        0
176
     1
 62
    18
420
        0
176
     1
 90
       50
176
     1
 90
        3
176
     1
 62
     5
420
      255
176
     1
290
     0
176
     1
 90
       50
176
     1
 90
       50
176
     1
 90
       50
176
     1
290
     0
176
     1
 90
       50
176
     1
 62
   256
176
     0
 40
1.0
176
     0
 90
        2
176
     1
  1
strokes_ogs.tif
176
     1
290
     0
176
     1
 40
1.0
176
     1
 40
1.0
176
     1
  0
VISUALSTYLE
  5
3E
102
{ACAD_REACTORS
330
2A
102
}
330
2A
100
AcDbVisualStyle
  2
Shades of Gray
 70
    23
177
     3
291
     0
 70
    58
 90
        2
176
     1
 90
        2
176
     1
 90
        3
176
     1
 90
        0
176
     1
 40
0.6
176
     1
 40
30.0
176
     1
 62
     7
420
 16777215
176
     1
 90
        2
176
     1
 90
        2
176
     1
 62
     7
176
     1
 62
     7
176
     1
 90
        1
176
     1
 90
        1
176
     1
 40
40.0
176
     1
 90
        8
176
     1
 62
     7
176
     1
 40
1.0
176
     1
 90
        1
176
     1
 90
        6
176
     1
 90
        2
176
     1
 62
     7
176
     1
 90
        3
176
     1
 90
        0
176
     1
 90
        0
176
     1
290
     0
176
     1
 90
        1
176
     1
 40
0.0
176
     1
 90
        0
176
     1
290
     0
176
     1
290
     1
176
     1
290
     1
176
     1
290
     0
176
     1
290
     0
176
     1
290
     0
176
     1
290
     0
176
     1
290
     0
176
     1
290
     0
176
     1
 90
       50
176
     1
 40
0.0
176
     1
 40
1.0
176
     1
 90
        0
176
     1
 62
    18
420
        0
176
     1
 90
       50
176
     1
 90
        3
176
     1
 62
     5
420
      255
176
     1
290
     0
176
     1
 90
       50
176
     1
 90
       50
176
     1
 90
       50
176
     1
290
     0
176
     1
 90
       50
176
     1
 62
   256
176
     0
 40
1.0
176
     0
 90
        2
176
     1
  1
strokes_ogs.tif
176
     1
290
     0
176
     1
 40
1.0
176
     1
 40
1.0
176
     1
  0
VISUALSTYLE
  5
3F
102
{ACAD_REACTORS
330
2A
102
}
330
2A
100
AcDbVisualStyle
  2
Sketchy
 70
    24
177
     3
291
     0
 70
    58
 90
        1
176
     1
 90
        2
176
     1
 90
        2
176
     1
 90
        0
176
     1
 40
0.6
176
     1
 40
30.0
176
     1
 62
     7
420
 16777215
176
     1
 90
        2
176
     1
 90
        2
176
     1
 62
     7
176
     1
 62
     7
176
     1
 90
        1
176
     1
 90
        1
176
     1
 40
40.0
176
     1
 90
       11
176
     1
 62
     7
176
     1
 40
1.0
176
     1
 90
        1
176
     1
 90
        6
176
     1
 90
        2
176
     1
 62
     7
176
     1
 90
        6
176
     1
 90
        0
176
     1
 90
        0
176
     1
290
     0
176
     1
 90
        1
176
     1
 40
0.0
176
     1
 90
        0
176
     1
290
     0
176
     1
290
     1
176
     1
290
     1
176
     1
290
     0
176
     1
290
     0
176
     1
290
     0
176
     1
290
     0
176
     1
290
     0
176
     1
290
     0
176
     1
 90
       50
176
     1
 40
0.0
176
     1
 40
1.0
176
     1
 90
        0
176
     1
 62
    18
420
        0
176
     1
 90
       50
176
     1
 90
        3
176
     1
 62
     5
420
      255
176
     1
290
     0
176
     1
 90
       50
176
     1
 90
       50
176
     1
 90
       50
176
     1
290
     0
176
     1
 90
       50
176
     1
 62
   256
176
     0
 40
1.0
176
     0
 90
        2
176
     1
  1
strokes_ogs.tif
176
     1
290
     0
176
     1
 40
1.0
176
     1
 40
1.0
176
     1
  0
VISUALSTYLE
  5
37
102
{ACAD_REACTORS
330
2A
102
}
330
2A
100
AcDbVisualStyle
  2
Thicken
 70
    13
177
     3
291
     1
 70
    58
 90
        2
176
     1
 90
        2
176
     1
 90
        0
176
     1
 90
        0
176
     1
 40
0.6
176
     1
 40
30.0
176
     1
 62
     7
420
 16777215
176
     1
 90
        1
176
     1
 90
        4
176
     1
 62
     7
176
     1
 62
   257
176
     1
 90
        1
176
     1
 90
        1
176
     1
 40
1.0
176
     1
 90
       12
176
     1
 62
     7
176
     1
 40
1.0
176
     1
 90
        1
176
     1
 90
        6
176
     1
 90
        2
176
     1
 62
     7
176
     1
 90
        5
176
     1
 90
        0
176
     1
 90
        0
176
     1
290
     0
176
     1
 90
        1
176
     1
 40
0.0
176
     1
 90
        0
176
     1
290
     0
176
     1
290
     1
176
     1
290
     1
176
     1
290
     0
176
     1
290
     0
176
     1
290
     0
176
     1
290
     0
176
     1
290
     0
176
     1
290
     0
176
     1
 90
       50
176
     1
 40
0.0
176
     1
 40
1.0
176
     1
 90
        0
176
     1
 62
    18
420
        0
176
     1
 90
       50
176
     1
 90
        3
176
     1
 62
     5
420
      255
176
     1
290
     0
176
     1
 90
       50
176
     1
 90
       50
176
     1
 90
       50
176
     1
290
     0
176
     1
 90
       50
176
     1
 62
   256
176
     0
 40
1.0
176
     0
 90
        2
176
     1
  1
strokes_ogs.tif
176
     1
290
     0
176
     1
 40
1.0
176
     1
 40
1.0
176
     1
  0
VISUALSTYLE
  5
30
102
{ACAD_REACTORS
330
2A
102
}
330
2A
100
AcDbVisualStyle
  2
Wireframe
 70
     5
177
     3
291
     0
 70
    58
 90
        0
176
     1
 90
        2
176
     1
 90
        0
176
     1
 90
        0
176
     1
 40
0.6
176
     1
 40
30.0
176
     1
 62
     7
420
 16777215
176
     1
 90
        1
176
     1
 90
        4
176
     1
 62
     7
176
     1
 62
   257
176
     1
 90
        1
176
     1
 90
        1
176
     1
 40
1.0
176
     1
 90
        0
176
     1
 62
   257
176
     1
 40
1.0
176
     1
 90
        1
176
     1
 90
        6
176
     1
 90
        2
176
     1
 62
     7
176
     1
 90
        3
176
     1
 90
        0
176
     1
 90
        0
176
     1
290
     0
176
     1
 90
        1
176
     1
 40
0.0
176
     1
 90
        0
176
     1
290
     0
176
     1
290
     1
176
     1
290
     1
176
     1
290
     0
176
     1
290
     0
176
     1
290
     0
176
     1
290
     0
176
     1
290
     0
176
     1
290
     0
176
     1
 90
       50
176
     1
 40
0.0
176
     1
 40
1.0
176
     1
 90
        0
176
     1
 62
    18
420
        0
176
     1
 90
       50
176
     1
 90
        3
176
     1
 62
     5
420
      255
176
     1
290
     0
176
     1
 90
       50
176
     1
 90
       50
176
     1
 90
       50
176
     1
290
     0
176
     1
 90
       50
176
     1
 62
   256
176
     0
 40
1.0
176
     0
 90
        2
176
     1
  1
strokes_ogs.tif
176
     1
290
     0
176
     1
 40
1.0
176
     1
 40
1.0
176
     1
  0
VISUALSTYLE
  5
40
102
{ACAD_REACTORS
330
2A
102
}
330
2A
100
AcDbVisualStyle
  2
X-Ray
 70
    25
177
     3
291
     0
 70
    58
 90
        2
176
     1
 90
        2
176
     1
 90
        1
176
     1
 90
        1
176
     1
 40
0.5
176
     1
 40
30.0
176
     1
 62
     7
420
 16777215
176
     1
 90
        1
176
     1
 90
        0
176
     1
 62
     7
176
     1
 62
   257
176
     1
 90
        1
176
     1
 90
        1
176
     1
 40
1.0
176
     1
 90
        8
176
     1
 62
     7
176
     1
 40
1.0
176
     1
 90
        1
176
     1
 90
        6
176
     1
 90
        2
176
     1
 62
     7
176
     1
 90
        3
176
     1
 90
        0
176
     1
 90
        0
176
     1
290
     0
176
     1
 90
       13
176
     1
 40
0.0
176
     1
 90
        0
176
     1
290
     0
176
     1
290
     1
176
     1
290
     1
176
     1
290
     0
176
     1
290
     0
176
     1
290
     0
176
     1
290
     0
176
     1
290
     0
176
     1
290
     0
176
     1
 90
       50
176
     1
 40
0.0
176
     1
 40
1.0
176
     1
 90
        0
176
     1
 62
    18
420
        0
176
     1
 90
       50
176
     1
 90
        3
176
     1
 62
     5
420
      255
176
     1
290
     0
176
     1
 90
       50
176
     1
 90
       50
176
     1
 90
       50
176
     1
290
     0
176
     1
 90
       50
176
     1
 62
   256
176
     0
 40
1.0
176
     0
 90
        2
176
     1
  1
strokes_ogs.tif
176
     1
290
     0
176
     1
 40
1.0
176
     1
 40
1.0
176
     1
  0
DICTIONARYVAR
  5
18A
102
{ACAD_REACTORS
330
189
102
}
330
189
100
DictionaryVariables
280
     0
  1
1:1
  0
DICTIONARYVAR
  5
18F
102
{ACAD_REACTORS
330
189
102
}
330
189
100
DictionaryVariables
280
     0
  1
Standard
  0
DICTIONARYVAR
  5
18E
102
{ACAD_REACTORS
330
189
102
}
330
189
100
DictionaryVariables
280
     0
  1
Standard
  0
DICTIONARY
  5
18B
330
6A
100
AcDbDictionary
280
     1
281
     1
  3
ACAD_ROUNDTRIP_2008_TABLESTYLE_CELLSTYLEMAP
360
18C
  0
CELLSTYLEMAP
  5
18C
102
{ACAD_REACTORS
330
18B
102
}
330
18B
100
AcDbCellStyleMap
 90
        3
300
CELLSTYLE
  1
TABLEFORMAT_BEGIN
 90
        5
170
     1
 91
        0
 92
    32768
 62
   257
 93
        1
300
CONTENTFORMAT
  1
CONTENTFORMAT_BEGIN
 90
        0
 91
        0
 92
        4
 93
        0
300

 40
0.0
140
1.0
 94
        5
 62
     0
340
11
144
0.25
309
CONTENTFORMAT_END
171
     1
301
MARGIN
  1
CELLMARGIN_BEGIN
 40
0.06
 40
0.06
 40
0.06
 40
0.06
 40
0.06
 40
0.06
309
CELLMARGIN_END
 94
        6
 95
        1
302
GRIDFORMAT
  1
GRIDFORMAT_BEGIN
 90
        0
 91
        1
 62
     0
 92
       -2
340
14
 93
        0
 40
0.045
309
GRIDFORMAT_END
 95
        2
302
GRIDFORMAT
  1
GRIDFORMAT_BEGIN
 90
        0
 91
        1
 62
     0
 92
       -2
340
14
 93
        0
 40
0.045
309
GRIDFORMAT_END
 95
        4
302
GRIDFORMAT
  1
GRIDFORMAT_BEGIN
 90
        0
 91
        1
 62
     0
 92
       -2
340
14
 93
        0
 40
0.045
309
GRIDFORMAT_END
 95
        8
302
GRIDFORMAT
  1
GRIDFORMAT_BEGIN
 90
        0
 91
        1
 62
     0
 92
       -2
340
14
 93
        0
 40
0.045
309
GRIDFORMAT_END
 95
       16
302
GRIDFORMAT
  1
GRIDFORMAT_BEGIN
 90
        0
 91
        1
 62
     0
 92
       -2
340
14
 93
        0
 40
0.045
309
GRIDFORMAT_END
 95
       32
302
GRIDFORMAT
  1
GRIDFORMAT_BEGIN
 90
        0
 91
        1
 62
     0
 92
       -2
340
14
 93
        0
 40
0.045
309
GRIDFORMAT_END
309
TABLEFORMAT_END
  1
CELLSTYLE_BEGIN
 90
        1
 91
        1
300
_TITLE
309
CELLSTYLE_END
300
CELLSTYLE
  1
TABLEFORMAT_BEGIN
 90
        5
170
     1
 91
        0
 92
        0
 62
   257
 93
        1
300
CONTENTFORMAT
  1
CONTENTFORMAT_BEGIN
 90
        0
 91
        0
 92
        4
 93
        0
300

 40
0.0
140
1.0
 94
        5
 62
     0
340
11
144
0.18
309
CONTENTFORMAT_END
171
     1
301
MARGIN
  1
CELLMARGIN_BEGIN
 40
0.06
 40
0.06
 40
0.06
 40
0.06
 40
0.06
 40
0.06
309
CELLMARGIN_END
 94
        6
 95
        1
302
GRIDFORMAT
  1
GRIDFORMAT_BEGIN
 90
        0
 91
        1
 62
     0
 92
       -2
340
14
 93
        0
 40
0.045
309
GRIDFORMAT_END
 95
        2
302
GRIDFORMAT
  1
GRIDFORMAT_BEGIN
 90
        0
 91
        1
 62
     0
 92
       -2
340
14
 93
        0
 40
0.045
309
GRIDFORMAT_END
 95
        4
302
GRIDFORMAT
  1
GRIDFORMAT_BEGIN
 90
        0
 91
        1
 62
     0
 92
       -2
340
14
 93
        0
 40
0.045
309
GRIDFORMAT_END
 95
        8
302
GRIDFORMAT
  1
GRIDFORMAT_BEGIN
 90
        0
 91
        1
 62
     0
 92
       -2
340
14
 93
        0
 40
0.045
309
GRIDFORMAT_END
 95
       16
302
GRIDFORMAT
  1
GRIDFORMAT_BEGIN
 90
        0
 91
        1
 62
     0
 92
       -2
340
14
 93
        0
 40
0.045
309
GRIDFORMAT_END
 95
       32
302
GRIDFORMAT
  1
GRIDFORMAT_BEGIN
 90
        0
 91
        1
 62
     0
 92
       -2
340
14
 93
        0
 40
0.045
309
GRIDFORMAT_END
309
TABLEFORMAT_END
  1
CELLSTYLE_BEGIN
 90
        2
 91
        1
300
_HEADER
309
CELLSTYLE_END
300
CELLSTYLE
  1
TABLEFORMAT_BEGIN
 90
        5
170
     1
 91
        0
 92
        0
 62
   257
 93
        1
300
CONTENTFORMAT
  1
CONTENTFORMAT_BEGIN
 90
        0
 91
        0
 92
        4
 93
        0
300

 40
0.0
140
1.0
 94
        2
 62
     0
340
11
144
0.18
309
CONTENTFORMAT_END
171
     1
301
MARGIN
  1
CELLMARGIN_BEGIN
 40
0.06
 40
0.06
 40
0.06
 40
0.06
 40
0.06
 40
0.06
309
CELLMARGIN_END
 94
        6
 95
        1
302
GRIDFORMAT
  1
GRIDFORMAT_BEGIN
 90
        0
 91
        1
 62
     0
 92
       -2
340
14
 93
        0
 40
0.045
309
GRIDFORMAT_END
 95
        2
302
GRIDFORMAT
  1
GRIDFORMAT_BEGIN
 90
        0
 91
        1
 62
     0
 92
       -2
340
14
 93
        0
 40
0.045
309
GRIDFORMAT_END
 95
        4
302
GRIDFORMAT
  1
GRIDFORMAT_BEGIN
 90
        0
 91
        1
 62
     0
 92
       -2
340
14
 93
        0
 40
0.045
309
GRIDFORMAT_END
 95
        8
302
GRIDFORMAT
  1
GRIDFORMAT_BEGIN
 90
        0
 91
        1
 62
     0
 92
       -2
340
14
 93
        0
 40
0.045
309
GRIDFORMAT_END
 95
       16
302
GRIDFORMAT
  1
GRIDFORMAT_BEGIN
 90
        0
 91
        1
 62
     0
 92
       -2
340
14
 93
        0
 40
0.045
309
GRIDFORMAT_END
 95
       32
302
GRIDFORMAT
  1
GRIDFORMAT_BEGIN
 90
        0
 91
        1
 62
     0
 92
       -2
340
14
 93
        0
 40
0.045
309
GRIDFORMAT_END
309
TABLEFORMAT_END
  1
CELLSTYLE_BEGIN
 90
        3
 91
        2
300
_DATA
309
CELLSTYLE_END
  0
ENDSEC
  0
EOF