0
SECTION
  2
HEADER
  9
$ACADVER
  1
AC1027
  9
$ACADMAINTVER
 70
     8
  9
$DWGCODEPAGE
  3
ANSI_1252
  9
$REQUIREDVERSIONS
160
                 0
  9
$COMMENTS
  1
File was created by Cadenas
  9
$CUSTOMPROPERTYTAG
  1
NN
  9
$CUSTOMPROPERTY
  1
Set Screw Hanger Bearing Inch Bore
  9
$CUSTOMPROPERTYTAG
  1
NT
  9
$CUSTOMPROPERTY
  1
SC Hanger Bearings -(Normal Duty)
  9
$CUSTOMPROPERTYTAG
  1
NB
  9
$CUSTOMPROPERTY
  1
124424
  9
$CUSTOMPROPERTYTAG
  1
NBSYN
  9
$CUSTOMPROPERTY
  1
$PN.
  9
$CUSTOMPROPERTYTAG
  1
LINA
  9
$CUSTOMPROPERTY
  1
124424
  9
$CUSTOMPROPERTYTAG
  1
SERIES
  9
$CUSTOMPROPERTY
  1
207
  9
$CUSTOMPROPERTYTAG
  1
SS
  9
$CUSTOMPROPERTY
  1
1-3/8
  9
$CUSTOMPROPERTYTAG
  1
PN
  9
$CUSTOMPROPERTY
  1
124424
  9
$CUSTOMPROPERTYTAG
  1
DESCRIPTION
  9
$CUSTOMPROPERTY
  1
HNG-SC-106
  9
$CUSTOMPROPERTYTAG
  1
W
  9
$CUSTOMPROPERTY
  1
2.4
  9
$CUSTOMPROPERTYTAG
  1
A
  9
$CUSTOMPROPERTY
  1
1.71
  9
$CUSTOMPROPERTYTAG
  1
B
  9
$CUSTOMPROPERTY
  1
4.25
  9
$CUSTOMPROPERTYTAG
  1
C
  9
$CUSTOMPROPERTY
  1
1.68
  9
$CUSTOMPROPERTYTAG
  1
F
  9
$CUSTOMPROPERTY
  1
3.50
  9
$CUSTOMPROPERTYTAG
  1
L
  9
$CUSTOMPROPERTY
  1
1.84
  9
$CUSTOMPROPERTYTAG
  1
M
  9
$CUSTOMPROPERTY
  1
1/2
  9
$CUSTOMPROPERTYTAG
  1
R
  9
$CUSTOMPROPERTY
  1
0.67
  9
$CUSTOMPROPERTYTAG
  1
S
  9
$CUSTOMPROPERTY
  1
1.04
  9
$CUSTOMPROPERTYTAG
  1
COMPANY
  9
$CUSTOMPROPERTY
  1
baldor
  9
$INSBASE
 10
0.0
 20
0.0
 30
0.0
  9
$EXTMIN
 10
1.000000000000000E+20
 20
1.000000000000000E+20
 30
1.000000000000000E+20
  9
$EXTMAX
 10
-1.000000000000000E+20
 20
-1.000000000000000E+20
 30
-1.000000000000000E+20
  9
$LIMMIN
 10
0.0
 20
0.0
  9
$LIMMAX
 10
12.0
 20
9.0
  9
$ORTHOMODE
 70
     0
  9
$REGENMODE
 70
     1
  9
$FILLMODE
 70
     1
  9
$QTEXTMODE
 70
     0
  9
$MIRRTEXT
 70
     1
  9
$LTSCALE
 40
1.0
  9
$ATTMODE
 70
     1
  9
$TEXTSIZE
 40
0.2
  9
$TRACEWID
 40
0.05
  9
$TEXTSTYLE
  7
Standard
  9
$CLAYER
  8
0
  9
$CELTYPE
  6
ByLayer
  9
$CECOLOR
 62
   256
  9
$CELTSCALE
 40
1.0
  9
$DISPSILH
 70
     0
  9
$DIMSCALE
 40
1.0
  9
$DIMASZ
 40
0.18
  9
$DIMEXO
 40
0.0625
  9
$DIMDLI
 40
0.38
  9
$DIMRND
 40
0.0
  9
$DIMDLE
 40
0.0
  9
$DIMEXE
 40
0.18
  9
$DIMTP
 40
0.0
  9
$DIMTM
 40
0.0
  9
$DIMTXT
 40
0.18
  9
$DIMCEN
 40
0.09
  9
$DIMTSZ
 40
0.0
  9
$DIMTOL
 70
     0
  9
$DIMLIM
 70
     0
  9
$DIMTIH
 70
     1
  9
$DIMTOH
 70
     1
  9
$DIMSE1
 70
     0
  9
$DIMSE2
 70
     0
  9
$DIMTAD
 70
     0
  9
$DIMZIN
 70
     0
  9
$DIMBLK
  1

  9
$DIMASO
 70
     1
  9
$DIMSHO
 70
     1
  9
$DIMPOST
  1

  9
$DIMAPOST
  1

  9
$DIMALT
 70
     0
  9
$DIMALTD
 70
     2
  9
$DIMALTF
 40
25.4
  9
$DIMLFAC
 40
1.0
  9
$DIMTOFL
 70
     0
  9
$DIMTVP
 40
0.0
  9
$DIMTIX
 70
     0
  9
$DIMSOXD
 70
     0
  9
$DIMSAH
 70
     0
  9
$DIMBLK1
  1

  9
$DIMBLK2
  1

  9
$DIMSTYLE
  2
Standard
  9
$DIMCLRD
 70
     0
  9
$DIMCLRE
 70
     0
  9
$DIMCLRT
 70
     0
  9
$DIMTFAC
 40
1.0
  9
$DIMGAP
 40
0.09
  9
$DIMJUST
 70
     0
  9
$DIMSD1
 70
     0
  9
$DIMSD2
 70
     0
  9
$DIMTOLJ
 70
     1
  9
$DIMTZIN
 70
     0
  9
$DIMALTZ
 70
     0
  9
$DIMALTTZ
 70
     0
  9
$DIMUPT
 70
     0
  9
$DIMDEC
 70
     4
  9
$DIMTDEC
 70
     4
  9
$DIMALTU
 70
     2
  9
$DIMALTTD
 70
     2
  9
$DIMTXSTY
  7
Standard
  9
$DIMAUNIT
 70
     0
  9
$DIMADEC
 70
     0
  9
$DIMALTRND
 40
0.0
  9
$DIMAZIN
 70
     0
  9
$DIMDSEP
 70
    46
  9
$DIMATFIT
 70
     3
  9
$DIMFRAC
 70
     0
  9
$DIMLDRBLK
  1

  9
$DIMLUNIT
 70
     2
  9
$DIMLWD
 70
    -2
  9
$DIMLWE
 70
    -2
  9
$DIMTMOVE
 70
     0
  9
$DIMFXL
 40
1.0
  9
$DIMFXLON
 70
     0
  9
$DIMJOGANG
 40
0.7853981633974483
  9
$DIMTFILL
 70
     0
  9
$DIMTFILLCLR
 70
     0
  9
$DIMARCSYM
 70
     0
  9
$DIMLTYPE
  6

  9
$DIMLTEX1
  6

  9
$DIMLTEX2
  6

  9
$DIMTXTDIRECTION
 70
     0
  9
$LUNITS
 70
     2
  9
$LUPREC
 70
     4
  9
$SKETCHINC
 40
0.1
  9
$FILLETRAD
 40
0.5
  9
$AUNITS
 70
     0
  9
$AUPREC
 70
     0
  9
$MENU
  1
.
  9
$ELEVATION
 40
0.0
  9
$PELEVATION
 40
0.0
  9
$THICKNESS
 40
0.0
  9
$LIMCHECK
 70
     0
  9
$CHAMFERA
 40
0.0
  9
$CHAMFERB
 40
0.0
  9
$CHAMFERC
 40
0.0
  9
$CHAMFERD
 40
0.0
  9
$SKPOLY
 70
     0
  9
$TDCREATE
 40
2458168.969379618
  9
$TDUCREATE
 40
2458168.927712951
  9
$TDUPDATE
 40
2458168.969379803
  9
$TDUUPDATE
 40
2458168.927713137
  9
$TDINDWG
 40
0.0000000116
  9
$TDUSRTIMER
 40
0.0000000116
  9
$USRTIMER
 70
     1
  9
$ANGBASE
 50
0.0
  9
$ANGDIR
 70
     0
  9
$PDMODE
 70
     0
  9
$PDSIZE
 40
0.0
  9
$PLINEWID
 40
0.0
  9
$SPLFRAME
 70
     0
  9
$SPLINETYPE
 70
     6
  9
$SPLINESEGS
 70
     8
  9
$HANDSEED
  5
1D3
  9
$SURFTAB1
 70
     6
  9
$SURFTAB2
 70
     6
  9
$SURFTYPE
 70
     6
  9
$SURFU
 70
     6
  9
$SURFV
 70
     6
  9
$UCSBASE
  2

  9
$UCSNAME
  2

  9
$UCSORG
 10
0.0
 20
0.0
 30
0.0
  9
$UCSXDIR
 10
1.0
 20
0.0
 30
0.0
  9
$UCSYDIR
 10
0.0
 20
1.0
 30
0.0
  9
$UCSORTHOREF
  2

  9
$UCSORTHOVIEW
 70
     0
  9
$UCSORGTOP
 10
0.0
 20
0.0
 30
0.0
  9
$UCSORGBOTTOM
 10
0.0
 20
0.0
 30
0.0
  9
$UCSORGLEFT
 10
0.0
 20
0.0
 30
0.0
  9
$UCSORGRIGHT
 10
0.0
 20
0.0
 30
0.0
  9
$UCSORGFRONT
 10
0.0
 20
0.0
 30
0.0
  9
$UCSORGBACK
 10
0.0
 20
0.0
 30
0.0
  9
$PUCSBASE
  2

  9
$PUCSNAME
  2

  9
$PUCSORG
 10
0.0
 20
0.0
 30
0.0
  9
$PUCSXDIR
 10
1.0
 20
0.0
 30
0.0
  9
$PUCSYDIR
 10
0.0
 20
1.0
 30
0.0
  9
$PUCSORTHOREF
  2

  9
$PUCSORTHOVIEW
 70
     0
  9
$PUCSORGTOP
 10
0.0
 20
0.0
 30
0.0
  9
$PUCSORGBOTTOM
 10
0.0
 20
0.0
 30
0.0
  9
$PUCSORGLEFT
 10
0.0
 20
0.0
 30
0.0
  9
$PUCSORGRIGHT
 10
0.0
 20
0.0
 30
0.0
  9
$PUCSORGFRONT
 10
0.0
 20
0.0
 30
0.0
  9
$PUCSORGBACK
 10
0.0
 20
0.0
 30
0.0
  9
$USERI1
 70
     0
  9
$USERI2
 70
     0
  9
$USERI3
 70
     0
  9
$USERI4
 70
     0
  9
$USERI5
 70
     0
  9
$USERR1
 40
0.0
  9
$USERR2
 40
0.0
  9
$USERR3
 40
0.0
  9
$USERR4
 40
0.0
  9
$USERR5
 40
0.0
  9
$WORLDVIEW
 70
     1
  9
$SHADEDGE
 70
     3
  9
$SHADEDIF
 70
    70
  9
$TILEMODE
 70
     1
  9
$MAXACTVP
 70
    64
  9
$PINSBASE
 10
0.0
 20
0.0
 30
0.0
  9
$PLIMCHECK
 70
     0
  9
$PEXTMIN
 10
1.000000000000000E+20
 20
1.000000000000000E+20
 30
1.000000000000000E+20
  9
$PEXTMAX
 10
-1.000000000000000E+20
 20
-1.000000000000000E+20
 30
-1.000000000000000E+20
  9
$PLIMMIN
 10
0.0
 20
0.0
  9
$PLIMMAX
 10
12.0
 20
9.0
  9
$UNITMODE
 70
     0
  9
$VISRETAIN
 70
     1
  9
$PLINEGEN
 70
     0
  9
$PSLTSCALE
 70
     1
  9
$TREEDEPTH
 70
  3020
  9
$CMLSTYLE
  2
Standard
  9
$CMLJUST
 70
     0
  9
$CMLSCALE
 40
1.0
  9
$PROXYGRAPHICS
 70
     1
  9
$MEASUREMENT
 70
     0
  9
$CELWEIGHT
370
    -1
  9
$ENDCAPS
280
     0
  9
$JOINSTYLE
280
     0
  9
$LWDISPLAY
290
     0
  9
$INSUNITS
 70
     1
  9
$HYPERLINKBASE
  1

  9
$STYLESHEET
  1

  9
$XEDIT
290
     1
  9
$CEPSNTYPE
380
     0
  9
$PSTYLEMODE
290
     1
  9
$FINGERPRINTGUID
  2
{5EE16A6F-CBD9-4119-8273-600AC46F5775}
  9
$VERSIONGUID
  2
{FAEB1C32-E019-11D5-929B-00C0DF256EC4}
  9
$EXTNAMES
290
     1
  9
$PSVPSCALE
 40
0.0
  9
$OLESTARTUP
290
     0
  9
$SORTENTS
280
   127
  9
$INDEXCTL
280
     0
  9
$HIDETEXT
280
     1
  9
$XCLIPFRAME
280
     2
  9
$HALOGAP
280
     0
  9
$OBSCOLOR
 70
   257
  9
$OBSLTYPE
280
     0
  9
$INTERSECTIONDISPLAY
280
     0
  9
$INTERSECTIONCOLOR
 70
   257
  9
$DIMASSOC
280
     2
  9
$PROJECTNAME
  1

  9
$CAMERADISPLAY
290
     0
  9
$LENSLENGTH
 40
50.0
  9
$CAMERAHEIGHT
 40
0.0
  9
$STEPSPERSEC
 40
2.0
  9
$STEPSIZE
 40
6.0
  9
$3DDWFPREC
 40
2.0
  9
$PSOLWIDTH
 40
0.25
  9
$PSOLHEIGHT
 40
4.0
  9
$LOFTANG1
 40
1.570796326794897
  9
$LOFTANG2
 40
1.570796326794897
  9
$LOFTMAG1
 40
0.0
  9
$LOFTMAG2
 40
0.0
  9
$LOFTPARAM
 70
     7
  9
$LOFTNORMALS
280
     1
  9
$LATITUDE
 40
37.795
  9
$LONGITUDE
 40
-122.394
  9
$NORTHDIRECTION
 40
0.0
  9
$TIMEZONE
 70
 -8000
  9
$LIGHTGLYPHDISPLAY
280
     1
  9
$TILEMODELIGHTSYNCH
280
     1
  9
$CMATERIAL
347
44
  9
$SOLIDHIST
280
     0
  9
$SHOWHIST
280
     1
  9
$DWFFRAME
280
     2
  9
$DGNFRAME
280
     2
  9
$REALWORLDSCALE
290
     1
  9
$INTERFERECOLOR
 62
   256
  9
$CSHADOW
280
     0
  9
$SHADOWPLANELOCATION
 40
0.0
  0
ENDSEC
  0
SECTION
  2
CLASSES
  0
CLASS
  1
ACDBDICTIONARYWDFLT
  2
AcDbDictionaryWithDefault
  3
ObjectDBX Classes
 90
        0
 91
        4
280
     0
281
     0
  0
CLASS
  1
VISUALSTYLE
  2
AcDbVisualStyle
  3
ObjectDBX Classes
 90
     4095
 91
        4
280
     0
281
     0
  0
CLASS
  1
MATERIAL
  2
AcDbMaterial
  3
ObjectDBX Classes
 90
     1153
 91
        4
280
     0
281
     0
  0
CLASS
  1
SCALE
  2
AcDbScale
  3
ObjectDBX Classes
 90
     1153
 91
        4
280
     0
281
     0
  0
CLASS
  1
TABLESTYLE
  2
AcDbTableStyle
  3
ObjectDBX Classes
 90
     4095
 91
        4
280
     0
281
     0
  0
CLASS
  1
MLEADERSTYLE
  2
AcDbMLeaderStyle
  3
ACDB_MLEADERSTYLE_CLASS
 90
     4095
 91
        4
280
     0
281
     0
  0
CLASS
  1
SUN
  2
AcDbSun
  3
SCENEOE
 90
     1153
 91
        4
280
     0
281
     0
  0
CLASS
  1
DICTIONARYVAR
  2
AcDbDictionaryVar
  3
ObjectDBX Classes
 90
        0
 91
        4
280
     0
281
     0
  0
CLASS
  1
CELLSTYLEMAP
  2
AcDbCellStyleMap
  3
ObjectDBX Classes
 90
     1152
 91
        4
280
     0
281
     0
  0
ENDSEC
  0
SECTION
  2
TABLES
  0
TABLE
  2
VPORT
  5
8
330
0
100
AcDbSymbolTable
 70
     1
  0
VPORT
  5
29
330
8
100
AcDbSymbolTableRecord
100
AcDbViewportTableRecord
  2
*Active
 70
     0
 10
0.0
 20
0.0
 11
1.0
 21
1.0
 12
0.0
 22
-0.1850000000000005
 13
0.0
 23
0.0
 14
0.5
 24
0.5
 15
0.5
 25
0.5
 16
0.0
 26
0.0
 36
1.0
 17
0.0
 27
0.0
 37
0.0
 40
1.91862
 41
1.860712387028177
 42
50.0
 43
0.0
 44
0.0
 50
0.0
 51
0.0
 71
     0
 72
   100
 73
     1
 74
     3
 75
     0
 76
     0
 77
     0
 78
     0
281
     0
 65
     1
110
0.0
120
0.0
130
0.0
111
1.0
121
0.0
131
0.0
112
0.0
122
1.0
132
0.0
 79
     0
146
0.0
348
2F
 60
     3
 61
     5
292
     1
282
     1
141
0.0
142
0.0
 63
   250
361
6D
  0
ENDTAB
  0
TABLE
  2
LTYPE
  5
5
330
0
100
AcDbSymbolTable
 70
     3
  0
LTYPE
  5
14
330
5
100
AcDbSymbolTableRecord
100
AcDbLinetypeTableRecord
  2
ByBlock
 70
     0
  3

 72
    65
 73
     0
 40
0.0
  0
LTYPE
  5
15
330
5
100
AcDbSymbolTableRecord
100
AcDbLinetypeTableRecord
  2
ByLayer
 70
     0
  3

 72
    65
 73
     0
 40
0.0
  0
LTYPE
  5
16
330
5
100
AcDbSymbolTableRecord
100
AcDbLinetypeTableRecord
  2
Continuous
 70
     0
  3
Solid line
 72
    65
 73
     0
 40
0.0
  0
LTYPE
  5
9C
330
5
100
AcDbSymbolTableRecord
100
AcDbLinetypeTableRecord
  2
Dashed
 70
     0
  3

 72
    65
 73
     2
 40
2.0
 49
1.0
 74
     0
 49
-1.0
 74
     0
  0
LTYPE
  5
DA
330
5
100
AcDbSymbolTableRecord
100
AcDbLinetypeTableRecord
  2
Center
 70
     0
  3

 72
    65
 73
     4
 40
1.5
 49
0.45
 74
     0
 49
-0.5
 74
     0
 49
0.05
 74
     0
 49
-0.5
 74
     0
  0
ENDTAB
  0
TABLE
  2
LAYER
  5
2
330
0
100
AcDbSymbolTable
 70
     7
  0
LAYER
  5
10
330
2
100
AcDbSymbolTableRecord
100
AcDbLayerTableRecord
  2
0
 70
     0
 62
     7
  6
Continuous
370
    -3
390
F
347
46
348
0
  0
LAYER
  5
72
330
2
100
AcDbSymbolTableRecord
100
AcDbLayerTableRecord
  2
AM_6
 70
     0
 62
    -2
  6
Continuous
370
    35
390
F
347
46
348
0
  0
LAYER
  5
9D
330
2
100
AcDbSymbolTableRecord
100
AcDbLayerTableRecord
  2
AM_9
 70
     0
 62
     6
  6
Dashed
370
    25
390
F
347
46
348
0
  0
LAYER
  5
DB
330
2
100
AcDbSymbolTableRecord
100
AcDbLayerTableRecord
  2
AM_7
 70
     0
 62
     7
  6
Center
370
    25
390
F
347
46
348
0
  0
LAYER
  5
DF
330
2
100
AcDbSymbolTableRecord
100
AcDbLayerTableRecord
  2
AM_4
 70
     0
 62
     7
  6
Continuous
370
    50
390
F
347
46
348
0
  0
LAYER
  5
EE
330
2
100
AcDbSymbolTableRecord
100
AcDbLayerTableRecord
  2
AM_5
 70
     0
 62
     3
  6
Continuous
370
    25
390
F
347
46
348
0
  0
LAYER
  5
1C6
330
2
100
AcDbSymbolTableRecord
100
AcDbLayerTableRecord
  2
ConnectionPoints
 70
     0
 62
     7
  6
Continuous
370
    50
390
F
347
46
348
0
  0
ENDTAB
  0
TABLE
  2
STYLE
  5
3
330
0
100
AcDbSymbolTable
 70
     1
  0
STYLE
  5
11
330
3
100
AcDbSymbolTableRecord
100
AcDbTextStyleTableRecord
  2
Standard
 70
     0
 40
0.0
 41
1.0
 50
0.0
 71
     0
 42
0.2
  3
txt
  4

  0
ENDTAB
  0
TABLE
  2
VIEW
  5
6
330
0
100
AcDbSymbolTable
 70
     0
  0
ENDTAB
  0
TABLE
  2
UCS
  5
7
330
0
100
AcDbSymbolTable
 70
     0
  0
ENDTAB
  0
TABLE
  2
APPID
  5
9
330
0
100
AcDbSymbolTable
 70
     1
  0
APPID
  5
12
330
9
100
AcDbSymbolTableRecord
100
AcDbRegAppTableRecord
  2
ACAD
 70
     0
  0
ENDTAB
  0
TABLE
  2
DIMSTYLE
  5
A
330
0
100
AcDbSymbolTable
 70
     1
100
AcDbDimStyleTable
  0
DIMSTYLE
105
27
330
A
100
AcDbSymbolTableRecord
100
AcDbDimStyleTableRecord
  2
Standard
 70
     0
178
     0
340
11
  0
ENDTAB
  0
TABLE
  2
BLOCK_RECORD
  5
1
330
0
100
AcDbSymbolTable
 70
     5
  0
BLOCK_RECORD
  5
1F
330
1
100
AcDbSymbolTableRecord
100
AcDbBlockTableRecord
  2
*Model_Space
340
22
 70
     0
280
     1
281
     0
  0
BLOCK_RECORD
  5
1B
330
1
100
AcDbSymbolTableRecord
100
AcDbBlockTableRecord
  2
*Paper_Space
340
1E
 70
     0
280
     1
281
     0
  0
BLOCK_RECORD
  5
23
330
1
100
AcDbSymbolTableRecord
100
AcDbBlockTableRecord
  2
*Paper_Space0
340
26
 70
     0
280
     1
281
     0
  0
BLOCK_RECORD
  5
6E
330
1
100
AcDbSymbolTableRecord
100
AcDbBlockTableRecord
  2
1_124424_4
340
0
102
{BLKREFS
331
6F
102
}
 70
     0
280
     1
281
     0
  0
BLOCK_RECORD
  5
86
330
1
100
AcDbSymbolTableRecord
100
AcDbBlockTableRecord
  2
2_123341_0_in_124424_4
340
0
102
{BLKREFS
331
87
102
}
 70
     0
280
     1
281
     0
  0
BLOCK_RECORD
  5
F1
330
1
100
AcDbSymbolTableRecord
100
AcDbBlockTableRecord
  2
3_405020c_Inch_0_in_124424_4
340
0
102
{BLKREFS
331
F2
102
}
 70
     0
280
     1
281
     0
  0
BLOCK_RECORD
  5
151
330
1
100
AcDbSymbolTableRecord
100
AcDbBlockTableRecord
  2
4_124424H_0_in_124424_4
340
0
102
{BLKREFS
331
152
102
}
 70
     0
280
     1
281
     0
  0
ENDTAB
  0
ENDSEC
  0
SECTION
  2
BLOCKS
  0
BLOCK
  5
20
330
1F
100
AcDbEntity
  8
0
100
AcDbBlockBegin
  2
*Model_Space
 70
     0
 10
0.0
 20
0.0
 30
0.0
  3
*Model_Space
  1

  0
ENDBLK
  5
21
330
1F
100
AcDbEntity
  8
0
100
AcDbBlockEnd
  0
BLOCK
  5
1C
330
1B
100
AcDbEntity
 67
     1
  8
0
100
AcDbBlockBegin
  2
*Paper_Space
 70
     0
 10
0.0
 20
0.0
 30
0.0
  3
*Paper_Space
  1

  0
ENDBLK
  5
1D
330
1B
100
AcDbEntity
 67
     1
  8
0
100
AcDbBlockEnd
  0
BLOCK
  5
24
330
23
100
AcDbEntity
  8
0
100
AcDbBlockBegin
  2
*Paper_Space0
 70
     0
 10
0.0
 20
0.0
 30
0.0
  3
*Paper_Space0
  1

  0
ENDBLK
  5
25
330
23
100
AcDbEntity
  8
0
100
AcDbBlockEnd
  0
BLOCK
  5
70
330
6E
100
AcDbEntity
  8
0
100
AcDbBlockBegin
  2
1_124424_4
 70
     2
 10
0.0
 20
0.0
 30
0.0
  3
1_124424_4
  1

  0
ATTDEF
  5
73
330
6E
100
AcDbEntity
  8
AM_6
100
AcDbText
 10
6.75
 20
0.7554999999999996
 30
0.0
 40
0.5
  1
Set Screw Hanger Bearing Inch Bore
100
AcDbAttributeDefinition
  3

  2
NN
 70
     8
280
     0
  0
ATTDEF
  5
74
330
6E
100
AcDbEntity
  8
AM_6
100
AcDbText
 10
6.75
 20
0.2554999999999996
 30
0.0
 40
0.5
  1
SC Hanger Bearings -(Normal Duty)
100
AcDbAttributeDefinition
  3

  2
NT
 70
     8
280
     0
  0
ATTDEF
  5
75
330
6E
100
AcDbEntity
  8
AM_6
100
AcDbText
 10
6.75
 20
-0.2445000000000004
 30
0.0
 40
0.5
  1
124424
100
AcDbAttributeDefinition
  3

  2
NB
 70
     8
280
     0
  0
ATTDEF
  5
76
330
6E
100
AcDbEntity
  8
AM_6
100
AcDbText
 10
6.75
 20
-0.7445000000000004
 30
0.0
 40
0.5
  1
$PN.
100
AcDbAttributeDefinition
  3

  2
NBSYN
 70
     8
280
     0
  0
ATTDEF
  5
77
330
6E
100
AcDbEntity
  8
AM_6
100
AcDbText
 10
6.75
 20
-1.2445
 30
0.0
 40
0.5
  1
124424
100
AcDbAttributeDefinition
  3

  2
LINA
 70
     8
280
     0
  0
ATTDEF
  5
78
330
6E
100
AcDbEntity
  8
AM_6
100
AcDbText
 10
6.75
 20
-1.7445
 30
0.0
 40
0.5
  1
207
100
AcDbAttributeDefinition
  3

  2
SERIES
 70
     8
280
     0
  0
ATTDEF
  5
79
330
6E
100
AcDbEntity
  8
AM_6
100
AcDbText
 10
6.75
 20
-2.2445
 30
0.0
 40
0.5
  1
1-3/8
100
AcDbAttributeDefinition
  3

  2
SS
 70
     8
280
     0
  0
ATTDEF
  5
7A
330
6E
100
AcDbEntity
  8
AM_6
100
AcDbText
 10
6.75
 20
-2.7445
 30
0.0
 40
0.5
  1
124424
100
AcDbAttributeDefinition
  3

  2
PN
 70
     8
280
     0
  0
ATTDEF
  5
7B
330
6E
100
AcDbEntity
  8
AM_6
100
AcDbText
 10
6.75
 20
-3.2445
 30
0.0
 40
0.5
  1
HNG-SC-106
100
AcDbAttributeDefinition
  3

  2
DESCRIPTION
 70
     8
280
     0
  0
ATTDEF
  5
7C
330
6E
100
AcDbEntity
  8
AM_6
100
AcDbText
 10
6.75
 20
-3.7445
 30
0.0
 40
0.5
  1
2.4
100
AcDbAttributeDefinition
  3

  2
W
 70
     8
280
     0
  0
ATTDEF
  5
7D
330
6E
100
AcDbEntity
  8
AM_6
100
AcDbText
 10
6.75
 20
-4.2445
 30
0.0
 40
0.5
  1
1.71
100
AcDbAttributeDefinition
  3

  2
A
 70
     8
280
     0
  0
ATTDEF
  5
7E
330
6E
100
AcDbEntity
  8
AM_6
100
AcDbText
 10
6.75
 20
-4.7445
 30
0.0
 40
0.5
  1
4.25
100
AcDbAttributeDefinition
  3

  2
B
 70
     8
280
     0
  0
ATTDEF
  5
7F
330
6E
100
AcDbEntity
  8
AM_6
100
AcDbText
 10
6.75
 20
-5.2445
 30
0.0
 40
0.5
  1
1.68
100
AcDbAttributeDefinition
  3

  2
C
 70
     8
280
     0
  0
ATTDEF
  5
80
330
6E
100
AcDbEntity
  8
AM_6
100
AcDbText
 10
6.75
 20
-5.7445
 30
0.0
 40
0.5
  1
3.50
100
AcDbAttributeDefinition
  3

  2
F
 70
     8
280
     0
  0
ATTDEF
  5
81
330
6E
100
AcDbEntity
  8
AM_6
100
AcDbText
 10
6.75
 20
-6.2445
 30
0.0
 40
0.5
  1
1.84
100
AcDbAttributeDefinition
  3

  2
L
 70
     8
280
     0
  0
ATTDEF
  5
82
330
6E
100
AcDbEntity
  8
AM_6
100
AcDbText
 10
6.75
 20
-6.7445
 30
0.0
 40
0.5
  1
1/2
100
AcDbAttributeDefinition
  3

  2
M
 70
     8
280
     0
  0
ATTDEF
  5
83
330
6E
100
AcDbEntity
  8
AM_6
100
AcDbText
 10
6.75
 20
-7.2445
 30
0.0
 40
0.5
  1
0.67
100
AcDbAttributeDefinition
  3

  2
R
 70
     8
280
     0
  0
ATTDEF
  5
84
330
6E
100
AcDbEntity
  8
AM_6
100
AcDbText
 10
6.75
 20
-7.7445
 30
0.0
 40
0.5
  1
1.04
100
AcDbAttributeDefinition
  3

  2
S
 70
     8
280
     0
  0
ATTDEF
  5
85
330
6E
100
AcDbEntity
  8
AM_6
100
AcDbText
 10
6.75
 20
-8.2445
 30
0.0
 40
0.5
  1
baldor
100
AcDbAttributeDefinition
  3

  2
COMPANY
 70
     8
280
     0
  0
INSERT
  5
87
330
6E
100
AcDbEntity
  8
0
100
AcDbBlockReference
  2
2_123341_0_in_124424_4
 10
0.0
 20
0.0
 30
0.0
  0
INSERT
  5
F2
330
6E
100
AcDbEntity
  8
0
100
AcDbBlockReference
  2
3_405020c_Inch_0_in_124424_4
 10
0.0
 20
0.0
 30
0.0
  0
INSERT
  5
152
330
6E
100
AcDbEntity
  8
0
100
AcDbBlockReference
  2
4_124424H_0_in_124424_4
 10
0.0
 20
0.0
 30
0.0
  0
ENDBLK
  5
71
330
6E
100
AcDbEntity
  8
0
100
AcDbBlockEnd
  0
BLOCK
  5
88
330
86
100
AcDbEntity
  8
0
100
AcDbBlockBegin
  2
2_123341_0_in_124424_4
 70
     2
 10
0.0
 20
0.0
 30
0.0
  3
2_123341_0_in_124424_4
  1

  0
ATTDEF
  5
8A
330
86
100
AcDbEntity
  8
AM_6
100
AcDbText
 10
6.416645210840088
 20
0.7554999999999996
 30
0.0
 40
0.5
  1
Set Screw Insert Inch Bore
100
AcDbAttributeDefinition
  3

  2
NN
 70
     8
280
     0
  0
ATTDEF
  5
8B
330
86
100
AcDbEntity
  8
AM_6
100
AcDbText
 10
6.416645210840088
 20
0.2554999999999996
 30
0.0
 40
0.5
  1
SC Normal Duty Bearing Inserts
100
AcDbAttributeDefinition
  3

  2
NT
 70
     8
280
     0
  0
ATTDEF
  5
8C
330
86
100
AcDbEntity
  8
AM_6
100
AcDbText
 10
6.416645210840088
 20
-0.2445000000000004
 30
0.0
 40
0.5
  1
123341
100
AcDbAttributeDefinition
  3

  2
NB
 70
     8
280
     0
  0
ATTDEF
  5
8D
330
86
100
AcDbEntity
  8
AM_6
100
AcDbText
 10
6.416645210840088
 20
-0.7445000000000004
 30
0.0
 40
0.5
  1
$PN.
100
AcDbAttributeDefinition
  3

  2
NBSYN
 70
     8
280
     0
  0
ATTDEF
  5
8E
330
86
100
AcDbEntity
  8
AM_6
100
AcDbText
 10
6.416645210840088
 20
-1.2445
 30
0.0
 40
0.5
  1
123341
100
AcDbAttributeDefinition
  3

  2
LINA
 70
     8
280
     0
  0
ATTDEF
  5
8F
330
86
100
AcDbEntity
  8
AM_6
100
AcDbText
 10
6.416645210840088
 20
-1.7445
 30
0.0
 40
0.5
  1
207
100
AcDbAttributeDefinition
  3

  2
SERIES
 70
     8
280
     0
  0
ATTDEF
  5
90
330
86
100
AcDbEntity
  8
AM_6
100
AcDbText
 10
6.416645210840088
 20
-2.2445
 30
0.0
 40
0.5
  1
1-3/8
100
AcDbAttributeDefinition
  3

  2
SS
 70
     8
280
     0
  0
ATTDEF
  5
91
330
86
100
AcDbEntity
  8
AM_6
100
AcDbText
 10
6.416645210840088
 20
-2.7445
 30
0.0
 40
0.5
  1
123341
100
AcDbAttributeDefinition
  3

  2
PN
 70
     8
280
     0
  0
ATTDEF
  5
92
330
86
100
AcDbEntity
  8
AM_6
100
AcDbText
 10
6.416645210840088
 20
-3.2445
 30
0.0
 40
0.5
  1
INS-SC-106
100
AcDbAttributeDefinition
  3

  2
DESCRIPTION
 70
     8
280
     0
  0
ATTDEF
  5
93
330
86
100
AcDbEntity
  8
AM_6
100
AcDbText
 10
6.416645210840088
 20
-3.7445
 30
0.0
 40
0.5
  1
1.71
100
AcDbAttributeDefinition
  3

  2
A
 70
     8
280
     0
  0
ATTDEF
  5
94
330
86
100
AcDbEntity
  8
AM_6
100
AcDbText
 10
6.416645210840088
 20
-4.2445
 30
0.0
 40
0.5
  1
0.75
100
AcDbAttributeDefinition
  3

  2
C
 70
     8
280
     0
  0
ATTDEF
  5
95
330
86
100
AcDbEntity
  8
AM_6
100
AcDbText
 10
6.416645210840088
 20
-4.7445
 30
0.0
 40
0.5
  1
2.8346
100
AcDbAttributeDefinition
  3

  2
D
 70
     8
280
     0
  0
ATTDEF
  5
96
330
86
100
AcDbEntity
  8
AM_6
100
AcDbText
 10
6.416645210840088
 20
-5.2445
 30
0.0
 40
0.5
  1
0.2
100
AcDbAttributeDefinition
  3

  2
J
 70
     8
280
     0
  0
ATTDEF
  5
97
330
86
100
AcDbEntity
  8
AM_6
100
AcDbText
 10
6.416645210840088
 20
-5.7445
 30
0.0
 40
0.5
  1
1.84
100
AcDbAttributeDefinition
  3

  2
L
 70
     8
280
     0
  0
ATTDEF
  5
98
330
86
100
AcDbEntity
  8
AM_6
100
AcDbText
 10
6.416645210840088
 20
-6.2445
 30
0.0
 40
0.5
  1
5/16 - 24
100
AcDbAttributeDefinition
  3

  2
N
 70
     8
280
     0
  0
ATTDEF
  5
99
330
86
100
AcDbEntity
  8
AM_6
100
AcDbText
 10
6.416645210840088
 20
-6.7445
 30
0.0
 40
0.5
  1
0.67
100
AcDbAttributeDefinition
  3

  2
W
 70
     8
280
     0
  0
ATTDEF
  5
9A
330
86
100
AcDbEntity
  8
AM_6
100
AcDbText
 10
6.416645210840088
 20
-7.2445
 30
0.0
 40
0.5
  1
1.04
100
AcDbAttributeDefinition
  3

  2
Y
 70
     8
280
     0
  0
ATTDEF
  5
9B
330
86
100
AcDbEntity
  8
AM_6
100
AcDbText
 10
6.416645210840088
 20
-7.7445
 30
0.0
 40
0.5
  1
baldor
100
AcDbAttributeDefinition
  3

  2
COMPANY
 70
     8
280
     0
  0
LINE
  5
9E
330
86
100
AcDbEntity
  8
AM_9
100
AcDbLine
 10
-1.48605
 20
0.2359848484848541
 30
0.0
 11
-1.48605
 21
0.164015151515146
 31
0.0
  0
ARC
  5
9F
330
86
100
AcDbEntity
  8
AM_9
100
AcDbCircle
 10
-1.417868181818182
 20
0.1640151515151565
 30
0.0
 40
0.0681818181818181
100
AcDbArc
 50
180.0
 51
270.0
  0
ARC
  5
A0
330
86
100
AcDbEntity
  8
AM_9
100
AcDbCircle
 10
-1.417868181818182
 20
0.2359848484848436
 30
0.0
 40
0.0681818181818182
100
AcDbArc
 50
90.0
 51
180.0
  0
LINE
  5
A1
330
86
100
AcDbEntity
  8
AM_9
100
AcDbLine
 10
-1.417868181818182
 20
0.3041666666666619
 30
0.0
 11
-1.417868181818182
 21
0.0958333333333382
 31
0.0
  0
LINE
  5
A2
330
86
100
AcDbEntity
  8
AM_9
100
AcDbLine
 10
-1.417868181818182
 20
0.0958333333333382
 30
0.0
 11
-1.414011706861955
 21
0.0958333333333382
 31
0.0
  0
LINE
  5
A3
330
86
100
AcDbEntity
  8
AM_9
100
AcDbLine
 10
-1.384321700504379
 20
0.3041666666666619
 30
0.0
 11
-1.417868181818182
 21
0.3041666666666619
 31
0.0
  0
ELLIPSE
  5
A4
330
86
100
AcDbEntity
  8
AM_9
100
AcDbEllipse
 10
0.6135784517171449
 20
-0.7075
 30
0.0
 11
-2.318256390785957E-17
 21
-0.126200000000001
 31
0.0
210
0.0
220
0.0
230
1.0
 40
0.4226182617406882
 41
4.388695204271459
 42
5.03608275649792
  0
ELLIPSE
  5
A5
330
86
100
AcDbEntity
  8
AM_9
100
AcDbEllipse
 10
0.6135784517171471
 20
-0.7075
 30
0.0
 11
-2.318256390785953E-17
 21
-0.1262000000000008
 31
0.0
210
0.0
220
0.0
230
1.0
 40
0.422618261740688
 41
1.247102550681667
 42
1.894490102908126
  0
LINE
  5
A6
330
86
100
AcDbEntity
  8
AM_9
100
AcDbLine
 10
0.6230137644711632
 20
-0.8337
 30
0.0
 11
0.8148925094304427
 21
-0.8337
 31
0.0
  0
LINE
  5
A7
330
86
100
AcDbEntity
  8
AM_9
100
AcDbLine
 10
0.8148925094304427
 20
-0.5813
 30
0.0
 11
0.6230137644711631
 21
-0.5813
 31
0.0
  0
LWPOLYLINE
  5
A8
330
86
100
AcDbEntity
  8
AM_9
100
AcDbPolyline
 90
        9
 70
     0
 43
0.0
 10
0.6230899324887543
 20
-0.5813000002458254
 10
0.6174808491293614
 20
-0.581971431711195
 10
0.6082921397553831
 20
-0.5857667444682108
 10
0.5987430288165474
 20
-0.5930538062245339
 10
0.5896615684006511
 20
-0.6032821564960876
 10
0.5809599150694621
 20
-0.6167033494645396
 10
0.5733781203055314
 20
-0.6324684566630454
 10
0.5669848049132893
 20
-0.6508617179962506
 10
0.5630138434073818
 20
-0.6673594814727246
  0
LWPOLYLINE
  5
A9
330
86
100
AcDbEntity
  8
AM_9
100
AcDbPolyline
 90
        9
 70
     0
 43
0.0
 10
0.6230832746048457
 20
-0.8336999997541747
 10
0.6284695267460659
 20
-0.8330285682888051
 10
0.6364202917836465
 20
-0.8292332555317894
 10
0.6436958566380754
 20
-0.8219461937754662
 10
0.649816530377486
 20
-0.8117178435039123
 10
0.6550443454836457
 20
-0.7982966505354602
 10
0.6591465468975117
 20
-0.7825315433369544
 10
0.6623076444107124
 20
-0.7641382820037493
 10
0.66414306002691
 20
-0.7476405185272754
  0
ELLIPSE
  5
AA
330
86
100
AcDbEntity
  8
AM_9
100
AcDbEllipse
 10
0.8148925094304421
 20
-0.7075
 30
0.0
 11
-2.318256390785935E-17
 21
-0.1261999999999998
 31
0.0
210
0.0
220
0.0
230
1.0
 40
0.4226182617406976
 41
2.135144637713056
 42
5.924671809524924
  0
LINE
  5
AB
330
86
100
AcDbEntity
  8
AM_9
100
AcDbLine
 10
0.7900222587814012
 20
-0.8191393737973384
 30
0.0
 11
0.8029176110143217
 21
-0.8352235736553019
 31
0.0
  0
LINE
  5
AC
330
86
100
AcDbEntity
  8
AM_9
100
AcDbLine
 10
0.8030206807922764
 20
-0.5796478687932645
 30
0.0
 11
0.7900222587814012
 21
-0.5958606262026616
 31
0.0
  0
LWPOLYLINE
  5
AD
330
86
100
AcDbEntity
  8
AM_9
100
AcDbPolyline
 90
        5
 70
     0
 43
0.0
 10
0.7751929412955113
 20
-0.6398095517099398
 10
0.7768109492897658
 20
-0.6339984893613346
 10
0.7844399761037789
 20
-0.6121991277220694
 10
0.7934534387992556
 20
-0.5938345460575526
 10
0.8030647993863768
 20
-0.5795928403116656
  0
LWPOLYLINE
  5
AE
330
86
100
AcDbEntity
  8
AM_9
100
AcDbPolyline
 90
        6
 70
     0
 43
0.0
 10
0.8030647993863768
 20
-0.5795928403116656
 10
0.8036359003476897
 20
-0.5788877308662341
 10
0.8138338949555558
 20
-0.5686260742809275
 10
0.8242576997106629
 20
-0.5623590487133963
 10
0.8304150206999563
 20
-0.5606862680881516
 10
0.8364200418006985
 20
-0.5605878958336314
  0
LWPOLYLINE
  5
AF
330
86
100
AcDbEntity
  8
AM_9
100
AcDbPolyline
 90
        7
 70
     0
 43
0.0
 10
-0.11964605623405
 20
-0.6673594814727245
 10
-0.1200196329163162
 20
-0.6682772683018277
 10
-0.1255393378937163
 20
-0.6866858756385505
 10
-0.1276526292776713
 20
-0.7058030216925222
 10
-0.126444158473689
 20
-0.7232884222712666
 10
-0.1223595836236459
 20
-0.7403216963165351
 10
-0.11964605623405
 20
-0.7476405185272755
  0
LWPOLYLINE
  5
B0
330
86
100
AcDbEntity
  8
AM_9
100
AcDbPolyline
 90
        7
 70
     0
 43
0.0
 10
0.11964605623405
 20
-0.7476405185272755
 10
0.1200196329163162
 20
-0.7467227316981724
 10
0.1255393378937163
 20
-0.7283141243614495
 10
0.1276526292776713
 20
-0.7091969783074779
 10
0.126444158473689
 20
-0.6917115777287335
 10
0.1223595836236459
 20
-0.6746783036834649
 10
0.11964605623405
 20
-0.6673594814727245
  0
LWPOLYLINE
  5
B1
330
86
100
AcDbEntity
  8
AM_9
100
AcDbPolyline
 90
        7
 70
     0
 43
0.0
 10
0.5630138434073817
 20
-0.6673594814727246
 10
0.5629984656321861
 20
-0.6674235262661079
 10
0.559637915558056
 20
-0.6860313215233963
 10
0.5583079044431363
 20
-0.705387797655966
 10
0.5589864229410023
 20
-0.7228994202758771
 10
0.5613594077635617
 20
-0.7399687320938979
 10
0.5630138434073817
 20
-0.7476405185272755
  0
LWPOLYLINE
  5
B2
330
86
100
AcDbEntity
  8
AM_9
100
AcDbPolyline
 90
        9
 70
     0
 43
0.0
 10
0.5630138434073819
 20
-0.7476405185272755
 10
0.5678068917312437
 20
-0.7669121671175779
 10
0.5744229319040964
 20
-0.7850059441202917
 10
0.582165657542604
 20
-0.8004094506628717
 10
0.591111565980845
 20
-0.8135855583471219
 10
0.6004221387830672
 20
-0.8234750931985085
 10
0.6102091724040888
 20
-0.8302884301658345
 10
0.6194457538811005
 20
-0.8334132716289968
 10
0.6230832746048457
 20
-0.8336999997541747
  0
LWPOLYLINE
  5
B3
330
86
100
AcDbEntity
  8
AM_9
100
AcDbPolyline
 90
        6
 70
     0
 43
0.0
 10
0.6641430600269103
 20
-0.7476405185272754
 10
0.6652370342946379
 20
-0.7353631615693142
 10
0.6659227745944648
 20
-0.7226541780037004
 10
0.6661953142669053
 20
-0.7048988696397579
 10
0.6656691444477677
 20
-0.6866605073668091
 10
0.6641430600269103
 20
-0.6673594814727246
  0
LWPOLYLINE
  5
B4
330
86
100
AcDbEntity
  8
AM_9
100
AcDbPolyline
 90
        4
 70
     0
 43
0.0
 10
0.6401143648965166
 20
-0.5889262486012079
 10
0.6348437415760583
 20
-0.5847115698341656
 10
0.6266321548105652
 20
-0.5815867283710033
 10
0.6230899324887543
 20
-0.5813000002458254
  0
LWPOLYLINE
  5
B5
330
86
100
AcDbEntity
  8
AM_9
100
AcDbPolyline
 90
        6
 70
     0
 43
0.0
 10
0.6605667083916158
 20
-0.6397524783920779
 10
0.6586047073197139
 20
-0.6299940558797086
 10
0.6543543691686249
 20
-0.6145905493371285
 10
0.6488870178403878
 20
-0.6014144416528785
 10
0.6424824684091637
 20
-0.5915249068014915
 10
0.6401143648965166
 20
-0.5889262486012079
  0
LWPOLYLINE
  5
B6
330
86
100
AcDbEntity
  8
AM_9
100
AcDbPolyline
 90
        3
 70
     0
 43
0.0
 10
0.6641430600269103
 20
-0.6673594814727246
 10
0.6619156735243584
 20
-0.6480878328824223
 10
0.6605667083916158
 20
-0.6397524783920779
  0
LINE
  5
B7
330
86
100
AcDbEntity
  8
AM_9
100
AcDbLine
 10
0.6875
 20
-1.0032
 30
0.0
 11
0.6875
 21
0.6332
 31
0.0
  0
LINE
  5
B8
330
86
100
AcDbEntity
  8
AM_9
100
AcDbLine
 10
-0.6875
 20
0.6332
 30
0.0
 11
-0.6875
 21
-1.0032
 31
0.0
  0
LINE
  5
B9
330
86
100
AcDbEntity
  8
AM_9
100
AcDbLine
 10
-0.6875
 20
-1.0032
 30
0.0
 11
-0.7242999999999999
 21
-1.04
 31
0.0
  0
LINE
  5
BA
330
86
100
AcDbEntity
  8
AM_9
100
AcDbLine
 10
0.7242999999999999
 20
-1.04
 30
0.0
 11
0.6875
 21
-1.0032
 31
0.0
  0
LINE
  5
BB
330
86
100
AcDbEntity
  8
AM_9
100
AcDbLine
 10
0.6875
 20
0.6332
 30
0.0
 11
0.7242999999999999
 21
0.67
 31
0.0
  0
LINE
  5
BC
330
86
100
AcDbEntity
  8
AM_9
100
AcDbLine
 10
-0.7242999999999999
 20
0.67
 30
0.0
 11
-0.6875
 21
0.6332
 31
0.0
  0
LWPOLYLINE
  5
BD
330
86
100
AcDbEntity
  8
AM_9
100
AcDbPolyline
 90
        8
 70
     0
 43
0.0
 10
0.8364200418006985
 20
-0.5605878958336314
 10
0.8452352217950198
 20
-0.5635680356699398
 10
0.8532824103906756
 20
-0.5701729415079199
 10
0.8602397306751866
 20
-0.5799237393696521
 10
0.8662397807921377
 20
-0.5925453381619383
 10
0.8715099360739705
 20
-0.6086345461053658
 10
0.8756964721186199
 20
-0.6270200470031391
 10
0.8778222456745892
 20
-0.6397896159093961
  0
LINE
  5
BE
330
86
100
AcDbEntity
  8
AM_9
100
AcDbLine
 10
0.92
 20
-0.6399999999999999
 30
0.0
 11
0.92
 21
-0.3749999999999999
 31
0.0
  0
LINE
  5
BF
330
86
100
AcDbEntity
  8
AM_9
100
AcDbLine
 10
-0.92
 20
-0.3749999999999999
 30
0.0
 11
-0.92
 21
-0.6893722309553055
 31
0.0
  0
LWPOLYLINE
  5
C0
330
86
100
AcDbEntity
  8
AM_9
100
AcDbPolyline
 90
        3
 70
     0
 43
0.0
 10
-0.1214732224881143
 20
-0.6399108724608848
 10
-0.1124758416585892
 20
-0.6238626406515675
 10
-0.0990834330639696
 20
-0.6061814370042299
  0
LWPOLYLINE
  5
C1
330
86
100
AcDbEntity
  8
AM_9
100
AcDbPolyline
 90
       14
 70
     0
 43
0.0
 10
-0.0990834330639696
 20
-0.6061814370042299
 10
-0.0842270535243629
 20
-0.5916872188313689
 10
-0.0669681475490527
 20
-0.5793139641116154
 10
-0.0461710098732803
 20
-0.5690915941885356
 10
-0.0231139790003436
 20
-0.5625562100249473
 10
-0.0015676258759982
 20
-0.5604440920669008
 10
0.0206946600793281
 20
-0.5621328563835757
 10
0.0409755909830389
 20
-0.5672088849426022
 10
0.0606773322778276
 20
-0.5757374011364825
 10
0.0787355157368327
 20
-0.5873018245452201
 10
0.0951532253816025
 20
-0.6019193796601767
 10
0.1096395699417921
 20
-0.6196251309267815
 10
0.1214666823348716
 20
-0.6398973282902163
 10
0.1215143587279939
 20
-0.6399961413765098
  0
ARC
  5
C2
330
86
100
AcDbEntity
  8
AM_9
100
AcDbCircle
 10
0.0
 20
-0.7075000000000001
 30
0.0
 40
0.1262000000000001
100
AcDbArc
 50
32.33477639094788
 51
147.6652236090522
  0
LINE
  5
C3
330
86
100
AcDbEntity
  8
AM_9
100
AcDbLine
 10
0.9199999999999997
 20
0.3749999999999999
 30
0.0
 11
0.9199999999999997
 21
0.6332
 31
0.0
  0
LINE
  5
C4
330
86
100
AcDbEntity
  8
AM_9
100
AcDbLine
 10
-0.9199999999999997
 20
0.6332
 30
0.0
 11
-0.9199999999999997
 21
0.3749999999999999
 31
0.0
  0
LINE
  5
C5
330
86
100
AcDbEntity
  8
AM_9
100
AcDbLine
 10
-0.9200000000000002
 20
0.6332
 30
0.0
 11
0.9200000000000002
 21
0.6332
 31
0.0
  0
LINE
  5
C6
330
86
100
AcDbEntity
  8
AM_9
100
AcDbLine
 10
-0.9132000000000002
 20
0.64
 30
0.0
 11
-0.9200000000000002
 21
0.6332
 31
0.0
  0
LINE
  5
C7
330
86
100
AcDbEntity
  8
AM_9
100
AcDbLine
 10
0.9200000000000002
 20
0.6332
 30
0.0
 11
0.9132000000000001
 21
0.64
 31
0.0
  0
LINE
  5
C8
330
86
100
AcDbEntity
  8
AM_9
100
AcDbLine
 10
1.350633333333333
 20
-0.2399999999999999
 30
0.0
 11
1.350633333333333
 21
-0.1599999999999999
 31
0.0
  0
LINE
  5
C9
330
86
100
AcDbEntity
  8
AM_9
100
AcDbLine
 10
-1.350633333333333
 20
-0.1599999999999999
 30
0.0
 11
-1.350633333333333
 21
-0.2399999999999999
 31
0.0
  0
LINE
  5
CA
330
86
100
AcDbEntity
  8
AM_9
100
AcDbLine
 10
-1.335937981344943
 20
0.3749999999999999
 30
0.0
 11
1.335937981343608
 21
0.3749999999999999
 31
0.0
  0
ARC
  5
CB
330
86
100
AcDbEntity
  8
AM_9
100
AcDbCircle
 10
1.335937981344943
 20
0.335
 30
0.0
 40
0.0399999999999997
100
AcDbArc
 50
14.07723026334036
 51
90.0
  0
ARC
  5
CC
330
86
100
AcDbEntity
  8
AM_9
100
AcDbCircle
 10
-1.335937981344943
 20
0.335
 30
0.0
 40
0.0399999999999999
100
AcDbArc
 50
90.0
 51
165.9227697366597
  0
LINE
  5
CD
330
86
100
AcDbEntity
  8
AM_9
100
AcDbLine
 10
-1.335937981344943
 20
-0.3749999999999999
 30
0.0
 11
1.335937981343608
 21
-0.3749999999999999
 31
0.0
  0
ARC
  5
CE
330
86
100
AcDbEntity
  8
AM_9
100
AcDbCircle
 10
1.335937981344942
 20
-0.3349999999999994
 30
0.0
 40
0.0400000000000005
100
AcDbArc
 50
270.0
 51
345.9227727932858
  0
ARC
  5
CF
330
86
100
AcDbEntity
  8
AM_9
100
AcDbCircle
 10
-1.335937981344942
 20
-0.3349999999999995
 30
0.0
 40
0.0400000000000003
100
AcDbArc
 50
194.0772272067141
 51
270.0
  0
LINE
  5
D0
330
86
100
AcDbEntity
  8
AM_9
100
AcDbLine
 10
-1.374736731983001
 20
-0.3447291802802586
 30
0.0
 11
1.37473673198297
 21
-0.3447291802802586
 31
0.0
  0
LINE
  5
D1
330
86
100
AcDbEntity
  8
AM_9
100
AcDbLine
 10
-1.396831876068126
 20
-0.24
 30
0.0
 11
1.396831876068094
 21
-0.24
 31
0.0
  0
ARC
  5
D2
330
86
100
AcDbEntity
  8
AM_9
100
AcDbCircle
 10
-0.0000000000417544
 20
0.0000000000087922
 30
0.0
 40
1.417300000042609
100
AcDbArc
 50
345.9227727933522
 51
350.2507814750213
  0
ARC
  5
D3
330
86
100
AcDbEntity
  8
AM_9
100
AcDbCircle
 10
0.0000000000418798
 20
0.0000000000088187
 30
0.0
 40
1.417300000042737
100
AcDbArc
 50
189.7492185249788
 51
194.0772272066475
  0
LINE
  5
D4
330
86
100
AcDbEntity
  8
AM_9
100
AcDbLine
 10
-1.40823978426971
 20
-0.1599999999999999
 30
0.0
 11
1.40823978426971
 21
-0.1599999999999999
 31
0.0
  0
LINE
  5
D5
330
86
100
AcDbEntity
  8
AM_9
100
AcDbLine
 10
-1.374736731463967
 20
0.3447291823501022
 30
0.0
 11
1.374736731463966
 21
0.3447291823501021
 31
0.0
  0
ARC
  5
D6
330
86
100
AcDbEntity
  8
AM_9
100
AcDbCircle
 10
0.0000000000000884
 20
0.0000000000000067
 30
0.0
 40
1.417299999999912
100
AcDbArc
 50
353.5180207994813
 51
14.07722729298003
  0
ARC
  5
D7
330
86
100
AcDbEntity
  8
AM_9
100
AcDbCircle
 10
0.0000000000002622
 20
-0.0000000000000392
 30
0.0
 40
1.417300000000264
100
AcDbArc
 50
165.9227727070216
 51
167.6199957350189
  0
ARC
  5
D8
330
86
100
AcDbEntity
  8
AM_9
100
AcDbCircle
 10
0.000000000000115
 20
0.0000000000000011
 30
0.0
 40
1.417300000000114
100
AcDbArc
 50
176.1101158923624
 51
186.4819792005176
  0
LINE
  5
D9
330
86
100
AcDbEntity
  8
AM_9
100
AcDbLine
 10
-1.384276680758335
 20
0.3041666666606043
 30
0.0
 11
-1.414056315080953
 21
0.0958333333380772
 31
0.0
  0
LINE
  5
DC
330
86
100
AcDbEntity
  8
AM_7
100
AcDbLine
 10
0.0
 20
-1.1255
 30
0.0
 11
0.0
 21
0.7554999999999996
 31
0.0
  0
LINE
  5
DD
330
86
100
AcDbEntity
  8
AM_7
100
AcDbLine
 10
-1.5143525
 20
0.2
 30
0.0
 11
-0.8916975
 21
0.2
 31
0.0
  0
LINE
  5
DE
330
86
100
AcDbEntity
  8
AM_7
100
AcDbLine
 10
-0.1325100000000001
 20
-0.7074999999999999
 30
0.0
 11
0.1325100000000001
 21
-0.7074999999999999
 31
0.0
  0
ELLIPSE
  5
E0
330
86
100
AcDbEntity
  8
AM_4
100
AcDbEllipse
 10
0.8148925094304427
 20
-0.7075
 30
0.0
 11
-2.318256390785939E-17
 21
-0.1262
 31
0.0
210
0.0
220
0.0
230
1.0
 40
0.4226182617406986
 41
5.924671809524915
 42
8.41832994489265
  0
LWPOLYLINE
  5
E1
330
86
100
AcDbEntity
  8
AM_4
100
AcDbPolyline
 90
       11
 70
     0
 43
0.0
 10
0.8030536920670431
 20
-0.8353933021884346
 10
0.799946475955041
 20
-0.8312955586635274
 10
0.7912915877057912
 20
-0.8172836347978099
 10
0.7836061445765111
 20
-0.8007671272814006
 10
0.7767412176447328
 20
-0.7807722420046174
 10
0.771521188565616
 20
-0.758988278381379
 10
0.7680136773610051
 20
-0.7345136270465198
 10
0.7667070585634598
 20
-0.7093232214294111
 10
0.7677560775678578
 20
-0.6832999742100652
 10
0.7711554158505998
 20
-0.6579578724397033
 10
0.7751929412955113
 20
-0.6398095517099398
  0
LINE
  5
E2
330
86
100
AcDbEntity
  8
AM_4
100
AcDbLine
 10
-0.8832
 20
-1.04
 30
0.0
 11
0.8832
 21
-1.04
 31
0.0
  0
LINE
  5
E3
330
86
100
AcDbEntity
  8
AM_4
100
AcDbLine
 10
0.8832
 20
-1.04
 30
0.0
 11
0.92
 21
-1.0032
 31
0.0
  0
LINE
  5
E4
330
86
100
AcDbEntity
  8
AM_4
100
AcDbLine
 10
-0.92
 20
-1.0032
 30
0.0
 11
-0.8832
 21
-1.04
 31
0.0
  0
LINE
  5
E5
330
86
100
AcDbEntity
  8
AM_4
100
AcDbLine
 10
-0.92
 20
-1.0032
 30
0.0
 11
0.92
 21
-1.0032
 31
0.0
  0
LWPOLYLINE
  5
E6
330
86
100
AcDbEntity
  8
AM_4
100
AcDbPolyline
 90
       17
 70
     0
 43
0.0
 10
0.8778222456745892
 20
-0.6397896159093961
 10
0.8790152587109868
 20
-0.648751955752624
 10
0.8811831958308243
 20
-0.6719593141783387
 10
0.8822617265662864
 20
-0.6973312168221053
 10
0.8821386239732293
 20
-0.7229788291470501
 10
0.8807631372408959
 20
-0.7487221663299638
 10
0.8780978394089982
 20
-0.7732870748661603
 10
0.8741084630623616
 20
-0.795751488410156
 10
0.8687299636509869
 20
-0.8155921006122825
 10
0.8622062848454316
 20
-0.8314358019562612
 10
0.8543798591777444
 20
-0.8435713129913822
 10
0.8460197404765809
 20
-0.8509628016037893
 10
0.8367914119524856
 20
-0.8543649951509522
 10
0.8276050497532315
 20
-0.8537283405896985
 10
0.818157690520508
 20
-0.849496834881177
 10
0.8088816593979681
 20
-0.8419214843032236
 10
0.8030536920670431
 20
-0.8353933021884346
  0
LINE
  5
E7
330
86
100
AcDbEntity
  8
AM_4
100
AcDbLine
 10
0.92
 20
-1.0032
 30
0.0
 11
0.92
 21
-0.6399999999999999
 31
0.0
  0
LINE
  5
E8
330
86
100
AcDbEntity
  8
AM_4
100
AcDbLine
 10
-0.92
 20
-0.6893722309553055
 30
0.0
 11
-0.92
 21
-1.0032
 31
0.0
  0
LWPOLYLINE
  5
E9
330
86
100
AcDbEntity
  8
AM_4
100
AcDbPolyline
 90
       26
 70
     0
 43
0.0
 10
0.1215143587279939
 20
-0.6399961413765098
 10
0.1303109567384668
 20
-0.6627210234400404
 10
0.1355338288805017
 20
-0.6873231601094075
 10
0.1367427051778832
 20
-0.7128309335755907
 10
0.1336639999275326
 20
-0.7389057595955516
 10
0.1264221979832148
 20
-0.7636679264524187
 10
0.1147418003498324
 20
-0.7875085961069855
 10
0.0998456277366288
 20
-0.8079506951618038
 10
0.0809634024229808
 20
-0.825973913522221
 10
0.0609477324307622
 20
-0.8391180018042161
 10
0.0381081879578248
 20
-0.848724767186288
 10
0.0164660334176917
 20
-0.8534925926100079
 10
-0.006403838359732
 20
-0.8544037989290798
 10
-0.027228580461718
 20
-0.851612859322334
 10
-0.0478689225270829
 20
-0.8452383994537459
 10
-0.0667800430447169
 20
-0.8357995872058472
 10
-0.0843932464781528
 20
-0.8231727997366157
 10
-0.1002724782663171
 20
-0.8074584668120088
 10
-0.1138322299328558
 20
-0.7889932534545554
 10
-0.1248094644723248
 20
-0.7676793603234505
 10
-0.1324680822367561
 20
-0.7442781073396043
 10
-0.136389004072978
 20
-0.7193135335022269
 10
-0.1361941960916927
 20
-0.6933348432201434
 10
-0.1317649089748034
 20
-0.6679210038113121
 10
-0.1228845007114303
 20
-0.6429175251698679
 10
-0.1214732224881143
 20
-0.6399108724608848
  0
ARC
  5
EA
330
86
100
AcDbEntity
  8
AM_4
100
AcDbCircle
 10
0.0
 20
-0.7074999999999999
 30
0.0
 40
0.1262
100
AcDbArc
 50
147.6652236090522
 51
32.33477639094781
  0
LINE
  5
EB
330
86
100
AcDbEntity
  8
AM_4
100
AcDbLine
 10
-0.8832000000000002
 20
0.67
 30
0.0
 11
0.8832000000000002
 21
0.67
 31
0.0
  0
LINE
  5
EC
330
86
100
AcDbEntity
  8
AM_4
100
AcDbLine
 10
-0.8832000000000002
 20
0.67
 30
0.0
 11
-0.9132000000000002
 21
0.64
 31
0.0
  0
LINE
  5
ED
330
86
100
AcDbEntity
  8
AM_4
100
AcDbLine
 10
0.9132000000000001
 20
0.64
 30
0.0
 11
0.8832000000000002
 21
0.67
 31
0.0
  0
ARC
  5
EF
330
86
100
AcDbEntity
  8
AM_5
100
AcDbCircle
 10
0.0000000000000001
 20
-0.7074999999999999
 30
0.0
 40
0.1562499999999999
100
AcDbArc
 50
75.0
 51
14.99999999999994
  0
ARC
  5
F0
330
86
100
AcDbEntity
  8
AM_5
100
AcDbCircle
 10
0.0
 20
-0.7275
 30
0.0
 40
0.15625
100
AcDbArc
 50
75.00000000000001
 51
15.0
  0
ENDBLK
  5
89
330
86
100
AcDbEntity
  8
0
100
AcDbBlockEnd
  0
BLOCK
  5
F3
330
F1
100
AcDbEntity
  8
0
100
AcDbBlockBegin
  2
3_405020c_Inch_0_in_124424_4
 70
     2
 10
0.0
 20
0.0
 30
0.0
  3
3_405020c_Inch_0_in_124424_4
  1

  0
ATTDEF
  5
F5
330
F1
100
AcDbEntity
  8
AM_6
100
AcDbText
 10
4.099820552151224
 20
-0.3877241379009651
 30
0.0
 40
0.5
  1
405020C -Inch
100
AcDbAttributeDefinition
  3

  2
NN
 70
     8
280
     0
  0
ATTDEF
  5
F6
330
F1
100
AcDbEntity
  8
AM_6
100
AcDbText
 10
4.099820552151224
 20
-0.887724137900965
 30
0.0
 40
0.5
  1
Grease fitting
100
AcDbAttributeDefinition
  3

  2
NT
 70
     8
280
     0
  0
ATTDEF
  5
F7
330
F1
100
AcDbEntity
  8
AM_6
100
AcDbText
 10
4.099820552151224
 20
-1.387724137900965
 30
0.0
 40
0.5
  1
405020c-Inch
100
AcDbAttributeDefinition
  3

  2
NB
 70
     8
280
     0
  0
ATTDEF
  5
F8
330
F1
100
AcDbEntity
  8
AM_6
100
AcDbText
 10
4.099820552151224
 20
-1.887724137900965
 30
0.0
 40
0.5
  1
$MN.-Inch
100
AcDbAttributeDefinition
  3

  2
NBSYN
 70
     8
280
     0
  0
ATTDEF
  5
F9
330
F1
100
AcDbEntity
  8
AM_6
100
AcDbText
 10
4.099820552151224
 20
-2.387724137900965
 30
0.0
 40
0.5
  1
405020c
100
AcDbAttributeDefinition
  3

  2
LINA
 70
     8
280
     0
  0
ATTDEF
  5
FA
330
F1
100
AcDbEntity
  8
AM_6
100
AcDbText
 10
4.099820552151224
 20
-2.887724137900965
 30
0.0
 40
0.5
  1
405020c
100
AcDbAttributeDefinition
  3

  2
MN
 70
     8
280
     0
  0
ATTDEF
  5
FB
330
F1
100
AcDbEntity
  8
AM_6
100
AcDbText
 10
4.099820552151224
 20
-3.387724137900965
 30
0.0
 40
0.5
  1
0.230
100
AcDbAttributeDefinition
  3

  2
NDR
 70
     8
280
     0
  0
ATTDEF
  5
FC
330
F1
100
AcDbEntity
  8
AM_6
100
AcDbText
 10
4.099820552151224
 20
-3.887724137900965
 30
0.0
 40
0.5
  1
0.210
100
AcDbAttributeDefinition
  3

  2
KDR
 70
     8
280
     0
  0
ATTDEF
  5
FD
330
F1
100
AcDbEntity
  8
AM_6
100
AcDbText
 10
4.099820552151224
 20
-4.387724137900965
 30
0.0
 40
0.5
  1
0.157
100
AcDbAttributeDefinition
  3

  2
BZE
 70
     8
280
     0
  0
ATTDEF
  5
FE
330
F1
100
AcDbEntity
  8
AM_6
100
AcDbText
 10
4.099820552151224
 20
-4.887724137900965
 30
0.0
 40
0.5
  1
9/32
100
AcDbAttributeDefinition
  3

  2
WAF
 70
     8
280
     0
  0
ATTDEF
  5
FF
330
F1
100
AcDbEntity
  8
AM_6
100
AcDbText
 10
4.099820552151224
 20
-5.387724137900965
 30
0.0
 40
0.5
  1
0.2813
100
AcDbAttributeDefinition
  3

  2
WAF1
 70
     8
280
     0
  0
ATTDEF
  5
100
330
F1
100
AcDbEntity
  8
AM_6
100
AcDbText
 10
4.099820552151224
 20
-5.887724137900965
 30
0.0
 40
0.5
  1
0.545
100
AcDbAttributeDefinition
  3

  2
BL
 70
     8
280
     0
  0
ATTDEF
  5
101
330
F1
100
AcDbEntity
  8
AM_6
100
AcDbText
 10
4.099820552151224
 20
-6.387724137900965
 30
0.0
 40
0.5
  1
0.200
100
AcDbAttributeDefinition
  3

  2
TL
 70
     8
280
     0
  0
ATTDEF
  5
102
330
F1
100
AcDbEntity
  8
AM_6
100
AcDbText
 10
4.099820552151224
 20
-6.887724137900965
 30
0.0
 40
0.5
  1
baldor
100
AcDbAttributeDefinition
  3

  2
COMPANY
 70
     8
280
     0
  0
LWPOLYLINE
  5
103
330
F1
100
AcDbEntity
  8
AM_9
100
AcDbPolyline
 90
        3
 70
     0
 43
0.0
 10
-0.9001794478487767
 20
-0.6322306932856289
 10
-0.9328631806109069
 20
-0.6280179447478262
 10
-0.9661174371800448
 20
-0.6264890597077784
  0
LINE
  5
104
330
F1
100
AcDbEntity
  8
AM_9
100
AcDbLine
 10
-1.038695460039649
 20
-0.6864012763307419
 30
0.0
 11
-1.033216809715732
 21
-0.6322306932856289
 31
0.0
  0
LINE
  5
105
330
F1
100
AcDbEntity
  8
AM_9
100
AcDbLine
 10
-0.9967367368482294
 20
-0.6913422542421913
 30
0.0
 11
-0.9727574707083815
 21
-0.6921429099085922
 31
0.0
  0
LWPOLYLINE
  5
106
330
F1
100
AcDbEntity
  8
AM_9
100
AcDbPolyline
 90
        4
 70
     0
 43
0.0
 10
-1.038695460039649
 20
-0.6864012763307419
 10
-1.02344030919362
 20
-0.688664767426495
 10
-0.9982586029865238
 20
-0.6912382736487974
 10
-0.9967367368482294
 20
-0.6913422542421913
  0
LWPOLYLINE
  5
107
330
F1
100
AcDbEntity
  8
AM_9
100
AcDbPolyline
 90
        4
 70
     0
 43
0.0
 10
-0.9661174371800448
 20
-0.6264890597077784
 10
-0.9917257016896001
 20
-0.627388441888308
 10
-1.017503813466244
 20
-0.6299672021898758
 10
-1.033216809715732
 20
-0.6322306932856289
  0
LWPOLYLINE
  5
108
330
F1
100
AcDbEntity
  8
AM_9
100
AcDbPolyline
 90
        3
 70
     0
 43
0.0
 10
-1.033216809715732
 20
-0.6322306932856289
 10
-1.069118317327519
 20
-0.6219394944893623
 10
-1.105619415402191
 20
-0.6142772516133516
  0
LWPOLYLINE
  5
109
330
F1
100
AcDbEntity
  8
AM_9
100
AcDbPolyline
 90
        3
 70
     0
 43
0.0
 10
-1.112259448930528
 20
-0.6799311018141654
 10
-1.075614527516192
 20
-0.6845215093750189
 10
-1.038695460039649
 20
-0.6864012763307419
  0
LINE
  5
10A
330
F1
100
AcDbEntity
  8
AM_9
100
AcDbLine
 10
-1.184662054616986
 20
-0.661977660141888
 30
0.0
 11
-1.179183404293069
 21
-0.6078070770967751
 31
0.0
  0
LWPOLYLINE
  5
10B
330
F1
100
AcDbEntity
  8
AM_9
100
AcDbPolyline
 90
        3
 70
     0
 43
0.0
 10
-1.105619415402191
 20
-0.6142772516133516
 10
-1.142264336816526
 20
-0.609686844052498
 10
-1.179183404293069
 20
-0.6078070770967751
  0
LWPOLYLINE
  5
10C
330
F1
100
AcDbEntity
  8
AM_9
100
AcDbPolyline
 90
        3
 70
     0
 43
0.0
 10
-1.179183404293069
 20
-0.6078070770967751
 10
-1.181975114388687
 20
-0.5975158783005086
 10
-1.185067329046049
 20
-0.5898536354244978
  0
LINE
  5
10D
330
F1
100
AcDbEntity
  8
AM_9
100
AcDbLine
 10
-1.187843516719182
 20
-0.6604953942229721
 30
0.0
 11
-1.185534644171608
 21
-0.6617474065780747
 31
0.0
  0
LWPOLYLINE
  5
10E
330
F1
100
AcDbEntity
  8
AM_9
100
AcDbPolyline
 90
        3
 70
     0
 43
0.0
 10
-1.177680255284435
 20
-0.6641638516027915
 10
-1.148760547005199
 20
-0.6722688589381546
 10
-1.112259448930528
 20
-0.6799311018141654
  0
LINE
  5
10F
330
F1
100
AcDbEntity
  8
AM_9
100
AcDbLine
 10
-1.184662054616986
 20
-0.661977660141888
 30
0.0
 11
-1.177680255284435
 21
-0.6641638516027915
 31
0.0
  0
LINE
  5
110
330
F1
100
AcDbEntity
  8
AM_9
100
AcDbLine
 10
-1.185582058534884
 20
-0.6617316409749171
 30
0.0
 11
-1.171393557784651
 21
-0.6664495911160055
 31
0.0
  0
LINE
  5
111
330
F1
100
AcDbEntity
  8
AM_9
100
AcDbLine
 10
-0.9284883245884035
 20
-0.6895279404833762
 30
0.0
 11
-0.9182627559777197
 21
-0.6882546957715066
 31
0.0
  0
LWPOLYLINE
  5
112
330
F1
100
AcDbEntity
  8
AM_9
100
AcDbPolyline
 90
        3
 70
     0
 43
0.0
 10
-0.9727574707083815
 20
-0.6921429099085922
 10
-0.9393448574716416
 20
-0.6906274134222324
 10
-0.9284883245884035
 20
-0.6895279404833762
  0
LINE
  5
113
330
F1
100
AcDbEntity
  8
AM_9
100
AcDbLine
 10
-0.9351765741037783
 20
-0.6903398684844472
 30
0.0
 11
-0.9255492423253141
 21
-0.6891845860449121
 31
0.0
  0
LWPOLYLINE
  5
114
330
F1
100
AcDbEntity
  8
AM_9
100
AcDbPolyline
 90
        3
 70
     0
 43
0.0
 10
-1.185067329046049
 20
-0.5898536354244978
 10
-1.188452909993646
 20
-0.5852632278636442
 10
-1.19211263700345
 20
-0.5833834609079213
  0
LINE
  5
115
330
F1
100
AcDbEntity
  8
AM_9
100
AcDbLine
 10
-1.123986411181335
 20
-0.3931015857295429
 30
0.0
 11
-1.135162374191586
 21
-0.4020338654589173
 31
0.0
  0
LINE
  5
116
330
F1
100
AcDbEntity
  8
AM_9
100
AcDbLine
 10
-0.9177311765180883
 20
-0.4240242047648753
 30
0.0
 11
-0.9268923492381986
 21
-0.4130350881141796
 31
0.0
  0
ELLIPSE
  5
117
330
F1
100
AcDbEntity
  8
AM_9
100
AcDbEllipse
 10
-1.045565350823902
 20
-0.6020654435189025
 30
0.0
 11
0.1399361389186425
 21
-0.01415272145357871
 31
0.0
210
0.0
220
0.0
230
1.0
 40
0.1422442597228485
 41
2.575526124169571
 42
6.849251836601249
  0
LINE
  5
118
330
F1
100
AcDbEntity
  8
AM_9
100
AcDbLine
 10
-1.159825650524255
 20
-0.5791352788107472
 30
0.0
 11
-1.161310025555083
 21
-0.5902846720634229
 31
0.0
  0
LINE
  5
119
330
F1
100
AcDbEntity
  8
AM_9
100
AcDbLine
 10
-1.136521530721922
 20
-0.4040940724528398
 30
0.0
 11
-1.158721503558339
 21
-0.5708418432058094
 31
0.0
  0
LINE
  5
11A
330
F1
100
AcDbEntity
  8
AM_9
100
AcDbLine
 10
-0.9287928555764311
 20
-0.5990916829649163
 30
0.0
 11
-0.916812050158585
 21
-0.4263148304582237
 31
0.0
  0
LINE
  5
11B
330
F1
100
AcDbEntity
  8
AM_9
100
AcDbLine
 10
-0.929805718784544
 20
-0.6136983234214004
 30
0.0
 11
-0.9290276369608172
 21
-0.6024774977917712
 31
0.0
  0
ELLIPSE
  5
11C
330
F1
100
AcDbEntity
  8
AM_9
100
AcDbEllipse
 10
-1.055324926826387
 20
-0.6985640136173809
 30
0.0
 11
0.1087745551669354
 21
-0.01100113231941707
 31
0.0
210
0.0
220
0.0
230
1.0
 40
0.1422442597229268
 41
3.285797441219939
 42
3.759669303462537
  0
ELLIPSE
  5
11D
330
F1
100
AcDbEntity
  8
AM_9
100
AcDbEllipse
 10
-1.052205384352241
 20
-0.6677192937197394
 30
0.0
 11
0.1399361389186448
 21
-0.01415272145355823
 31
0.0
210
0.0
220
0.0
230
1.0
 40
0.1422442597229199
 41
3.285797441219859
 42
6.138980519549465
  0
ELLIPSE
  5
11E
330
F1
100
AcDbEntity
  8
AM_9
100
AcDbEllipse
 10
-1.060950985948513
 20
-0.7541921126697192
 30
0.0
 11
0.09886505654362733
 21
-0.009998915344987256
 31
0.0
210
0.0
220
0.0
230
1.0
 40
0.142244259722931
 41
3.074531417164084
 42
3.759669303462518
  0
ELLIPSE
  5
11F
330
F1
100
AcDbEntity
  8
AM_9
100
AcDbEllipse
 10
-1.067758762049774
 20
-0.8215045306636205
 30
0.0
 11
0.130575800484798
 21
-0.01320604489388704
 31
0.0
210
0.0
220
0.0
230
1.0
 40
0.1422442597229221
 41
3.073314454965717
 42
3.759669303462533
  0
ELLIPSE
  5
120
330
F1
100
AcDbEntity
  8
AM_9
100
AcDbEllipse
 10
-1.071809262465806
 20
-0.8615541699339313
 30
0.0
 11
0.1312820509854038
 21
-0.01327747295163265
 31
0.0
210
0.0
220
0.0
230
1.0
 40
0.1422442597229263
 41
3.202629918891507
 42
3.759669303462519
  0
ELLIPSE
  5
121
330
F1
100
AcDbEntity
  8
AM_9
100
AcDbEllipse
 10
-1.078410437182563
 20
-0.9268238005998172
 30
0.0
 11
0.1032921233598353
 21
-0.0104466556070138
 31
0.0
210
0.0
220
0.0
230
1.0
 40
0.1422442597229273
 41
3.202629918891517
 42
3.759669303462501
  0
ELLIPSE
  5
122
330
F1
100
AcDbEntity
  8
AM_9
100
AcDbEllipse
 10
-1.025645250238892
 20
-0.4051038929164831
 30
0.0
 11
0.09958062858752206
 21
-0.01007128615567152
 31
0.0
210
0.0
220
0.0
230
1.0
 40
0.1422442597229239
 41
0.0
 42
6.283185307179586
  0
ELLIPSE
  5
123
330
F1
100
AcDbEntity
  8
AM_9
100
AcDbEllipse
 10
-1.045565350823905
 20
-0.6020654435189254
 30
0.0
 11
0.1157533207215506
 21
-0.01170694373988086
 31
0.0
210
0.0
220
0.0
230
1.0
 40
0.1422442597229212
 41
0.0
 42
6.283185307179586
  0
ELLIPSE
  5
124
330
F1
100
AcDbEntity
  8
AM_9
100
AcDbEllipse
 10
-1.026673888067197
 20
-0.4152746297963752
 30
0.0
 11
0.1098558481437721
 21
-0.01111049104854207
 31
0.0
210
0.0
220
0.0
230
1.0
 40
0.1422442597229273
 41
0.0
 42
6.283185307179586
  0
LWPOLYLINE
  5
125
330
F1
100
AcDbEntity
  8
AM_4
100
AcDbPolyline
 90
        3
 70
     0
 43
0.0
 10
-1.191707362574386
 20
-0.6555074856253116
 10
-1.18832178162679
 20
-0.6600978931861652
 10
-1.187843516719182
 20
-0.6604953942229721
  0
LINE
  5
126
330
F1
100
AcDbEntity
  8
AM_4
100
AcDbLine
 10
-0.9182627559777197
 20
-0.6882546957715066
 30
0.0
 11
-0.9056580981726939
 21
-0.6864012763307419
 31
0.0
  0
LINE
  5
127
330
F1
100
AcDbEntity
  8
AM_4
100
AcDbLine
 10
-0.9056580981726939
 20
-0.6864012763307419
 30
0.0
 11
-0.9001794478487767
 21
-0.6322306932856289
 31
0.0
  0
LWPOLYLINE
  5
128
330
F1
100
AcDbEntity
  8
AM_4
100
AcDbPolyline
 90
        3
 70
     0
 43
0.0
 10
-0.9060633726017574
 20
-0.6142772516133514
 10
-0.9029843371941632
 20
-0.6218986521469249
 10
-0.9001794478487767
 20
-0.6322306932856289
  0
LWPOLYLINE
  5
129
330
F1
100
AcDbEntity
  8
AM_4
100
AcDbPolyline
 90
        3
 70
     0
 43
0.0
 10
-0.9056580981726939
 20
-0.6864012763307419
 10
-0.9093019377763885
 20
-0.6845355746100805
 10
-0.9127034061300942
 20
-0.6799311018141654
  0
LINE
  5
12A
330
F1
100
AcDbEntity
  8
AM_4
100
AcDbLine
 10
-1.162594161072365
 20
-0.5794448687542159
 30
0.0
 11
-1.172221492850829
 21
-0.5806001511937511
 31
0.0
  0
LWPOLYLINE
  5
12B
330
F1
100
AcDbEntity
  8
AM_4
100
AcDbPolyline
 90
        3
 70
     0
 43
0.0
 10
-1.172110945529396
 20
-0.5805868985746644
 10
-1.150697381142939
 20
-0.5785464635898657
 10
-1.125013264467762
 20
-0.5776418273300709
  0
LWPOLYLINE
  5
12C
330
F1
100
AcDbEntity
  8
AM_4
100
AcDbPolyline
 90
        3
 70
     0
 43
0.0
 10
-1.197591287327367
 20
-0.6375540439530343
 10
-1.194799577231748
 20
-0.6478452427493009
 10
-1.191707362574386
 20
-0.6555074856253116
  0
ELLIPSE
  5
12D
330
F1
100
AcDbEntity
  8
AM_4
100
AcDbEllipse
 10
-1.045565350823905
 20
-0.6020654435189254
 30
0.0
 11
0.1399361389186448
 21
-0.01415272145355823
 31
0.0
210
0.0
220
0.0
230
1.0
 40
0.1422442597229286
 41
0.5660665294216436
 42
2.575526124168108
  0
LINE
  5
12E
330
F1
100
AcDbEntity
  8
AM_4
100
AcDbLine
 10
-0.9121889728887149
 20
-0.6080529977557537
 30
0.0
 11
-0.9263771773914932
 21
-0.6033351461226575
 31
0.0
  0
LWPOLYLINE
  5
12F
330
F1
100
AcDbEntity
  8
AM_4
100
AcDbPolyline
 90
        3
 70
     0
 43
0.0
 10
-0.9110101183152268
 20
-0.608574241856014
 10
-0.9094648409554632
 20
-0.6096727788174364
 10
-0.9060633726017574
 20
-0.6142772516133516
  0
LWPOLYLINE
  5
130
330
F1
100
AcDbEntity
  8
AM_4
100
AcDbPolyline
 90
        3
 70
     0
 43
0.0
 10
-0.9127034061300942
 20
-0.6799311018141654
 10
-0.9157824415376885
 20
-0.6723097012805921
 10
-0.9185873308830749
 20
-0.661977660141888
  0
LINE
  5
131
330
F1
100
AcDbEntity
  8
AM_4
100
AcDbLine
 10
-1.158721503558339
 20
-0.5708418432058094
 30
0.0
 11
-1.159825650524255
 21
-0.5791352788107472
 31
0.0
  0
LINE
  5
132
330
F1
100
AcDbEntity
  8
AM_4
100
AcDbLine
 10
-0.9290276369608172
 20
-0.6024774977917712
 30
0.0
 11
-0.9287928555764311
 21
-0.5990916829649163
 31
0.0
  0
LWPOLYLINE
  5
133
330
F1
100
AcDbEntity
  8
AM_4
100
AcDbPolyline
 90
        3
 70
     0
 43
0.0
 10
-1.19211263700345
 20
-0.5833834609079213
 10
-1.176399640753961
 20
-0.5811199698121682
 10
-1.172110945529396
 20
-0.5805868985746644
  0
LINE
  5
134
330
F1
100
AcDbEntity
  8
AM_4
100
AcDbLine
 10
-1.197591287327367
 20
-0.6375540439530343
 30
0.0
 11
-1.19211263700345
 21
-0.5833834609079213
 31
0.0
  0
LWPOLYLINE
  5
135
330
F1
100
AcDbEntity
  8
AM_4
100
AcDbPolyline
 90
        4
 70
     0
 43
0.0
 10
-1.131653297996099
 20
-0.6432956775308848
 10
-1.157079640872262
 20
-0.6423962953503551
 10
-1.182336136481337
 20
-0.6398175350487874
 10
-1.197591287327367
 20
-0.6375540439530343
  0
LWPOLYLINE
  5
136
330
F1
100
AcDbEntity
  8
AM_4
100
AcDbPolyline
 90
       10
 70
     0
 43
0.0
 10
-1.163183057744968
 20
-0.6899152910109559
 10
-1.161430716926627
 20
-0.6921700930352593
 10
-1.158402653010433
 20
-0.6969750572377967
 10
-1.155754064475149
 20
-0.7027847587919809
 10
-1.15383954295621
 20
-0.709351201517857
 10
-1.152891644931891
 20
-0.7163788440703452
 10
-1.153097520373492
 20
-0.7242980476314459
 10
-1.154539134849283
 20
-0.7317522134409636
 10
-1.156990590156163
 20
-0.7384979115893008
 10
-1.159501049217901
 20
-0.74327751769851
  0
LWPOLYLINE
  5
137
330
F1
100
AcDbEntity
  8
AM_4
100
AcDbPolyline
 90
       11
 70
     0
 43
0.0
 10
-0.9622854032489213
 20
-0.7630197213887459
 10
-0.9624123052917664
 20
-0.7626508621097808
 10
-0.9641383026534199
 20
-0.7559628117422119
 10
-0.9648648976070716
 20
-0.748874997270755
 10
-0.9644127778811831
 20
-0.7410233730867128
 10
-0.9627636677865175
 20
-0.7336892685559774
 10
-0.9601502027559949
 20
-0.7270924371363396
 10
-0.9568284837485779
 20
-0.7213580574636571
 10
-0.9530927356978032
 20
-0.7165835474062099
 10
-0.9492828467320511
 20
-0.7128253537071898
 10
-0.9481351153515449
 20
-0.7118602938215871
  0
LWPOLYLINE
  5
138
330
F1
100
AcDbEntity
  8
AM_4
100
AcDbPolyline
 90
        3
 70
     0
 43
0.0
 10
-1.125013264467762
 20
-0.5776418273300707
 10
-1.091907196771024
 20
-0.5791573238164307
 10
-1.059075275136494
 20
-0.5833834609079213
  0
ELLIPSE
  5
139
330
F1
100
AcDbEntity
  8
AM_4
100
AcDbEllipse
 10
-1.079927524333046
 20
-0.9418241183081365
 30
0.0
 11
-0.08039630127522002
 21
0.008131040820742473
 31
0.0
210
0.0
220
0.0
230
1.0
 40
0.1422442597229238
 41
0.0
 42
6.283185307179586
  0
LWPOLYLINE
  5
13A
330
F1
100
AcDbEntity
  8
AM_4
100
AcDbPolyline
 90
       24
 70
     0
 43
0.0
 10
-1.150976393639111
 20
-0.9411002500828343
 10
-1.147291269500553
 20
-0.9421824854493804
 10
-1.138914751365386
 20
-0.9443398962293739
 10
-1.130124113582452
 20
-0.9462752551301873
 10
-1.120902638776403
 20
-0.9480401135097718
 10
-1.1112627543652
 20
-0.9496549806843053
 10
-1.101277334389743
 20
-0.9511188725934645
 10
-1.091047945428005
 20
-0.9524228462721183
 10
-1.080691117883768
 20
-0.9535551347071319
 10
-1.070330561606298
 20
-0.9545034486961035
 10
-1.060094915378506
 20
-0.9552558560990176
 10
-1.050108783700004
 20
-0.9558016990665961
 10
-1.040485177626051
 20
-0.9561314581934962
 10
-1.031321558228538
 20
-0.9562354828534706
 10
-1.022689129151333
 20
-0.9561013005714132
 10
-1.014612539916484
 20
-0.9557065024532779
 10
-1.007021686349086
 20
-0.9549974767814822
 10
-0.9996020146828609
 20
-0.953807752250504
 10
-0.993538280320584
 20
-0.9522246871244485
 10
-0.9894449332973455
 20
-0.9506559193147864
 10
-0.985497303859117
 20
-0.9485752443244101
 10
-0.9817261698202139
 20
-0.9458392938160709
 10
-0.9782533823178774
 20
-0.9423220349423812
 10
-0.9755896331980183
 20
-0.938481061277457
  0
LWPOLYLINE
  5
13B
330
F1
100
AcDbEntity
  8
AM_4
100
AcDbPolyline
 90
       10
 70
     0
 43
0.0
 10
-1.181473709925545
 20
-0.9176862124674751
 10
-1.180218572934429
 20
-0.9208103685360144
 10
-1.177854526166809
 20
-0.924866274892209
 10
-1.175067783816563
 20
-0.928268972118475
 10
-1.171995075609221
 20
-0.9311022683360827
 10
-1.168614763896239
 20
-0.9335332940634973
 10
-1.164640780121348
 20
-0.9357955723998846
 10
-1.159279509392448
 20
-0.9382051718285577
 10
-1.152037881218294
 20
-0.9407692867627968
 10
-1.150976393639111
 20
-0.9411002500828343
  0
LWPOLYLINE
  5
13C
330
F1
100
AcDbEntity
  8
AM_4
100
AcDbPolyline
 90
        3
 70
     0
 43
0.0
 10
-1.064553925460411
 20
-0.6375540439530343
 10
-1.098089787730617
 20
-0.6417667924908369
 10
-1.131653297996099
 20
-0.6432956775308848
  0
ELLIPSE
  5
13D
330
F1
100
AcDbEntity
  8
AM_4
100
AcDbEllipse
 10
-1.05220538435224
 20
-0.6677192937197388
 30
0.0
 11
0.1399361389186444
 21
-0.01415272145355856
 31
0.0
210
0.0
220
0.0
230
1.0
 40
0.1422442597229259
 41
6.138980519549453
 42
9.56898274839949
  0
LINE
  5
13E
330
F1
100
AcDbEntity
  8
AM_4
100
AcDbLine
 10
-0.9479042749602139
 20
-0.7116744512974263
 30
0.0
 11
-0.9140110130748245
 21
-0.6845855914091504
 31
0.0
  0
LINE
  5
13F
330
F1
100
AcDbEntity
  8
AM_4
100
AcDbLine
 10
-1.19097835525096
 20
-0.6565739449835601
 30
0.0
 11
-1.163195333251408
 21
-0.6899005592708027
 31
0.0
  0
ELLIPSE
  5
140
330
F1
100
AcDbEntity
  8
AM_4
100
AcDbEllipse
 10
-1.055324926826384
 20
-0.6985640136173817
 30
0.0
 11
0.1087745551669387
 21
-0.01100113231941798
 31
0.0
210
0.0
220
0.0
230
1.0
 40
0.1422442597229237
 41
6.138980519549459
 42
9.568982748399526
  0
LINE
  5
141
330
F1
100
AcDbEntity
  8
AM_4
100
AcDbLine
 10
-1.159498508423444
 20
-0.7432732979401332
 30
0.0
 11
-1.197915180129395
 21
-0.80708353073194
 31
0.0
  0
LINE
  5
142
330
F1
100
AcDbEntity
  8
AM_4
100
AcDbLine
 10
-0.9373505858407183
 20
-0.8334362524243052
 30
0.0
 11
-0.9622128455979146
 21
-0.7632261782634477
 31
0.0
  0
ELLIPSE
  5
143
330
F1
100
AcDbEntity
  8
AM_4
100
AcDbEllipse
 10
-1.060950985948513
 20
-0.7541921126697217
 30
0.0
 11
0.09886505654362755
 21
-0.009998915344990207
 31
0.0
210
0.0
220
0.0
230
1.0
 40
0.1422442597229261
 41
0.0670612364257011
 42
3.07453141716411
  0
LINE
  5
144
330
F1
100
AcDbEntity
  8
AM_4
100
AcDbLine
 10
-0.9185873308830749
 20
-0.661977660141888
 30
0.0
 11
-0.9131086805591575
 21
-0.6078070770967751
 31
0.0
  0
LWPOLYLINE
  5
145
330
F1
100
AcDbEntity
  8
AM_4
100
AcDbPolyline
 90
        3
 70
     0
 43
0.0
 10
-0.9855112862456159
 20
-0.5898536354244978
 10
-0.9491729103712829
 20
-0.597475035958071
 10
-0.9131086805591575
 20
-0.6078070770967751
  0
LWPOLYLINE
  5
146
330
F1
100
AcDbEntity
  8
AM_4
100
AcDbPolyline
 90
        3
 70
     0
 43
0.0
 10
-1.059075275136494
 20
-0.5833834609079213
 10
-1.022321638016631
 20
-0.5852491626285826
 10
-0.9855112862456159
 20
-0.5898536354244978
  0
LINE
  5
147
330
F1
100
AcDbEntity
  8
AM_4
100
AcDbLine
 10
-1.064553925460411
 20
-0.6375540439530343
 30
0.0
 11
-1.059075275136494
 21
-0.5833834609079213
 31
0.0
  0
LWPOLYLINE
  5
148
330
F1
100
AcDbEntity
  8
AM_4
100
AcDbPolyline
 90
        3
 70
     0
 43
0.0
 10
-0.9921513197739529
 20
-0.6555074856253116
 10
-1.028489695648286
 20
-0.6478860850917383
 10
-1.064553925460411
 20
-0.6375540439530343
  0
LWPOLYLINE
  5
149
330
F1
100
AcDbEntity
  8
AM_4
100
AcDbPolyline
 90
        3
 70
     0
 43
0.0
 10
-0.9185873308830749
 20
-0.661977660141888
 10
-0.9553409680029376
 20
-0.6601119584212267
 10
-0.9921513197739529
 20
-0.6555074856253116
  0
LWPOLYLINE
  5
14A
330
F1
100
AcDbEntity
  8
AM_4
100
AcDbPolyline
 90
        7
 70
     0
 43
0.0
 10
-0.9410035214392675
 20
-0.8761550865981461
 10
-0.9381812637244747
 20
-0.8702937020450228
 10
-0.9358566225331786
 20
-0.8631232538707159
 10
-0.9345306817052214
 20
-0.8549331671854865
 10
-0.9345038500405412
 20
-0.8469839264796454
 10
-0.9356177227916661
 20
-0.8394550264302959
 10
-0.937393323228277
 20
-0.8333160295979839
  0
LWPOLYLINE
  5
14B
330
F1
100
AcDbEntity
  8
AM_4
100
AcDbPolyline
 90
        8
 70
     0
 43
0.0
 10
-1.197704154135389
 20
-0.8067360763009723
 10
-1.199037839783404
 20
-0.8090428027648394
 10
-1.202140064656571
 20
-0.8158661376572884
 10
-1.204238234704492
 20
-0.8231151507135646
 10
-1.205298643575447
 20
-0.8312704755885668
 10
-1.20509036573366
 20
-0.8391476955016604
 10
-1.203773360772118
 20
-0.846581628725678
 10
-1.202862948444838
 20
-0.8497519067382597
  0
ELLIPSE
  5
14C
330
F1
100
AcDbEntity
  8
AM_4
100
AcDbEllipse
 10
-1.067758762049774
 20
-0.8215045306636204
 30
0.0
 11
0.1305758004847977
 21
-0.01320604489388666
 31
0.0
210
0.0
220
0.0
230
1.0
 40
0.1422442597229174
 41
0.0674156071703189
 42
3.073314454965702
  0
LINE
  5
14D
330
F1
100
AcDbEntity
  8
AM_4
100
AcDbLine
 10
-0.9754013076157411
 20
-0.9381472486844232
 30
0.0
 11
-0.9408868904603013
 21
-0.8759460271290367
 31
0.0
  0
LINE
  5
14E
330
F1
100
AcDbEntity
  8
AM_4
100
AcDbLine
 10
-1.202962046708217
 20
-0.849440531729946
 30
0.0
 11
-1.181600854054243
 21
-0.9172928449032035
 31
0.0
  0
ELLIPSE
  5
14F
330
F1
100
AcDbEntity
  8
AM_4
100
AcDbEllipse
 10
-1.071809262465809
 20
-0.8615541699339321
 30
0.0
 11
0.1312820509854013
 21
-0.01327747295163323
 31
0.0
210
0.0
220
0.0
230
1.0
 40
0.1422442597229213
 41
6.22214804187789
 42
9.485815226071086
  0
ELLIPSE
  5
150
330
F1
100
AcDbEntity
  8
AM_4
100
AcDbEllipse
 10
-1.07841043718257
 20
-0.9268238005998173
 30
0.0
 11
0.1032921233598283
 21
-0.01044665560701365
 31
0.0
210
0.0
220
0.0
230
1.0
 40
0.1422442597229207
 41
6.222148041877892
 42
9.485815226071095
  0
ENDBLK
  5
F4
330
F1
100
AcDbEntity
  8
0
100
AcDbBlockEnd
  0
BLOCK
  5
153
330
151
100
AcDbEntity
  8
0
100
AcDbBlockBegin
  2
4_124424H_0_in_124424_4
 70
     2
 10
0.0
 20
0.0
 30
0.0
  3
4_124424H_0_in_124424_4
  1

  0
ATTDEF
  5
155
330
151
100
AcDbEntity
  8
AM_6
100
AcDbText
 10
6.75
 20
0.64
 30
0.0
 40
0.5
  1
HNG-SC Housing -Inch
100
AcDbAttributeDefinition
  3

  2
NN
 70
     8
280
     0
  0
ATTDEF
  5
156
330
151
100
AcDbEntity
  8
AM_6
100
AcDbText
 10
6.75
 20
0.14
 30
0.0
 40
0.5
  1
SC Hanger Bearings -(Normal Duty)
100
AcDbAttributeDefinition
  3

  2
NT
 70
     8
280
     0
  0
ATTDEF
  5
157
330
151
100
AcDbEntity
  8
AM_6
100
AcDbText
 10
6.75
 20
-0.36
 30
0.0
 40
0.5
  1
124424H
100
AcDbAttributeDefinition
  3

  2
NB
 70
     8
280
     0
  0
ATTDEF
  5
158
330
151
100
AcDbEntity
  8
AM_6
100
AcDbText
 10
6.75
 20
-0.86
 30
0.0
 40
0.5
  1
$PN.H
100
AcDbAttributeDefinition
  3

  2
NBSYN
 70
     8
280
     0
  0
ATTDEF
  5
159
330
151
100
AcDbEntity
  8
AM_6
100
AcDbText
 10
6.75
 20
-1.36
 30
0.0
 40
0.5
  1
124424
100
AcDbAttributeDefinition
  3

  2
LINA
 70
     8
280
     0
  0
ATTDEF
  5
15A
330
151
100
AcDbEntity
  8
AM_6
100
AcDbText
 10
6.75
 20
-1.86
 30
0.0
 40
0.5
  1
207
100
AcDbAttributeDefinition
  3

  2
SERIES
 70
     8
280
     0
  0
ATTDEF
  5
15B
330
151
100
AcDbEntity
  8
AM_6
100
AcDbText
 10
6.75
 20
-2.36
 30
0.0
 40
0.5
  1
1-3/8
100
AcDbAttributeDefinition
  3

  2
SS
 70
     8
280
     0
  0
ATTDEF
  5
15C
330
151
100
AcDbEntity
  8
AM_6
100
AcDbText
 10
6.75
 20
-2.86
 30
0.0
 40
0.5
  1
124424
100
AcDbAttributeDefinition
  3

  2
PN
 70
     8
280
     0
  0
ATTDEF
  5
15D
330
151
100
AcDbEntity
  8
AM_6
100
AcDbText
 10
6.75
 20
-3.36
 30
0.0
 40
0.5
  1
HNG-SC-106
100
AcDbAttributeDefinition
  3

  2
DESCRIPTION
 70
     8
280
     0
  0
ATTDEF
  5
15E
330
151
100
AcDbEntity
  8
AM_6
100
AcDbText
 10
6.75
 20
-3.86
 30
0.0
 40
0.5
  1
2.4
100
AcDbAttributeDefinition
  3

  2
W
 70
     8
280
     0
  0
ATTDEF
  5
15F
330
151
100
AcDbEntity
  8
AM_6
100
AcDbText
 10
6.75
 20
-4.359999999999999
 30
0.0
 40
0.5
  1
1.71
100
AcDbAttributeDefinition
  3

  2
A
 70
     8
280
     0
  0
ATTDEF
  5
160
330
151
100
AcDbEntity
  8
AM_6
100
AcDbText
 10
6.75
 20
-4.859999999999999
 30
0.0
 40
0.5
  1
4.25
100
AcDbAttributeDefinition
  3

  2
B
 70
     8
280
     0
  0
ATTDEF
  5
161
330
151
100
AcDbEntity
  8
AM_6
100
AcDbText
 10
6.75
 20
-5.359999999999999
 30
0.0
 40
0.5
  1
1.68
100
AcDbAttributeDefinition
  3

  2
C
 70
     8
280
     0
  0
ATTDEF
  5
162
330
151
100
AcDbEntity
  8
AM_6
100
AcDbText
 10
6.75
 20
-5.859999999999999
 30
0.0
 40
0.5
  1
3.50
100
AcDbAttributeDefinition
  3

  2
F
 70
     8
280
     0
  0
ATTDEF
  5
163
330
151
100
AcDbEntity
  8
AM_6
100
AcDbText
 10
6.75
 20
-6.359999999999999
 30
0.0
 40
0.5
  1
1.84
100
AcDbAttributeDefinition
  3

  2
L
 70
     8
280
     0
  0
ATTDEF
  5
164
330
151
100
AcDbEntity
  8
AM_6
100
AcDbText
 10
6.75
 20
-6.859999999999999
 30
0.0
 40
0.5
  1
1/2
100
AcDbAttributeDefinition
  3

  2
M
 70
     8
280
     0
  0
ATTDEF
  5
165
330
151
100
AcDbEntity
  8
AM_6
100
AcDbText
 10
6.75
 20
-7.359999999999999
 30
0.0
 40
0.5
  1
0.67
100
AcDbAttributeDefinition
  3

  2
R
 70
     8
280
     0
  0
ATTDEF
  5
166
330
151
100
AcDbEntity
  8
AM_6
100
AcDbText
 10
6.75
 20
-7.859999999999999
 30
0.0
 40
0.5
  1
1.04
100
AcDbAttributeDefinition
  3

  2
S
 70
     8
280
     0
  0
ATTDEF
  5
167
330
151
100
AcDbEntity
  8
AM_6
100
AcDbText
 10
6.75
 20
-8.36
 30
0.0
 40
0.5
  1
3065
100
AcDbAttributeDefinition
  3

  2
CAPS
 70
     8
280
     0
  0
ATTDEF
  5
168
330
151
100
AcDbEntity
  8
AM_6
100
AcDbText
 10
6.75
 20
-8.86
 30
0.0
 40
0.5
  1
5759
100
AcDbAttributeDefinition
  3

  2
CAPD
 70
     8
280
     0
  0
ATTDEF
  5
169
330
151
100
AcDbEntity
  8
AM_6
100
AcDbText
 10
6.75
 20
-9.36
 30
0.0
 40
0.5
  1
baldor
100
AcDbAttributeDefinition
  3

  2
COMPANY
 70
     8
280
     0
  0
LINE
  5
16A
330
151
100
AcDbEntity
  8
AM_9
100
AcDbLine
 10
-0.639956642550281
 20
-0.1066666666666669
 30
0.0
 11
-0.6399566425502805
 21
0.1066666666666675
 31
0.0
  0
LINE
  5
16B
330
151
100
AcDbEntity
  8
AM_9
100
AcDbLine
 10
-0.5839999999999999
 20
-0.5315845914076514
 30
0.0
 11
-0.5839999999999999
 21
0.32
 31
0.0
  0
LINE
  5
16C
330
151
100
AcDbEntity
  8
AM_9
100
AcDbLine
 10
-0.6399999999999999
 20
-0.5374579191859985
 30
0.0
 11
-0.6399999999999999
 21
-0.5282374212099047
 31
0.0
  0
LINE
  5
16D
330
151
100
AcDbEntity
  8
AM_9
100
AcDbLine
 10
-1.360346434648122
 20
-0.2469333333333339
 30
0.0
 11
-1.360346434648124
 21
-0.5599999999999999
 31
0.0
  0
LINE
  5
16E
330
151
100
AcDbEntity
  8
AM_9
100
AcDbLine
 10
-1.360346434648123
 20
0.5599999999999996
 30
0.0
 11
-1.360346434648122
 21
0.2469333333333333
 31
0.0
  0
LWPOLYLINE
  5
16F
330
151
100
AcDbEntity
  8
AM_9
100
AcDbPolyline
 90
        7
 70
     0
 43
0.0
 10
-1.360346434648122
 20
0.2469333333333333
 10
-1.360744108676718
 20
0.2422437444538486
 10
-1.36379554508023
 20
0.2333831558729824
 10
-1.369671821500284
 20
0.2255046884705973
 10
-1.378629557447675
 20
0.2188512734964387
 10
-1.390910292196058
 20
0.2143585107779246
 10
-1.400790984501206
 20
0.2133333333333333
  0
LINE
  5
170
330
151
100
AcDbEntity
  8
AM_9
100
AcDbLine
 10
-1.360346434648122
 20
0.2469333333333333
 30
0.0
 11
-0.6399999999999999
 21
0.2469333333333332
 31
0.0
  0
LINE
  5
171
330
151
100
AcDbEntity
  8
AM_9
100
AcDbLine
 10
-1.611806502045962
 20
0.2133333333333331
 30
0.0
 11
-0.6399999999999999
 21
0.2133333333333333
 31
0.0
  0
LWPOLYLINE
  5
172
330
151
100
AcDbEntity
  8
AM_9
100
AcDbPolyline
 90
       11
 70
     0
 43
0.0
 10
-1.360346434648123
 20
0.5599999999999996
 10
-1.359367780616695
 20
0.5713498640975703
 10
-1.35639621685074
 20
0.5826222191566359
 10
-1.35142055548448
 20
0.5935471579772039
 10
-1.343499241878622
 20
0.605070770148348
 10
-1.333363166748432
 20
0.6153546933843907
 10
-1.322099767138154
 20
0.6236105595853753
 10
-1.30948699262751
 20
0.6302924852830789
 10
-1.294318419214304
 20
0.6357150442322015
 10
-1.27819193832611
 20
0.63897938501097
 10
-1.26243511605938
 20
0.6399999999999996
  0
LINE
  5
173
330
151
100
AcDbEntity
  8
AM_9
100
AcDbLine
 10
-1.360346434648124
 20
-0.5599999999999999
 30
0.0
 11
-0.6399999999999999
 21
-0.5599999999999766
 31
0.0
  0
LWPOLYLINE
  5
174
330
151
100
AcDbEntity
  8
AM_9
100
AcDbPolyline
 90
       11
 70
     0
 43
0.0
 10
-1.262435116059379
 20
-0.6400000000000005
 10
-1.276503093067824
 20
-0.639187881610108
 10
-1.290571070076268
 20
-0.6366871220283319
 10
-1.309594358946681
 20
-0.630244760062707
 10
-1.327664654235888
 20
-0.6198559864223921
 10
-1.338148434741174
 20
-0.6109334160568437
 10
-1.3472693360081
 20
-0.6001377392330806
 10
-1.351420555484481
 20
-0.593547157977204
 10
-1.356176443523866
 20
-0.5832292386940585
 10
-1.359256657621027
 20
-0.5719733789499692
 10
-1.360346434648124
 20
-0.5599999999999999
  0
LINE
  5
175
330
151
100
AcDbEntity
  8
AM_9
100
AcDbLine
 10
-1.360346434648122
 20
-0.2469333333333339
 30
0.0
 11
-0.6399999999999999
 21
-0.2469333333333339
 31
0.0
  0
LWPOLYLINE
  5
176
330
151
100
AcDbEntity
  8
AM_9
100
AcDbPolyline
 90
        8
 70
     0
 43
0.0
 10
-1.400790984501206
 20
-0.2133333333333335
 10
-1.392691291224765
 20
-0.2140189924432007
 10
-1.384974637589367
 20
-0.216024519025016
 10
-1.377506887088582
 20
-0.2194863272234953
 10
-1.367883039269331
 20
-0.2274326865195639
 10
-1.362372441008006
 20
-0.2364544722586369
 10
-1.360346496313287
 20
-0.2468747942078049
 10
-1.360346434648122
 20
-0.2469333333333339
  0
LINE
  5
177
330
151
100
AcDbEntity
  8
AM_9
100
AcDbLine
 10
-1.611806500213397
 20
-0.2133333333333335
 30
0.0
 11
-0.6399999999999999
 21
-0.2133333333333298
 31
0.0
  0
LINE
  5
178
330
151
100
AcDbEntity
  8
AM_9
100
AcDbLine
 10
-1.694000000000001
 20
0.1856194825423489
 30
0.0
 11
-1.694000000000001
 21
0.3149639091509452
 31
0.0
  0
LINE
  5
179
330
151
100
AcDbEntity
  8
AM_9
100
AcDbLine
 10
-1.694
 20
-0.5242757217409914
 30
0.0
 11
-1.694
 21
-0.1856194825423495
 31
0.0
  0
LWPOLYLINE
  5
17A
330
151
100
AcDbEntity
  8
AM_9
100
AcDbPolyline
 90
        6
 70
     0
 43
0.0
 10
-1.611806500213397
 20
-0.2133333333333335
 10
-1.636063344797708
 20
-0.2112300837238052
 10
-1.652212220153757
 20
-0.2073746327205523
 10
-1.667996765104204
 20
-0.2014429608635885
 10
-1.681391353305204
 20
-0.1944013918091223
 10
-1.694
 20
-0.1856194825423495
  0
LWPOLYLINE
  5
17B
330
151
100
AcDbEntity
  8
AM_9
100
AcDbPolyline
 90
       11
 70
     0
 43
0.0
 10
-1.694
 20
-0.1856194825423495
 10
-1.704770784518648
 20
-0.17642869978707
 10
-1.714792832720022
 20
-0.166799411921019
 10
-1.725141418564897
 20
-0.1557466996811495
 10
-1.734596167792228
 20
-0.1455888399792352
 10
-1.739839148711527
 20
-0.1409573750192203
 10
-1.743190394495447
 20
-0.1394452740476081
 10
-1.745974569269089
 20
-0.1401077665350211
 10
-1.748385288871183
 20
-0.1436551644310297
 10
-1.749627031672633
 20
-0.1485872616904846
 10
-1.75
 20
-0.1541479508771676
  0
LINE
  5
17C
330
151
100
AcDbEntity
  8
AM_9
100
AcDbLine
 10
-1.75
 20
-0.1066666666666667
 30
0.0
 11
-0.639956642550281
 21
-0.1066666666666669
 31
0.0
  0
LWPOLYLINE
  5
17D
330
151
100
AcDbEntity
  8
AM_9
100
AcDbPolyline
 90
       11
 70
     0
 43
0.0
 10
-1.75
 20
0.1541479508771455
 10
-1.749139002227879
 20
0.1460835310254238
 10
-1.747923151012196
 20
0.1426021660044442
 10
-1.746015790475739
 20
0.140138235635785
 10
-1.743357890561934
 20
0.139422788555837
 10
-1.740133501962785
 20
0.1407604598409061
 10
-1.734437784954229
 20
0.1457501487695923
 10
-1.727642481483626
 20
0.1530446777416042
 10
-1.720396173171657
 20
0.1609684677326909
 10
-1.707837603252714
 20
0.173576517262079
 10
-1.694000000000001
 20
0.1856194825423489
  0
LWPOLYLINE
  5
17E
330
151
100
AcDbEntity
  8
AM_9
100
AcDbPolyline
 90
        6
 70
     0
 43
0.0
 10
-1.694000000000001
 20
0.1856194825423489
 10
-1.681113192594259
 20
0.1945694146107637
 10
-1.667996765104204
 20
0.2014429608635883
 10
-1.64667357143976
 20
0.208932960550245
 10
-1.623727825699447
 20
0.2128300813751628
 10
-1.611806502045962
 20
0.2133333333333331
  0
LINE
  5
17F
330
151
100
AcDbEntity
  8
AM_9
100
AcDbLine
 10
-1.75
 20
0.1066666666666676
 30
0.0
 11
-0.6399566425502805
 21
0.1066666666666675
 31
0.0
  0
LINE
  5
180
330
151
100
AcDbEntity
  8
AM_9
100
AcDbLine
 10
-1.341144975591959
 20
-0.416
 30
0.0
 11
-1.48605
 21
-0.416
 31
0.0
  0
LINE
  5
181
330
151
100
AcDbEntity
  8
AM_9
100
AcDbLine
 10
-1.413603607117482
 20
-0.416
 30
0.0
 11
-1.413603607117482
 21
0.6399999999999999
 31
0.0
  0
LINE
  5
182
330
151
100
AcDbEntity
  8
AM_9
100
AcDbLine
 10
-1.48605
 20
0.164015151515146
 30
0.0
 11
-1.48605
 21
-0.416
 31
0.0
  0
LINE
  5
183
330
151
100
AcDbEntity
  8
AM_9
100
AcDbLine
 10
-1.48605
 20
0.6399999999999999
 30
0.0
 11
-1.48605
 21
0.2359848484848541
 31
0.0
  0
LINE
  5
184
330
151
100
AcDbEntity
  8
AM_9
100
AcDbLine
 10
1.413603607117482
 20
-0.416
 30
0.0
 11
1.413603607117482
 21
0.6399999999999999
 31
0.0
  0
LINE
  5
185
330
151
100
AcDbEntity
  8
AM_9
100
AcDbLine
 10
1.48605
 20
-0.416
 30
0.0
 11
1.48605
 21
0.6399999999999999
 31
0.0
  0
LINE
  5
186
330
151
100
AcDbEntity
  8
AM_9
100
AcDbLine
 10
1.48605
 20
-0.416
 30
0.0
 11
1.341144975591959
 21
-0.416
 31
0.0
  0
LINE
  5
187
330
151
100
AcDbEntity
  8
AM_9
100
AcDbLine
 10
-1.341144975591959
 20
-0.416
 30
0.0
 11
-1.341144975591959
 21
0.6399999999999999
 31
0.0
  0
LINE
  5
188
330
151
100
AcDbEntity
  8
AM_9
100
AcDbLine
 10
1.341144975591959
 20
0.6399999999999999
 30
0.0
 11
1.341144975591959
 21
-0.416
 31
0.0
  0
LINE
  5
189
330
151
100
AcDbEntity
  8
AM_9
100
AcDbLine
 10
1.4173
 20
-0.6399999999999999
 30
0.0
 11
1.4173
 21
-0.416
 31
0.0
  0
LINE
  5
18A
330
151
100
AcDbEntity
  8
AM_9
100
AcDbLine
 10
-1.4173
 20
-0.416
 30
0.0
 11
-1.4173
 21
-0.6399999999999999
 31
0.0
  0
LINE
  5
18B
330
151
100
AcDbEntity
  8
AM_9
100
AcDbLine
 10
-0.9426547458060115
 20
-0.6399999999999997
 30
0.0
 11
-1.194124930658258
 21
-0.6031500364380118
 31
0.0
  0
LINE
  5
18C
330
151
100
AcDbEntity
  8
AM_9
100
AcDbLine
 10
-1.196927768885547
 20
-0.6399999999999997
 30
0.0
 11
-0.9009652122314835
 21
-0.6399999999999999
 31
0.0
  0
LINE
  5
18D
330
151
100
AcDbEntity
  8
AM_7
100
AcDbLine
 10
-0.2625
 20
0.0000000000000001
 30
0.0
 11
0.2625
 21
0.0000000000000001
 31
0.0
  0
LINE
  5
18E
330
151
100
AcDbEntity
  8
AM_4
100
AcDbLine
 10
1.75
 20
-0.6399999999999999
 30
0.0
 11
1.75
 21
0.6399999999999999
 31
0.0
  0
LINE
  5
18F
330
151
100
AcDbEntity
  8
AM_4
100
AcDbLine
 10
-1.196927768885547
 20
-0.6399999999999997
 30
0.0
 11
-1.75
 21
-0.6399999999999999
 31
0.0
  0
LINE
  5
190
330
151
100
AcDbEntity
  8
AM_4
100
AcDbLine
 10
-1.75
 20
-0.6399999999999999
 30
0.0
 11
-1.75
 21
0.6399999999999999
 31
0.0
  0
LINE
  5
191
330
151
100
AcDbEntity
  8
AM_4
100
AcDbLine
 10
1.694
 20
0.1856194825423496
 30
0.0
 11
1.694
 21
0.64
 31
0.0
  0
LINE
  5
192
330
151
100
AcDbEntity
  8
AM_4
100
AcDbLine
 10
1.694
 20
-0.6399999999999997
 30
0.0
 11
1.694
 21
-0.1856194825423492
 31
0.0
  0
LINE
  5
193
330
151
100
AcDbEntity
  8
AM_4
100
AcDbLine
 10
-1.694
 20
-0.6399999999999997
 30
0.0
 11
-1.694
 21
-0.5242757217409914
 31
0.0
  0
LINE
  5
194
330
151
100
AcDbEntity
  8
AM_4
100
AcDbLine
 10
-1.694
 20
0.3149639091509452
 30
0.0
 11
-1.694
 21
0.64
 31
0.0
  0
LINE
  5
195
330
151
100
AcDbEntity
  8
AM_4
100
AcDbLine
 10
-1.75
 20
-0.4896974961192687
 30
0.0
 11
-1.623098930962829
 21
-0.4896974961192687
 31
0.0
  0
LINE
  5
196
330
151
100
AcDbEntity
  8
AM_4
100
AcDbLine
 10
-1.75
 20
0.2133333333322668
 30
0.0
 11
-1.623098930962828
 21
0.2133333333333332
 31
0.0
  0
LWPOLYLINE
  5
197
330
151
100
AcDbEntity
  8
AM_4
100
AcDbPolyline
 90
        4
 70
     0
 43
0.0
 10
-1.658814374640159
 20
0.3199999999999998
 10
-1.661697652559329
 20
0.3199670739497326
 10
-1.677873591029183
 20
0.3185494815888498
 10
-1.694
 20
0.3149639091509452
  0
LWPOLYLINE
  5
198
330
151
100
AcDbEntity
  8
AM_4
100
AcDbPolyline
 90
       10
 70
     0
 43
0.0
 10
-1.694
 20
0.3149639091509452
 10
-1.703871319310671
 20
0.3117372799820123
 10
-1.713317342992273
 20
0.3081321034975159
 10
-1.722126557771597
 20
0.3044392485695931
 10
-1.730152879386227
 20
0.300990185651994
 10
-1.736020619255567
 20
0.2986061113372154
 10
-1.74107266686875
 20
0.2968790922336711
 10
-1.745144890742884
 20
0.2960449542366314
 10
-1.748042236883699
 20
0.2962183698675936
 10
-1.75
 20
0.2988393790086219
  0
LINE
  5
199
330
151
100
AcDbEntity
  8
AM_4
100
AcDbLine
 10
1.360346434648121
 20
-0.2469333333333334
 30
0.0
 11
1.360346434648122
 21
-0.5599999999999996
 31
0.0
  0
LINE
  5
19A
330
151
100
AcDbEntity
  8
AM_4
100
AcDbLine
 10
1.360346434648123
 20
0.5599999999999999
 30
0.0
 11
1.360346434648123
 21
0.2469333333333337
 31
0.0
  0
LWPOLYLINE
  5
19B
330
151
100
AcDbEntity
  8
AM_4
100
AcDbPolyline
 90
       11
 70
     0
 43
0.0
 10
1.262435116059379
 20
-0.6399999999999997
 10
1.265118822956711
 20
-0.6399706815378698
 10
1.285283398057306
 20
-0.6378342693350869
 10
1.305367532765332
 20
-0.6320182811271137
 10
1.319747416629462
 20
-0.6250350674580071
 10
1.333138595123743
 20
-0.615546578351253
 10
1.342565871786074
 20
-0.6061779196709156
 10
1.350531107370406
 20
-0.595092414112234
 10
1.356234776879695
 20
-0.5830698199515203
 10
1.35963492868298
 20
-0.5696844100341013
 10
1.360346434648122
 20
-0.5599999999999996
  0
LINE
  5
19C
330
151
100
AcDbEntity
  8
AM_4
100
AcDbLine
 10
0.6399999999999999
 20
-0.5599999999999995
 30
0.0
 11
1.360346434648122
 21
-0.5599999999999996
 31
0.0
  0
LINE
  5
19D
330
151
100
AcDbEntity
  8
AM_4
100
AcDbLine
 10
0.6399999999999999
 20
0.5599999999999999
 30
0.0
 11
1.360346434648123
 21
0.5599999999999999
 31
0.0
  0
LWPOLYLINE
  5
19E
330
151
100
AcDbEntity
  8
AM_4
100
AcDbPolyline
 90
       12
 70
     0
 43
0.0
 10
1.360346434648123
 20
0.5599999999999999
 10
1.359702782264725
 20
0.5692127165594727
 10
1.35727505636275
 20
0.5799948129059316
 10
1.353023053451757
 20
0.5905211279063373
 10
1.347113381665539
 20
0.6003585951211969
 10
1.339636858394772
 20
0.6094127118506346
 10
1.330046133667278
 20
0.6180639658919146
 10
1.319093431156372
 20
0.6254153659266494
 10
1.305431995838611
 20
0.6319928168965934
 10
1.290671123398395
 20
0.6366629135335938
 10
1.276753615373618
 20
0.6391584869380453
 10
1.262435116059379
 20
0.64
  0
LWPOLYLINE
  5
19F
330
151
100
AcDbEntity
  8
AM_4
100
AcDbPolyline
 90
        8
 70
     0
 43
0.0
 10
1.400790984501206
 20
-0.213333333333333
 10
1.392526991320904
 20
-0.2140473703505133
 10
1.384817257561449
 20
-0.2160806372610786
 10
1.377361944249447
 20
-0.2195716926843686
 10
1.367792552952364
 20
-0.227538292918197
 10
1.362343523858741
 20
-0.2365276415883595
 10
1.361477113283004
 20
-0.2390613976983695
 10
1.360346434648121
 20
-0.2469333333333334
  0
LINE
  5
1A0
330
151
100
AcDbEntity
  8
AM_4
100
AcDbLine
 10
0.6399999999999999
 20
-0.2469333333333333
 30
0.0
 11
1.360346434648121
 21
-0.2469333333333334
 31
0.0
  0
LWPOLYLINE
  5
1A1
330
151
100
AcDbEntity
  8
AM_4
100
AcDbPolyline
 90
        7
 70
     0
 43
0.0
 10
1.360346434648123
 20
0.2469333333333337
 10
1.361477113283004
 20
0.2390613976983698
 10
1.3663342587863
 20
0.2293711405687378
 10
1.374008240339421
 20
0.2217864931355401
 10
1.384689984717945
 20
0.2161264998629989
 10
1.398591238097702
 20
0.213383491905617
 10
1.400790984501206
 20
0.2133333333333333
  0
LINE
  5
1A2
330
151
100
AcDbEntity
  8
AM_4
100
AcDbLine
 10
0.6399999999999999
 20
0.2469333333333338
 30
0.0
 11
1.360346434648123
 21
0.2469333333333337
 31
0.0
  0
LINE
  5
1A3
330
151
100
AcDbEntity
  8
AM_4
100
AcDbLine
 10
-1.54206881838131
 20
0.3536
 30
0.0
 11
-1.54206881838131
 21
0.56
 31
0.0
  0
LINE
  5
1A4
330
151
100
AcDbEntity
  8
AM_4
100
AcDbLine
 10
-1.54206881838131
 20
0.56
 30
0.0
 11
-0.6399999999999999
 21
0.56
 31
0.0
  0
LWPOLYLINE
  5
1A5
330
151
100
AcDbEntity
  8
AM_4
100
AcDbPolyline
 90
       11
 70
     0
 43
0.0
 10
-1.453493346145965
 20
0.64
 10
-1.455965908545693
 20
0.6399691616580867
 10
-1.472268325415649
 20
0.6381981424820657
 10
-1.488498512141064
 20
0.6335325150655734
 10
-1.502952547018448
 20
0.6264385811682504
 10
-1.516305009877096
 20
0.6164954724677635
 10
-1.523608524654695
 20
0.6089762586960116
 10
-1.529980533574227
 20
0.6004307171770775
 10
-1.535855106197875
 20
0.5895057264873123
 10
-1.539951428482123
 20
0.5774321069347618
 10
-1.54206881838131
 20
0.56
  0
LINE
  5
1A6
330
151
100
AcDbEntity
  8
AM_4
100
AcDbLine
 10
-1.54206881838131
 20
0.3536
 30
0.0
 11
-0.6399999999999999
 21
0.3536
 31
0.0
  0
LWPOLYLINE
  5
1A7
330
151
100
AcDbEntity
  8
AM_4
100
AcDbPolyline
 90
        6
 70
     0
 43
0.0
 10
-1.578997530277969
 20
0.32
 10
-1.56753775590769
 20
0.3216635439096247
 10
-1.555459288027276
 20
0.3277231274251203
 10
-1.546779469156242
 20
0.3371926313856764
 10
-1.542573622265336
 20
0.3480689651120207
 10
-1.54206881838131
 20
0.3536
  0
LWPOLYLINE
  5
1A8
330
151
100
AcDbEntity
  8
AM_4
100
AcDbPolyline
 90
        5
 70
     0
 43
0.0
 10
1.611806502045962
 20
-0.2133333333333332
 10
1.628657045319373
 20
-0.2123247285019123
 10
1.651661726184023
 20
-0.2075410095942395
 10
1.674149286790147
 20
-0.1984635686704665
 10
1.694
 20
-0.1856194825423492
  0
LWPOLYLINE
  5
1A9
330
151
100
AcDbEntity
  8
AM_4
100
AcDbPolyline
 90
       11
 70
     0
 43
0.0
 10
1.694
 20
-0.1856194825423492
 10
1.704658127674056
 20
-0.1765376834880573
 10
1.714792832720022
 20
-0.1667994119210184
 10
1.725009193598651
 20
-0.1559737805843831
 10
1.734596167792227
 20
-0.1455888399792345
 10
1.739839148711527
 20
-0.1409573750192197
 10
1.743190394495447
 20
-0.1394452740476078
 10
1.745974569269089
 20
-0.1401077665350206
 10
1.748385288871183
 20
-0.1436551644310293
 10
1.749614262558043
 20
-0.1485543134890742
 10
1.75
 20
-0.1541479508771538
  0
LINE
  5
1AA
330
151
100
AcDbEntity
  8
AM_4
100
AcDbLine
 10
0.6399566425502808
 20
-0.1066666666666675
 30
0.0
 11
1.75
 21
-0.1066666666666676
 31
0.0
  0
LINE
  5
1AB
330
151
100
AcDbEntity
  8
AM_4
100
AcDbLine
 10
0.6399999999999999
 20
-0.2133333333333511
 30
0.0
 11
1.611806502045962
 21
-0.2133333333333332
 31
0.0
  0
LWPOLYLINE
  5
1AC
330
151
100
AcDbEntity
  8
AM_4
100
AcDbPolyline
 90
       11
 70
     0
 43
0.0
 10
1.75
 20
0.1541479508773286
 10
1.749139002227879
 20
0.1460835310254238
 10
1.747923151012196
 20
0.1426021660044441
 10
1.746015790475739
 20
0.140138235635785
 10
1.743357890561934
 20
0.1394227885558371
 10
1.740133501962785
 20
0.1407604598409064
 10
1.734437784954229
 20
0.1457501487695924
 10
1.727642481483627
 20
0.1530446777416042
 10
1.720396173171658
 20
0.1609684677326908
 10
1.707837603252714
 20
0.1735765172620793
 10
1.694
 20
0.1856194825423496
  0
LWPOLYLINE
  5
1AD
330
151
100
AcDbEntity
  8
AM_4
100
AcDbPolyline
 90
        6
 70
     0
 43
0.0
 10
1.694
 20
0.1856194825423496
 10
1.686817796333715
 20
0.1909142920715805
 10
1.670488124402371
 20
0.200285539822019
 10
1.652536879189512
 20
0.2072753000754647
 10
1.632627863439395
 20
0.2117885426034473
 10
1.611806503878529
 20
0.2133333333333333
  0
LINE
  5
1AE
330
151
100
AcDbEntity
  8
AM_4
100
AcDbLine
 10
0.6399999999999999
 20
0.2133333333333334
 30
0.0
 11
1.611806503878529
 21
0.2133333333333333
 31
0.0
  0
LINE
  5
1AF
330
151
100
AcDbEntity
  8
AM_4
100
AcDbLine
 10
0.639956642550281
 20
0.1066666666666667
 30
0.0
 11
1.75
 21
0.1066666666673802
 31
0.0
  0
LINE
  5
1B0
330
151
100
AcDbEntity
  8
AM_4
100
AcDbLine
 10
0.6399999999999999
 20
-0.6399999999999997
 30
0.0
 11
0.6399999999999999
 21
0.64
 31
0.0
  0
CIRCLE
  5
1B1
330
151
100
AcDbEntity
  8
AM_4
100
AcDbCircle
 10
0.0
 20
0.0000000000000001
 30
0.0
 40
0.1875
  0
LINE
  5
1B2
330
151
100
AcDbEntity
  8
AM_4
100
AcDbLine
 10
1.75
 20
0.6399999999999999
 30
0.0
 11
-1.75
 21
0.6399999999999999
 31
0.0
  0
LINE
  5
1B3
330
151
100
AcDbEntity
  8
AM_4
100
AcDbLine
 10
-0.64
 20
-0.5282374212099047
 30
0.0
 11
-0.64
 21
0.64
 31
0.0
  0
LINE
  5
1B4
330
151
100
AcDbEntity
  8
AM_4
100
AcDbLine
 10
-0.6742902394945953
 20
0.32
 30
0.0
 11
-0.5839999999999999
 21
0.32
 31
0.0
  0
LINE
  5
1B5
330
151
100
AcDbEntity
  8
AM_4
100
AcDbLine
 10
0.5840000000000003
 20
-0.6399999999999997
 30
0.0
 11
0.5840000000000003
 21
0.64
 31
0.0
  0
LINE
  5
1B6
330
151
100
AcDbEntity
  8
AM_4
100
AcDbLine
 10
-0.5839999999999999
 20
0.32
 30
0.0
 11
-0.5839999999999999
 21
0.64
 31
0.0
  0
LINE
  5
1B7
330
151
100
AcDbEntity
  8
AM_4
100
AcDbLine
 10
-0.6113009806052098
 20
0.3199999999999998
 30
0.0
 11
-0.6399999999999992
 21
0.3195376795398252
 31
0.0
  0
LINE
  5
1B8
330
151
100
AcDbEntity
  8
AM_4
100
AcDbLine
 10
-1.75
 20
-0.5149085745963261
 30
0.0
 11
-1.577498465613197
 21
-0.5149085745963023
 31
0.0
  0
LWPOLYLINE
  5
1B9
330
151
100
AcDbEntity
  8
AM_4
100
AcDbPolyline
 90
       10
 70
     0
 43
0.0
 10
-1.694
 20
-0.5242757217409914
 10
-1.703413780740262
 20
-0.5227992457952405
 10
-1.712581104120444
 20
-0.5214668291297097
 10
-1.721242819190505
 20
-0.5203165803638072
 10
-1.729143489078885
 20
-0.519379715983901
 10
-1.735967116376436
 20
-0.5186924079277847
 10
-1.7416132313738
 20
-0.5182598412741255
 10
-1.745849561523639
 20
-0.518098654635762
 10
-1.748650635720572
 20
-0.5182027187902623
 10
-1.75
 20
-0.5187424508721203
  0
LINE
  5
1BA
330
151
100
AcDbEntity
  8
AM_4
100
AcDbLine
 10
-1.194124930658258
 20
-0.6031500364380118
 30
0.0
 11
-1.694
 21
-0.5242757217409914
 31
0.0
  0
LINE
  5
1BB
330
151
100
AcDbEntity
  8
AM_4
100
AcDbLine
 10
-0.9009652122314835
 20
-0.6399999999999999
 30
0.0
 11
1.75
 21
-0.6399999999999999
 31
0.0
  0
LINE
  5
1BC
330
151
100
AcDbEntity
  8
AM_4
100
AcDbLine
 10
-0.5839999999999999
 20
-0.5315845914076512
 30
0.0
 11
-0.64
 21
-0.5282374212099047
 31
0.0
  0
LINE
  5
1BD
330
151
100
AcDbEntity
  8
AM_4
100
AcDbLine
 10
-0.5839999999999999
 20
-0.6399999999999997
 30
0.0
 11
-0.5839999999999999
 21
-0.5315845914076512
 31
0.0
  0
LWPOLYLINE
  5
1BE
330
151
100
AcDbEntity
  8
AM_4
100
AcDbPolyline
 90
       10
 70
     0
 43
0.0
 10
-0.5839999999999999
 20
-0.5315845914076512
 10
-0.5931354468213283
 20
-0.5311820037221987
 10
-0.6022853513564994
 20
-0.531031566207251
 10
-0.6106857969117787
 20
-0.5311459768076502
 10
-0.6185744665641563
 20
-0.5315286917280684
 10
-0.6252928645136646
 20
-0.5321477393325009
 10
-0.6310392204538546
 20
-0.5330208738187872
 10
-0.6353771784329141
 20
-0.5340858800006709
 10
-0.6383872719060919
 20
-0.535367074539324
 10
-0.64
 20
-0.5374579191859985
  0
LINE
  5
1BF
330
151
100
AcDbEntity
  8
AM_4
100
AcDbLine
 10
-0.64
 20
-0.6399999999999997
 30
0.0
 11
-0.64
 21
-0.5374579191859985
 31
0.0
  0
LWPOLYLINE
  5
1C0
330
151
100
AcDbEntity
  8
AM_4
100
AcDbPolyline
 90
        9
 70
     0
 43
0.0
 10
-1.577498465613197
 20
-0.5149085745963023
 10
-1.460659380033979
 20
-0.5233054725401269
 10
-1.343744566133574
 20
-0.5299371320038357
 10
-1.226689632343987
 20
-0.5346858025324975
 10
-1.109592434051152
 20
-0.5374616790722928
 10
-0.9922131047370727
 20
-0.5382026315434076
 10
-0.8748370939697062
 20
-0.5368919199767346
 10
-0.7573944350404034
 20
-0.5335460131490006
 10
-0.64
 20
-0.5282374212099047
  0
LINE
  5
1C1
330
151
100
AcDbEntity
  8
AM_4
100
AcDbLine
 10
-1.658814374640159
 20
0.3199999999999998
 30
0.0
 11
-0.6399999999999992
 21
0.3195376795398252
 31
0.0
  0
LWPOLYLINE
  5
1C2
330
151
100
AcDbEntity
  8
AM_4
100
AcDbPolyline
 90
       16
 70
     0
 43
0.0
 10
-1.623098930962828
 20
0.2133333333333332
 10
-1.622508609978375
 20
0.2210452726708871
 10
-1.620827348881573
 20
0.2285201505786253
 10
-1.617462191681383
 20
0.2371302555771269
 10
-1.613001597705197
 20
0.2449845707070395
 10
-1.604224811123481
 20
0.2560557677242801
 10
-1.594165857765011
 20
0.2654242560912644
 10
-1.579298100026068
 20
0.2760418093618662
 10
-1.563526723450415
 20
0.2846964044043653
 10
-1.547257754330399
 20
0.2917933164212167
 10
-1.514440013878712
 20
0.3026751978070574
 10
-1.480918817507578
 20
0.3102400785572663
 10
-1.446945284009706
 20
0.3151337302387465
 10
-1.412770532177802
 20
0.3180019244184009
 10
-1.378645680804573
 20
0.3194904326631323
 10
-1.342728169745044
 20
0.3199999999999998
  0
LINE
  5
1C3
330
151
100
AcDbEntity
  8
AM_4
100
AcDbLine
 10
-1.623098930962828
 20
0.2133333333333332
 30
0.0
 11
-1.623098930962829
 21
-0.4896974961192687
 31
0.0
  0
LWPOLYLINE
  5
1C4
330
151
100
AcDbEntity
  8
AM_4
100
AcDbPolyline
 90
        8
 70
     0
 43
0.0
 10
-1.577498465613197
 20
-0.5149085745963023
 10
-1.589979567133731
 20
-0.5132399602755112
 10
-1.602214429258048
 20
-0.509888158688324
 10
-1.610245076266229
 20
-0.5062884958646835
 10
-1.618572947602258
 20
-0.4999934807065675
 10
-1.621251797209468
 20
-0.4963663079837968
 10
-1.622907173590997
 20
-0.4918642742564677
 10
-1.623098930962829
 20
-0.4896974961192687
  0
ARC
  5
1C5
330
151
100
AcDbEntity
  8
AM_5
100
AcDbCircle
 10
0.0
 20
0.0
 30
0.0
 40
0.25
100
AcDbArc
 50
75.0
 51
14.99999999999997
  0
ENDBLK
  5
154
330
151
100
AcDbEntity
  8
0
100
AcDbBlockEnd
  0
ENDSEC
  0
SECTION
  2
ENTITIES
  0
INSERT
  5
6F
330
1F
100
AcDbEntity
  8
0
100
AcDbBlockReference
  2
1_124424_4
 10
0.0
 20
0.0
 30
0.0
  0
POINT
  5
1C7
330
1F
100
AcDbEntity
  8
ConnectionPoints
100
AcDbPoint
 10
-1.045565350823903
 20
-0.6020654435189245
 30
1.493222071697777
  0
POINT
  5
1C8
330
1F
100
AcDbEntity
  8
ConnectionPoints
100
AcDbPoint
 10
-1.045565350823903
 20
-0.6020654435189245
 30
1.493222071697777
  0
POINT
  5
1C9
330
1F
100
AcDbEntity
  8
ConnectionPoints
100
AcDbPoint
 10
0.0
 20
-1.04
 30
0.0000000000000001
  0
ENDSEC
  0
SECTION
  2
OBJECTS
  0
DICTIONARY
  5
C
330
0
100
AcDbDictionary
281
     1
  3
ACAD_DETAILVIEWSTYLE
350
1D1
  3
ACAD_GROUP
350
D
  3
ACAD_LAYOUT
350
1A
  3
ACAD_MATERIAL
350
43
  3
ACAD_MLEADERSTYLE
350
6B
  3
ACAD_MLINESTYLE
350
17
  3
ACAD_PLOTSETTINGS
350
19
  3
ACAD_PLOTSTYLENAME
350
E
  3
ACAD_SCALELIST
350
47
  3
ACAD_SECTIONVIEWSTYLE
350
1D2
  3
ACAD_TABLESTYLE
350
69
  3
ACAD_VISUALSTYLE
350
2A
  3
ACDB_RECOMPOSE_DATA
350
1CE
  3
AcDbVariableDictionary
350
1CA
  0
SUN
  5
6D
330
29
100
AcDbSun
 90
        1
290
     0
 63
     7
421
 16777215
 40
1.0
291
     1
 91
  2455826
 92
 54000000
292
     0
 70
     2
 71
   256
280
     1
  0
DICTIONARY
  5
1D1
102
{ACAD_REACTORS
330
C
102
}
330
C
100
AcDbDictionary
281
     1
  0
DICTIONARY
  5
D
102
{ACAD_REACTORS
330
C
102
}
330
C
100
AcDbDictionary
281
     1
  0
DICTIONARY
  5
1A
102
{ACAD_REACTORS
330
C
102
}
330
C
100
AcDbDictionary
281
     1
  3
Layout1
350
1E
  3
Layout2
350
26
  3
Model
350
22
  0
DICTIONARY
  5
43
102
{ACAD_REACTORS
330
C
102
}
330
C
100
AcDbDictionary
281
     1
  3
ByBlock
350
45
  3
ByLayer
350
44
  3
Global
350
46
  0
DICTIONARY
  5
6B
102
{ACAD_REACTORS
330
C
102
}
330
C
100
AcDbDictionary
281
     1
  3
Standard
350
6C
  0
DICTIONARY
  5
17
102
{ACAD_REACTORS
330
C
102
}
330
C
100
AcDbDictionary
281
     1
  3
Standard
350
18
  0
DICTIONARY
  5
19
102
{ACAD_REACTORS
330
C
102
}
330
C
100
AcDbDictionary
281
     1
  0
ACDBDICTIONARYWDFLT
  5
E
102
{ACAD_REACTORS
330
C
102
}
330
C
100
AcDbDictionary
281
     1
  3
Normal
350
F
100
AcDbDictionaryWithDefault
340
F
  0
DICTIONARY
  5
47
102
{ACAD_REACTORS
330
C
102
}
330
C
100
AcDbDictionary
281
     1
  3
A0
350
48
  3
A1
350
49
  3
A2
350
4A
  3
A3
350
4B
  3
A4
350
4C
  3
A5
350
4D
  3
A6
350
4E
  3
A7
350
4F
  3
A8
350
50
  3
A9
350
51
  3
B0
350
52
  3
B1
350
53
  3
B2
350
54
  3
B3
350
55
  3
B4
350
56
  3
B5
350
57
  3
B6
350
58
  3
B7
350
59
  3
B8
350
5A
  3
B9
350
5B
  3
C0
350
5C
  3
C1
350
5D
  3
C2
350
5E
  3
C3
350
5F
  3
C4
350
60
  3
C5
350
61
  3
C6
350
62
  3
C7
350
63
  3
C8
350
64
  3
C9
350
65
  3
D0
350
66
  3
D1
350
67
  3
D2
350
68
  0
DICTIONARY
  5
1D2
102
{ACAD_REACTORS
330
C
102
}
330
C
100
AcDbDictionary
281
     1
  0
DICTIONARY
  5
69
102
{ACAD_REACTORS
330
C
102
}
330
C
100
AcDbDictionary
281
     1
  3
Standard
350
6A
  0
DICTIONARY
  5
2A
102
{ACAD_REACTORS
330
C
102
}
330
C
100
AcDbDictionary
281
     1
  3
2dWireframe
350
2F
  3
Basic
350
32
  3
Brighten
350
36
  3
ColorChange
350
3A
  3
Conceptual
350
34
  3
Dim
350
35
  3
EdgeColorOff
350
3D
  3
Facepattern
350
39
  3
Flat
350
2B
  3
FlatWithEdges
350
2C
  3
Gouraud
350
2D
  3
GouraudWithEdges
350
2E
  3
Hidden
350
31
  3
JitterOff
350
3B
  3
Linepattern
350
38
  3
OverhangOff
350
3C
  3
Realistic
350
33
  3
Shaded
350
42
  3
Shaded with edges
350
41
  3
Shades of Gray
350
3E
  3
Sketchy
350
3F
  3
Thicken
350
37
  3
Wireframe
350
30
  3
X-Ray
350
40
  0
XRECORD
  5
1CE
102
{ACAD_REACTORS
330
C
102
}
330
C
100
AcDbXrecord
280
     1
 90
        1
330
6A
  0
DICTIONARY
  5
1CA
102
{ACAD_REACTORS
330
C
102
}
330
C
100
AcDbDictionary
281
     1
  3
CANNOSCALE
350
1CB
  3
CMLEADERSTYLE
350
1D0
  3
CTABLESTYLE
350
1CF
  0
LAYOUT
  5
1E
102
{ACAD_REACTORS
330
1A
102
}
330
1A
100
AcDbPlotSettings
  1

  2
none_device
  4

  6

 40
0.0
 41
0.0
 42
0.0
 43
0.0
 44
0.0
 45
0.0
 46
0.0
 47
0.0
 48
0.0
 49
0.0
140
0.0
141
0.0
142
1.0
143
1.0
 70
   688
 72
     0
 73
     0
 74
     5
  7

 75
    16
 76
     0
 77
     2
 78
   300
147
1.0
148
0.0
149
0.0
100
AcDbLayout
  1
Layout1
 70
     1
 71
     1
 10
0.0
 20
0.0
 11
12.0
 21
9.0
 12
0.0
 22
0.0
 32
0.0
 14
1.000000000000000E+20
 24
1.000000000000000E+20
 34
1.000000000000000E+20
 15
-1.000000000000000E+20
 25
-1.000000000000000E+20
 35
-1.000000000000000E+20
146
0.0
 13
0.0
 23
0.0
 33
0.0
 16
1.0
 26
0.0
 36
0.0
 17
0.0
 27
1.0
 37
0.0
 76
     0
330
1B
  0
LAYOUT
  5
26
102
{ACAD_REACTORS
330
1A
102
}
330
1A
100
AcDbPlotSettings
  1

  2
none_device
  4

  6

 40
0.0
 41
0.0
 42
0.0
 43
0.0
 44
0.0
 45
0.0
 46
0.0
 47
0.0
 48
0.0
 49
0.0
140
0.0
141
0.0
142
1.0
143
1.0
 70
   688
 72
     0
 73
     0
 74
     5
  7

 75
    16
 76
     0
 77
     2
 78
   300
147
1.0
148
0.0
149
0.0
100
AcDbLayout
  1
Layout2
 70
     1
 71
     2
 10
0.0
 20
0.0
 11
0.0
 21
0.0
 12
0.0
 22
0.0
 32
0.0
 14
0.0
 24
0.0
 34
0.0
 15
0.0
 25
0.0
 35
0.0
146
0.0
 13
0.0
 23
0.0
 33
0.0
 16
1.0
 26
0.0
 36
0.0
 17
0.0
 27
1.0
 37
0.0
 76
     0
330
23
  0
LAYOUT
  5
22
102
{ACAD_REACTORS
330
1A
102
}
330
1A
100
AcDbPlotSettings
  1

  2
none_device
  4
Letter_(8.50_x_11.00_Inches)
  6

 40
6.35
 41
6.35
 42
6.35000508
 43
6.35000508
 44
215.9
 45
279.4
 46
0.0
 47
0.0
 48
0.0
 49
0.0
140
0.0
141
0.0
142
1.0
143
1.0
 70
  1712
 72
     0
 73
     0
 74
     0
  7

 75
     0
 76
     0
 77
     2
 78
   300
147
1.0
148
0.0
149
0.0
100
AcDbLayout
  1
Model
 70
     1
 71
     0
 10
0.0
 20
0.0
 11
12.0
 21
9.0
 12
0.0
 22
0.0
 32
0.0
 14
1.000000000000000E+20
 24
1.000000000000000E+20
 34
1.000000000000000E+20
 15
-1.000000000000000E+20
 25
-1.000000000000000E+20
 35
-1.000000000000000E+20
146
0.0
 13
0.0
 23
0.0
 33
0.0
 16
1.0
 26
0.0
 36
0.0
 17
0.0
 27
1.0
 37
0.0
 76
     0
330
1F
331
29
  0
MATERIAL
  5
45
102
{ACAD_REACTORS
330
43
102
}
330
43
100
AcDbMaterial
  1
ByBlock
 72
     1
 94
      127
  0
MATERIAL
  5
44
102
{ACAD_REACTORS
330
43
102
}
330
43
100
AcDbMaterial
  1
ByLayer
 72
     1
 94
      127
  0
MATERIAL
  5
46
102
{ACAD_REACTORS
330
43
102
}
330
43
100
AcDbMaterial
  1
Global
 72
     1
 94
      127
  0
MLEADERSTYLE
  5
6C
102
{ACAD_REACTORS
330
6B
102
}
330
6B
100
AcDbMLeaderStyle
179
     2
170
     2
171
     1
172
     0
 90
        2
 40
0.0
 41
0.0
173
     1
 91
-1056964608
340
14
 92
       -2
290
     1
 42
0.09
291
     1
 43
0.36
  3
Standard
341
0
 44
0.18
300

342
11
174
     1
178
     6
175
     1
176
     0
 93
-1056964608
 45
0.18
292
     0
297
     0
 46
0.18
343
0
 94
-1056964608
 47
1.0
 49
1.0
140
1.0
293
     1
141
0.0
294
     1
177
     0
142
1.0
295
     0
296
     0
143
0.125
271
     0
272
     9
273
     9
298
     0
  0
MLINESTYLE
  5
18
102
{ACAD_REACTORS
330
17
102
}
330
17
100
AcDbMlineStyle
  2
Standard
 70
     0
  3

 62
   256
 51
90.0
 52
90.0
 71
     2
 49
0.5
 62
   256
  6
BYLAYER
 49
-0.5
 62
   256
  6
BYLAYER
  0
ACDBPLACEHOLDER
  5
F
102
{ACAD_REACTORS
330
E
102
}
330
E
  0
SCALE
  5
48
102
{ACAD_REACTORS
330
47
102
}
330
47
100
AcDbScale
 70
     0
300
1:1
140
1.0
141
1.0
290
     1
  0
SCALE
  5
49
102
{ACAD_REACTORS
330
47
102
}
330
47
100
AcDbScale
 70
     0
300
1:2
140
1.0
141
2.0
290
     0
  0
SCALE
  5
4A
102
{ACAD_REACTORS
330
47
102
}
330
47
100
AcDbScale
 70
     0
300
1:4
140
1.0
141
4.0
290
     0
  0
SCALE
  5
4B
102
{ACAD_REACTORS
330
47
102
}
330
47
100
AcDbScale
 70
     0
300
1:5
140
1.0
141
5.0
290
     0
  0
SCALE
  5
4C
102
{ACAD_REACTORS
330
47
102
}
330
47
100
AcDbScale
 70
     0
300
1:8
140
1.0
141
8.0
290
     0
  0
SCALE
  5
4D
102
{ACAD_REACTORS
330
47
102
}
330
47
100
AcDbScale
 70
     0
300
1:10
140
1.0
141
10.0
290
     0
  0
SCALE
  5
4E
102
{ACAD_REACTORS
330
47
102
}
330
47
100
AcDbScale
 70
     0
300
1:16
140
1.0
141
16.0
290
     0
  0
SCALE
  5
4F
102
{ACAD_REACTORS
330
47
102
}
330
47
100
AcDbScale
 70
     0
300
1:20
140
1.0
141
20.0
290
     0
  0
SCALE
  5
50
102
{ACAD_REACTORS
330
47
102
}
330
47
100
AcDbScale
 70
     0
300
1:30
140
1.0
141
30.0
290
     0
  0
SCALE
  5
51
102
{ACAD_REACTORS
330
47
102
}
330
47
100
AcDbScale
 70
     0
300
1:40
140
1.0
141
40.0
290
     0
  0
SCALE
  5
52
102
{ACAD_REACTORS
330
47
102
}
330
47
100
AcDbScale
 70
     0
300
1:50
140
1.0
141
50.0
290
     0
  0
SCALE
  5
53
102
{ACAD_REACTORS
330
47
102
}
330
47
100
AcDbScale
 70
     0
300
1:100
140
1.0
141
100.0
290
     0
  0
SCALE
  5
54
102
{ACAD_REACTORS
330
47
102
}
330
47
100
AcDbScale
 70
     0
300
2:1
140
2.0
141
1.0
290
     0
  0
SCALE
  5
55
102
{ACAD_REACTORS
330
47
102
}
330
47
100
AcDbScale
 70
     0
300
4:1
140
4.0
141
1.0
290
     0
  0
SCALE
  5
56
102
{ACAD_REACTORS
330
47
102
}
330
47
100
AcDbScale
 70
     0
300
8:1
140
8.0
141
1.0
290
     0
  0
SCALE
  5
57
102
{ACAD_REACTORS
330
47
102
}
330
47
100
AcDbScale
 70
     0
300
10:1
140
10.0
141
1.0
290
     0
  0
SCALE
  5
58
102
{ACAD_REACTORS
330
47
102
}
330
47
100
AcDbScale
 70
     0
300
100:1
140
100.0
141
1.0
290
     0
  0
SCALE
  5
59
102
{ACAD_REACTORS
330
47
102
}
330
47
100
AcDbScale
 70
     0
300
1/128" = 1'-0"
140
0.0078125
141
12.0
290
     0
  0
SCALE
  5
5A
102
{ACAD_REACTORS
330
47
102
}
330
47
100
AcDbScale
 70
     0
300
1/64" = 1'-0"
140
0.015625
141
12.0
290
     0
  0
SCALE
  5
5B
102
{ACAD_REACTORS
330
47
102
}
330
47
100
AcDbScale
 70
     0
300
1/32" = 1'-0"
140
0.03125
141
12.0
290
     0
  0
SCALE
  5
5C
102
{ACAD_REACTORS
330
47
102
}
330
47
100
AcDbScale
 70
     0
300
1/16" = 1'-0"
140
0.0625
141
12.0
290
     0
  0
SCALE
  5
5D
102
{ACAD_REACTORS
330
47
102
}
330
47
100
AcDbScale
 70
     0
300
3/32" = 1'-0"
140
0.09375
141
12.0
290
     0
  0
SCALE
  5
5E
102
{ACAD_REACTORS
330
47
102
}
330
47
100
AcDbScale
 70
     0
300
1/8" = 1'-0"
140
0.125
141
12.0
290
     0
  0
SCALE
  5
5F
102
{ACAD_REACTORS
330
47
102
}
330
47
100
AcDbScale
 70
     0
300
3/16" = 1'-0"
140
0.1875
141
12.0
290
     0
  0
SCALE
  5
60
102
{ACAD_REACTORS
330
47
102
}
330
47
100
AcDbScale
 70
     0
300
1/4" = 1'-0"
140
0.25
141
12.0
290
     0
  0
SCALE
  5
61
102
{ACAD_REACTORS
330
47
102
}
330
47
100
AcDbScale
 70
     0
300
3/8" = 1'-0"
140
0.375
141
12.0
290
     0
  0
SCALE
  5
62
102
{ACAD_REACTORS
330
47
102
}
330
47
100
AcDbScale
 70
     0
300
1/2" = 1'-0"
140
0.5
141
12.0
290
     0
  0
SCALE
  5
63
102
{ACAD_REACTORS
330
47
102
}
330
47
100
AcDbScale
 70
     0
300
3/4" = 1'-0"
140
0.75
141
12.0
290
     0
  0
SCALE
  5
64
102
{ACAD_REACTORS
330
47
102
}
330
47
100
AcDbScale
 70
     0
300
1" = 1'-0"
140
1.0
141
12.0
290
     0
  0
SCALE
  5
65
102
{ACAD_REACTORS
330
47
102
}
330
47
100
AcDbScale
 70
     0
300
1-1/2" = 1'-0"
140
1.5
141
12.0
290
     0
  0
SCALE
  5
66
102
{ACAD_REACTORS
330
47
102
}
330
47
100
AcDbScale
 70
     0
300
3" = 1'-0"
140
3.0
141
12.0
290
     0
  0
SCALE
  5
67
102
{ACAD_REACTORS
330
47
102
}
330
47
100
AcDbScale
 70
     0
300
6" = 1'-0"
140
6.0
141
12.0
290
     0
  0
SCALE
  5
68
102
{ACAD_REACTORS
330
47
102
}
330
47
100
AcDbScale
 70
     0
300
1'-0" = 1'-0"
140
12.0
141
12.0
290
     0
  0
TABLESTYLE
  5
6A
102
{ACAD_REACTORS
330
69
102
}
102
{ACAD_XDICTIONARY
360
1CC
102
}
330
69
100
AcDbTableStyle
  3
Standard
 70
     0
 71
     0
 40
0.06
 41
0.06
280
     0
281
     0
  7
Standard
140
0.18
170
     2
 62
     0
 63
   257
283
     0
 90
        4
 91
        0
  1

274
    -2
284
     1
 64
     0
275
    -2
285
     1
 65
     0
276
    -2
286
     1
 66
     0
277
    -2
287
     1
 67
     0
278
    -2
288
     1
 68
     0
279
    -2
289
     1
 69
     0
  7
Standard
140
0.25
170
     5
 62
     0
 63
   257
283
     0
 90
        4
 91
        0
  1

274
    -2
284
     1
 64
     0
275
    -2
285
     1
 65
     0
276
    -2
286
     1
 66
     0
277
    -2
287
     1
 67
     0
278
    -2
288
     1
 68
     0
279
    -2
289
     1
 69
     0
  7
Standard
140
0.18
170
     5
 62
     0
 63
   257
283
     0
 90
        4
 91
        0
  1

274
    -2
284
     1
 64
     0
275
    -2
285
     1
 65
     0
276
    -2
286
     1
 66
     0
277
    -2
287
     1
 67
     0
278
    -2
288
     1
 68
     0
279
    -2
289
     1
 69
     0
  0
VISUALSTYLE
  5
2F
102
{ACAD_REACTORS
330
2A
102
}
330
2A
100
AcDbVisualStyle
  2
2dWireframe
 70
     4
177
     3
291
     0
 70
    58
 90
        0
176
     1
 90
        2
176
     1
 90
        0
176
     1
 90
        0
176
     1
 40
0.6
176
     1
 40
30.0
176
     1
 62
     7
420
 16777215
176
     1
 90
        1
176
     1
 90
        4
176
     1
 62
     7
176
     1
 62
   257
176
     1
 90
        1
176
     1
 90
        1
176
     1
 40
1.0
176
     1
 90
        0
176
     1
 62
   257
176
     1
 40
1.0
176
     1
 90
        1
176
     1
 90
        6
176
     1
 90
        2
176
     1
 62
     7
176
     1
 90
        5
176
     1
 90
        0
176
     1
 90
        0
176
     1
290
     0
176
     1
 90
        1
176
     1
 40
0.0
176
     1
 90
        0
176
     1
290
     1
176
     1
290
     1
176
     1
290
     0
176
     1
290
     0
176
     1
290
     0
176
     1
290
     0
176
     1
290
     0
176
     1
290
     0
176
     1
290
     0
176
     1
 90
       50
176
     1
 40
0.0
176
     1
 40
1.0
176
     1
 90
        0
176
     1
 62
    18
420
        0
176
     1
 90
       50
176
     1
 90
        3
176
     1
 62
     5
420
      255
176
     1
290
     0
176
     1
 90
       50
176
     1
 90
       50
176
     1
 90
       50
176
     1
290
     0
176
     1
 90
       50
176
     1
 62
   256
176
     0
 40
1.0
176
     0
 90
        2
176
     1
  1
strokes_ogs.tif
176
     1
290
     0
176
     1
 40
1.0
176
     1
 40
1.0
176
     1
  0
VISUALSTYLE
  5
32
102
{ACAD_REACTORS
330
2A
102
}
330
2A
100
AcDbVisualStyle
  2
Basic
 70
     7
177
     3
291
     1
 70
    58
 90
        1
176
     1
 90
        0
176
     1
 90
        1
176
     1
 90
        0
176
     1
 40
0.6
176
     1
 40
30.0
176
     1
 62
     7
420
 16777215
176
     1
 90
        0
176
     1
 90
        4
176
     1
 62
     7
176
     1
 62
   257
176
     1
 90
        1
176
     1
 90
        1
176
     1
 40
1.0
176
     1
 90
        8
176
     1
 62
     7
176
     1
 40
1.0
176
     1
 90
        1
176
     1
 90
        6
176
     1
 90
        2
176
     1
 62
     7
176
     1
 90
        5
176
     1
 90
        0
176
     1
 90
        0
176
     1
290
     0
176
     1
 90
        1
176
     1
 40
0.0
176
     1
 90
        0
176
     1
290
     0
176
     1
290
     1
176
     1
290
     1
176
     1
290
     0
176
     1
290
     0
176
     1
290
     0
176
     1
290
     0
176
     1
290
     0
176
     1
290
     0
176
     1
 90
       50
176
     1
 40
0.0
176
     1
 40
1.0
176
     1
 90
        0
176
     1
 62
    18
420
        0
176
     1
 90
       50
176
     1
 90
        3
176
     1
 62
     5
420
      255
176
     1
290
     0
176
     1
 90
       50
176
     1
 90
       50
176
     1
 90
       50
176
     1
290
     0
176
     1
 90
       50
176
     1
 62
   256
176
     0
 40
1.0
176
     0
 90
        2
176
     1
  1
strokes_ogs.tif
176
     1
290
     0
176
     1
 40
1.0
176
     1
 40
1.0
176
     1
  0
VISUALSTYLE
  5
36
102
{ACAD_REACTORS
330
2A
102
}
330
2A
100
AcDbVisualStyle
  2
Brighten
 70
    12
177
     3
291
     1
 70
    58
 90
        2
176
     1
 90
        2
176
     1
 90
        0
176
     1
 90
        0
176
     1
 40
0.6
176
     1
 40
30.0
176
     1
 62
     7
420
 16777215
176
     1
 90
        1
176
     1
 90
        4
176
     1
 62
     7
176
     1
 62
   257
176
     1
 90
        1
176
     1
 90
        1
176
     1
 40
1.0
176
     1
 90
        8
176
     1
 62
     7
176
     1
 40
1.0
176
     1
 90
        1
176
     1
 90
        6
176
     1
 90
        2
176
     1
 62
     7
176
     1
 90
        5
176
     1
 90
        0
176
     1
 90
        0
176
     1
290
     0
176
     1
 90
        1
176
     1
 40
50.0
176
     1
 90
        0
176
     1
290
     0
176
     1
290
     1
176
     1
290
     1
176
     1
290
     0
176
     1
290
     0
176
     1
290
     0
176
     1
290
     0
176
     1
290
     0
176
     1
290
     0
176
     1
 90
       50
176
     1
 40
0.0
176
     1
 40
1.0
176
     1
 90
        0
176
     1
 62
    18
420
        0
176
     1
 90
       50
176
     1
 90
        3
176
     1
 62
     5
420
      255
176
     1
290
     0
176
     1
 90
       50
176
     1
 90
       50
176
     1
 90
       50
176
     1
290
     0
176
     1
 90
       50
176
     1
 62
   256
176
     0
 40
1.0
176
     0
 90
        2
176
     1
  1
strokes_ogs.tif
176
     1
290
     0
176
     1
 40
1.0
176
     1
 40
1.0
176
     1
  0
VISUALSTYLE
  5
3A
102
{ACAD_REACTORS
330
2A
102
}
330
2A
100
AcDbVisualStyle
  2
ColorChange
 70
    16
177
     3
291
     1
 70
    58
 90
        2
176
     1
 90
        2
176
     1
 90
        3
176
     1
 90
        0
176
     1
 40
0.6
176
     1
 40
30.0
176
     1
 62
     8
420
  8421504
176
     1
 90
        1
176
     1
 90
        4
176
     1
 62
     7
176
     1
 62
   257
176
     1
 90
        1
176
     1
 90
        1
176
     1
 40
1.0
176
     1
 90
        8
176
     1
 62
     8
420
  8421504
176
     1
 40
1.0
176
     1
 90
        1
176
     1
 90
        6
176
     1
 90
        2
176
     1
 62
     7
176
     1
 90
        5
176
     1
 90
        0
176
     1
 90
        0
176
     1
290
     0
176
     1
 90
        1
176
     1
 40
0.0
176
     1
 90
        0
176
     1
290
     0
176
     1
290
     1
176
     1
290
     1
176
     1
290
     0
176
     1
290
     0
176
     1
290
     0
176
     1
290
     0
176
     1
290
     0
176
     1
290
     0
176
     1
 90
       50
176
     1
 40
0.0
176
     1
 40
1.0
176
     1
 90
        0
176
     1
 62
    18
420
        0
176
     1
 90
       50
176
     1
 90
        3
176
     1
 62
     5
420
      255
176
     1
290
     0
176
     1
 90
       50
176
     1
 90
       50
176
     1
 90
       50
176
     1
290
     0
176
     1
 90
       50
176
     1
 62
   256
176
     0
 40
1.0
176
     0
 90
        2
176
     1
  1
strokes_ogs.tif
176
     1
290
     0
176
     1
 40
1.0
176
     1
 40
1.0
176
     1
  0
VISUALSTYLE
  5
34
102
{ACAD_REACTORS
330
2A
102
}
330
2A
100
AcDbVisualStyle
  2
Conceptual
 70
     9
177
     3
291
     0
 70
    58
 90
        3
176
     1
 90
        2
176
     1
 90
        0
176
     1
 90
        0
176
     1
 40
0.6
176
     1
 40
30.0
176
     1
 62
     7
420
 16777215
176
     1
 90
        2
176
     1
 90
        2
176
     1
 62
     7
176
     1
 62
   257
176
     1
 90
        1
176
     1
 90
        1
176
     1
 40
179.0
176
     1
 90
        8
176
     1
 62
     7
176
     1
 40
1.0
176
     1
 90
        1
176
     1
 90
        6
176
     1
 90
        2
176
     1
 62
     7
176
     1
 90
        3
176
     1
 90
        0
176
     1
 90
        0
176
     1
290
     0
176
     1
 90
        1
176
     1
 40
0.0
176
     1
 90
        0
176
     1
290
     0
176
     1
290
     1
176
     1
290
     1
176
     1
290
     0
176
     1
290
     0
176
     1
290
     0
176
     1
290
     0
176
     1
290
     0
176
     1
290
     0
176
     1
 90
       50
176
     1
 40
0.0
176
     1
 40
1.0
176
     1
 90
        0
176
     1
 62
    18
420
        0
176
     1
 90
       50
176
     1
 90
        3
176
     1
 62
     5
420
      255
176
     1
290
     0
176
     1
 90
       50
176
     1
 90
       50
176
     1
 90
       50
176
     1
290
     0
176
     1
 90
       50
176
     1
 62
   256
176
     0
 40
1.0
176
     0
 90
        2
176
     1
  1
strokes_ogs.tif
176
     1
290
     0
176
     1
 40
1.0
176
     1
 40
1.0
176
     1
  0
VISUALSTYLE
  5
35
102
{ACAD_REACTORS
330
2A
102
}
330
2A
100
AcDbVisualStyle
  2
Dim
 70
    11
177
     3
291
     1
 70
    58
 90
        2
176
     1
 90
        2
176
     1
 90
        0
176
     1
 90
        0
176
     1
 40
0.6
176
     1
 40
30.0
176
     1
 62
     7
420
 16777215
176
     1
 90
        1
176
     1
 90
        4
176
     1
 62
     7
176
     1
 62
   257
176
     1
 90
        1
176
     1
 90
        1
176
     1
 40
1.0
176
     1
 90
        8
176
     1
 62
     7
176
     1
 40
1.0
176
     1
 90
        1
176
     1
 90
        6
176
     1
 90
        2
176
     1
 62
     7
176
     1
 90
        5
176
     1
 90
        0
176
     1
 90
        0
176
     1
290
     0
176
     1
 90
        1
176
     1
 40
-50.0
176
     1
 90
        0
176
     1
290
     0
176
     1
290
     1
176
     1
290
     1
176
     1
290
     0
176
     1
290
     0
176
     1
290
     0
176
     1
290
     0
176
     1
290
     0
176
     1
290
     0
176
     1
 90
       50
176
     1
 40
0.0
176
     1
 40
1.0
176
     1
 90
        0
176
     1
 62
    18
420
        0
176
     1
 90
       50
176
     1
 90
        3
176
     1
 62
     5
420
      255
176
     1
290
     0
176
     1
 90
       50
176
     1
 90
       50
176
     1
 90
       50
176
     1
290
     0
176
     1
 90
       50
176
     1
 62
   256
176
     0
 40
1.0
176
     0
 90
        2
176
     1
  1
strokes_ogs.tif
176
     1
290
     0
176
     1
 40
1.0
176
     1
 40
1.0
176
     1
  0
VISUALSTYLE
  5
3D
102
{ACAD_REACTORS
330
2A
102
}
330
2A
100
AcDbVisualStyle
  2
EdgeColorOff
 70
    22
177
     3
291
     1
 70
    58
 90
        2
176
     0
 90
        2
176
     0
 90
        0
176
     0
 90
        0
176
     0
 40
0.6
176
     0
 40
30.0
176
     0
 62
     7
420
 16777215
176
     0
 90
        1
176
     0
 90
        4
176
     0
 62
     7
176
     0
 62
   257
176
     0
 90
        1
176
     0
 90
        1
176
     0
 40
1.0
176
     0
 90
        8
176
     2
 62
     7
176
     0
 40
1.0
176
     0
 90
        1
176
     0
 90
        6
176
     0
 90
        2
176
     0
 62
     7
176
     0
 90
        5
176
     0
 90
        0
176
     0
 90
        0
176
     0
290
     0
176
     0
 90
        1
176
     0
 40
0.0
176
     0
 90
        0
176
     0
290
     0
176
     0
290
     1
176
     0
290
     1
176
     0
290
     0
176
     0
290
     0
176
     0
290
     0
176
     0
290
     0
176
     0
290
     0
176
     0
290
     0
176
     0
 90
       50
176
     0
 40
0.0
176
     0
 40
1.0
176
     0
 90
        0
176
     0
 62
    18
420
        0
176
     0
 90
       50
176
     0
 90
        3
176
     0
 62
     5
420
      255
176
     0
290
     0
176
     0
 90
       50
176
     0
 90
       50
176
     0
 90
       50
176
     0
290
     0
176
     0
 90
       50
176
     0
 62
   256
176
     0
 40
1.0
176
     0
 90
        2
176
     0
  1
strokes_ogs.tif
176
     0
290
     0
176
     0
 40
1.0
176
     0
 40
1.0
176
     0
  0
VISUALSTYLE
  5
39
102
{ACAD_REACTORS
330
2A
102
}
330
2A
100
AcDbVisualStyle
  2
Facepattern
 70
    15
177
     3
291
     1
 70
    58
 90
        2
176
     1
 90
        2
176
     1
 90
        0
176
     1
 90
        0
176
     1
 40
0.6
176
     1
 40
30.0
176
     1
 62
     7
420
 16777215
176
     1
 90
        1
176
     1
 90
        4
176
     1
 62
     7
176
     1
 62
   257
176
     1
 90
        1
176
     1
 90
        1
176
     1
 40
1.0
176
     1
 90
        8
176
     1
 62
     7
176
     1
 40
1.0
176
     1
 90
        1
176
     1
 90
        6
176
     1
 90
        2
176
     1
 62
     7
176
     1
 90
        5
176
     1
 90
        0
176
     1
 90
        0
176
     1
290
     0
176
     1
 90
        1
176
     1
 40
0.0
176
     1
 90
        0
176
     1
290
     0
176
     1
290
     1
176
     1
290
     1
176
     1
290
     0
176
     1
290
     0
176
     1
290
     0
176
     1
290
     0
176
     1
290
     0
176
     1
290
     0
176
     1
 90
       50
176
     1
 40
0.0
176
     1
 40
1.0
176
     1
 90
        0
176
     1
 62
    18
420
        0
176
     1
 90
       50
176
     1
 90
        3
176
     1
 62
     5
420
      255
176
     1
290
     0
176
     1
 90
       50
176
     1
 90
       50
176
     1
 90
       50
176
     1
290
     0
176
     1
 90
       50
176
     1
 62
   256
176
     0
 40
1.0
176
     0
 90
        2
176
     1
  1
strokes_ogs.tif
176
     1
290
     0
176
     1
 40
1.0
176
     1
 40
1.0
176
     1
  0
VISUALSTYLE
  5
2B
102
{ACAD_REACTORS
330
2A
102
}
330
2A
100
AcDbVisualStyle
  2
Flat
 70
     0
177
     3
291
     1
 70
    58
 90
        2
176
     1
 90
        1
176
     1
 90
        1
176
     1
 90
        2
176
     1
 40
0.6
176
     1
 40
30.0
176
     1
 62
     7
420
 16777215
176
     1
 90
        0
176
     1
 90
        0
176
     1
 62
     7
176
     1
 62
   257
176
     1
 90
        1
176
     1
 90
        1
176
     1
 40
1.0
176
     1
 90
        8
176
     1
 62
     7
176
     1
 40
1.0
176
     1
 90
        1
176
     1
 90
        6
176
     1
 90
        2
176
     1
 62
     7
176
     1
 90
        5
176
     1
 90
        0
176
     1
 90
        0
176
     1
290
     0
176
     1
 90
       13
176
     1
 40
0.0
176
     1
 90
        0
176
     1
290
     0
176
     1
290
     1
176
     1
290
     1
176
     1
290
     0
176
     1
290
     0
176
     1
290
     0
176
     1
290
     0
176
     1
290
     0
176
     1
290
     0
176
     1
 90
       50
176
     1
 40
0.0
176
     1
 40
1.0
176
     1
 90
        0
176
     1
 62
    18
420
        0
176
     1
 90
       50
176
     1
 90
        3
176
     1
 62
     5
420
      255
176
     1
290
     0
176
     1
 90
       50
176
     1
 90
       50
176
     1
 90
       50
176
     1
290
     0
176
     1
 90
       50
176
     1
 62
   256
176
     0
 40
1.0
176
     0
 90
        2
176
     1
  1
strokes_ogs.tif
176
     1
290
     0
176
     1
 40
1.0
176
     1
 40
1.0
176
     1
  0
VISUALSTYLE
  5
2C
102
{ACAD_REACTORS
330
2A
102
}
330
2A
100
AcDbVisualStyle
  2
FlatWithEdges
 70
     1
177
     3
291
     1
 70
    58
 90
        2
176
     1
 90
        1
176
     1
 90
        1
176
     1
 90
        2
176
     1
 40
0.6
176
     1
 40
30.0
176
     1
 62
     7
420
 16777215
176
     1
 90
        1
176
     1
 90
        0
176
     1
 62
     7
176
     1
 62
   257
176
     1
 90
        1
176
     1
 90
        1
176
     1
 40
1.0
176
     1
 90
        0
176
     1
 62
   257
176
     1
 40
1.0
176
     1
 90
        1
176
     1
 90
        6
176
     1
 90
        2
176
     1
 62
     7
176
     1
 90
        5
176
     1
 90
        0
176
     1
 90
        0
176
     1
290
     0
176
     1
 90
       13
176
     1
 40
0.0
176
     1
 90
        0
176
     1
290
     0
176
     1
290
     1
176
     1
290
     1
176
     1
290
     0
176
     1
290
     0
176
     1
290
     0
176
     1
290
     0
176
     1
290
     0
176
     1
290
     0
176
     1
 90
       50
176
     1
 40
0.0
176
     1
 40
1.0
176
     1
 90
        0
176
     1
 62
    18
420
        0
176
     1
 90
       50
176
     1
 90
        3
176
     1
 62
     5
420
      255
176
     1
290
     0
176
     1
 90
       50
176
     1
 90
       50
176
     1
 90
       50
176
     1
290
     0
176
     1
 90
       50
176
     1
 62
   256
176
     0
 40
1.0
176
     0
 90
        2
176
     1
  1
strokes_ogs.tif
176
     1
290
     0
176
     1
 40
1.0
176
     1
 40
1.0
176
     1
  0
VISUALSTYLE
  5
2D
102
{ACAD_REACTORS
330
2A
102
}
330
2A
100
AcDbVisualStyle
  2
Gouraud
 70
     2
177
     3
291
     1
 70
    58
 90
        2
176
     1
 90
        2
176
     1
 90
        1
176
     1
 90
        2
176
     1
 40
0.6
176
     1
 40
30.0
176
     1
 62
     7
420
 16777215
176
     1
 90
        0
176
     1
 90
        0
176
     1
 62
     7
176
     1
 62
   257
176
     1
 90
        1
176
     1
 90
        1
176
     1
 40
1.0
176
     1
 90
        0
176
     1
 62
     7
176
     1
 40
1.0
176
     1
 90
        1
176
     1
 90
        6
176
     1
 90
        2
176
     1
 62
     7
176
     1
 90
        5
176
     1
 90
        0
176
     1
 90
        0
176
     1
290
     0
176
     1
 90
       13
176
     1
 40
0.0
176
     1
 90
        0
176
     1
290
     0
176
     1
290
     1
176
     1
290
     1
176
     1
290
     0
176
     1
290
     0
176
     1
290
     0
176
     1
290
     0
176
     1
290
     0
176
     1
290
     0
176
     1
 90
       50
176
     1
 40
0.0
176
     1
 40
1.0
176
     1
 90
        0
176
     1
 62
    18
420
        0
176
     1
 90
       50
176
     1
 90
        3
176
     1
 62
     5
420
      255
176
     1
290
     0
176
     1
 90
       50
176
     1
 90
       50
176
     1
 90
       50
176
     1
290
     0
176
     1
 90
       50
176
     1
 62
   256
176
     0
 40
1.0
176
     0
 90
        2
176
     1
  1
strokes_ogs.tif
176
     1
290
     0
176
     1
 40
1.0
176
     1
 40
1.0
176
     1
  0
VISUALSTYLE
  5
2E
102
{ACAD_REACTORS
330
2A
102
}
330
2A
100
AcDbVisualStyle
  2
GouraudWithEdges
 70
     3
177
     3
291
     1
 70
    58
 90
        2
176
     1
 90
        2
176
     1
 90
        1
176
     1
 90
        2
176
     1
 40
0.6
176
     1
 40
30.0
176
     1
 62
     7
420
 16777215
176
     1
 90
        1
176
     1
 90
        0
176
     1
 62
     7
176
     1
 62
   257
176
     1
 90
        1
176
     1
 90
        1
176
     1
 40
1.0
176
     1
 90
        0
176
     1
 62
   257
176
     1
 40
1.0
176
     1
 90
        1
176
     1
 90
        6
176
     1
 90
        2
176
     1
 62
     7
176
     1
 90
        5
176
     1
 90
        0
176
     1
 90
        0
176
     1
290
     0
176
     1
 90
       13
176
     1
 40
0.0
176
     1
 90
        0
176
     1
290
     0
176
     1
290
     1
176
     1
290
     1
176
     1
290
     0
176
     1
290
     0
176
     1
290
     0
176
     1
290
     0
176
     1
290
     0
176
     1
290
     0
176
     1
 90
       50
176
     1
 40
0.0
176
     1
 40
1.0
176
     1
 90
        0
176
     1
 62
    18
420
        0
176
     1
 90
       50
176
     1
 90
        3
176
     1
 62
     5
420
      255
176
     1
290
     0
176
     1
 90
       50
176
     1
 90
       50
176
     1
 90
       50
176
     1
290
     0
176
     1
 90
       50
176
     1
 62
   256
176
     0
 40
1.0
176
     0
 90
        2
176
     1
  1
strokes_ogs.tif
176
     1
290
     0
176
     1
 40
1.0
176
     1
 40
1.0
176
     1
  0
VISUALSTYLE
  5
31
102
{ACAD_REACTORS
330
2A
102
}
330
2A
100
AcDbVisualStyle
  2
Hidden
 70
     6
177
     3
291
     0
 70
    58
 90
        1
176
     1
 90
        2
176
     1
 90
        2
176
     1
 90
        0
176
     1
 40
0.6
176
     1
 40
30.0
176
     1
 62
     7
420
 16777215
176
     1
 90
        2
176
     1
 90
        2
176
     1
 62
     7
176
     1
 62
   257
176
     1
 90
        2
176
     1
 90
        1
176
     1
 40
40.0
176
     1
 90
        0
176
     1
 62
   257
176
     1
 40
1.0
176
     1
 90
        1
176
     1
 90
        6
176
     1
 90
        2
176
     1
 62
     7
176
     1
 90
        3
176
     1
 90
        0
176
     1
 90
        0
176
     1
290
     0
176
     1
 90
        1
176
     1
 40
0.0
176
     1
 90
        0
176
     1
290
     0
176
     1
290
     1
176
     1
290
     1
176
     1
290
     0
176
     1
290
     0
176
     1
290
     0
176
     1
290
     0
176
     1
290
     0
176
     1
290
     0
176
     1
 90
       50
176
     1
 40
0.0
176
     1
 40
1.0
176
     1
 90
        0
176
     1
 62
    18
420
        0
176
     1
 90
       50
176
     1
 90
        3
176
     1
 62
     5
420
      255
176
     1
290
     0
176
     1
 90
       50
176
     1
 90
       50
176
     1
 90
       50
176
     1
290
     0
176
     1
 90
       50
176
     1
 62
   256
176
     0
 40
1.0
176
     0
 90
        2
176
     1
  1
strokes_ogs.tif
176
     1
290
     0
176
     1
 40
1.0
176
     1
 40
1.0
176
     1
  0
VISUALSTYLE
  5
3B
102
{ACAD_REACTORS
330
2A
102
}
330
2A
100
AcDbVisualStyle
  2
JitterOff
 70
    20
177
     3
291
     1
 70
    58
 90
        2
176
     0
 90
        2
176
     0
 90
        0
176
     0
 90
        0
176
     0
 40
0.6
176
     0
 40
30.0
176
     0
 62
     7
420
 16777215
176
     0
 90
        1
176
     0
 90
        4
176
     0
 62
     7
176
     0
 62
   257
176
     0
 90
        1
176
     0
 90
        1
176
     0
 40
1.0
176
     0
 90
       10
176
     2
 62
     7
176
     0
 40
1.0
176
     0
 90
        1
176
     0
 90
        6
176
     0
 90
        2
176
     0
 62
     7
176
     0
 90
        5
176
     0
 90
        0
176
     0
 90
        0
176
     0
290
     0
176
     0
 90
        1
176
     0
 40
0.0
176
     0
 90
        0
176
     0
290
     0
176
     0
290
     1
176
     0
290
     1
176
     0
290
     0
176
     0
290
     0
176
     0
290
     0
176
     0
290
     0
176
     0
290
     0
176
     0
290
     0
176
     0
 90
       50
176
     0
 40
0.0
176
     0
 40
1.0
176
     0
 90
        0
176
     0
 62
    18
420
        0
176
     0
 90
       50
176
     0
 90
        3
176
     0
 62
     5
420
      255
176
     0
290
     0
176
     0
 90
       50
176
     0
 90
       50
176
     0
 90
       50
176
     0
290
     0
176
     0
 90
       50
176
     0
 62
   256
176
     0
 40
1.0
176
     0
 90
        2
176
     0
  1
strokes_ogs.tif
176
     0
290
     0
176
     0
 40
1.0
176
     0
 40
1.0
176
     0
  0
VISUALSTYLE
  5
38
102
{ACAD_REACTORS
330
2A
102
}
330
2A
100
AcDbVisualStyle
  2
Linepattern
 70
    14
177
     3
291
     1
 70
    58
 90
        2
176
     1
 90
        2
176
     1
 90
        0
176
     1
 90
        0
176
     1
 40
0.6
176
     1
 40
30.0
176
     1
 62
     7
420
 16777215
176
     1
 90
        1
176
     1
 90
        4
176
     1
 62
     7
176
     1
 62
   257
176
     1
 90
        7
176
     1
 90
        7
176
     1
 40
1.0
176
     1
 90
        8
176
     1
 62
     7
176
     1
 40
1.0
176
     1
 90
        1
176
     1
 90
        6
176
     1
 90
        2
176
     1
 62
     7
176
     1
 90
        5
176
     1
 90
        0
176
     1
 90
        0
176
     1
290
     0
176
     1
 90
        1
176
     1
 40
0.0
176
     1
 90
        0
176
     1
290
     0
176
     1
290
     1
176
     1
290
     1
176
     1
290
     0
176
     1
290
     0
176
     1
290
     0
176
     1
290
     0
176
     1
290
     0
176
     1
290
     0
176
     1
 90
       50
176
     1
 40
0.0
176
     1
 40
1.0
176
     1
 90
        0
176
     1
 62
    18
420
        0
176
     1
 90
       50
176
     1
 90
        3
176
     1
 62
     5
420
      255
176
     1
290
     0
176
     1
 90
       50
176
     1
 90
       50
176
     1
 90
       50
176
     1
290
     0
176
     1
 90
       50
176
     1
 62
   256
176
     0
 40
1.0
176
     0
 90
        2
176
     1
  1
strokes_ogs.tif
176
     1
290
     0
176
     1
 40
1.0
176
     1
 40
1.0
176
     1
  0
VISUALSTYLE
  5
3C
102
{ACAD_REACTORS
330
2A
102
}
330
2A
100
AcDbVisualStyle
  2
OverhangOff
 70
    21
177
     3
291
     1
 70
    58
 90
        2
176
     0
 90
        2
176
     0
 90
        0
176
     0
 90
        0
176
     0
 40
0.6
176
     0
 40
30.0
176
     0
 62
     7
420
 16777215
176
     0
 90
        1
176
     0
 90
        4
176
     0
 62
     7
176
     0
 62
   257
176
     0
 90
        1
176
     0
 90
        1
176
     0
 40
1.0
176
     0
 90
        9
176
     2
 62
     7
176
     0
 40
1.0
176
     0
 90
        1
176
     0
 90
        6
176
     0
 90
        2
176
     0
 62
     7
176
     0
 90
        5
176
     0
 90
        0
176
     0
 90
        0
176
     0
290
     0
176
     0
 90
        1
176
     0
 40
0.0
176
     0
 90
        0
176
     0
290
     0
176
     0
290
     1
176
     0
290
     1
176
     0
290
     0
176
     0
290
     0
176
     0
290
     0
176
     0
290
     0
176
     0
290
     0
176
     0
290
     0
176
     0
 90
       50
176
     0
 40
0.0
176
     0
 40
1.0
176
     0
 90
        0
176
     0
 62
    18
420
        0
176
     0
 90
       50
176
     0
 90
        3
176
     0
 62
     5
420
      255
176
     0
290
     0
176
     0
 90
       50
176
     0
 90
       50
176
     0
 90
       50
176
     0
290
     0
176
     0
 90
       50
176
     0
 62
   256
176
     0
 40
1.0
176
     0
 90
        2
176
     0
  1
strokes_ogs.tif
176
     0
290
     0
176
     0
 40
1.0
176
     0
 40
1.0
176
     0
  0
VISUALSTYLE
  5
33
102
{ACAD_REACTORS
330
2A
102
}
330
2A
100
AcDbVisualStyle
  2
Realistic
 70
     8
177
     3
291
     0
 70
    58
 90
        2
176
     1
 90
        3
176
     1
 90
        0
176
     1
 90
        2
176
     1
 40
0.6
176
     1
 40
30.0
176
     1
 62
     7
420
 16777215
176
     1
 90
        0
176
     1
 90
        0
176
     1
 62
     7
176
     1
 62
   257
176
     1
 90
        1
176
     1
 90
        1
176
     1
 40
1.0
176
     1
 90
        8
176
     1
 62
   257
176
     1
 40
1.0
176
     1
 90
        1
176
     1
 90
        6
176
     1
 90
        2
176
     1
 62
     7
176
     1
 90
        3
176
     1
 90
        0
176
     1
 90
        0
176
     1
290
     0
176
     1
 90
       13
176
     1
 40
0.0
176
     1
 90
        0
176
     1
290
     0
176
     1
290
     1
176
     1
290
     1
176
     1
290
     0
176
     1
290
     0
176
     1
290
     0
176
     1
290
     0
176
     1
290
     0
176
     1
290
     0
176
     1
 90
       50
176
     1
 40
0.0
176
     1
 40
1.0
176
     1
 90
        0
176
     1
 62
    18
420
        0
176
     1
 90
       50
176
     1
 90
        3
176
     1
 62
     5
420
      255
176
     1
290
     0
176
     1
 90
       50
176
     1
 90
       50
176
     1
 90
       50
176
     1
290
     0
176
     1
 90
       50
176
     1
 62
   256
176
     0
 40
1.0
176
     0
 90
        2
176
     1
  1
strokes_ogs.tif
176
     1
290
     0
176
     1
 40
1.0
176
     1
 40
1.0
176
     1
  0
VISUALSTYLE
  5
42
102
{ACAD_REACTORS
330
2A
102
}
330
2A
100
AcDbVisualStyle
  2
Shaded
 70
    27
177
     3
291
     0
 70
    58
 90
        2
176
     1
 90
        2
176
     1
 90
        1
176
     1
 90
        2
176
     1
 40
0.6
176
     1
 40
30.0
176
     1
 62
     7
420
 16777215
176
     1
 90
        0
176
     1
 90
        4
176
     1
 62
     7
176
     1
 62
   257
176
     1
 90
        1
176
     1
 90
        1
176
     1
 40
1.0
176
     1
 90
        8
176
     1
 62
   257
176
     1
 40
1.0
176
     1
 90
        1
176
     1
 90
        6
176
     1
 90
        2
176
     1
 62
     8
420
  7895160
176
     1
 90
        3
176
     1
 90
        0
176
     1
 90
        0
176
     1
290
     0
176
     1
 90
        5
176
     1
 40
0.0
176
     1
 90
        0
176
     1
290
     0
176
     1
290
     1
176
     1
290
     1
176
     1
290
     0
176
     1
290
     0
176
     1
290
     0
176
     1
290
     0
176
     1
290
     0
176
     1
290
     0
176
     1
 90
       50
176
     1
 40
0.0
176
     1
 40
1.0
176
     1
 90
        0
176
     1
 62
    18
420
        0
176
     1
 90
       50
176
     1
 90
        3
176
     1
 62
     5
420
      255
176
     1
290
     0
176
     1
 90
       50
176
     1
 90
       50
176
     1
 90
       50
176
     1
290
     0
176
     1
 90
       50
176
     1
 62
   256
176
     0
 40
1.0
176
     0
 90
        2
176
     1
  1
strokes_ogs.tif
176
     1
290
     0
176
     1
 40
1.0
176
     1
 40
1.0
176
     1
  0
VISUALSTYLE
  5
41
102
{ACAD_REACTORS
330
2A
102
}
330
2A
100
AcDbVisualStyle
  2
Shaded with edges
 70
    26
177
     3
291
     0
 70
    58
 90
        2
176
     1
 90
        2
176
     1
 90
        1
176
     1
 90
        2
176
     1
 40
0.6
176
     1
 40
30.0
176
     1
 62
     7
420
 16777215
176
     1
 90
        1
176
     1
 90
       10
176
     1
 62
     7
176
     1
 62
   257
176
     1
 90
        2
176
     1
 90
        1
176
     1
 40
1.0
176
     1
 90
        8
176
     1
 62
   257
176
     1
 40
1.0
176
     1
 90
        1
176
     1
 90
        6
176
     1
 90
        2
176
     1
 62
     7
176
     1
 90
        3
176
     1
 90
        0
176
     1
 90
        0
176
     1
290
     0
176
     1
 90
        5
176
     1
 40
0.0
176
     1
 90
        0
176
     1
290
     0
176
     1
290
     1
176
     1
290
     1
176
     1
290
     0
176
     1
290
     0
176
     1
290
     0
176
     1
290
     0
176
     1
290
     0
176
     1
290
     0
176
     1
 90
       50
176
     1
 40
0.0
176
     1
 40
1.0
176
     1
 90
        0
176
     1
 62
    18
420
        0
176
     1
 90
       50
176
     1
 90
        3
176
     1
 62
     5
420
      255
176
     1
290
     0
176
     1
 90
       50
176
     1
 90
       50
176
     1
 90
       50
176
     1
290
     0
176
     1
 90
       50
176
     1
 62
   256
176
     0
 40
1.0
176
     0
 90
        2
176
     1
  1
strokes_ogs.tif
176
     1
290
     0
176
     1
 40
1.0
176
     1
 40
1.0
176
     1
  0
VISUALSTYLE
  5
3E
102
{ACAD_REACTORS
330
2A
102
}
330
2A
100
AcDbVisualStyle
  2
Shades of Gray
 70
    23
177
     3
291
     0
 70
    58
 90
        2
176
     1
 90
        2
176
     1
 90
        3
176
     1
 90
        0
176
     1
 40
0.6
176
     1
 40
30.0
176
     1
 62
     7
420
 16777215
176
     1
 90
        2
176
     1
 90
        2
176
     1
 62
     7
176
     1
 62
     7
176
     1
 90
        1
176
     1
 90
        1
176
     1
 40
40.0
176
     1
 90
        8
176
     1
 62
     7
176
     1
 40
1.0
176
     1
 90
        1
176
     1
 90
        6
176
     1
 90
        2
176
     1
 62
     7
176
     1
 90
        3
176
     1
 90
        0
176
     1
 90
        0
176
     1
290
     0
176
     1
 90
        1
176
     1
 40
0.0
176
     1
 90
        0
176
     1
290
     0
176
     1
290
     1
176
     1
290
     1
176
     1
290
     0
176
     1
290
     0
176
     1
290
     0
176
     1
290
     0
176
     1
290
     0
176
     1
290
     0
176
     1
 90
       50
176
     1
 40
0.0
176
     1
 40
1.0
176
     1
 90
        0
176
     1
 62
    18
420
        0
176
     1
 90
       50
176
     1
 90
        3
176
     1
 62
     5
420
      255
176
     1
290
     0
176
     1
 90
       50
176
     1
 90
       50
176
     1
 90
       50
176
     1
290
     0
176
     1
 90
       50
176
     1
 62
   256
176
     0
 40
1.0
176
     0
 90
        2
176
     1
  1
strokes_ogs.tif
176
     1
290
     0
176
     1
 40
1.0
176
     1
 40
1.0
176
     1
  0
VISUALSTYLE
  5
3F
102
{ACAD_REACTORS
330
2A
102
}
330
2A
100
AcDbVisualStyle
  2
Sketchy
 70
    24
177
     3
291
     0
 70
    58
 90
        1
176
     1
 90
        2
176
     1
 90
        2
176
     1
 90
        0
176
     1
 40
0.6
176
     1
 40
30.0
176
     1
 62
     7
420
 16777215
176
     1
 90
        2
176
     1
 90
        2
176
     1
 62
     7
176
     1
 62
     7
176
     1
 90
        1
176
     1
 90
        1
176
     1
 40
40.0
176
     1
 90
       11
176
     1
 62
     7
176
     1
 40
1.0
176
     1
 90
        1
176
     1
 90
        6
176
     1
 90
        2
176
     1
 62
     7
176
     1
 90
        6
176
     1
 90
        0
176
     1
 90
        0
176
     1
290
     0
176
     1
 90
        1
176
     1
 40
0.0
176
     1
 90
        0
176
     1
290
     0
176
     1
290
     1
176
     1
290
     1
176
     1
290
     0
176
     1
290
     0
176
     1
290
     0
176
     1
290
     0
176
     1
290
     0
176
     1
290
     0
176
     1
 90
       50
176
     1
 40
0.0
176
     1
 40
1.0
176
     1
 90
        0
176
     1
 62
    18
420
        0
176
     1
 90
       50
176
     1
 90
        3
176
     1
 62
     5
420
      255
176
     1
290
     0
176
     1
 90
       50
176
     1
 90
       50
176
     1
 90
       50
176
     1
290
     0
176
     1
 90
       50
176
     1
 62
   256
176
     0
 40
1.0
176
     0
 90
        2
176
     1
  1
strokes_ogs.tif
176
     1
290
     0
176
     1
 40
1.0
176
     1
 40
1.0
176
     1
  0
VISUALSTYLE
  5
37
102
{ACAD_REACTORS
330
2A
102
}
330
2A
100
AcDbVisualStyle
  2
Thicken
 70
    13
177
     3
291
     1
 70
    58
 90
        2
176
     1
 90
        2
176
     1
 90
        0
176
     1
 90
        0
176
     1
 40
0.6
176
     1
 40
30.0
176
     1
 62
     7
420
 16777215
176
     1
 90
        1
176
     1
 90
        4
176
     1
 62
     7
176
     1
 62
   257
176
     1
 90
        1
176
     1
 90
        1
176
     1
 40
1.0
176
     1
 90
       12
176
     1
 62
     7
176
     1
 40
1.0
176
     1
 90
        1
176
     1
 90
        6
176
     1
 90
        2
176
     1
 62
     7
176
     1
 90
        5
176
     1
 90
        0
176
     1
 90
        0
176
     1
290
     0
176
     1
 90
        1
176
     1
 40
0.0
176
     1
 90
        0
176
     1
290
     0
176
     1
290
     1
176
     1
290
     1
176
     1
290
     0
176
     1
290
     0
176
     1
290
     0
176
     1
290
     0
176
     1
290
     0
176
     1
290
     0
176
     1
 90
       50
176
     1
 40
0.0
176
     1
 40
1.0
176
     1
 90
        0
176
     1
 62
    18
420
        0
176
     1
 90
       50
176
     1
 90
        3
176
     1
 62
     5
420
      255
176
     1
290
     0
176
     1
 90
       50
176
     1
 90
       50
176
     1
 90
       50
176
     1
290
     0
176
     1
 90
       50
176
     1
 62
   256
176
     0
 40
1.0
176
     0
 90
        2
176
     1
  1
strokes_ogs.tif
176
     1
290
     0
176
     1
 40
1.0
176
     1
 40
1.0
176
     1
  0
VISUALSTYLE
  5
30
102
{ACAD_REACTORS
330
2A
102
}
330
2A
100
AcDbVisualStyle
  2
Wireframe
 70
     5
177
     3
291
     0
 70
    58
 90
        0
176
     1
 90
        2
176
     1
 90
        0
176
     1
 90
        0
176
     1
 40
0.6
176
     1
 40
30.0
176
     1
 62
     7
420
 16777215
176
     1
 90
        1
176
     1
 90
        4
176
     1
 62
     7
176
     1
 62
   257
176
     1
 90
        1
176
     1
 90
        1
176
     1
 40
1.0
176
     1
 90
        0
176
     1
 62
   257
176
     1
 40
1.0
176
     1
 90
        1
176
     1
 90
        6
176
     1
 90
        2
176
     1
 62
     7
176
     1
 90
        3
176
     1
 90
        0
176
     1
 90
        0
176
     1
290
     0
176
     1
 90
        1
176
     1
 40
0.0
176
     1
 90
        0
176
     1
290
     0
176
     1
290
     1
176
     1
290
     1
176
     1
290
     0
176
     1
290
     0
176
     1
290
     0
176
     1
290
     0
176
     1
290
     0
176
     1
290
     0
176
     1
 90
       50
176
     1
 40
0.0
176
     1
 40
1.0
176
     1
 90
        0
176
     1
 62
    18
420
        0
176
     1
 90
       50
176
     1
 90
        3
176
     1
 62
     5
420
      255
176
     1
290
     0
176
     1
 90
       50
176
     1
 90
       50
176
     1
 90
       50
176
     1
290
     0
176
     1
 90
       50
176
     1
 62
   256
176
     0
 40
1.0
176
     0
 90
        2
176
     1
  1
strokes_ogs.tif
176
     1
290
     0
176
     1
 40
1.0
176
     1
 40
1.0
176
     1
  0
VISUALSTYLE
  5
40
102
{ACAD_REACTORS
330
2A
102
}
330
2A
100
AcDbVisualStyle
  2
X-Ray
 70
    25
177
     3
291
     0
 70
    58
 90
        2
176
     1
 90
        2
176
     1
 90
        1
176
     1
 90
        1
176
     1
 40
0.5
176
     1
 40
30.0
176
     1
 62
     7
420
 16777215
176
     1
 90
        1
176
     1
 90
        0
176
     1
 62
     7
176
     1
 62
   257
176
     1
 90
        1
176
     1
 90
        1
176
     1
 40
1.0
176
     1
 90
        8
176
     1
 62
     7
176
     1
 40
1.0
176
     1
 90
        1
176
     1
 90
        6
176
     1
 90
        2
176
     1
 62
     7
176
     1
 90
        3
176
     1
 90
        0
176
     1
 90
        0
176
     1
290
     0
176
     1
 90
       13
176
     1
 40
0.0
176
     1
 90
        0
176
     1
290
     0
176
     1
290
     1
176
     1
290
     1
176
     1
290
     0
176
     1
290
     0
176
     1
290
     0
176
     1
290
     0
176
     1
290
     0
176
     1
290
     0
176
     1
 90
       50
176
     1
 40
0.0
176
     1
 40
1.0
176
     1
 90
        0
176
     1
 62
    18
420
        0
176
     1
 90
       50
176
     1
 90
        3
176
     1
 62
     5
420
      255
176
     1
290
     0
176
     1
 90
       50
176
     1
 90
       50
176
     1
 90
       50
176
     1
290
     0
176
     1
 90
       50
176
     1
 62
   256
176
     0
 40
1.0
176
     0
 90
        2
176
     1
  1
strokes_ogs.tif
176
     1
290
     0
176
     1
 40
1.0
176
     1
 40
1.0
176
     1
  0
DICTIONARYVAR
  5
1CB
102
{ACAD_REACTORS
330
1CA
102
}
330
1CA
100
DictionaryVariables
280
     0
  1
1:1
  0
DICTIONARYVAR
  5
1D0
102
{ACAD_REACTORS
330
1CA
102
}
330
1CA
100
DictionaryVariables
280
     0
  1
Standard
  0
DICTIONARYVAR
  5
1CF
102
{ACAD_REACTORS
330
1CA
102
}
330
1CA
100
DictionaryVariables
280
     0
  1
Standard
  0
DICTIONARY
  5
1CC
330
6A
100
AcDbDictionary
280
     1
281
     1
  3
ACAD_ROUNDTRIP_2008_TABLESTYLE_CELLSTYLEMAP
360
1CD
  0
CELLSTYLEMAP
  5
1CD
102
{ACAD_REACTORS
330
1CC
102
}
330
1CC
100
AcDbCellStyleMap
 90
        3
300
CELLSTYLE
  1
TABLEFORMAT_BEGIN
 90
        5
170
     1
 91
        0
 92
    32768
 62
   257
 93
        1
300
CONTENTFORMAT
  1
CONTENTFORMAT_BEGIN
 90
        0
 91
        0
 92
        4
 93
        0
300

 40
0.0
140
1.0
 94
        5
 62
     0
340
11
144
0.25
309
CONTENTFORMAT_END
171
     1
301
MARGIN
  1
CELLMARGIN_BEGIN
 40
0.06
 40
0.06
 40
0.06
 40
0.06
 40
0.06
 40
0.06
309
CELLMARGIN_END
 94
        6
 95
        1
302
GRIDFORMAT
  1
GRIDFORMAT_BEGIN
 90
        0
 91
        1
 62
     0
 92
       -2
340
14
 93
        0
 40
0.045
309
GRIDFORMAT_END
 95
        2
302
GRIDFORMAT
  1
GRIDFORMAT_BEGIN
 90
        0
 91
        1
 62
     0
 92
       -2
340
14
 93
        0
 40
0.045
309
GRIDFORMAT_END
 95
        4
302
GRIDFORMAT
  1
GRIDFORMAT_BEGIN
 90
        0
 91
        1
 62
     0
 92
       -2
340
14
 93
        0
 40
0.045
309
GRIDFORMAT_END
 95
        8
302
GRIDFORMAT
  1
GRIDFORMAT_BEGIN
 90
        0
 91
        1
 62
     0
 92
       -2
340
14
 93
        0
 40
0.045
309
GRIDFORMAT_END
 95
       16
302
GRIDFORMAT
  1
GRIDFORMAT_BEGIN
 90
        0
 91
        1
 62
     0
 92
       -2
340
14
 93
        0
 40
0.045
309
GRIDFORMAT_END
 95
       32
302
GRIDFORMAT
  1
GRIDFORMAT_BEGIN
 90
        0
 91
        1
 62
     0
 92
       -2
340
14
 93
        0
 40
0.045
309
GRIDFORMAT_END
309
TABLEFORMAT_END
  1
CELLSTYLE_BEGIN
 90
        1
 91
        1
300
_TITLE
309
CELLSTYLE_END
300
CELLSTYLE
  1
TABLEFORMAT_BEGIN
 90
        5
170
     1
 91
        0
 92
        0
 62
   257
 93
        1
300
CONTENTFORMAT
  1
CONTENTFORMAT_BEGIN
 90
        0
 91
        0
 92
        4
 93
        0
300

 40
0.0
140
1.0
 94
        5
 62
     0
340
11
144
0.18
309
CONTENTFORMAT_END
171
     1
301
MARGIN
  1
CELLMARGIN_BEGIN
 40
0.06
 40
0.06
 40
0.06
 40
0.06
 40
0.06
 40
0.06
309
CELLMARGIN_END
 94
        6
 95
        1
302
GRIDFORMAT
  1
GRIDFORMAT_BEGIN
 90
        0
 91
        1
 62
     0
 92
       -2
340
14
 93
        0
 40
0.045
309
GRIDFORMAT_END
 95
        2
302
GRIDFORMAT
  1
GRIDFORMAT_BEGIN
 90
        0
 91
        1
 62
     0
 92
       -2
340
14
 93
        0
 40
0.045
309
GRIDFORMAT_END
 95
        4
302
GRIDFORMAT
  1
GRIDFORMAT_BEGIN
 90
        0
 91
        1
 62
     0
 92
       -2
340
14
 93
        0
 40
0.045
309
GRIDFORMAT_END
 95
        8
302
GRIDFORMAT
  1
GRIDFORMAT_BEGIN
 90
        0
 91
        1
 62
     0
 92
       -2
340
14
 93
        0
 40
0.045
309
GRIDFORMAT_END
 95
       16
302
GRIDFORMAT
  1
GRIDFORMAT_BEGIN
 90
        0
 91
        1
 62
     0
 92
       -2
340
14
 93
        0
 40
0.045
309
GRIDFORMAT_END
 95
       32
302
GRIDFORMAT
  1
GRIDFORMAT_BEGIN
 90
        0
 91
        1
 62
     0
 92
       -2
340
14
 93
        0
 40
0.045
309
GRIDFORMAT_END
309
TABLEFORMAT_END
  1
CELLSTYLE_BEGIN
 90
        2
 91
        1
300
_HEADER
309
CELLSTYLE_END
300
CELLSTYLE
  1
TABLEFORMAT_BEGIN
 90
        5
170
     1
 91
        0
 92
        0
 62
   257
 93
        1
300
CONTENTFORMAT
  1
CONTENTFORMAT_BEGIN
 90
        0
 91
        0
 92
        4
 93
        0
300

 40
0.0
140
1.0
 94
        2
 62
     0
340
11
144
0.18
309
CONTENTFORMAT_END
171
     1
301
MARGIN
  1
CELLMARGIN_BEGIN
 40
0.06
 40
0.06
 40
0.06
 40
0.06
 40
0.06
 40
0.06
309
CELLMARGIN_END
 94
        6
 95
        1
302
GRIDFORMAT
  1
GRIDFORMAT_BEGIN
 90
        0
 91
        1
 62
     0
 92
       -2
340
14
 93
        0
 40
0.045
309
GRIDFORMAT_END
 95
        2
302
GRIDFORMAT
  1
GRIDFORMAT_BEGIN
 90
        0
 91
        1
 62
     0
 92
       -2
340
14
 93
        0
 40
0.045
309
GRIDFORMAT_END
 95
        4
302
GRIDFORMAT
  1
GRIDFORMAT_BEGIN
 90
        0
 91
        1
 62
     0
 92
       -2
340
14
 93
        0
 40
0.045
309
GRIDFORMAT_END
 95
        8
302
GRIDFORMAT
  1
GRIDFORMAT_BEGIN
 90
        0
 91
        1
 62
     0
 92
       -2
340
14
 93
        0
 40
0.045
309
GRIDFORMAT_END
 95
       16
302
GRIDFORMAT
  1
GRIDFORMAT_BEGIN
 90
        0
 91
        1
 62
     0
 92
       -2
340
14
 93
        0
 40
0.045
309
GRIDFORMAT_END
 95
       32
302
GRIDFORMAT
  1
GRIDFORMAT_BEGIN
 90
        0
 91
        1
 62
     0
 92
       -2
340
14
 93
        0
 40
0.045
309
GRIDFORMAT_END
309
TABLEFORMAT_END
  1
CELLSTYLE_BEGIN
 90
        3
 91
        2
300
_DATA
309
CELLSTYLE_END
  0
ENDSEC
  0
EOF