0
SECTION
  2
HEADER
  9
$ACADVER
  1
AC1027
  9
$ACADMAINTVER
 70
     8
  9
$DWGCODEPAGE
  3
ANSI_1252
  9
$REQUIREDVERSIONS
160
                 0
  9
$COMMENTS
  1
File was created by Cadenas
  9
$CUSTOMPROPERTYTAG
  1
NN
  9
$CUSTOMPROPERTY
  1
Set Screw Two-Bolt Flange Inch Bore
  9
$CUSTOMPROPERTYTAG
  1
NT
  9
$CUSTOMPROPERTY
  1
SC 2 Bolt Flange Bearings -(Normal Duty)
  9
$CUSTOMPROPERTYTAG
  1
NB
  9
$CUSTOMPROPERTY
  1
124413
  9
$CUSTOMPROPERTYTAG
  1
NBSYN
  9
$CUSTOMPROPERTY
  1
$PN.
  9
$CUSTOMPROPERTYTAG
  1
LINA
  9
$CUSTOMPROPERTY
  1
124413
  9
$CUSTOMPROPERTYTAG
  1
SERIES
  9
$CUSTOMPROPERTY
  1
209
  9
$CUSTOMPROPERTYTAG
  1
SS
  9
$CUSTOMPROPERTY
  1
1-3/4
  9
$CUSTOMPROPERTYTAG
  1
PN
  9
$CUSTOMPROPERTY
  1
124413
  9
$CUSTOMPROPERTYTAG
  1
DESCRIPTION
  9
$CUSTOMPROPERTY
  1
F2B-SC-112
  9
$CUSTOMPROPERTYTAG
  1
W
  9
$CUSTOMPROPERTY
  1
4.9
  9
$CUSTOMPROPERTYTAG
  1
LF
  9
$CUSTOMPROPERTY
  1
RE-LUBE
  9
$CUSTOMPROPERTYTAG
  1
A
  9
$CUSTOMPROPERTY
  1
1.94
  9
$CUSTOMPROPERTYTAG
  1
B
  9
$CUSTOMPROPERTY
  1
7.06
  9
$CUSTOMPROPERTYTAG
  1
C
  9
$CUSTOMPROPERTY
  1
1.99
  9
$CUSTOMPROPERTYTAG
  1
D
  9
$CUSTOMPROPERTY
  1
5.84
  9
$CUSTOMPROPERTYTAG
  1
F
  9
$CUSTOMPROPERTY
  1
1/2
  9
$CUSTOMPROPERTYTAG
  1
H
  9
$CUSTOMPROPERTY
  1
0.63
  9
$CUSTOMPROPERTYTAG
  1
J
  9
$CUSTOMPROPERTY
  1
0.59
  9
$CUSTOMPROPERTYTAG
  1
L
  9
$CUSTOMPROPERTY
  1
2.22
  9
$CUSTOMPROPERTYTAG
  1
M
  9
$CUSTOMPROPERTY
  1
4.38
  9
$CUSTOMPROPERTYTAG
  1
N
  9
$CUSTOMPROPERTY
  1
1.91
  9
$CUSTOMPROPERTYTAG
  1
COMPANY
  9
$CUSTOMPROPERTY
  1
baldor
  9
$INSBASE
 10
0.0
 20
0.0
 30
0.0
  9
$EXTMIN
 10
1.000000000000000E+20
 20
1.000000000000000E+20
 30
1.000000000000000E+20
  9
$EXTMAX
 10
-1.000000000000000E+20
 20
-1.000000000000000E+20
 30
-1.000000000000000E+20
  9
$LIMMIN
 10
0.0
 20
0.0
  9
$LIMMAX
 10
12.0
 20
9.0
  9
$ORTHOMODE
 70
     0
  9
$REGENMODE
 70
     1
  9
$FILLMODE
 70
     1
  9
$QTEXTMODE
 70
     0
  9
$MIRRTEXT
 70
     1
  9
$LTSCALE
 40
1.0
  9
$ATTMODE
 70
     1
  9
$TEXTSIZE
 40
0.2
  9
$TRACEWID
 40
0.05
  9
$TEXTSTYLE
  7
Standard
  9
$CLAYER
  8
0
  9
$CELTYPE
  6
ByLayer
  9
$CECOLOR
 62
   256
  9
$CELTSCALE
 40
1.0
  9
$DISPSILH
 70
     0
  9
$DIMSCALE
 40
1.0
  9
$DIMASZ
 40
0.18
  9
$DIMEXO
 40
0.0625
  9
$DIMDLI
 40
0.38
  9
$DIMRND
 40
0.0
  9
$DIMDLE
 40
0.0
  9
$DIMEXE
 40
0.18
  9
$DIMTP
 40
0.0
  9
$DIMTM
 40
0.0
  9
$DIMTXT
 40
0.18
  9
$DIMCEN
 40
0.09
  9
$DIMTSZ
 40
0.0
  9
$DIMTOL
 70
     0
  9
$DIMLIM
 70
     0
  9
$DIMTIH
 70
     1
  9
$DIMTOH
 70
     1
  9
$DIMSE1
 70
     0
  9
$DIMSE2
 70
     0
  9
$DIMTAD
 70
     0
  9
$DIMZIN
 70
     0
  9
$DIMBLK
  1

  9
$DIMASO
 70
     1
  9
$DIMSHO
 70
     1
  9
$DIMPOST
  1

  9
$DIMAPOST
  1

  9
$DIMALT
 70
     0
  9
$DIMALTD
 70
     2
  9
$DIMALTF
 40
25.4
  9
$DIMLFAC
 40
1.0
  9
$DIMTOFL
 70
     0
  9
$DIMTVP
 40
0.0
  9
$DIMTIX
 70
     0
  9
$DIMSOXD
 70
     0
  9
$DIMSAH
 70
     0
  9
$DIMBLK1
  1

  9
$DIMBLK2
  1

  9
$DIMSTYLE
  2
Standard
  9
$DIMCLRD
 70
     0
  9
$DIMCLRE
 70
     0
  9
$DIMCLRT
 70
     0
  9
$DIMTFAC
 40
1.0
  9
$DIMGAP
 40
0.09
  9
$DIMJUST
 70
     0
  9
$DIMSD1
 70
     0
  9
$DIMSD2
 70
     0
  9
$DIMTOLJ
 70
     1
  9
$DIMTZIN
 70
     0
  9
$DIMALTZ
 70
     0
  9
$DIMALTTZ
 70
     0
  9
$DIMUPT
 70
     0
  9
$DIMDEC
 70
     4
  9
$DIMTDEC
 70
     4
  9
$DIMALTU
 70
     2
  9
$DIMALTTD
 70
     2
  9
$DIMTXSTY
  7
Standard
  9
$DIMAUNIT
 70
     0
  9
$DIMADEC
 70
     0
  9
$DIMALTRND
 40
0.0
  9
$DIMAZIN
 70
     0
  9
$DIMDSEP
 70
    46
  9
$DIMATFIT
 70
     3
  9
$DIMFRAC
 70
     0
  9
$DIMLDRBLK
  1

  9
$DIMLUNIT
 70
     2
  9
$DIMLWD
 70
    -2
  9
$DIMLWE
 70
    -2
  9
$DIMTMOVE
 70
     0
  9
$DIMFXL
 40
1.0
  9
$DIMFXLON
 70
     0
  9
$DIMJOGANG
 40
0.7853981633974483
  9
$DIMTFILL
 70
     0
  9
$DIMTFILLCLR
 70
     0
  9
$DIMARCSYM
 70
     0
  9
$DIMLTYPE
  6

  9
$DIMLTEX1
  6

  9
$DIMLTEX2
  6

  9
$DIMTXTDIRECTION
 70
     0
  9
$LUNITS
 70
     2
  9
$LUPREC
 70
     4
  9
$SKETCHINC
 40
0.1
  9
$FILLETRAD
 40
0.5
  9
$AUNITS
 70
     0
  9
$AUPREC
 70
     0
  9
$MENU
  1
.
  9
$ELEVATION
 40
0.0
  9
$PELEVATION
 40
0.0
  9
$THICKNESS
 40
0.0
  9
$LIMCHECK
 70
     0
  9
$CHAMFERA
 40
0.0
  9
$CHAMFERB
 40
0.0
  9
$CHAMFERC
 40
0.0
  9
$CHAMFERD
 40
0.0
  9
$SKPOLY
 70
     0
  9
$TDCREATE
 40
2458168.971925706
  9
$TDUCREATE
 40
2458168.930259039
  9
$TDUPDATE
 40
2458168.97192588
  9
$TDUUPDATE
 40
2458168.930259213
  9
$TDINDWG
 40
0.0000000116
  9
$TDUSRTIMER
 40
0.0000000116
  9
$USRTIMER
 70
     1
  9
$ANGBASE
 50
0.0
  9
$ANGDIR
 70
     0
  9
$PDMODE
 70
     0
  9
$PDSIZE
 40
0.0
  9
$PLINEWID
 40
0.0
  9
$SPLFRAME
 70
     0
  9
$SPLINETYPE
 70
     6
  9
$SPLINESEGS
 70
     8
  9
$HANDSEED
  5
19A
  9
$SURFTAB1
 70
     6
  9
$SURFTAB2
 70
     6
  9
$SURFTYPE
 70
     6
  9
$SURFU
 70
     6
  9
$SURFV
 70
     6
  9
$UCSBASE
  2

  9
$UCSNAME
  2

  9
$UCSORG
 10
0.0
 20
0.0
 30
0.0
  9
$UCSXDIR
 10
1.0
 20
0.0
 30
0.0
  9
$UCSYDIR
 10
0.0
 20
1.0
 30
0.0
  9
$UCSORTHOREF
  2

  9
$UCSORTHOVIEW
 70
     0
  9
$UCSORGTOP
 10
0.0
 20
0.0
 30
0.0
  9
$UCSORGBOTTOM
 10
0.0
 20
0.0
 30
0.0
  9
$UCSORGLEFT
 10
0.0
 20
0.0
 30
0.0
  9
$UCSORGRIGHT
 10
0.0
 20
0.0
 30
0.0
  9
$UCSORGFRONT
 10
0.0
 20
0.0
 30
0.0
  9
$UCSORGBACK
 10
0.0
 20
0.0
 30
0.0
  9
$PUCSBASE
  2

  9
$PUCSNAME
  2

  9
$PUCSORG
 10
0.0
 20
0.0
 30
0.0
  9
$PUCSXDIR
 10
1.0
 20
0.0
 30
0.0
  9
$PUCSYDIR
 10
0.0
 20
1.0
 30
0.0
  9
$PUCSORTHOREF
  2

  9
$PUCSORTHOVIEW
 70
     0
  9
$PUCSORGTOP
 10
0.0
 20
0.0
 30
0.0
  9
$PUCSORGBOTTOM
 10
0.0
 20
0.0
 30
0.0
  9
$PUCSORGLEFT
 10
0.0
 20
0.0
 30
0.0
  9
$PUCSORGRIGHT
 10
0.0
 20
0.0
 30
0.0
  9
$PUCSORGFRONT
 10
0.0
 20
0.0
 30
0.0
  9
$PUCSORGBACK
 10
0.0
 20
0.0
 30
0.0
  9
$USERI1
 70
     0
  9
$USERI2
 70
     0
  9
$USERI3
 70
     0
  9
$USERI4
 70
     0
  9
$USERI5
 70
     0
  9
$USERR1
 40
0.0
  9
$USERR2
 40
0.0
  9
$USERR3
 40
0.0
  9
$USERR4
 40
0.0
  9
$USERR5
 40
0.0
  9
$WORLDVIEW
 70
     1
  9
$SHADEDGE
 70
     3
  9
$SHADEDIF
 70
    70
  9
$TILEMODE
 70
     1
  9
$MAXACTVP
 70
    64
  9
$PINSBASE
 10
0.0
 20
0.0
 30
0.0
  9
$PLIMCHECK
 70
     0
  9
$PEXTMIN
 10
1.000000000000000E+20
 20
1.000000000000000E+20
 30
1.000000000000000E+20
  9
$PEXTMAX
 10
-1.000000000000000E+20
 20
-1.000000000000000E+20
 30
-1.000000000000000E+20
  9
$PLIMMIN
 10
0.0
 20
0.0
  9
$PLIMMAX
 10
12.0
 20
9.0
  9
$UNITMODE
 70
     0
  9
$VISRETAIN
 70
     1
  9
$PLINEGEN
 70
     0
  9
$PSLTSCALE
 70
     1
  9
$TREEDEPTH
 70
  3020
  9
$CMLSTYLE
  2
Standard
  9
$CMLJUST
 70
     0
  9
$CMLSCALE
 40
1.0
  9
$PROXYGRAPHICS
 70
     1
  9
$MEASUREMENT
 70
     0
  9
$CELWEIGHT
370
    -1
  9
$ENDCAPS
280
     0
  9
$JOINSTYLE
280
     0
  9
$LWDISPLAY
290
     0
  9
$INSUNITS
 70
     1
  9
$HYPERLINKBASE
  1

  9
$STYLESHEET
  1

  9
$XEDIT
290
     1
  9
$CEPSNTYPE
380
     0
  9
$PSTYLEMODE
290
     1
  9
$FINGERPRINTGUID
  2
{701EC162-23CF-4DCE-9282-958587F8DB0F}
  9
$VERSIONGUID
  2
{FAEB1C32-E019-11D5-929B-00C0DF256EC4}
  9
$EXTNAMES
290
     1
  9
$PSVPSCALE
 40
0.0
  9
$OLESTARTUP
290
     0
  9
$SORTENTS
280
   127
  9
$INDEXCTL
280
     0
  9
$HIDETEXT
280
     1
  9
$XCLIPFRAME
280
     2
  9
$HALOGAP
280
     0
  9
$OBSCOLOR
 70
   257
  9
$OBSLTYPE
280
     0
  9
$INTERSECTIONDISPLAY
280
     0
  9
$INTERSECTIONCOLOR
 70
   257
  9
$DIMASSOC
280
     2
  9
$PROJECTNAME
  1

  9
$CAMERADISPLAY
290
     0
  9
$LENSLENGTH
 40
50.0
  9
$CAMERAHEIGHT
 40
0.0
  9
$STEPSPERSEC
 40
2.0
  9
$STEPSIZE
 40
6.0
  9
$3DDWFPREC
 40
2.0
  9
$PSOLWIDTH
 40
0.25
  9
$PSOLHEIGHT
 40
4.0
  9
$LOFTANG1
 40
1.570796326794897
  9
$LOFTANG2
 40
1.570796326794897
  9
$LOFTMAG1
 40
0.0
  9
$LOFTMAG2
 40
0.0
  9
$LOFTPARAM
 70
     7
  9
$LOFTNORMALS
280
     1
  9
$LATITUDE
 40
37.795
  9
$LONGITUDE
 40
-122.394
  9
$NORTHDIRECTION
 40
0.0
  9
$TIMEZONE
 70
 -8000
  9
$LIGHTGLYPHDISPLAY
280
     1
  9
$TILEMODELIGHTSYNCH
280
     1
  9
$CMATERIAL
347
44
  9
$SOLIDHIST
280
     0
  9
$SHOWHIST
280
     1
  9
$DWFFRAME
280
     2
  9
$DGNFRAME
280
     2
  9
$REALWORLDSCALE
290
     1
  9
$INTERFERECOLOR
 62
   256
  9
$CSHADOW
280
     0
  9
$SHADOWPLANELOCATION
 40
0.0
  0
ENDSEC
  0
SECTION
  2
CLASSES
  0
CLASS
  1
ACDBDICTIONARYWDFLT
  2
AcDbDictionaryWithDefault
  3
ObjectDBX Classes
 90
        0
 91
        4
280
     0
281
     0
  0
CLASS
  1
VISUALSTYLE
  2
AcDbVisualStyle
  3
ObjectDBX Classes
 90
     4095
 91
        4
280
     0
281
     0
  0
CLASS
  1
MATERIAL
  2
AcDbMaterial
  3
ObjectDBX Classes
 90
     1153
 91
        4
280
     0
281
     0
  0
CLASS
  1
SCALE
  2
AcDbScale
  3
ObjectDBX Classes
 90
     1153
 91
        4
280
     0
281
     0
  0
CLASS
  1
TABLESTYLE
  2
AcDbTableStyle
  3
ObjectDBX Classes
 90
     4095
 91
        4
280
     0
281
     0
  0
CLASS
  1
MLEADERSTYLE
  2
AcDbMLeaderStyle
  3
ACDB_MLEADERSTYLE_CLASS
 90
     4095
 91
        4
280
     0
281
     0
  0
CLASS
  1
SUN
  2
AcDbSun
  3
SCENEOE
 90
     1153
 91
        4
280
     0
281
     0
  0
CLASS
  1
DICTIONARYVAR
  2
AcDbDictionaryVar
  3
ObjectDBX Classes
 90
        0
 91
        4
280
     0
281
     0
  0
CLASS
  1
CELLSTYLEMAP
  2
AcDbCellStyleMap
  3
ObjectDBX Classes
 90
     1152
 91
        4
280
     0
281
     0
  0
ENDSEC
  0
SECTION
  2
TABLES
  0
TABLE
  2
VPORT
  5
8
330
0
100
AcDbSymbolTable
 70
     1
  0
VPORT
  5
29
330
8
100
AcDbSymbolTableRecord
100
AcDbViewportTableRecord
  2
*Active
 70
     0
 10
0.0
 20
0.0
 11
1.0
 21
1.0
 12
0.0
 22
-1.0085
 13
0.0
 23
0.0
 14
0.5
 24
0.5
 15
0.5
 25
0.5
 16
0.0
 26
0.0
 36
1.0
 17
0.0
 27
0.0
 37
0.0
 40
2.20014
 41
2.030598052851183
 42
50.0
 43
0.0
 44
0.0
 50
0.0
 51
0.0
 71
     0
 72
   100
 73
     1
 74
     3
 75
     0
 76
     0
 77
     0
 78
     0
281
     0
 65
     1
110
0.0
120
0.0
130
0.0
111
1.0
121
0.0
131
0.0
112
0.0
122
1.0
132
0.0
 79
     0
146
0.0
348
2F
 60
     3
 61
     5
292
     1
282
     1
141
0.0
142
0.0
 63
   250
361
6D
  0
ENDTAB
  0
TABLE
  2
LTYPE
  5
5
330
0
100
AcDbSymbolTable
 70
     3
  0
LTYPE
  5
14
330
5
100
AcDbSymbolTableRecord
100
AcDbLinetypeTableRecord
  2
ByBlock
 70
     0
  3

 72
    65
 73
     0
 40
0.0
  0
LTYPE
  5
15
330
5
100
AcDbSymbolTableRecord
100
AcDbLinetypeTableRecord
  2
ByLayer
 70
     0
  3

 72
    65
 73
     0
 40
0.0
  0
LTYPE
  5
16
330
5
100
AcDbSymbolTableRecord
100
AcDbLinetypeTableRecord
  2
Continuous
 70
     0
  3
Solid line
 72
    65
 73
     0
 40
0.0
  0
LTYPE
  5
95
330
5
100
AcDbSymbolTableRecord
100
AcDbLinetypeTableRecord
  2
Dashed
 70
     0
  3

 72
    65
 73
     2
 40
2.0
 49
1.0
 74
     0
 49
-1.0
 74
     0
  0
LTYPE
  5
121
330
5
100
AcDbSymbolTableRecord
100
AcDbLinetypeTableRecord
  2
Center
 70
     0
  3

 72
    65
 73
     4
 40
1.5
 49
0.45
 74
     0
 49
-0.5
 74
     0
 49
0.05
 74
     0
 49
-0.5
 74
     0
  0
ENDTAB
  0
TABLE
  2
LAYER
  5
2
330
0
100
AcDbSymbolTable
 70
     7
  0
LAYER
  5
10
330
2
100
AcDbSymbolTableRecord
100
AcDbLayerTableRecord
  2
0
 70
     0
 62
     7
  6
Continuous
370
    -3
390
F
347
46
348
0
  0
LAYER
  5
72
330
2
100
AcDbSymbolTableRecord
100
AcDbLayerTableRecord
  2
AM_6
 70
     0
 62
    -2
  6
Continuous
370
    35
390
F
347
46
348
0
  0
LAYER
  5
96
330
2
100
AcDbSymbolTableRecord
100
AcDbLayerTableRecord
  2
AM_9
 70
     0
 62
     6
  6
Dashed
370
    25
390
F
347
46
348
0
  0
LAYER
  5
BA
330
2
100
AcDbSymbolTableRecord
100
AcDbLayerTableRecord
  2
AM_4
 70
     0
 62
     7
  6
Continuous
370
    50
390
F
347
46
348
0
  0
LAYER
  5
11C
330
2
100
AcDbSymbolTableRecord
100
AcDbLayerTableRecord
  2
AM_5
 70
     0
 62
     3
  6
Continuous
370
    25
390
F
347
46
348
0
  0
LAYER
  5
122
330
2
100
AcDbSymbolTableRecord
100
AcDbLayerTableRecord
  2
AM_7
 70
     0
 62
     7
  6
Center
370
    25
390
F
347
46
348
0
  0
LAYER
  5
18C
330
2
100
AcDbSymbolTableRecord
100
AcDbLayerTableRecord
  2
ConnectionPoints
 70
     0
 62
     7
  6
Continuous
370
    50
390
F
347
46
348
0
  0
ENDTAB
  0
TABLE
  2
STYLE
  5
3
330
0
100
AcDbSymbolTable
 70
     1
  0
STYLE
  5
11
330
3
100
AcDbSymbolTableRecord
100
AcDbTextStyleTableRecord
  2
Standard
 70
     0
 40
0.0
 41
1.0
 50
0.0
 71
     0
 42
0.2
  3
txt
  4

  0
ENDTAB
  0
TABLE
  2
VIEW
  5
6
330
0
100
AcDbSymbolTable
 70
     0
  0
ENDTAB
  0
TABLE
  2
UCS
  5
7
330
0
100
AcDbSymbolTable
 70
     0
  0
ENDTAB
  0
TABLE
  2
APPID
  5
9
330
0
100
AcDbSymbolTable
 70
     1
  0
APPID
  5
12
330
9
100
AcDbSymbolTableRecord
100
AcDbRegAppTableRecord
  2
ACAD
 70
     0
  0
ENDTAB
  0
TABLE
  2
DIMSTYLE
  5
A
330
0
100
AcDbSymbolTable
 70
     1
100
AcDbDimStyleTable
  0
DIMSTYLE
105
27
330
A
100
AcDbSymbolTableRecord
100
AcDbDimStyleTableRecord
  2
Standard
 70
     0
178
     0
340
11
  0
ENDTAB
  0
TABLE
  2
BLOCK_RECORD
  5
1
330
0
100
AcDbSymbolTable
 70
     5
  0
BLOCK_RECORD
  5
1F
330
1
100
AcDbSymbolTableRecord
100
AcDbBlockTableRecord
  2
*Model_Space
340
22
 70
     0
280
     1
281
     0
  0
BLOCK_RECORD
  5
1B
330
1
100
AcDbSymbolTableRecord
100
AcDbBlockTableRecord
  2
*Paper_Space
340
1E
 70
     0
280
     1
281
     0
  0
BLOCK_RECORD
  5
23
330
1
100
AcDbSymbolTableRecord
100
AcDbBlockTableRecord
  2
*Paper_Space0
340
26
 70
     0
280
     1
281
     0
  0
BLOCK_RECORD
  5
6E
330
1
100
AcDbSymbolTableRecord
100
AcDbBlockTableRecord
  2
1_124413_4
340
0
102
{BLKREFS
331
6F
102
}
 70
     0
280
     1
281
     0
  0
BLOCK_RECORD
  5
89
330
1
100
AcDbSymbolTableRecord
100
AcDbBlockTableRecord
  2
2_405015E_Inch_0_in_124413_4
340
0
102
{BLKREFS
331
8A
102
}
 70
     0
280
     1
281
     0
  0
BLOCK_RECORD
  5
D2
330
1
100
AcDbSymbolTableRecord
100
AcDbBlockTableRecord
  2
3_123345_0_in_124413_4
340
0
102
{BLKREFS
331
D3
102
}
 70
     0
280
     1
281
     0
  0
BLOCK_RECORD
  5
12E
330
1
100
AcDbSymbolTableRecord
100
AcDbBlockTableRecord
  2
4_124413h_0_in_124413_4
340
0
102
{BLKREFS
331
12F
102
}
 70
     0
280
     1
281
     0
  0
ENDTAB
  0
ENDSEC
  0
SECTION
  2
BLOCKS
  0
BLOCK
  5
20
330
1F
100
AcDbEntity
  8
0
100
AcDbBlockBegin
  2
*Model_Space
 70
     0
 10
0.0
 20
0.0
 30
0.0
  3
*Model_Space
  1

  0
ENDBLK
  5
21
330
1F
100
AcDbEntity
  8
0
100
AcDbBlockEnd
  0
BLOCK
  5
1C
330
1B
100
AcDbEntity
 67
     1
  8
0
100
AcDbBlockBegin
  2
*Paper_Space
 70
     0
 10
0.0
 20
0.0
 30
0.0
  3
*Paper_Space
  1

  0
ENDBLK
  5
1D
330
1B
100
AcDbEntity
 67
     1
  8
0
100
AcDbBlockEnd
  0
BLOCK
  5
24
330
23
100
AcDbEntity
  8
0
100
AcDbBlockBegin
  2
*Paper_Space0
 70
     0
 10
0.0
 20
0.0
 30
0.0
  3
*Paper_Space0
  1

  0
ENDBLK
  5
25
330
23
100
AcDbEntity
  8
0
100
AcDbBlockEnd
  0
BLOCK
  5
70
330
6E
100
AcDbEntity
  8
0
100
AcDbBlockBegin
  2
1_124413_4
 70
     2
 10
0.0
 20
0.0
 30
0.0
  3
1_124413_4
  1

  0
ATTDEF
  5
73
330
6E
100
AcDbEntity
  8
AM_6
100
AcDbText
 10
7.19
 20
0.07
 30
0.0
 40
0.5
  1
Set Screw Two-Bolt Flange Inch Bore
100
AcDbAttributeDefinition
  3

  2
NN
 70
     8
280
     0
  0
ATTDEF
  5
74
330
6E
100
AcDbEntity
  8
AM_6
100
AcDbText
 10
7.19
 20
-0.43
 30
0.0
 40
0.5
  1
SC 2 Bolt Flange Bearings -(Normal Duty)
100
AcDbAttributeDefinition
  3

  2
NT
 70
     8
280
     0
  0
ATTDEF
  5
75
330
6E
100
AcDbEntity
  8
AM_6
100
AcDbText
 10
7.19
 20
-0.9299999999999999
 30
0.0
 40
0.5
  1
124413
100
AcDbAttributeDefinition
  3

  2
NB
 70
     8
280
     0
  0
ATTDEF
  5
76
330
6E
100
AcDbEntity
  8
AM_6
100
AcDbText
 10
7.19
 20
-1.43
 30
0.0
 40
0.5
  1
$PN.
100
AcDbAttributeDefinition
  3

  2
NBSYN
 70
     8
280
     0
  0
ATTDEF
  5
77
330
6E
100
AcDbEntity
  8
AM_6
100
AcDbText
 10
7.19
 20
-1.93
 30
0.0
 40
0.5
  1
124413
100
AcDbAttributeDefinition
  3

  2
LINA
 70
     8
280
     0
  0
ATTDEF
  5
78
330
6E
100
AcDbEntity
  8
AM_6
100
AcDbText
 10
7.19
 20
-2.43
 30
0.0
 40
0.5
  1
209
100
AcDbAttributeDefinition
  3

  2
SERIES
 70
     8
280
     0
  0
ATTDEF
  5
79
330
6E
100
AcDbEntity
  8
AM_6
100
AcDbText
 10
7.19
 20
-2.93
 30
0.0
 40
0.5
  1
1-3/4
100
AcDbAttributeDefinition
  3

  2
SS
 70
     8
280
     0
  0
ATTDEF
  5
7A
330
6E
100
AcDbEntity
  8
AM_6
100
AcDbText
 10
7.19
 20
-3.43
 30
0.0
 40
0.5
  1
124413
100
AcDbAttributeDefinition
  3

  2
PN
 70
     8
280
     0
  0
ATTDEF
  5
7B
330
6E
100
AcDbEntity
  8
AM_6
100
AcDbText
 10
7.19
 20
-3.93
 30
0.0
 40
0.5
  1
F2B-SC-112
100
AcDbAttributeDefinition
  3

  2
DESCRIPTION
 70
     8
280
     0
  0
ATTDEF
  5
7C
330
6E
100
AcDbEntity
  8
AM_6
100
AcDbText
 10
7.19
 20
-4.43
 30
0.0
 40
0.5
  1
4.9
100
AcDbAttributeDefinition
  3

  2
W
 70
     8
280
     0
  0
ATTDEF
  5
7D
330
6E
100
AcDbEntity
  8
AM_6
100
AcDbText
 10
7.19
 20
-4.93
 30
0.0
 40
0.5
  1
RE-LUBE
100
AcDbAttributeDefinition
  3

  2
LF
 70
     8
280
     0
  0
ATTDEF
  5
7E
330
6E
100
AcDbEntity
  8
AM_6
100
AcDbText
 10
7.19
 20
-5.43
 30
0.0
 40
0.5
  1
1.94
100
AcDbAttributeDefinition
  3

  2
A
 70
     8
280
     0
  0
ATTDEF
  5
7F
330
6E
100
AcDbEntity
  8
AM_6
100
AcDbText
 10
7.19
 20
-5.93
 30
0.0
 40
0.5
  1
7.06
100
AcDbAttributeDefinition
  3

  2
B
 70
     8
280
     0
  0
ATTDEF
  5
80
330
6E
100
AcDbEntity
  8
AM_6
100
AcDbText
 10
7.19
 20
-6.43
 30
0.0
 40
0.5
  1
1.99
100
AcDbAttributeDefinition
  3

  2
C
 70
     8
280
     0
  0
ATTDEF
  5
81
330
6E
100
AcDbEntity
  8
AM_6
100
AcDbText
 10
7.19
 20
-6.93
 30
0.0
 40
0.5
  1
5.84
100
AcDbAttributeDefinition
  3

  2
D
 70
     8
280
     0
  0
ATTDEF
  5
82
330
6E
100
AcDbEntity
  8
AM_6
100
AcDbText
 10
7.19
 20
-7.43
 30
0.0
 40
0.5
  1
1/2
100
AcDbAttributeDefinition
  3

  2
F
 70
     8
280
     0
  0
ATTDEF
  5
83
330
6E
100
AcDbEntity
  8
AM_6
100
AcDbText
 10
7.19
 20
-7.93
 30
0.0
 40
0.5
  1
0.63
100
AcDbAttributeDefinition
  3

  2
H
 70
     8
280
     0
  0
ATTDEF
  5
84
330
6E
100
AcDbEntity
  8
AM_6
100
AcDbText
 10
7.19
 20
-8.43
 30
0.0
 40
0.5
  1
0.59
100
AcDbAttributeDefinition
  3

  2
J
 70
     8
280
     0
  0
ATTDEF
  5
85
330
6E
100
AcDbEntity
  8
AM_6
100
AcDbText
 10
7.19
 20
-8.93
 30
0.0
 40
0.5
  1
2.22
100
AcDbAttributeDefinition
  3

  2
L
 70
     8
280
     0
  0
ATTDEF
  5
86
330
6E
100
AcDbEntity
  8
AM_6
100
AcDbText
 10
7.19
 20
-9.43
 30
0.0
 40
0.5
  1
4.38
100
AcDbAttributeDefinition
  3

  2
M
 70
     8
280
     0
  0
ATTDEF
  5
87
330
6E
100
AcDbEntity
  8
AM_6
100
AcDbText
 10
7.19
 20
-9.93
 30
0.0
 40
0.5
  1
1.91
100
AcDbAttributeDefinition
  3

  2
N
 70
     8
280
     0
  0
ATTDEF
  5
88
330
6E
100
AcDbEntity
  8
AM_6
100
AcDbText
 10
7.19
 20
-10.43
 30
0.0
 40
0.5
  1
baldor
100
AcDbAttributeDefinition
  3

  2
COMPANY
 70
     8
280
     0
  0
INSERT
  5
8A
330
6E
100
AcDbEntity
  8
0
100
AcDbBlockReference
  2
2_405015E_Inch_0_in_124413_4
 10
0.0
 20
0.0
 30
0.0
  0
INSERT
  5
D3
330
6E
100
AcDbEntity
  8
0
100
AcDbBlockReference
  2
3_123345_0_in_124413_4
 10
0.0
 20
0.0
 30
0.0
  0
INSERT
  5
12F
330
6E
100
AcDbEntity
  8
0
100
AcDbBlockReference
  2
4_124413h_0_in_124413_4
 10
0.0
 20
0.0
 30
0.0
  0
ENDBLK
  5
71
330
6E
100
AcDbEntity
  8
0
100
AcDbBlockEnd
  0
BLOCK
  5
8B
330
89
100
AcDbEntity
  8
0
100
AcDbBlockBegin
  2
2_405015E_Inch_0_in_124413_4
 70
     2
 10
0.0
 20
0.0
 30
0.0
  3
2_405015E_Inch_0_in_124413_4
  1

  0
ATTDEF
  5
8D
330
89
100
AcDbEntity
  8
AM_6
100
AcDbText
 10
6.977595652215717
 20
-0.6679166666666666
 30
0.0
 40
0.5
  1
405015E -Inch
100
AcDbAttributeDefinition
  3

  2
NN
 70
     8
280
     0
  0
ATTDEF
  5
8E
330
89
100
AcDbEntity
  8
AM_6
100
AcDbText
 10
6.977595652215717
 20
-1.167916666666667
 30
0.0
 40
0.5
  1
Grease Fitting
100
AcDbAttributeDefinition
  3

  2
NT
 70
     8
280
     0
  0
ATTDEF
  5
8F
330
89
100
AcDbEntity
  8
AM_6
100
AcDbText
 10
6.977595652215717
 20
-1.667916666666667
 30
0.0
 40
0.5
  1
405015E-Inch
100
AcDbAttributeDefinition
  3

  2
NB
 70
     8
280
     0
  0
ATTDEF
  5
90
330
89
100
AcDbEntity
  8
AM_6
100
AcDbText
 10
6.977595652215717
 20
-2.167916666666667
 30
0.0
 40
0.5
  1
$MN.-Inch
100
AcDbAttributeDefinition
  3

  2
NBSYN
 70
     8
280
     0
  0
ATTDEF
  5
91
330
89
100
AcDbEntity
  8
AM_6
100
AcDbText
 10
6.977595652215717
 20
-2.667916666666667
 30
0.0
 40
0.5
  1
405015E
100
AcDbAttributeDefinition
  3

  2
LINA
 70
     8
280
     0
  0
ATTDEF
  5
92
330
89
100
AcDbEntity
  8
AM_6
100
AcDbText
 10
6.977595652215717
 20
-3.167916666666667
 30
0.0
 40
0.5
  1
405015E
100
AcDbAttributeDefinition
  3

  2
MN
 70
     8
280
     0
  0
ATTDEF
  5
93
330
89
100
AcDbEntity
  8
AM_6
100
AcDbText
 10
6.977595652215717
 20
-3.667916666666667
 30
0.0
 40
0.5
  1
1/8 x 27PTF
100
AcDbAttributeDefinition
  3

  2
T
 70
     8
280
     0
  0
ATTDEF
  5
94
330
89
100
AcDbEntity
  8
AM_6
100
AcDbText
 10
6.977595652215717
 20
-4.167916666666667
 30
0.0
 40
0.5
  1
baldor
100
AcDbAttributeDefinition
  3

  2
COMPANY
 70
     8
280
     0
  0
LWPOLYLINE
  5
97
330
89
100
AcDbEntity
  8
AM_9
100
AcDbPolyline
 90
        4
 70
     0
 43
0.0
 10
1.824846756848298
 20
-0.8866666666666666
 10
1.797916628254436
 20
-0.9411082769408162
 10
1.785446268454456
 20
-0.9685366677574317
 10
1.773782838844252
 20
-0.9960416666666666
  0
LWPOLYLINE
  5
98
330
89
100
AcDbEntity
  8
AM_9
100
AcDbPolyline
 90
        4
 70
     0
 43
0.0
 10
1.773782838844252
 20
-0.7772916666666666
 10
1.785375384597839
 20
-0.8046354166666667
 10
1.797801293012054
 20
-0.8319791666666666
 10
1.824846756848298
 20
-0.8866666666666666
  0
ELLIPSE
  5
99
330
89
100
AcDbEntity
  8
AM_9
100
AcDbEllipse
 10
1.452443071521362
 20
-0.8866666666666666
 30
0.0
 11
9.913691727296317E-18
 21
0.161902872472269
 31
0.0
210
0.0
220
0.0
230
1.0
 40
0.7071067811865478
 41
0.0
 42
6.283185307179586
  0
LINE
  5
9A
330
89
100
AcDbEntity
  8
AM_9
100
AcDbLine
 10
1.882733912497831
 20
-0.8866666666666666
 30
0.0
 11
1.824846756848298
 21
-0.8866666666666666
 31
0.0
  0
LWPOLYLINE
  5
9B
330
89
100
AcDbEntity
  8
AM_9
100
AcDbPolyline
 90
        4
 70
     0
 43
0.0
 10
1.735542443309328
 20
-0.6679166666666666
 10
1.743435651771574
 20
-0.6934607261808619
 10
1.757628706972917
 20
-0.7352526793843979
 10
1.773782838844252
 20
-0.7772916666666666
  0
LWPOLYLINE
  5
9C
330
89
100
AcDbEntity
  8
AM_9
100
AcDbPolyline
 90
        4
 70
     0
 43
0.0
 10
1.844493516962907
 20
-0.9960416666666666
 10
1.855227049594063
 20
-0.9686979166666666
 10
1.86512721956459
 20
-0.9413541666666667
 10
1.882733912497831
 20
-0.8866666666666666
  0
LWPOLYLINE
  5
9D
330
89
100
AcDbEntity
  8
AM_9
100
AcDbPolyline
 90
        4
 70
     0
 43
0.0
 10
1.882733912497831
 20
-0.8866666666666666
 10
1.86521265244265
 20
-0.832225056392517
 10
1.855287824920514
 20
-0.8047966655759015
 10
1.844493516962907
 20
-0.7772916666666666
  0
LWPOLYLINE
  5
9E
330
89
100
AcDbEntity
  8
AM_9
100
AcDbPolyline
 90
        4
 70
     0
 43
0.0
 10
1.773782838844252
 20
-0.9960416666666666
 10
1.763049306213097
 20
-1.023385416666667
 10
1.753149136242569
 20
-1.050729166666666
 10
1.735542443309328
 20
-1.105416666666666
  0
LINE
  5
9F
330
89
100
AcDbEntity
  8
AM_9
100
AcDbLine
 10
1.834490731325976
 20
-1.019751369201127
 30
0.0
 11
1.844493516962907
 21
-0.9960416666666666
 31
0.0
  0
LINE
  5
A0
330
89
100
AcDbEntity
  8
AM_9
100
AcDbLine
 10
1.844493516962907
 20
-0.7772916666666666
 30
0.0
 11
1.834570991342392
 21
-0.7537663369904877
 31
0.0
  0
LINE
  5
A1
330
89
100
AcDbEntity
  8
AM_9
100
AcDbLine
 10
1.474015232969789
 20
-1.085187278798005
 30
0.0
 11
1.635279623770447
 21
-1.092318064510129
 31
0.0
  0
LINE
  5
A2
330
89
100
AcDbEntity
  8
AM_9
100
AcDbLine
 10
1.635279623770447
 20
-0.6810152688232041
 30
0.0
 11
1.474015232969789
 21
-0.6881460545353277
 31
0.0
  0
LINE
  5
A3
330
89
100
AcDbEntity
  8
AM_9
100
AcDbLine
 10
1.572000999814039
 20
-1.105416666666666
 30
0.0
 11
1.556933816231388
 21
-1.105416666666666
 31
0.0
  0
LWPOLYLINE
  5
A4
330
89
100
AcDbEntity
  8
AM_9
100
AcDbPolyline
 90
        4
 70
     0
 43
0.0
 10
1.505869898227342
 20
-0.9960416666666666
 10
1.48976034595252
 20
-0.9541261964237642
 10
1.475522711154664
 20
-0.9122107261808617
 10
1.467629502692418
 20
-0.8866666666666666
  0
LWPOLYLINE
  5
A5
330
89
100
AcDbEntity
  8
AM_9
100
AcDbPolyline
 90
        4
 70
     0
 43
0.0
 10
1.556933816231388
 20
-1.105416666666666
 10
1.530003687637526
 20
-1.050975056392517
 10
1.517533327837546
 20
-1.023546665575901
 10
1.505869898227342
 20
-0.9960416666666666
  0
LINE
  5
A6
330
89
100
AcDbEntity
  8
AM_9
100
AcDbLine
 10
1.816603063832434
 20
-0.7917983368616152
 30
0.0
 11
1.797989197403368
 21
-0.7793117756637676
 31
0.0
  0
LINE
  5
A7
330
89
100
AcDbEntity
  8
AM_9
100
AcDbLine
 10
1.797989197403368
 20
-0.9940215576695656
 30
0.0
 11
1.816603063832434
 21
-0.9815349964717179
 31
0.0
  0
ELLIPSE
  5
A8
330
89
100
AcDbEntity
  8
AM_9
100
AcDbEllipse
 10
1.784783258678996
 20
-0.8866666666667312
 30
0.0
 11
-1.928818708655733E-17
 21
-0.1049999999999266
 31
0.0
210
0.0
220
0.0
230
1.0
 40
0.707106781186862
 41
0.0
 42
3.141592653589793
  0
ELLIPSE
  5
A9
330
89
100
AcDbEntity
  8
AM_9
100
AcDbEllipse
 10
1.761981272303542
 20
-0.8866666666666387
 30
0.0
 11
-2.182689656892804E-17
 21
-0.1188200907348675
 31
0.0
210
0.0
220
0.0
230
1.0
 40
0.707106781186224
 41
0.3762206260997942
 42
2.765372027489829
  0
LINE
  5
AA
330
89
100
AcDbEntity
  8
AM_9
100
AcDbLine
 10
1.786102249561577
 20
-0.9916666666666666
 30
0.0
 11
1.805996462114636
 21
-0.9916666666666666
 31
0.0
  0
LINE
  5
AB
330
89
100
AcDbEntity
  8
AM_9
100
AcDbLine
 10
1.805996462114636
 20
-0.7816666666666666
 30
0.0
 11
1.786102249561577
 21
-0.7816666666666666
 31
0.0
  0
ELLIPSE
  5
AC
330
89
100
AcDbEntity
  8
AM_9
100
AcDbEllipse
 10
1.805996462114634
 20
-0.8866666666666695
 30
0.0
 11
-1.928818708657028E-17
 21
-0.1049999999999971
 31
0.0
210
0.0
220
0.0
230
1.0
 40
0.7071067811865542
 41
5.759586531581292
 42
9.948376736367644
  0
ELLIPSE
  5
AD
330
89
100
AcDbEntity
  8
AM_9
100
AcDbEllipse
 10
1.710537046654473
 20
-0.8866666666666687
 30
0.0
 11
-4.018372309702362E-17
 21
-0.218750000000006
 31
0.0
210
0.0
220
0.0
230
1.0
 40
0.7071067811864516
 41
0.9156936017145156
 42
2.22589905187522
  0
LINE
  5
AE
330
89
100
AcDbEntity
  8
AM_9
100
AcDbLine
 10
1.844886985623112
 20
-0.8673923479975143
 30
0.0
 11
1.843874145432121
 21
-0.858679174789751
 31
0.0
  0
LINE
  5
AF
330
89
100
AcDbEntity
  8
AM_9
100
AcDbLine
 10
1.843874145432121
 20
-0.9146541585435822
 30
0.0
 11
1.844886985623112
 21
-0.9059409853358189
 31
0.0
  0
ELLIPSE
  5
B0
330
89
100
AcDbEntity
  8
AM_9
100
AcDbEllipse
 10
1.723489969061835
 20
-0.8866666666666666
 30
0.0
 11
-3.169399141454557E-17
 21
-0.172534053283021
 31
0.0
210
0.0
220
0.0
230
1.0
 40
0.707106781186499
 41
0.7772913431419068
 42
2.364301310447832
  0
ELLIPSE
  5
B1
330
89
100
AcDbEntity
  8
AM_9
100
AcDbEllipse
 10
1.710537046654452
 20
-0.8866666666666665
 30
0.0
 11
-3.926523799766195E-17
 21
-0.2137499999999997
 31
0.0
210
0.0
220
0.0
230
1.0
 40
0.7071067811865487
 41
0.9036552188401412
 42
2.23793743474958
  0
LINE
  5
B2
330
89
100
AcDbEntity
  8
AM_9
100
AcDbLine
 10
1.482696686275069
 20
-0.8866666666666666
 30
0.0
 11
1.467629502692418
 21
-0.8866666666666666
 31
0.0
  0
LINE
  5
B3
330
89
100
AcDbEntity
  8
AM_9
100
AcDbLine
 10
1.572000999814039
 20
-0.6679166666666666
 30
0.0
 11
1.556933816231388
 21
-0.6679166666666666
 31
0.0
  0
LWPOLYLINE
  5
B4
330
89
100
AcDbEntity
  8
AM_9
100
AcDbPolyline
 90
        4
 70
     0
 43
0.0
 10
1.505869898227342
 20
-0.7772916666666666
 10
1.517462443980929
 20
-0.7499479166666666
 10
1.529888352395144
 20
-0.7226041666666666
 10
1.556933816231388
 20
-0.6679166666666666
  0
LWPOLYLINE
  5
B5
330
89
100
AcDbEntity
  8
AM_9
100
AcDbPolyline
 90
        4
 70
     0
 43
0.0
 10
1.467629502692418
 20
-0.8866666666666666
 10
1.485150762747599
 20
-0.832225056392517
 10
1.495075590269735
 20
-0.8047966655759015
 10
1.505869898227342
 20
-0.7772916666666666
  0
ELLIPSE
  5
B6
330
89
100
AcDbEntity
  8
AM_9
100
AcDbEllipse
 10
1.848422868985829
 20
-0.8866666666666667
 30
0.0
 11
-2.479909768273390E-17
 21
-0.135
 31
0.0
210
0.0
220
0.0
230
1.0
 40
0.7071067811865464
 41
0.4159140521025471
 42
2.725678601487246
  0
ELLIPSE
  5
B7
330
89
100
AcDbEntity
  8
AM_9
100
AcDbEllipse
 10
1.639826368535798
 20
-0.8866666666666666
 30
0.0
 11
-4.018372309702246E-17
 21
-0.2187499999999997
 31
0.0
210
0.0
220
0.0
230
1.0
 40
0.7071067811865512
 41
0.0
 42
6.283185307179586
  0
ELLIPSE
  5
B8
330
89
100
AcDbEntity
  8
AM_9
100
AcDbEllipse
 10
1.639826368535797
 20
-0.8866666666666666
 30
0.0
 11
-3.779601035290909E-17
 21
-0.2057518972230695
 31
0.0
210
0.0
220
0.0
230
1.0
 40
0.7071067811865466
 41
0.0
 42
6.283185307179586
  0
ELLIPSE
  5
B9
330
89
100
AcDbEntity
  8
AM_9
100
AcDbEllipse
 10
1.478404323262816
 20
-0.8866666666666664
 30
0.0
 11
-3.648546613377884E-17
 21
-0.1986176267812153
 31
0.0
210
0.0
220
0.0
230
1.0
 40
0.7071067811865503
 41
0.0
 42
6.283185307179586
  0
LWPOLYLINE
  5
BB
330
89
100
AcDbEntity
  8
AM_4
100
AcDbPolyline
 90
        4
 70
     0
 43
0.0
 10
1.793429598958861
 20
-1.105416666666666
 10
1.820359727552723
 20
-1.050975056392517
 10
1.832830087352703
 20
-1.023546665575902
 10
1.834490731325976
 20
-1.019751369201127
  0
LWPOLYLINE
  5
BC
330
89
100
AcDbEntity
  8
AM_4
100
AcDbPolyline
 90
        4
 70
     0
 43
0.0
 10
1.834570991342392
 20
-0.7537663369904877
 10
1.826379231096421
 20
-0.7353761964237642
 10
1.80639302775297
 20
-0.6934607261808619
 10
1.793429598958861
 20
-0.6679166666666666
  0
LINE
  5
BD
330
89
100
AcDbEntity
  8
AM_4
100
AcDbLine
 10
1.793429598958861
 20
-1.105416666666666
 30
0.0
 11
1.572000999814039
 21
-1.105416666666666
 31
0.0
  0
LWPOLYLINE
  5
BE
330
89
100
AcDbEntity
  8
AM_4
100
AcDbPolyline
 90
        4
 70
     0
 43
0.0
 10
1.576580576345997
 20
-0.9960416666666666
 10
1.587314108977153
 20
-1.023385416666666
 10
1.59721427894768
 20
-1.050729166666666
 10
1.614820971880921
 20
-1.105416666666666
  0
ELLIPSE
  5
BF
330
89
100
AcDbEntity
  8
AM_4
100
AcDbEllipse
 10
1.761981272303434
 20
-0.8866666666666666
 30
0.0
 11
-2.182689656893357E-17
 21
-0.1188200907348976
 31
0.0
210
0.0
220
0.0
230
1.0
 40
0.7071067811865477
 41
2.765372027488877
 42
6.659405933280503
  0
LINE
  5
C0
330
89
100
AcDbEntity
  8
AM_4
100
AcDbLine
 10
1.784783258679039
 20
-0.9916666666666666
 30
0.0
 11
1.786102249561577
 21
-0.9916666666666666
 31
0.0
  0
LINE
  5
C1
330
89
100
AcDbEntity
  8
AM_4
100
AcDbLine
 10
1.786102249561577
 20
-0.7816666666666666
 30
0.0
 11
1.784783258679039
 21
-0.7816666666666666
 31
0.0
  0
ELLIPSE
  5
C2
330
89
100
AcDbEntity
  8
AM_4
100
AcDbEllipse
 10
1.78478325867904
 20
-0.8866666666666666
 30
0.0
 11
-1.928818708657083E-17
 21
-0.1050000000000001
 31
0.0
210
0.0
220
0.0
230
1.0
 40
0.7071067811865489
 41
3.141592653589793
 42
6.283185307179586
  0
LWPOLYLINE
  5
C3
330
89
100
AcDbEntity
  8
AM_4
100
AcDbPolyline
 90
        4
 70
     0
 43
0.0
 10
1.525516658341951
 20
-0.8866666666666666
 10
1.53848008713606
 20
-0.9122107261808617
 10
1.558410018835695
 20
-0.9540026793843976
 10
1.576580576345997
 20
-0.9960416666666666
  0
ELLIPSE
  5
C4
330
89
100
AcDbEntity
  8
AM_4
100
AcDbEllipse
 10
1.710537046654451
 20
-0.8866666666666666
 30
0.0
 11
-4.018372309702262E-17
 21
-0.2187500000000006
 31
0.0
210
0.0
220
0.0
230
1.0
 40
0.7071067811865402
 41
2.225899051875185
 42
7.198878908894121
  0
ELLIPSE
  5
C5
330
89
100
AcDbEntity
  8
AM_4
100
AcDbEllipse
 10
1.723489969061831
 20
-0.8866666666666667
 30
0.0
 11
-3.169399141454458E-17
 21
-0.1725340532830155
 31
0.0
210
0.0
220
0.0
230
1.0
 40
0.707106781186547
 41
2.364301310447842
 42
7.060476650321484
  0
ELLIPSE
  5
C6
330
89
100
AcDbEntity
  8
AM_4
100
AcDbEllipse
 10
1.710537046654452
 20
-0.8866666666666667
 30
0.0
 11
-3.926523799766203E-17
 21
-0.2137500000000001
 31
0.0
210
0.0
220
0.0
230
1.0
 40
0.7071067811865472
 41
2.23793743474958
 42
7.186840526019729
  0
LINE
  5
C7
330
89
100
AcDbEntity
  8
AM_4
100
AcDbLine
 10
1.525516658341951
 20
-0.8866666666666666
 30
0.0
 11
1.482696686275069
 21
-0.8866666666666666
 31
0.0
  0
LWPOLYLINE
  5
C8
330
89
100
AcDbEntity
  8
AM_4
100
AcDbPolyline
 90
        4
 70
     0
 43
0.0
 10
1.576580576345997
 20
-0.7772916666666666
 10
1.56498803059241
 20
-0.8046354166666665
 10
1.552562122178195
 20
-0.8319791666666665
 10
1.525516658341951
 20
-0.8866666666666666
  0
LWPOLYLINE
  5
C9
330
89
100
AcDbEntity
  8
AM_4
100
AcDbPolyline
 90
        4
 70
     0
 43
0.0
 10
1.614820971880921
 20
-0.6679166666666666
 10
1.59729971182574
 20
-0.7223582769408161
 10
1.587374884303604
 20
-0.7497866677574316
 10
1.576580576345997
 20
-0.7772916666666666
  0
LINE
  5
CA
330
89
100
AcDbEntity
  8
AM_4
100
AcDbLine
 10
1.793429598958861
 20
-0.6679166666666666
 30
0.0
 11
1.572000999814039
 21
-0.6679166666666666
 31
0.0
  0
LINE
  5
CB
330
89
100
AcDbEntity
  8
AM_4
100
AcDbLine
 10
1.768873356102342
 20
-0.9775993340640325
 30
0.0
 11
1.800693161255737
 21
-1.003580096177566
 31
0.0
  0
LINE
  5
CC
330
89
100
AcDbEntity
  8
AM_4
100
AcDbLine
 10
1.800693161255737
 20
-0.7697532371557674
 30
0.0
 11
1.768873356102342
 21
-0.7957339992693006
 31
0.0
  0
ELLIPSE
  5
CD
330
89
100
AcDbEntity
  8
AM_4
100
AcDbEllipse
 10
1.848422868985829
 20
-0.8866666666666666
 30
0.0
 11
-2.479909768273388E-17
 21
-0.1349999999999999
 31
0.0
210
0.0
220
0.0
230
1.0
 40
0.707106781186547
 41
2.725678601487246
 42
6.699099359282136
  0
ELLIPSE
  5
CE
330
89
100
AcDbEntity
  8
AM_4
100
AcDbEllipse
 10
1.805996462114636
 20
-0.8866666666666666
 30
0.0
 11
-1.928818708657081E-17
 21
-0.105
 31
0.0
210
0.0
220
0.0
230
1.0
 40
0.7071067811865497
 41
3.665191429188091
 42
5.759586531581288
  0
LINE
  5
CF
330
89
100
AcDbEntity
  8
AM_4
100
AcDbLine
 10
1.934325428844527
 20
-0.7927423226657379
 30
0.0
 11
1.886990976334637
 21
-0.7631757674430332
 31
0.0
  0
LINE
  5
D0
330
89
100
AcDbEntity
  8
AM_4
100
AcDbLine
 10
1.886990976334637
 20
-1.0101575658903
 30
0.0
 11
1.934325428844527
 21
-0.9805910106675952
 31
0.0
  0
ELLIPSE
  5
D1
330
89
100
AcDbEntity
  8
AM_4
100
AcDbEllipse
 10
1.904991411480752
 20
-0.8866666666666665
 30
0.0
 11
-1.886162459184656E-17
 21
-0.1026779019331874
 31
0.0
210
0.0
220
0.0
230
1.0
 40
0.7071067811865493
 41
0.0
 42
6.283185307179586
  0
ENDBLK
  5
8C
330
89
100
AcDbEntity
  8
0
100
AcDbBlockEnd
  0
BLOCK
  5
D4
330
D2
100
AcDbEntity
  8
0
100
AcDbBlockBegin
  2
3_123345_0_in_124413_4
 70
     2
 10
0.0
 20
0.0
 30
0.0
  3
3_123345_0_in_124413_4
  1

  0
ATTDEF
  5
D6
330
D2
100
AcDbEntity
  8
AM_6
100
AcDbText
 10
6.672772310767187
 20
-0.0500000000000001
 30
0.0
 40
0.5
  1
Set Screw Insert Inch Bore
100
AcDbAttributeDefinition
  3

  2
NN
 70
     8
280
     0
  0
ATTDEF
  5
D7
330
D2
100
AcDbEntity
  8
AM_6
100
AcDbText
 10
6.672772310767187
 20
-0.5500000000000002
 30
0.0
 40
0.5
  1
SC Normal Duty Bearing Inserts
100
AcDbAttributeDefinition
  3

  2
NT
 70
     8
280
     0
  0
ATTDEF
  5
D8
330
D2
100
AcDbEntity
  8
AM_6
100
AcDbText
 10
6.672772310767187
 20
-1.05
 30
0.0
 40
0.5
  1
123345
100
AcDbAttributeDefinition
  3

  2
NB
 70
     8
280
     0
  0
ATTDEF
  5
D9
330
D2
100
AcDbEntity
  8
AM_6
100
AcDbText
 10
6.672772310767187
 20
-1.55
 30
0.0
 40
0.5
  1
$PN.
100
AcDbAttributeDefinition
  3

  2
NBSYN
 70
     8
280
     0
  0
ATTDEF
  5
DA
330
D2
100
AcDbEntity
  8
AM_6
100
AcDbText
 10
6.672772310767187
 20
-2.05
 30
0.0
 40
0.5
  1
123345
100
AcDbAttributeDefinition
  3

  2
LINA
 70
     8
280
     0
  0
ATTDEF
  5
DB
330
D2
100
AcDbEntity
  8
AM_6
100
AcDbText
 10
6.672772310767187
 20
-2.55
 30
0.0
 40
0.5
  1
209
100
AcDbAttributeDefinition
  3

  2
SERIES
 70
     8
280
     0
  0
ATTDEF
  5
DC
330
D2
100
AcDbEntity
  8
AM_6
100
AcDbText
 10
6.672772310767187
 20
-3.05
 30
0.0
 40
0.5
  1
1-3/4
100
AcDbAttributeDefinition
  3

  2
SS
 70
     8
280
     0
  0
ATTDEF
  5
DD
330
D2
100
AcDbEntity
  8
AM_6
100
AcDbText
 10
6.672772310767187
 20
-3.55
 30
0.0
 40
0.5
  1
123345
100
AcDbAttributeDefinition
  3

  2
PN
 70
     8
280
     0
  0
ATTDEF
  5
DE
330
D2
100
AcDbEntity
  8
AM_6
100
AcDbText
 10
6.672772310767187
 20
-4.050000000000001
 30
0.0
 40
0.5
  1
INS-SC-112
100
AcDbAttributeDefinition
  3

  2
DESCRIPTION
 70
     8
280
     0
  0
ATTDEF
  5
DF
330
D2
100
AcDbEntity
  8
AM_6
100
AcDbText
 10
6.672772310767187
 20
-4.550000000000001
 30
0.0
 40
0.5
  1
1.94
100
AcDbAttributeDefinition
  3

  2
A
 70
     8
280
     0
  0
ATTDEF
  5
E0
330
D2
100
AcDbEntity
  8
AM_6
100
AcDbText
 10
6.672772310767187
 20
-5.050000000000001
 30
0.0
 40
0.5
  1
0.87
100
AcDbAttributeDefinition
  3

  2
C
 70
     8
280
     0
  0
ATTDEF
  5
E1
330
D2
100
AcDbEntity
  8
AM_6
100
AcDbText
 10
6.672772310767187
 20
-5.550000000000001
 30
0.0
 40
0.5
  1
3.3465
100
AcDbAttributeDefinition
  3

  2
D
 70
     8
280
     0
  0
ATTDEF
  5
E2
330
D2
100
AcDbEntity
  8
AM_6
100
AcDbText
 10
6.672772310767187
 20
-6.050000000000001
 30
0.0
 40
0.5
  1
0.25
100
AcDbAttributeDefinition
  3

  2
J
 70
     8
280
     0
  0
ATTDEF
  5
E3
330
D2
100
AcDbEntity
  8
AM_6
100
AcDbText
 10
6.672772310767187
 20
-6.550000000000001
 30
0.0
 40
0.5
  1
2.22
100
AcDbAttributeDefinition
  3

  2
L
 70
     8
280
     0
  0
ATTDEF
  5
E4
330
D2
100
AcDbEntity
  8
AM_6
100
AcDbText
 10
6.672772310767187
 20
-7.050000000000001
 30
0.0
 40
0.5
  1
5/16 - 24
100
AcDbAttributeDefinition
  3

  2
N
 70
     8
280
     0
  0
ATTDEF
  5
E5
330
D2
100
AcDbEntity
  8
AM_6
100
AcDbText
 10
6.672772310767187
 20
-7.550000000000001
 30
0.0
 40
0.5
  1
0.75
100
AcDbAttributeDefinition
  3

  2
W
 70
     8
280
     0
  0
ATTDEF
  5
E6
330
D2
100
AcDbEntity
  8
AM_6
100
AcDbText
 10
6.672772310767187
 20
-8.05
 30
0.0
 40
0.5
  1
1.19
100
AcDbAttributeDefinition
  3

  2
Y
 70
     8
280
     0
  0
ATTDEF
  5
E7
330
D2
100
AcDbEntity
  8
AM_6
100
AcDbText
 10
6.672772310767187
 20
-8.55
 30
0.0
 40
0.5
  1
baldor
100
AcDbAttributeDefinition
  3

  2
COMPANY
 70
     8
280
     0
  0
ELLIPSE
  5
E8
330
D2
100
AcDbEntity
  8
AM_9
100
AcDbEllipse
 10
0.367016947459406
 20
-1.6125
 30
0.0
 11
-2.318256390785933E-17
 21
-0.1261999999999996
 31
0.0
210
0.0
220
0.0
230
1.0
 40
0.9063077870366518
 41
4.153164702133573
 42
5.271613258635806
  0
LINE
  5
E9
330
D2
100
AcDbEntity
  8
AM_9
100
AcDbLine
 10
0.3697895974252056
 20
-1.7387
 30
0.0
 11
0.4612657086354076
 21
-1.7387
 31
0.0
  0
LINE
  5
EA
330
D2
100
AcDbEntity
  8
AM_9
100
AcDbLine
 10
0.4612657086354076
 20
-1.4863
 30
0.0
 11
0.3697895974252056
 21
-1.4863
 31
0.0
  0
LWPOLYLINE
  5
EB
330
D2
100
AcDbEntity
  8
AM_9
100
AcDbPolyline
 90
        8
 70
     0
 43
0.0
 10
0.3697892714548472
 20
-1.738699999985938
 10
0.3695450426632433
 20
-1.738699708295982
 10
0.3503937584414838
 20
-1.736880029827411
 10
0.3315878218939426
 20
-1.731615300083977
 10
0.3136945496659452
 20
-1.723016901795575
 10
0.2972251902626578
 20
-1.711373209296684
 10
0.2824067640930294
 20
-1.69662565559158
 10
0.2700641608892548
 20
-1.679452735058635
  0
LWPOLYLINE
  5
EC
330
D2
100
AcDbEntity
  8
AM_9
100
AcDbPolyline
 90
        8
 70
     0
 43
0.0
 10
0.3697926865896624
 20
-1.486300000014062
 10
0.3700368798221846
 20
-1.486300291704018
 10
0.388966576029209
 20
-1.488119970172589
 10
0.4071542257186676
 20
-1.493384699916023
 10
0.4240916936681032
 20
-1.501983098204425
 10
0.4393801197270357
 20
-1.513626790703316
 10
0.4528896232195981
 20
-1.52837434440842
 10
0.4639697340295573
 20
-1.545547264941365
  0
ELLIPSE
  5
ED
330
D2
100
AcDbEntity
  8
AM_9
100
AcDbEllipse
 10
0.3670169474594066
 20
-1.6125
 30
0.0
 11
-2.318256390785933E-17
 21
-0.1261999999999996
 31
0.0
210
0.0
220
0.0
230
1.0
 40
0.9063077870366482
 41
1.011572048543779
 42
2.130020605046012
  0
LINE
  5
EE
330
D2
100
AcDbEntity
  8
AM_9
100
AcDbLine
 10
0.8684360821222439
 20
-1.545547264941357
 30
0.0
 11
0.8684360821222439
 21
-1.679452735058643
 31
0.0
  0
LINE
  5
EF
330
D2
100
AcDbEntity
  8
AM_9
100
AcDbLine
 10
0.875
 20
-1.7387
 30
0.0
 11
1.09144765002706
 21
-1.7387
 31
0.0
  0
LINE
  5
F0
330
D2
100
AcDbEntity
  8
AM_9
100
AcDbLine
 10
1.09144765002706
 20
-1.4863
 30
0.0
 11
0.875
 21
-1.4863
 31
0.0
  0
LINE
  5
F1
330
D2
100
AcDbEntity
  8
AM_9
100
AcDbLine
 10
1.09144765002706
 20
-1.7387
 30
0.0
 11
1.110000000000001
 21
-1.75725234997294
 31
0.0
  0
LINE
  5
F2
330
D2
100
AcDbEntity
  8
AM_9
100
AcDbLine
 10
1.110000000000001
 20
-1.46774765002706
 30
0.0
 11
1.09144765002706
 21
-1.4863
 31
0.0
  0
LINE
  5
F3
330
D2
100
AcDbEntity
  8
AM_9
100
AcDbLine
 10
1.09144765002706
 20
-1.4863
 30
0.0
 11
1.09144765002706
 21
-1.7387
 31
0.0
  0
LWPOLYLINE
  5
F4
330
D2
100
AcDbEntity
  8
AM_9
100
AcDbPolyline
 90
        9
 70
     0
 43
0.0
 10
0.8684360821222439
 20
-1.545547264941357
 10
0.867117107319171
 20
-1.562252971682786
 10
0.8661013654913757
 20
-1.580441480299253
 10
0.8655201411015245
 20
-1.599656771920932
 10
0.8654352083469689
 20
-1.619279795782781
 10
0.8658322978257904
 20
-1.637533890196924
 10
0.8666341725068503
 20
-1.655094340255729
 10
0.8674672466094961
 20
-1.667686668619188
 10
0.8684360821222439
 20
-1.679452735058643
  0
LWPOLYLINE
  5
F5
330
D2
100
AcDbEntity
  8
AM_9
100
AcDbPolyline
 90
        7
 70
     0
 43
0.0
 10
0.8684360821222439
 20
-1.679452735058643
 10
0.8698935057538412
 20
-1.696262469834097
 10
0.871451112518368
 20
-1.711133064990913
 10
0.87285144974784
 20
-1.722822678207639
 10
0.8740133148997179
 20
-1.731666751327681
 10
0.8747420582934321
 20
-1.736898989334441
 10
0.8749999999999994
 20
-1.738699999999996
  0
LWPOLYLINE
  5
F6
330
D2
100
AcDbEntity
  8
AM_9
100
AcDbPolyline
 90
        9
 70
     0
 43
0.0
 10
0.2700641608892628
 20
-1.679452735058645
 10
0.2609023513483337
 20
-1.664102840919466
 10
0.253399287866155
 20
-1.645103885295666
 10
0.2493025740423029
 20
-1.625004078976585
 10
0.2488062252243528
 20
-1.606110914181412
 10
0.251416181522814
 20
-1.587406786585569
 10
0.2568552396027134
 20
-1.569939401074515
 10
0.264874543830641
 20
-1.553598456494037
 10
0.2700641608892628
 20
-1.545547264941356
  0
LWPOLYLINE
  5
F7
330
D2
100
AcDbEntity
  8
AM_9
100
AcDbPolyline
 90
        7
 70
     0
 43
0.0
 10
0.2700641608892629
 20
-1.545547264941356
 10
0.2822841874181492
 20
-1.528517847040884
 10
0.2969401578278762
 20
-1.513866935009086
 10
0.3136005678822228
 20
-1.502039193999261
 10
0.3317242849028298
 20
-1.493333248672319
 10
0.3507094056517488
 20
-1.488062006021873
 10
0.3697926865896624
 20
-1.486300000014062
  0
LWPOLYLINE
  5
F8
330
D2
100
AcDbEntity
  8
AM_9
100
AcDbPolyline
 90
        9
 70
     0
 43
0.0
 10
0.4639697340295493
 20
-1.545547264941356
 10
0.4713222992151202
 20
-1.559195494708464
 10
0.4769827181054512
 20
-1.573908668531711
 10
0.4813970809802161
 20
-1.593132903199564
 10
0.4828586743405488
 20
-1.612986286783214
 10
0.481459184737683
 20
-1.631473542413173
 10
0.4774928975856311
 20
-1.649424433952956
 10
0.4716766728052945
 20
-1.665022981694309
 10
0.4639697340295493
 20
-1.679452735058645
  0
LWPOLYLINE
  5
F9
330
D2
100
AcDbEntity
  8
AM_9
100
AcDbPolyline
 90
        7
 70
     0
 43
0.0
 10
0.4639697340295493
 20
-1.679452735058645
 10
0.4530004518177079
 20
-1.696482152959116
 10
0.4396421509011468
 20
-1.711133064990914
 10
0.4241796539181376
 20
-1.722960806000739
 10
0.4070236908594608
 20
-1.731666751327681
 10
0.3886578440669998
 20
-1.736937993978127
 10
0.3697892714548472
 20
-1.738699999985938
  0
LINE
  5
FA
330
D2
100
AcDbEntity
  8
AM_9
100
AcDbLine
 10
0.875
 20
-1.9456
 30
0.0
 11
0.875
 21
-1.7387
 31
0.0
  0
LINE
  5
FB
330
D2
100
AcDbEntity
  8
AM_9
100
AcDbLine
 10
0.875
 20
-1.4863
 30
0.0
 11
0.875
 21
-0.0944000000000001
 31
0.0
  0
LINE
  5
FC
330
D2
100
AcDbEntity
  8
AM_9
100
AcDbLine
 10
-0.875
 20
-0.0944000000000001
 30
0.0
 11
-0.875
 21
-1.9456
 31
0.0
  0
LWPOLYLINE
  5
FD
330
D2
100
AcDbEntity
  8
AM_9
100
AcDbPolyline
 90
        8
 70
     0
 43
0.0
 10
0.8749999999999994
 20
-1.486300000000004
 10
0.8749999579279937
 20
-1.486300291704018
 10
0.8747483437958005
 20
-1.488056820301409
 10
0.8740063013011381
 20
-1.493384699916023
 10
0.8728954381652088
 20
-1.501829832521895
 10
0.8714783253280748
 20
-1.513626790703315
 10
0.8699519884539886
 20
-1.528132339044816
 10
0.8684360821222439
 20
-1.545547264941366
  0
LINE
  5
FE
330
D2
100
AcDbEntity
  8
AM_9
100
AcDbLine
 10
0.875
 20
-0.0944000000000001
 30
0.0
 11
0.9194
 21
-0.0500000000000001
 31
0.0
  0
LINE
  5
FF
330
D2
100
AcDbEntity
  8
AM_9
100
AcDbLine
 10
-0.9194
 20
-0.0500000000000001
 30
0.0
 11
-0.875
 21
-0.0944000000000001
 31
0.0
  0
LINE
  5
100
330
D2
100
AcDbEntity
  8
AM_9
100
AcDbLine
 10
-0.875
 20
-1.9456
 30
0.0
 11
-0.9194
 21
-1.99
 31
0.0
  0
LINE
  5
101
330
D2
100
AcDbEntity
  8
AM_9
100
AcDbLine
 10
0.9194
 20
-1.99
 30
0.0
 11
0.875
 21
-1.9456
 31
0.0
  0
LINE
  5
102
330
D2
100
AcDbEntity
  8
AM_9
100
AcDbLine
 10
-1.0656
 20
-0.0500000000000001
 30
0.0
 11
-1.11
 21
-0.0944000000000001
 31
0.0
  0
LINE
  5
103
330
D2
100
AcDbEntity
  8
AM_9
100
AcDbLine
 10
1.11
 20
-0.0944000000000001
 30
0.0
 11
1.0656
 21
-0.0500000000000001
 31
0.0
  0
LINE
  5
104
330
D2
100
AcDbEntity
  8
AM_9
100
AcDbLine
 10
-1.110000000000001
 20
-0.0944000000000001
 30
0.0
 11
1.110000000000001
 21
-0.0944000000000001
 31
0.0
  0
LINE
  5
105
330
D2
100
AcDbEntity
  8
AM_9
100
AcDbLine
 10
1.110000000000001
 20
-0.365
 30
0.0
 11
1.110000000000001
 21
-0.0944000000000001
 31
0.0
  0
LINE
  5
106
330
D2
100
AcDbEntity
  8
AM_9
100
AcDbLine
 10
-1.110000000000001
 20
-0.0944000000000001
 30
0.0
 11
-1.110000000000001
 21
-0.365
 31
0.0
  0
LWPOLYLINE
  5
107
330
D2
100
AcDbEntity
  8
AM_9
100
AcDbPolyline
 90
       39
 70
     0
 43
0.0
 10
0.4635717942684993
 20
-1.467892961350679
 10
0.4440543354167433
 20
-1.470741364686464
 10
0.4250757549277343
 20
-1.477077396956402
 10
0.4071157309280703
 20
-1.486754436181806
 10
0.3906940390902319
 20
-1.499382516514562
 10
0.3756129897155062
 20
-1.515367180273844
 10
0.3630113309074057
 20
-1.53368032309922
 10
0.3527132445307859
 20
-1.555099029549615
 10
0.3457601934200586
 20
-1.577981851385485
 10
0.3422882144023295
 20
-1.602823161514032
 10
0.3427284709464847
 20
-1.627927824104306
 10
0.3472435402013076
 20
-1.653068690243024
 10
0.3556919899267867
 20
-1.677050856096467
 10
0.367806851641436
 20
-1.698985426559653
 10
0.3832514320866456
 20
-1.718366235399335
 10
0.4009212636750631
 20
-1.733949486353952
 10
0.4207464509670219
 20
-1.745940404131829
 10
0.4407977756478665
 20
-1.753424386420813
 10
0.461564711098581
 20
-1.75698267779364
 10
0.4812653430491079
 20
-1.756528488940747
 10
0.5004428228420815
 20
-1.75243604829782
 10
0.518343192144379
 20
-1.744925257776446
 10
0.5347976768553206
 20
-1.734284107851854
 10
0.5499153824064019
 20
-1.720302674650707
 10
0.5628276535532798
 20
-1.703770968454941
 10
0.5738330790510318
 20
-1.683972939607006
 10
0.5819577315905667
 20
-1.662392138929783
 10
0.5872349651418023
 20
-1.638368387632668
 10
0.5891219648146363
 20
-1.613654349128514
 10
0.5874606049557781
 20
-1.588228507733332
 10
0.5822161728049874
 20
-1.563486246796331
 10
0.573408645731017
 20
-1.540123417381894
 10
0.5612341116996526
 20
-1.51887868277037
 10
0.5463114180092088
 20
-1.500933447128743
 10
0.5287246381070158
 20
-1.486305463001708
 10
0.5099973198826945
 20
-1.47610834553801
 10
0.4897761975756947
 20
-1.469812893104792
 10
0.4767634868543356
 20
-1.468030720894176
 10
0.4635717900186981
 20
-1.467892956591892
  0
LINE
  5
108
330
D2
100
AcDbEntity
  8
AM_9
100
AcDbLine
 10
1.110000000000001
 20
-1.4
 30
0.0
 11
1.110000000000001
 21
-1.235
 31
0.0
  0
LINE
  5
109
330
D2
100
AcDbEntity
  8
AM_9
100
AcDbLine
 10
-1.110000000000001
 20
-1.235
 30
0.0
 11
-1.110000000000001
 21
-1.4
 31
0.0
  0
LINE
  5
10A
330
D2
100
AcDbEntity
  8
AM_9
100
AcDbLine
 10
1.105737969812481
 20
-1.511040708466719
 30
0.0
 11
1.104785038498864
 21
-1.523501887253344
 31
0.0
  0
LINE
  5
10B
330
D2
100
AcDbEntity
  8
AM_9
100
AcDbLine
 10
1.589916666666666
 20
-1.1
 30
0.0
 11
1.589916666666666
 21
-1.0
 31
0.0
  0
LINE
  5
10C
330
D2
100
AcDbEntity
  8
AM_9
100
AcDbLine
 10
-1.589916666666666
 20
-1.0
 30
0.0
 11
-1.589916666666666
 21
-1.1
 31
0.0
  0
LINE
  5
10D
330
D2
100
AcDbEntity
  8
AM_9
100
AcDbLine
 10
-1.576932326544176
 20
-1.235
 30
0.0
 11
1.576932326544176
 21
-1.235
 31
0.0
  0
ARC
  5
10E
330
D2
100
AcDbEntity
  8
AM_9
100
AcDbCircle
 10
1.576932326544177
 20
-1.185000000000001
 30
0.0
 40
0.0499999999999992
100
AcDbArc
 50
270.0
 51
346.2798930886407
  0
ARC
  5
10F
330
D2
100
AcDbEntity
  8
AM_9
100
AcDbCircle
 10
-1.576932326544177
 20
-1.185000000000001
 30
0.0
 40
0.0499999999999991
100
AcDbArc
 50
193.7201069113592
 51
270.0
  0
LINE
  5
110
330
D2
100
AcDbEntity
  8
AM_9
100
AcDbLine
 10
-1.576932326544167
 20
-0.365
 30
0.0
 11
1.576932326544167
 21
-0.365
 31
0.0
  0
ARC
  5
111
330
D2
100
AcDbEntity
  8
AM_9
100
AcDbCircle
 10
1.576932326544167
 20
-0.4150000000000004
 30
0.0
 40
0.0500000000000001
100
AcDbArc
 50
13.72007682425433
 51
90.0
  0
ARC
  5
112
330
D2
100
AcDbEntity
  8
AM_9
100
AcDbCircle
 10
-1.576932326544167
 20
-0.415
 30
0.0
 40
0.05
100
AcDbArc
 50
90.0
 51
166.279923175746
  0
LINE
  5
113
330
D2
100
AcDbEntity
  8
AM_9
100
AcDbLine
 10
-1.625505623851488
 20
-1.196858953948095
 30
0.0
 11
1.625505623850998
 21
-1.196858953948095
 31
0.0
  0
ARC
  5
114
330
D2
100
AcDbEntity
  8
AM_9
100
AcDbCircle
 10
-0.0000000000008094
 20
-0.7999999999998293
 30
0.0
 40
1.673250000000827
100
AcDbArc
 50
346.2799262190908
 51
349.4778374485274
  0
ARC
  5
115
330
D2
100
AcDbEntity
  8
AM_9
100
AcDbCircle
 10
-0.0000000010693104
 20
-0.8000000002276573
 30
0.0
 40
1.673249998907681
100
AcDbArc
 50
190.3285117325832
 51
193.7200737820174
  0
LINE
  5
116
330
D2
100
AcDbEntity
  8
AM_9
100
AcDbLine
 10
-1.646136556456241
 20
-1.1
 30
0.0
 11
1.646136556455752
 21
-1.1
 31
0.0
  0
LINE
  5
117
330
D2
100
AcDbEntity
  8
AM_9
100
AcDbLine
 10
-1.625505630078341
 20
-0.4031410715586716
 30
0.0
 11
1.625505630078346
 21
-0.4031410715586716
 31
0.0
  0
ARC
  5
118
330
D2
100
AcDbEntity
  8
AM_9
100
AcDbCircle
 10
-0.0000000000000135
 20
-0.8000000000000016
 30
0.0
 40
1.673250000000013
100
AcDbArc
 50
353.1351448840001
 51
13.72007288184811
  0
ARC
  5
119
330
D2
100
AcDbEntity
  8
AM_9
100
AcDbCircle
 10
-0.000000000000228
 20
-0.7999999999999869
 30
0.0
 40
1.673249999999771
100
AcDbArc
 50
166.2799271181503
 51
186.8648551160015
  0
LINE
  5
11A
330
D2
100
AcDbEntity
  8
AM_9
100
AcDbLine
 10
-1.661254213689159
 20
-0.9999999999999997
 30
0.0
 11
1.661254213689163
 21
-0.9999999999999997
 31
0.0
  0
CIRCLE
  5
11B
330
D2
100
AcDbEntity
  8
AM_9
100
AcDbCircle
 10
-0.0000000000000001
 20
-0.55
 30
0.0
 40
0.0250757575757546
  0
LINE
  5
11D
330
D2
100
AcDbEntity
  8
AM_5
100
AcDbLine
 10
0.875
 20
-1.45625
 30
0.0
 11
1.110000000000001
 21
-1.45625
 31
0.0
  0
LINE
  5
11E
330
D2
100
AcDbEntity
  8
AM_5
100
AcDbLine
 10
0.875
 20
-1.76875
 30
0.0
 11
1.110000000000001
 21
-1.76875
 31
0.0
  0
ELLIPSE
  5
11F
330
D2
100
AcDbEntity
  8
AM_9
100
AcDbEllipse
 10
0.4612657086354082
 20
-1.612499999999993
 30
0.0
 11
-2.318256390785811E-17
 21
-0.126199999999993
 31
0.0
210
0.0
220
0.0
230
1.0
 40
0.9063077870366538
 41
0.0
 42
6.283185307179586
  0
CIRCLE
  5
120
330
D2
100
AcDbEntity
  8
AM_9
100
AcDbCircle
 10
-0.0000000000000001
 20
-0.55
 30
0.0
 40
0.1041666666666621
  0
LINE
  5
123
330
D2
100
AcDbEntity
  8
AM_7
100
AcDbLine
 10
1.135653228422302
 20
-1.6125
 30
0.0
 11
0.8242305037270031
 21
-1.6125
 31
0.0
  0
LINE
  5
124
330
D2
100
AcDbEntity
  8
AM_7
100
AcDbLine
 10
-0.1093749999999939
 20
-0.5500000000000009
 30
0.0
 11
0.1093749999999944
 21
-0.5500000000000009
 31
0.0
  0
LINE
  5
125
330
D2
100
AcDbEntity
  8
AM_4
100
AcDbLine
 10
-1.0656
 20
-1.99
 30
0.0
 11
1.0656
 21
-1.99
 31
0.0
  0
LINE
  5
126
330
D2
100
AcDbEntity
  8
AM_4
100
AcDbLine
 10
1.0656
 20
-1.99
 30
0.0
 11
1.11
 21
-1.9456
 31
0.0
  0
LINE
  5
127
330
D2
100
AcDbEntity
  8
AM_4
100
AcDbLine
 10
-1.11
 20
-1.9456
 30
0.0
 11
-1.0656
 21
-1.99
 31
0.0
  0
LINE
  5
128
330
D2
100
AcDbEntity
  8
AM_4
100
AcDbLine
 10
-1.110000000000001
 20
-1.9456
 30
0.0
 11
1.110000000000001
 21
-1.9456
 31
0.0
  0
LWPOLYLINE
  5
129
330
D2
100
AcDbEntity
  8
AM_4
100
AcDbPolyline
 90
        7
 70
     0
 43
0.0
 10
1.105642463106715
 20
-1.512220591523718
 10
1.106865092429991
 20
-1.498019290564748
 10
1.108029302514672
 20
-1.485947498964889
 10
1.109071096968388
 20
-1.476030655380972
 10
1.109771358893422
 20
-1.469742963589745
 10
1.109999652878692
 20
-1.46775065899848
 10
1.109999999999998
 20
-1.467747650027084
  0
LINE
  5
12A
330
D2
100
AcDbEntity
  8
AM_4
100
AcDbLine
 10
1.110000000000001
 20
-1.9456
 30
0.0
 11
1.110000000000001
 21
-1.75725234997294
 31
0.0
  0
LINE
  5
12B
330
D2
100
AcDbEntity
  8
AM_4
100
AcDbLine
 10
1.110000000000001
 20
-1.46774765002706
 30
0.0
 11
1.110000000000001
 21
-1.4
 31
0.0
  0
LINE
  5
12C
330
D2
100
AcDbEntity
  8
AM_4
100
AcDbLine
 10
-1.110000000000001
 20
-1.4
 30
0.0
 11
-1.110000000000001
 21
-1.9456
 31
0.0
  0
LWPOLYLINE
  5
12D
330
D2
100
AcDbEntity
  8
AM_4
100
AcDbPolyline
 90
       16
 70
     0
 43
0.0
 10
1.109999999999985
 20
-1.757252349972802
 10
1.109975730091029
 20
-1.757041822840708
 10
1.109637382792352
 20
-1.754075125704662
 10
1.108909546904612
 20
-1.747478234655243
 10
1.107901034852521
 20
-1.737778454769547
 10
1.106669522259663
 20
-1.72482799047523
 10
1.105336647398093
 20
-1.708905556197116
 10
1.104029009802766
 20
-1.690219497600454
 10
1.102880789475395
 20
-1.668970495555413
 10
1.102038945211342
 20
-1.645691794177458
 10
1.101624315632848
 20
-1.621144519378904
 10
1.101708449866659
 20
-1.595675660474861
 10
1.102291653241408
 20
-1.570931410624245
 10
1.103341702931601
 20
-1.546675377892427
 10
1.104417830304608
 20
-1.528791679187654
 10
1.105642463106715
 20
-1.512220591523718
  0
ENDBLK
  5
D5
330
D2
100
AcDbEntity
  8
0
100
AcDbBlockEnd
  0
BLOCK
  5
130
330
12E
100
AcDbEntity
  8
0
100
AcDbBlockBegin
  2
4_124413h_0_in_124413_4
 70
     2
 10
0.0
 20
0.0
 30
0.0
  3
4_124413h_0_in_124413_4
  1

  0
ATTDEF
  5
132
330
12E
100
AcDbEntity
  8
AM_6
100
AcDbText
 10
7.19
 20
0.07
 30
0.0
 40
0.5
  1
F2B-SC -Inch - housing
100
AcDbAttributeDefinition
  3

  2
NN
 70
     8
280
     0
  0
ATTDEF
  5
133
330
12E
100
AcDbEntity
  8
AM_6
100
AcDbText
 10
7.19
 20
-0.43
 30
0.0
 40
0.5
  1
SC 2 Bolt Flange Bearings -(Normal Duty)
100
AcDbAttributeDefinition
  3

  2
NT
 70
     8
280
     0
  0
ATTDEF
  5
134
330
12E
100
AcDbEntity
  8
AM_6
100
AcDbText
 10
7.19
 20
-0.9299999999999999
 30
0.0
 40
0.5
  1
124413h
100
AcDbAttributeDefinition
  3

  2
NB
 70
     8
280
     0
  0
ATTDEF
  5
135
330
12E
100
AcDbEntity
  8
AM_6
100
AcDbText
 10
7.19
 20
-1.43
 30
0.0
 40
0.5
  1
$PN.h
100
AcDbAttributeDefinition
  3

  2
NBSYN
 70
     8
280
     0
  0
ATTDEF
  5
136
330
12E
100
AcDbEntity
  8
AM_6
100
AcDbText
 10
7.19
 20
-1.93
 30
0.0
 40
0.5
  1
124413
100
AcDbAttributeDefinition
  3

  2
LINA
 70
     8
280
     0
  0
ATTDEF
  5
137
330
12E
100
AcDbEntity
  8
AM_6
100
AcDbText
 10
7.19
 20
-2.43
 30
0.0
 40
0.5
  1
209
100
AcDbAttributeDefinition
  3

  2
SERIES
 70
     8
280
     0
  0
ATTDEF
  5
138
330
12E
100
AcDbEntity
  8
AM_6
100
AcDbText
 10
7.19
 20
-2.93
 30
0.0
 40
0.5
  1
1-3/4
100
AcDbAttributeDefinition
  3

  2
SS
 70
     8
280
     0
  0
ATTDEF
  5
139
330
12E
100
AcDbEntity
  8
AM_6
100
AcDbText
 10
7.19
 20
-3.43
 30
0.0
 40
0.5
  1
124413
100
AcDbAttributeDefinition
  3

  2
PN
 70
     8
280
     0
  0
ATTDEF
  5
13A
330
12E
100
AcDbEntity
  8
AM_6
100
AcDbText
 10
7.19
 20
-3.93
 30
0.0
 40
0.5
  1
F2B-SC-112
100
AcDbAttributeDefinition
  3

  2
DESCRIPTION
 70
     8
280
     0
  0
ATTDEF
  5
13B
330
12E
100
AcDbEntity
  8
AM_6
100
AcDbText
 10
7.19
 20
-4.43
 30
0.0
 40
0.5
  1
4.9
100
AcDbAttributeDefinition
  3

  2
W
 70
     8
280
     0
  0
ATTDEF
  5
13C
330
12E
100
AcDbEntity
  8
AM_6
100
AcDbText
 10
7.19
 20
-4.93
 30
0.0
 40
0.5
  1
RE-LUBE
100
AcDbAttributeDefinition
  3

  2
LF
 70
     8
280
     0
  0
ATTDEF
  5
13D
330
12E
100
AcDbEntity
  8
AM_6
100
AcDbText
 10
7.19
 20
-5.43
 30
0.0
 40
0.5
  1
1
100
AcDbAttributeDefinition
  3

  2
LF1
 70
     8
280
     0
  0
ATTDEF
  5
13E
330
12E
100
AcDbEntity
  8
AM_6
100
AcDbText
 10
7.19
 20
-5.93
 30
0.0
 40
0.5
  1
1.94
100
AcDbAttributeDefinition
  3

  2
A
 70
     8
280
     0
  0
ATTDEF
  5
13F
330
12E
100
AcDbEntity
  8
AM_6
100
AcDbText
 10
7.19
 20
-6.43
 30
0.0
 40
0.5
  1
7.06
100
AcDbAttributeDefinition
  3

  2
B
 70
     8
280
     0
  0
ATTDEF
  5
140
330
12E
100
AcDbEntity
  8
AM_6
100
AcDbText
 10
7.19
 20
-6.93
 30
0.0
 40
0.5
  1
1.99
100
AcDbAttributeDefinition
  3

  2
C
 70
     8
280
     0
  0
ATTDEF
  5
141
330
12E
100
AcDbEntity
  8
AM_6
100
AcDbText
 10
7.19
 20
-7.43
 30
0.0
 40
0.5
  1
5.84
100
AcDbAttributeDefinition
  3

  2
D
 70
     8
280
     0
  0
ATTDEF
  5
142
330
12E
100
AcDbEntity
  8
AM_6
100
AcDbText
 10
7.19
 20
-7.93
 30
0.0
 40
0.5
  1
1/2
100
AcDbAttributeDefinition
  3

  2
F
 70
     8
280
     0
  0
ATTDEF
  5
143
330
12E
100
AcDbEntity
  8
AM_6
100
AcDbText
 10
7.19
 20
-8.43
 30
0.0
 40
0.5
  1
0.63
100
AcDbAttributeDefinition
  3

  2
H
 70
     8
280
     0
  0
ATTDEF
  5
144
330
12E
100
AcDbEntity
  8
AM_6
100
AcDbText
 10
7.19
 20
-8.93
 30
0.0
 40
0.5
  1
0.59
100
AcDbAttributeDefinition
  3

  2
J
 70
     8
280
     0
  0
ATTDEF
  5
145
330
12E
100
AcDbEntity
  8
AM_6
100
AcDbText
 10
7.19
 20
-9.43
 30
0.0
 40
0.5
  1
2.22
100
AcDbAttributeDefinition
  3

  2
L
 70
     8
280
     0
  0
ATTDEF
  5
146
330
12E
100
AcDbEntity
  8
AM_6
100
AcDbText
 10
7.19
 20
-9.93
 30
0.0
 40
0.5
  1
4.38
100
AcDbAttributeDefinition
  3

  2
M
 70
     8
280
     0
  0
ATTDEF
  5
147
330
12E
100
AcDbEntity
  8
AM_6
100
AcDbText
 10
7.19
 20
-10.43
 30
0.0
 40
0.5
  1
1.91
100
AcDbAttributeDefinition
  3

  2
N
 70
     8
280
     0
  0
ATTDEF
  5
148
330
12E
100
AcDbEntity
  8
AM_6
100
AcDbText
 10
7.19
 20
-10.93
 30
0.0
 40
0.5
  1
4450
100
AcDbAttributeDefinition
  3

  2
CAPS
 70
     8
280
     0
  0
ATTDEF
  5
149
330
12E
100
AcDbEntity
  8
AM_6
100
AcDbText
 10
7.19
 20
-11.43
 30
0.0
 40
0.5
  1
7891
100
AcDbAttributeDefinition
  3

  2
CAPD
 70
     8
280
     0
  0
ATTDEF
  5
14A
330
12E
100
AcDbEntity
  8
AM_6
100
AcDbText
 10
7.19
 20
-11.93
 30
0.0
 40
0.5
  1
baldor
100
AcDbAttributeDefinition
  3

  2
COMPANY
 70
     8
280
     0
  0
LINE
  5
14B
330
12E
100
AcDbEntity
  8
AM_9
100
AcDbLine
 10
1.969738862899138
 20
-0.9331240300770975
 30
0.0
 11
1.969738862899138
 21
-0.8402093032562357
 31
0.0
  0
LINE
  5
14C
330
12E
100
AcDbEntity
  8
AM_9
100
AcDbLine
 10
0.6099999999999999
 20
-0.9099999999999997
 30
0.0
 11
0.6099999999999999
 21
-0.2669499999999999
 31
0.0
  0
LINE
  5
14D
330
12E
100
AcDbEntity
  8
AM_9
100
AcDbLine
 10
-0.6099999999999999
 20
-0.9099999999999997
 30
0.0
 11
-0.6099999999999999
 21
-0.2669499999999999
 31
0.0
  0
LINE
  5
14E
330
12E
100
AcDbEntity
  8
AM_9
100
AcDbLine
 10
1.67325
 20
-1.25905
 30
0.0
 11
1.67325
 21
-0.26695
 31
0.0
  0
LINE
  5
14F
330
12E
100
AcDbEntity
  8
AM_9
100
AcDbLine
 10
-1.67325
 20
-0.26695
 30
0.0
 11
-1.67325
 21
-1.25905
 31
0.0
  0
LINE
  5
150
330
12E
100
AcDbEntity
  8
AM_9
100
AcDbLine
 10
0.6099999999999999
 20
-0.9099999999999997
 30
0.0
 11
-0.6099999999999999
 21
-0.9099999999999997
 31
0.0
  0
LINE
  5
151
330
12E
100
AcDbEntity
  8
AM_9
100
AcDbLine
 10
1.662824917004695
 20
-0.7550851266039343
 30
0.0
 11
1.521433798579946
 21
-0.7549999456972867
 31
0.0
  0
LINE
  5
152
330
12E
100
AcDbEntity
  8
AM_9
100
AcDbLine
 10
1.521433798579946
 20
-1.055000054302713
 30
0.0
 11
1.662824917004695
 21
-1.054914873396065
 31
0.0
  0
LWPOLYLINE
  5
153
330
12E
100
AcDbEntity
  8
AM_9
100
AcDbPolyline
 90
       38
 70
     0
 43
0.0
 10
1.662824917004695
 20
-0.7550851266039342
 10
1.653585725527525
 20
-0.7556500319216449
 10
1.644416506196253
 20
-0.7573515806764084
 10
1.635387042306516
 20
-0.7601768230547774
 10
1.626566053530655
 20
-0.7641042572563247
 10
1.618020672919511
 20
-0.7691039931353267
 10
1.609815935979379
 20
-0.7751379796828216
 10
1.602014285712528
 20
-0.7821602946177617
 10
1.594675097388253
 20
-0.790117493883303
 10
1.587854226661226
 20
-0.7989490183883459
 10
1.581603584476234
 20
-0.8085876548987869
 10
1.575970741994546
 20
-0.818960047570814
 10
1.57099856854865
 20
-0.8299872562331708
 10
1.566724905380749
 20
-0.8415853571695262
 10
1.563182277648062
 20
-0.8536660818286298
 10
1.560397646886729
 20
-0.8661374886012848
 10
1.55839220581825
 20
-0.87890466255151
 10
1.557181217060077
 20
-0.8918704377765136
 10
1.556773896967872
 20
-0.9049361368978845
 10
1.557173345493485
 20
-0.9180023220560242
 10
1.558376522592441
 20
-0.9309695516923008
 10
1.56037427136052
 20
-0.9437391373593548
 10
1.563151387723323
 20
-0.9562138947997734
 10
1.56668673614846
 20
-0.9682988835769707
 10
1.570953410499714
 20
-0.9799021296292364
 10
1.575918938808984
 20
-0.990935325247881
 10
1.581545530407568
 20
-1.001314501152221
 10
1.587790363535972
 20
-1.010960665546507
 10
1.594605911243355
 20
-1.019800405295185
 10
1.601940303096325
 20
-1.027766444641187
 10
1.609737719944253
 20
-1.034798157215063
 10
1.617938818736716
 20
-1.040842027438262
 10
1.626481184159948
 20
-1.045852057808998
 10
1.635299803655053
 20
-1.049790118971009
 10
1.644327562202848
 20
-1.052626239900986
 10
1.653495753109674
 20
-1.054338836006157
 10
1.662734600906824
 20
-1.054914873396066
 10
1.662824917004695
 20
-1.054914873396066
  0
LWPOLYLINE
  5
154
330
12E
100
AcDbEntity
  8
AM_9
100
AcDbPolyline
 90
       19
 70
     0
 43
0.0
 10
1.662824917004695
 20
-1.054914873396066
 10
1.672063764801845
 20
-1.054338836006157
 10
1.681231955708671
 20
-1.052626239900986
 10
1.690259714256466
 20
-1.049790118971009
 10
1.699078333751571
 20
-1.045852057808998
 10
1.707620699174802
 20
-1.040842027438263
 10
1.715821797967267
 20
-1.034798157215063
 10
1.723619214815194
 20
-1.027766444641187
 10
1.730953606668164
 20
-1.019800405295185
 10
1.737769154375547
 20
-1.010960665546508
 10
1.744013987503951
 20
-1.001314501152222
 10
1.749640579102535
 20
-0.9909353252478815
 10
1.754606107411805
 20
-0.9799021296292367
 10
1.758872781763059
 20
-0.9682988835769712
 10
1.762408130188196
 20
-0.9562138947997739
 10
1.765185246550999
 20
-0.9437391373593553
 10
1.767182995319078
 20
-0.9309695516923013
 10
1.768386172418035
 20
-0.9180023220560247
 10
1.768785630562216
 20
-0.9049999950048345
  0
LINE
  5
155
330
12E
100
AcDbEntity
  8
AM_9
100
AcDbLine
 10
-1.84825
 20
-0.26695
 30
0.0
 11
1.84825
 21
-0.26695
 31
0.0
  0
LINE
  5
156
330
12E
100
AcDbEntity
  8
AM_9
100
AcDbLine
 10
1.84825
 20
-0.26695
 30
0.0
 11
1.84825
 21
-0.05
 31
0.0
  0
LINE
  5
157
330
12E
100
AcDbEntity
  8
AM_9
100
AcDbLine
 10
-1.84825
 20
-0.05
 30
0.0
 11
-1.84825
 21
-0.26695
 31
0.0
  0
LINE
  5
158
330
12E
100
AcDbEntity
  8
AM_9
100
AcDbLine
 10
-1.848250000000001
 20
-1.25905
 30
0.0
 11
1.84825
 21
-1.25905
 31
0.0
  0
LINE
  5
159
330
12E
100
AcDbEntity
  8
AM_9
100
AcDbLine
 10
1.84825
 20
-1.4
 30
0.0
 11
1.84825
 21
-1.25905
 31
0.0
  0
LINE
  5
15A
330
12E
100
AcDbEntity
  8
AM_9
100
AcDbLine
 10
-1.84825
 20
-1.25905
 30
0.0
 11
-1.84825
 21
-1.4
 31
0.0
  0
LWPOLYLINE
  5
15B
330
12E
100
AcDbEntity
  8
AM_9
100
AcDbPolyline
 90
       19
 70
     0
 43
0.0
 10
1.768785630562216
 20
-0.9049999950048344
 10
1.768382245908861
 20
-0.8919340516985336
 10
1.767175162565269
 20
-0.8789675481482419
 10
1.765173567164539
 20
-0.8661991672753665
 10
1.76239269305627
 20
-0.8537260841681089
 10
1.758853704371561
 20
-0.8416432265203686
 10
1.754583534951204
 20
-0.8300425521746745
 10
1.749614683362886
 20
-0.8190123492674752
 10
1.743984965567468
 20
-0.8086365643031137
 10
1.737737227116692
 20
-0.7989941632702388
 10
1.730919017072653
 20
-0.7901585306629516
 10
1.723582226130737
 20
-0.7821969109804945
 10
1.715782691700085
 20
-0.7751698969560082
 10
1.707579772947203
 20
-0.7691309684092463
 10
1.699035899036858
 20
-0.7641260852328546
 10
1.690216094008441
 20
-0.760193337609836
 10
1.68118748190376
 20
-0.7573626561242601
 10
1.672018775912557
 20
-0.7556555839714441
 10
1.662824917004695
 20
-0.7550851266039342
  0
LINE
  5
15C
330
12E
100
AcDbEntity
  8
AM_9
100
AcDbLine
 10
1.932834317328643
 20
-0.981522404792591
 30
0.0
 11
1.932834317328643
 21
-0.7918109285407419
 31
0.0
  0
LINE
  5
15D
330
12E
100
AcDbEntity
  8
AM_9
100
AcDbLine
 10
0.9743124885436247
 20
-0.0499999999999999
 30
0.0
 11
0.9743124885436247
 21
0.0000000000000001
 31
0.0
  0
LINE
  5
15E
330
12E
100
AcDbEntity
  8
AM_9
100
AcDbLine
 10
-0.9743125184687106
 20
-0.0499999999999999
 30
0.0
 11
-0.9743125184687106
 21
0.0000000000000001
 31
0.0
  0
LINE
  5
15F
330
12E
100
AcDbEntity
  8
AM_9
100
AcDbLine
 10
-1.197610651843125
 20
-0.0499999999999999
 30
0.0
 11
1.197610651843131
 21
-0.0499999999999999
 31
0.0
  0
LWPOLYLINE
  5
160
330
12E
100
AcDbEntity
  8
AM_9
100
AcDbPolyline
 90
       10
 70
     0
 43
0.0
 10
1.866612506166476
 20
-1.337
 10
1.866007303974973
 20
-1.34720698885242
 10
1.864140932844389
 20
-1.357413977704839
 10
1.861177641593969
 20
-1.366763468800139
 10
1.857044993975386
 20
-1.375530477368696
 10
1.852027651154852
 20
-1.383093544936039
 10
1.846042938190962
 20
-1.389568785813342
 10
1.839399194856884
 20
-1.394568079085762
 10
1.83207025151497
 20
-1.398057610862625
 10
1.820766403559788
 20
-1.4
  0
LINE
  5
161
330
12E
100
AcDbEntity
  8
AM_9
100
AcDbLine
 10
1.841704373671301
 20
-0.5670000000000001
 30
0.0
 11
1.343174369013631
 21
-0.567
 31
0.0
  0
LINE
  5
162
330
12E
100
AcDbEntity
  8
AM_9
100
AcDbLine
 10
1.841704373671301
 20
-0.5670000000000001
 30
0.0
 11
1.841704373671301
 21
-0.0500000000000001
 31
0.0
  0
LINE
  5
163
330
12E
100
AcDbEntity
  8
AM_9
100
AcDbLine
 10
1.866612506166476
 20
-1.337
 30
0.0
 11
1.866612506166476
 21
-0.0499999999999999
 31
0.0
  0
LINE
  5
164
330
12E
100
AcDbEntity
  8
AM_9
100
AcDbLine
 10
1.154110365023343
 20
-1.337
 30
0.0
 11
1.969738862899138
 21
-1.337
 31
0.0
  0
LINE
  5
165
330
12E
100
AcDbEntity
  8
AM_9
100
AcDbLine
 10
0.25
 20
-0.6299999999999998
 30
0.0
 11
0.25
 21
0.0000000000000002
 31
0.0
  0
LINE
  5
166
330
12E
100
AcDbEntity
  8
AM_9
100
AcDbLine
 10
-0.25
 20
0.0000000000000002
 30
0.0
 11
-0.25
 21
-0.6299999999999998
 31
0.0
  0
ELLIPSE
  5
167
330
12E
100
AcDbEntity
  8
AM_9
100
AcDbEllipse
 10
1.521388537978526
 20
-0.9049999999999998
 30
0.0
 11
9.184855153504354E-18
 21
0.1500000679363096
 31
0.0
210
0.0
220
0.0
230
1.0
 40
0.7077084610804394
 41
0.0
 42
6.283185307179586
  0
LINE
  5
168
330
12E
100
AcDbEntity
  8
AM_7
100
AcDbLine
 10
0.0
 20
-2.087
 30
0.0
 11
0.0
 21
0.07
 31
0.0
  0
LINE
  5
169
330
12E
100
AcDbEntity
  8
AM_4
100
AcDbLine
 10
1.969738862899138
 20
-0.8402093032562357
 30
0.0
 11
1.969738862899138
 21
-0.0499999999999999
 31
0.0
  0
LINE
  5
16A
330
12E
100
AcDbEntity
  8
AM_4
100
AcDbLine
 10
1.969738862899138
 20
-1.4
 30
0.0
 11
1.969738862899138
 21
-0.9331240300770975
 31
0.0
  0
LINE
  5
16B
330
12E
100
AcDbEntity
  8
AM_4
100
AcDbLine
 10
2.127
 20
-1.4
 30
0.0
 11
-2.127
 21
-1.4
 31
0.0
  0
LINE
  5
16C
330
12E
100
AcDbEntity
  8
AM_4
100
AcDbLine
 10
1.932834317328643
 20
-0.7918109285407419
 30
0.0
 11
1.932834317328643
 21
-0.0499999999999999
 31
0.0
  0
LINE
  5
16D
330
12E
100
AcDbEntity
  8
AM_4
100
AcDbLine
 10
1.932834317328643
 20
-1.4
 30
0.0
 11
1.932834317328643
 21
-0.981522404792591
 31
0.0
  0
LINE
  5
16E
330
12E
100
AcDbEntity
  8
AM_4
100
AcDbLine
 10
1.39260473650212
 20
-1.4
 30
0.0
 11
1.39260473650212
 21
-0.0499999999999999
 31
0.0
  0
LINE
  5
16F
330
12E
100
AcDbEntity
  8
AM_4
100
AcDbLine
 10
1.222899109017349
 20
-1.4
 30
0.0
 11
1.222899109017349
 21
-0.5669999999999998
 31
0.0
  0
LINE
  5
170
330
12E
100
AcDbEntity
  8
AM_4
100
AcDbLine
 10
1.215093944694516
 20
-0.0499999999999999
 30
0.0
 11
1.215093944694516
 21
0.0000000000000001
 31
0.0
  0
LINE
  5
171
330
12E
100
AcDbEntity
  8
AM_4
100
AcDbLine
 10
1.215093944694516
 20
0.0000000000000001
 30
0.0
 11
-1.21509394469451
 21
0.0000000000000001
 31
0.0
  0
LINE
  5
172
330
12E
100
AcDbEntity
  8
AM_4
100
AcDbLine
 10
-1.21509394469451
 20
0.0000000000000001
 30
0.0
 11
-1.21509394469451
 21
-0.0499999999999999
 31
0.0
  0
LWPOLYLINE
  5
173
330
12E
100
AcDbEntity
  8
AM_4
100
AcDbPolyline
 90
       11
 70
     0
 43
0.0
 10
1.108316815683604
 20
-1.4
 10
1.112572450929362
 20
-1.399727786390177
 10
1.120278645942332
 20
-1.397815470862754
 10
1.127861536494004
 20
-1.393979809838202
 10
1.134628271376491
 20
-1.388571757900134
 10
1.140819645162697
 20
-1.381390144628045
 10
1.145780543298735
 20
-1.37324067292021
 10
1.149790922881002
 20
-1.363719576802258
 10
1.152425026277281
 20
-1.353940704763522
 10
1.153876799439255
 20
-1.343357393316092
 10
1.154110365023343
 20
-1.337
  0
ARC
  5
174
330
12E
100
AcDbEntity
  8
AM_4
100
AcDbCircle
 10
2.127
 20
-1.337
 30
0.0
 40
0.0629999999999995
100
AcDbArc
 50
270.0
 51
0.0
  0
ARC
  5
175
330
12E
100
AcDbEntity
  8
AM_4
100
AcDbCircle
 10
-2.127
 20
-1.337
 30
0.0
 40
0.0629999999999997
100
AcDbArc
 50
180.0
 51
270.0
  0
LINE
  5
176
330
12E
100
AcDbEntity
  8
AM_4
100
AcDbLine
 10
-1.197610651843125
 20
-0.0499999999999999
 30
0.0
 11
-2.190000000000002
 21
-0.05
 31
0.0
  0
LINE
  5
177
330
12E
100
AcDbEntity
  8
AM_4
100
AcDbLine
 10
1.969738862899138
 20
-1.337
 30
0.0
 11
2.19
 21
-1.337
 31
0.0
  0
LINE
  5
178
330
12E
100
AcDbEntity
  8
AM_4
100
AcDbLine
 10
1.154110365023343
 20
-0.5669999999999998
 30
0.0
 11
1.154110365023343
 21
-1.337
 31
0.0
  0
LINE
  5
179
330
12E
100
AcDbEntity
  8
AM_4
100
AcDbLine
 10
2.19
 20
-1.337
 30
0.0
 11
2.19
 21
-0.05
 31
0.0
  0
LINE
  5
17A
330
12E
100
AcDbEntity
  8
AM_4
100
AcDbLine
 10
-2.190000000000002
 20
-0.05
 30
0.0
 11
-2.190000000000002
 21
-1.337
 31
0.0
  0
LINE
  5
17B
330
12E
100
AcDbEntity
  8
AM_4
100
AcDbLine
 10
-2.190000000000002
 20
-1.337
 30
0.0
 11
1.154110365023343
 21
-1.337
 31
0.0
  0
LINE
  5
17C
330
12E
100
AcDbEntity
  8
AM_4
100
AcDbLine
 10
-0.8772982577069663
 20
-0.5669999999999998
 30
0.0
 11
-0.8772982577069658
 21
-0.6299999999999998
 31
0.0
  0
LINE
  5
17D
330
12E
100
AcDbEntity
  8
AM_4
100
AcDbLine
 10
0.8772982577069679
 20
-0.6299999999999998
 30
0.0
 11
0.8772982577069679
 21
-0.5669999999999998
 31
0.0
  0
LINE
  5
17E
330
12E
100
AcDbEntity
  8
AM_4
100
AcDbLine
 10
0.5901806798626217
 20
-0.5669999999999998
 30
0.0
 11
0.5901806798626217
 21
-0.6299999999999998
 31
0.0
  0
LINE
  5
17F
330
12E
100
AcDbEntity
  8
AM_4
100
AcDbLine
 10
-0.5901806798626199
 20
-0.5669999999999998
 30
0.0
 11
-0.5901806798626199
 21
-0.6299999999999998
 31
0.0
  0
LINE
  5
180
330
12E
100
AcDbEntity
  8
AM_4
100
AcDbLine
 10
-1.197610651843125
 20
0.0000000000000001
 30
0.0
 11
-1.197610651843125
 21
-0.0499999999999999
 31
0.0
  0
LINE
  5
181
330
12E
100
AcDbEntity
  8
AM_4
100
AcDbLine
 10
-1.841704373671302
 20
-0.567
 30
0.0
 11
-1.841704373671303
 21
-0.0499999999999999
 31
0.0
  0
LINE
  5
182
330
12E
100
AcDbEntity
  8
AM_4
100
AcDbLine
 10
-0.5318935608613558
 20
-0.5669999999999998
 30
0.0
 11
-1.841704373671302
 21
-0.567
 31
0.0
  0
LINE
  5
183
330
12E
100
AcDbEntity
  8
AM_4
100
AcDbLine
 10
-0.5318935608613566
 20
-0.6299999999999998
 30
0.0
 11
-0.5318935608613558
 21
-0.5669999999999998
 31
0.0
  0
LINE
  5
184
330
12E
100
AcDbEntity
  8
AM_4
100
AcDbLine
 10
0.8772982577069679
 20
-0.6299999999999998
 30
0.0
 11
-0.8772982577069658
 21
-0.6299999999999998
 31
0.0
  0
LINE
  5
185
330
12E
100
AcDbEntity
  8
AM_4
100
AcDbLine
 10
2.19
 20
-0.05
 30
0.0
 11
1.197610651843131
 21
-0.0499999999999999
 31
0.0
  0
LINE
  5
186
330
12E
100
AcDbEntity
  8
AM_4
100
AcDbLine
 10
1.197610651843131
 20
-0.0499999999999999
 30
0.0
 11
1.197610651843131
 21
0.0000000000000001
 31
0.0
  0
LINE
  5
187
330
12E
100
AcDbEntity
  8
AM_4
100
AcDbLine
 10
0.531893560861366
 20
-0.5669999999999998
 30
0.0
 11
0.5318935608613672
 21
-0.6299999999999998
 31
0.0
  0
LINE
  5
188
330
12E
100
AcDbEntity
  8
AM_4
100
AcDbLine
 10
1.343174369013631
 20
-0.5669999999999998
 30
0.0
 11
0.531893560861366
 21
-0.5669999999999998
 31
0.0
  0
LINE
  5
189
330
12E
100
AcDbEntity
  8
AM_4
100
AcDbLine
 10
1.343174369013631
 20
-0.0499999999999999
 30
0.0
 11
1.343174369013631
 21
-0.5669999999999998
 31
0.0
  0
LINE
  5
18A
330
12E
100
AcDbEntity
  8
AM_4
100
AcDbLine
 10
-0.5129861497440609
 20
-0.6299999999999998
 30
0.0
 11
-0.5129861497440609
 21
0.0000000000000002
 31
0.0
  0
LINE
  5
18B
330
12E
100
AcDbEntity
  8
AM_4
100
AcDbLine
 10
0.5129861497440609
 20
-0.6299999999999998
 30
0.0
 11
0.5129861497440609
 21
0.0000000000000002
 31
0.0
  0
ENDBLK
  5
131
330
12E
100
AcDbEntity
  8
0
100
AcDbBlockEnd
  0
ENDSEC
  0
SECTION
  2
ENTITIES
  0
INSERT
  5
6F
330
1F
100
AcDbEntity
  8
0
100
AcDbBlockReference
  2
1_124413_4
 10
0.0
 20
0.0
 30
0.0
  0
POINT
  5
18D
330
1F
100
AcDbEntity
  8
ConnectionPoints
100
AcDbPoint
 10
0.0
 20
-0.05
 30
0.0
  0
POINT
  5
18E
330
1F
100
AcDbEntity
  8
ConnectionPoints
100
AcDbPoint
 10
0.0
 20
-1.99
 30
0.0000000000000001
  0
POINT
  5
18F
330
1F
100
AcDbEntity
  8
ConnectionPoints
100
AcDbPoint
 10
1.639826368535797
 20
-0.8866666666666666
 30
1.639826368535797
  0
POINT
  5
190
330
1F
100
AcDbEntity
  8
ConnectionPoints
100
AcDbPoint
 10
0.0
 20
-1.99
 30
0.0000000000000001
  0
ENDSEC
  0
SECTION
  2
OBJECTS
  0
DICTIONARY
  5
C
330
0
100
AcDbDictionary
281
     1
  3
ACAD_DETAILVIEWSTYLE
350
198
  3
ACAD_GROUP
350
D
  3
ACAD_LAYOUT
350
1A
  3
ACAD_MATERIAL
350
43
  3
ACAD_MLEADERSTYLE
350
6B
  3
ACAD_MLINESTYLE
350
17
  3
ACAD_PLOTSETTINGS
350
19
  3
ACAD_PLOTSTYLENAME
350
E
  3
ACAD_SCALELIST
350
47
  3
ACAD_SECTIONVIEWSTYLE
350
199
  3
ACAD_TABLESTYLE
350
69
  3
ACAD_VISUALSTYLE
350
2A
  3
ACDB_RECOMPOSE_DATA
350
195
  3
AcDbVariableDictionary
350
191
  0
SUN
  5
6D
330
29
100
AcDbSun
 90
        1
290
     0
 63
     7
421
 16777215
 40
1.0
291
     1
 91
  2455826
 92
 54000000
292
     0
 70
     2
 71
   256
280
     1
  0
DICTIONARY
  5
198
102
{ACAD_REACTORS
330
C
102
}
330
C
100
AcDbDictionary
281
     1
  0
DICTIONARY
  5
D
102
{ACAD_REACTORS
330
C
102
}
330
C
100
AcDbDictionary
281
     1
  0
DICTIONARY
  5
1A
102
{ACAD_REACTORS
330
C
102
}
330
C
100
AcDbDictionary
281
     1
  3
Layout1
350
1E
  3
Layout2
350
26
  3
Model
350
22
  0
DICTIONARY
  5
43
102
{ACAD_REACTORS
330
C
102
}
330
C
100
AcDbDictionary
281
     1
  3
ByBlock
350
45
  3
ByLayer
350
44
  3
Global
350
46
  0
DICTIONARY
  5
6B
102
{ACAD_REACTORS
330
C
102
}
330
C
100
AcDbDictionary
281
     1
  3
Standard
350
6C
  0
DICTIONARY
  5
17
102
{ACAD_REACTORS
330
C
102
}
330
C
100
AcDbDictionary
281
     1
  3
Standard
350
18
  0
DICTIONARY
  5
19
102
{ACAD_REACTORS
330
C
102
}
330
C
100
AcDbDictionary
281
     1
  0
ACDBDICTIONARYWDFLT
  5
E
102
{ACAD_REACTORS
330
C
102
}
330
C
100
AcDbDictionary
281
     1
  3
Normal
350
F
100
AcDbDictionaryWithDefault
340
F
  0
DICTIONARY
  5
47
102
{ACAD_REACTORS
330
C
102
}
330
C
100
AcDbDictionary
281
     1
  3
A0
350
48
  3
A1
350
49
  3
A2
350
4A
  3
A3
350
4B
  3
A4
350
4C
  3
A5
350
4D
  3
A6
350
4E
  3
A7
350
4F
  3
A8
350
50
  3
A9
350
51
  3
B0
350
52
  3
B1
350
53
  3
B2
350
54
  3
B3
350
55
  3
B4
350
56
  3
B5
350
57
  3
B6
350
58
  3
B7
350
59
  3
B8
350
5A
  3
B9
350
5B
  3
C0
350
5C
  3
C1
350
5D
  3
C2
350
5E
  3
C3
350
5F
  3
C4
350
60
  3
C5
350
61
  3
C6
350
62
  3
C7
350
63
  3
C8
350
64
  3
C9
350
65
  3
D0
350
66
  3
D1
350
67
  3
D2
350
68
  0
DICTIONARY
  5
199
102
{ACAD_REACTORS
330
C
102
}
330
C
100
AcDbDictionary
281
     1
  0
DICTIONARY
  5
69
102
{ACAD_REACTORS
330
C
102
}
330
C
100
AcDbDictionary
281
     1
  3
Standard
350
6A
  0
DICTIONARY
  5
2A
102
{ACAD_REACTORS
330
C
102
}
330
C
100
AcDbDictionary
281
     1
  3
2dWireframe
350
2F
  3
Basic
350
32
  3
Brighten
350
36
  3
ColorChange
350
3A
  3
Conceptual
350
34
  3
Dim
350
35
  3
EdgeColorOff
350
3D
  3
Facepattern
350
39
  3
Flat
350
2B
  3
FlatWithEdges
350
2C
  3
Gouraud
350
2D
  3
GouraudWithEdges
350
2E
  3
Hidden
350
31
  3
JitterOff
350
3B
  3
Linepattern
350
38
  3
OverhangOff
350
3C
  3
Realistic
350
33
  3
Shaded
350
42
  3
Shaded with edges
350
41
  3
Shades of Gray
350
3E
  3
Sketchy
350
3F
  3
Thicken
350
37
  3
Wireframe
350
30
  3
X-Ray
350
40
  0
XRECORD
  5
195
102
{ACAD_REACTORS
330
C
102
}
330
C
100
AcDbXrecord
280
     1
 90
        1
330
6A
  0
DICTIONARY
  5
191
102
{ACAD_REACTORS
330
C
102
}
330
C
100
AcDbDictionary
281
     1
  3
CANNOSCALE
350
192
  3
CMLEADERSTYLE
350
197
  3
CTABLESTYLE
350
196
  0
LAYOUT
  5
1E
102
{ACAD_REACTORS
330
1A
102
}
330
1A
100
AcDbPlotSettings
  1

  2
none_device
  4

  6

 40
0.0
 41
0.0
 42
0.0
 43
0.0
 44
0.0
 45
0.0
 46
0.0
 47
0.0
 48
0.0
 49
0.0
140
0.0
141
0.0
142
1.0
143
1.0
 70
   688
 72
     0
 73
     0
 74
     5
  7

 75
    16
 76
     0
 77
     2
 78
   300
147
1.0
148
0.0
149
0.0
100
AcDbLayout
  1
Layout1
 70
     1
 71
     1
 10
0.0
 20
0.0
 11
12.0
 21
9.0
 12
0.0
 22
0.0
 32
0.0
 14
1.000000000000000E+20
 24
1.000000000000000E+20
 34
1.000000000000000E+20
 15
-1.000000000000000E+20
 25
-1.000000000000000E+20
 35
-1.000000000000000E+20
146
0.0
 13
0.0
 23
0.0
 33
0.0
 16
1.0
 26
0.0
 36
0.0
 17
0.0
 27
1.0
 37
0.0
 76
     0
330
1B
  0
LAYOUT
  5
26
102
{ACAD_REACTORS
330
1A
102
}
330
1A
100
AcDbPlotSettings
  1

  2
none_device
  4

  6

 40
0.0
 41
0.0
 42
0.0
 43
0.0
 44
0.0
 45
0.0
 46
0.0
 47
0.0
 48
0.0
 49
0.0
140
0.0
141
0.0
142
1.0
143
1.0
 70
   688
 72
     0
 73
     0
 74
     5
  7

 75
    16
 76
     0
 77
     2
 78
   300
147
1.0
148
0.0
149
0.0
100
AcDbLayout
  1
Layout2
 70
     1
 71
     2
 10
0.0
 20
0.0
 11
0.0
 21
0.0
 12
0.0
 22
0.0
 32
0.0
 14
0.0
 24
0.0
 34
0.0
 15
0.0
 25
0.0
 35
0.0
146
0.0
 13
0.0
 23
0.0
 33
0.0
 16
1.0
 26
0.0
 36
0.0
 17
0.0
 27
1.0
 37
0.0
 76
     0
330
23
  0
LAYOUT
  5
22
102
{ACAD_REACTORS
330
1A
102
}
330
1A
100
AcDbPlotSettings
  1

  2
none_device
  4
Letter_(8.50_x_11.00_Inches)
  6

 40
6.35
 41
6.35
 42
6.35000508
 43
6.35000508
 44
215.9
 45
279.4
 46
0.0
 47
0.0
 48
0.0
 49
0.0
140
0.0
141
0.0
142
1.0
143
1.0
 70
  1712
 72
     0
 73
     0
 74
     0
  7

 75
     0
 76
     0
 77
     2
 78
   300
147
1.0
148
0.0
149
0.0
100
AcDbLayout
  1
Model
 70
     1
 71
     0
 10
0.0
 20
0.0
 11
12.0
 21
9.0
 12
0.0
 22
0.0
 32
0.0
 14
1.000000000000000E+20
 24
1.000000000000000E+20
 34
1.000000000000000E+20
 15
-1.000000000000000E+20
 25
-1.000000000000000E+20
 35
-1.000000000000000E+20
146
0.0
 13
0.0
 23
0.0
 33
0.0
 16
1.0
 26
0.0
 36
0.0
 17
0.0
 27
1.0
 37
0.0
 76
     0
330
1F
331
29
  0
MATERIAL
  5
45
102
{ACAD_REACTORS
330
43
102
}
330
43
100
AcDbMaterial
  1
ByBlock
 72
     1
 94
      127
  0
MATERIAL
  5
44
102
{ACAD_REACTORS
330
43
102
}
330
43
100
AcDbMaterial
  1
ByLayer
 72
     1
 94
      127
  0
MATERIAL
  5
46
102
{ACAD_REACTORS
330
43
102
}
330
43
100
AcDbMaterial
  1
Global
 72
     1
 94
      127
  0
MLEADERSTYLE
  5
6C
102
{ACAD_REACTORS
330
6B
102
}
330
6B
100
AcDbMLeaderStyle
179
     2
170
     2
171
     1
172
     0
 90
        2
 40
0.0
 41
0.0
173
     1
 91
-1056964608
340
14
 92
       -2
290
     1
 42
0.09
291
     1
 43
0.36
  3
Standard
341
0
 44
0.18
300

342
11
174
     1
178
     6
175
     1
176
     0
 93
-1056964608
 45
0.18
292
     0
297
     0
 46
0.18
343
0
 94
-1056964608
 47
1.0
 49
1.0
140
1.0
293
     1
141
0.0
294
     1
177
     0
142
1.0
295
     0
296
     0
143
0.125
271
     0
272
     9
273
     9
298
     0
  0
MLINESTYLE
  5
18
102
{ACAD_REACTORS
330
17
102
}
330
17
100
AcDbMlineStyle
  2
Standard
 70
     0
  3

 62
   256
 51
90.0
 52
90.0
 71
     2
 49
0.5
 62
   256
  6
BYLAYER
 49
-0.5
 62
   256
  6
BYLAYER
  0
ACDBPLACEHOLDER
  5
F
102
{ACAD_REACTORS
330
E
102
}
330
E
  0
SCALE
  5
48
102
{ACAD_REACTORS
330
47
102
}
330
47
100
AcDbScale
 70
     0
300
1:1
140
1.0
141
1.0
290
     1
  0
SCALE
  5
49
102
{ACAD_REACTORS
330
47
102
}
330
47
100
AcDbScale
 70
     0
300
1:2
140
1.0
141
2.0
290
     0
  0
SCALE
  5
4A
102
{ACAD_REACTORS
330
47
102
}
330
47
100
AcDbScale
 70
     0
300
1:4
140
1.0
141
4.0
290
     0
  0
SCALE
  5
4B
102
{ACAD_REACTORS
330
47
102
}
330
47
100
AcDbScale
 70
     0
300
1:5
140
1.0
141
5.0
290
     0
  0
SCALE
  5
4C
102
{ACAD_REACTORS
330
47
102
}
330
47
100
AcDbScale
 70
     0
300
1:8
140
1.0
141
8.0
290
     0
  0
SCALE
  5
4D
102
{ACAD_REACTORS
330
47
102
}
330
47
100
AcDbScale
 70
     0
300
1:10
140
1.0
141
10.0
290
     0
  0
SCALE
  5
4E
102
{ACAD_REACTORS
330
47
102
}
330
47
100
AcDbScale
 70
     0
300
1:16
140
1.0
141
16.0
290
     0
  0
SCALE
  5
4F
102
{ACAD_REACTORS
330
47
102
}
330
47
100
AcDbScale
 70
     0
300
1:20
140
1.0
141
20.0
290
     0
  0
SCALE
  5
50
102
{ACAD_REACTORS
330
47
102
}
330
47
100
AcDbScale
 70
     0
300
1:30
140
1.0
141
30.0
290
     0
  0
SCALE
  5
51
102
{ACAD_REACTORS
330
47
102
}
330
47
100
AcDbScale
 70
     0
300
1:40
140
1.0
141
40.0
290
     0
  0
SCALE
  5
52
102
{ACAD_REACTORS
330
47
102
}
330
47
100
AcDbScale
 70
     0
300
1:50
140
1.0
141
50.0
290
     0
  0
SCALE
  5
53
102
{ACAD_REACTORS
330
47
102
}
330
47
100
AcDbScale
 70
     0
300
1:100
140
1.0
141
100.0
290
     0
  0
SCALE
  5
54
102
{ACAD_REACTORS
330
47
102
}
330
47
100
AcDbScale
 70
     0
300
2:1
140
2.0
141
1.0
290
     0
  0
SCALE
  5
55
102
{ACAD_REACTORS
330
47
102
}
330
47
100
AcDbScale
 70
     0
300
4:1
140
4.0
141
1.0
290
     0
  0
SCALE
  5
56
102
{ACAD_REACTORS
330
47
102
}
330
47
100
AcDbScale
 70
     0
300
8:1
140
8.0
141
1.0
290
     0
  0
SCALE
  5
57
102
{ACAD_REACTORS
330
47
102
}
330
47
100
AcDbScale
 70
     0
300
10:1
140
10.0
141
1.0
290
     0
  0
SCALE
  5
58
102
{ACAD_REACTORS
330
47
102
}
330
47
100
AcDbScale
 70
     0
300
100:1
140
100.0
141
1.0
290
     0
  0
SCALE
  5
59
102
{ACAD_REACTORS
330
47
102
}
330
47
100
AcDbScale
 70
     0
300
1/128" = 1'-0"
140
0.0078125
141
12.0
290
     0
  0
SCALE
  5
5A
102
{ACAD_REACTORS
330
47
102
}
330
47
100
AcDbScale
 70
     0
300
1/64" = 1'-0"
140
0.015625
141
12.0
290
     0
  0
SCALE
  5
5B
102
{ACAD_REACTORS
330
47
102
}
330
47
100
AcDbScale
 70
     0
300
1/32" = 1'-0"
140
0.03125
141
12.0
290
     0
  0
SCALE
  5
5C
102
{ACAD_REACTORS
330
47
102
}
330
47
100
AcDbScale
 70
     0
300
1/16" = 1'-0"
140
0.0625
141
12.0
290
     0
  0
SCALE
  5
5D
102
{ACAD_REACTORS
330
47
102
}
330
47
100
AcDbScale
 70
     0
300
3/32" = 1'-0"
140
0.09375
141
12.0
290
     0
  0
SCALE
  5
5E
102
{ACAD_REACTORS
330
47
102
}
330
47
100
AcDbScale
 70
     0
300
1/8" = 1'-0"
140
0.125
141
12.0
290
     0
  0
SCALE
  5
5F
102
{ACAD_REACTORS
330
47
102
}
330
47
100
AcDbScale
 70
     0
300
3/16" = 1'-0"
140
0.1875
141
12.0
290
     0
  0
SCALE
  5
60
102
{ACAD_REACTORS
330
47
102
}
330
47
100
AcDbScale
 70
     0
300
1/4" = 1'-0"
140
0.25
141
12.0
290
     0
  0
SCALE
  5
61
102
{ACAD_REACTORS
330
47
102
}
330
47
100
AcDbScale
 70
     0
300
3/8" = 1'-0"
140
0.375
141
12.0
290
     0
  0
SCALE
  5
62
102
{ACAD_REACTORS
330
47
102
}
330
47
100
AcDbScale
 70
     0
300
1/2" = 1'-0"
140
0.5
141
12.0
290
     0
  0
SCALE
  5
63
102
{ACAD_REACTORS
330
47
102
}
330
47
100
AcDbScale
 70
     0
300
3/4" = 1'-0"
140
0.75
141
12.0
290
     0
  0
SCALE
  5
64
102
{ACAD_REACTORS
330
47
102
}
330
47
100
AcDbScale
 70
     0
300
1" = 1'-0"
140
1.0
141
12.0
290
     0
  0
SCALE
  5
65
102
{ACAD_REACTORS
330
47
102
}
330
47
100
AcDbScale
 70
     0
300
1-1/2" = 1'-0"
140
1.5
141
12.0
290
     0
  0
SCALE
  5
66
102
{ACAD_REACTORS
330
47
102
}
330
47
100
AcDbScale
 70
     0
300
3" = 1'-0"
140
3.0
141
12.0
290
     0
  0
SCALE
  5
67
102
{ACAD_REACTORS
330
47
102
}
330
47
100
AcDbScale
 70
     0
300
6" = 1'-0"
140
6.0
141
12.0
290
     0
  0
SCALE
  5
68
102
{ACAD_REACTORS
330
47
102
}
330
47
100
AcDbScale
 70
     0
300
1'-0" = 1'-0"
140
12.0
141
12.0
290
     0
  0
TABLESTYLE
  5
6A
102
{ACAD_REACTORS
330
69
102
}
102
{ACAD_XDICTIONARY
360
193
102
}
330
69
100
AcDbTableStyle
  3
Standard
 70
     0
 71
     0
 40
0.06
 41
0.06
280
     0
281
     0
  7
Standard
140
0.18
170
     2
 62
     0
 63
   257
283
     0
 90
        4
 91
        0
  1

274
    -2
284
     1
 64
     0
275
    -2
285
     1
 65
     0
276
    -2
286
     1
 66
     0
277
    -2
287
     1
 67
     0
278
    -2
288
     1
 68
     0
279
    -2
289
     1
 69
     0
  7
Standard
140
0.25
170
     5
 62
     0
 63
   257
283
     0
 90
        4
 91
        0
  1

274
    -2
284
     1
 64
     0
275
    -2
285
     1
 65
     0
276
    -2
286
     1
 66
     0
277
    -2
287
     1
 67
     0
278
    -2
288
     1
 68
     0
279
    -2
289
     1
 69
     0
  7
Standard
140
0.18
170
     5
 62
     0
 63
   257
283
     0
 90
        4
 91
        0
  1

274
    -2
284
     1
 64
     0
275
    -2
285
     1
 65
     0
276
    -2
286
     1
 66
     0
277
    -2
287
     1
 67
     0
278
    -2
288
     1
 68
     0
279
    -2
289
     1
 69
     0
  0
VISUALSTYLE
  5
2F
102
{ACAD_REACTORS
330
2A
102
}
330
2A
100
AcDbVisualStyle
  2
2dWireframe
 70
     4
177
     3
291
     0
 70
    58
 90
        0
176
     1
 90
        2
176
     1
 90
        0
176
     1
 90
        0
176
     1
 40
0.6
176
     1
 40
30.0
176
     1
 62
     7
420
 16777215
176
     1
 90
        1
176
     1
 90
        4
176
     1
 62
     7
176
     1
 62
   257
176
     1
 90
        1
176
     1
 90
        1
176
     1
 40
1.0
176
     1
 90
        0
176
     1
 62
   257
176
     1
 40
1.0
176
     1
 90
        1
176
     1
 90
        6
176
     1
 90
        2
176
     1
 62
     7
176
     1
 90
        5
176
     1
 90
        0
176
     1
 90
        0
176
     1
290
     0
176
     1
 90
        1
176
     1
 40
0.0
176
     1
 90
        0
176
     1
290
     1
176
     1
290
     1
176
     1
290
     0
176
     1
290
     0
176
     1
290
     0
176
     1
290
     0
176
     1
290
     0
176
     1
290
     0
176
     1
290
     0
176
     1
 90
       50
176
     1
 40
0.0
176
     1
 40
1.0
176
     1
 90
        0
176
     1
 62
    18
420
        0
176
     1
 90
       50
176
     1
 90
        3
176
     1
 62
     5
420
      255
176
     1
290
     0
176
     1
 90
       50
176
     1
 90
       50
176
     1
 90
       50
176
     1
290
     0
176
     1
 90
       50
176
     1
 62
   256
176
     0
 40
1.0
176
     0
 90
        2
176
     1
  1
strokes_ogs.tif
176
     1
290
     0
176
     1
 40
1.0
176
     1
 40
1.0
176
     1
  0
VISUALSTYLE
  5
32
102
{ACAD_REACTORS
330
2A
102
}
330
2A
100
AcDbVisualStyle
  2
Basic
 70
     7
177
     3
291
     1
 70
    58
 90
        1
176
     1
 90
        0
176
     1
 90
        1
176
     1
 90
        0
176
     1
 40
0.6
176
     1
 40
30.0
176
     1
 62
     7
420
 16777215
176
     1
 90
        0
176
     1
 90
        4
176
     1
 62
     7
176
     1
 62
   257
176
     1
 90
        1
176
     1
 90
        1
176
     1
 40
1.0
176
     1
 90
        8
176
     1
 62
     7
176
     1
 40
1.0
176
     1
 90
        1
176
     1
 90
        6
176
     1
 90
        2
176
     1
 62
     7
176
     1
 90
        5
176
     1
 90
        0
176
     1
 90
        0
176
     1
290
     0
176
     1
 90
        1
176
     1
 40
0.0
176
     1
 90
        0
176
     1
290
     0
176
     1
290
     1
176
     1
290
     1
176
     1
290
     0
176
     1
290
     0
176
     1
290
     0
176
     1
290
     0
176
     1
290
     0
176
     1
290
     0
176
     1
 90
       50
176
     1
 40
0.0
176
     1
 40
1.0
176
     1
 90
        0
176
     1
 62
    18
420
        0
176
     1
 90
       50
176
     1
 90
        3
176
     1
 62
     5
420
      255
176
     1
290
     0
176
     1
 90
       50
176
     1
 90
       50
176
     1
 90
       50
176
     1
290
     0
176
     1
 90
       50
176
     1
 62
   256
176
     0
 40
1.0
176
     0
 90
        2
176
     1
  1
strokes_ogs.tif
176
     1
290
     0
176
     1
 40
1.0
176
     1
 40
1.0
176
     1
  0
VISUALSTYLE
  5
36
102
{ACAD_REACTORS
330
2A
102
}
330
2A
100
AcDbVisualStyle
  2
Brighten
 70
    12
177
     3
291
     1
 70
    58
 90
        2
176
     1
 90
        2
176
     1
 90
        0
176
     1
 90
        0
176
     1
 40
0.6
176
     1
 40
30.0
176
     1
 62
     7
420
 16777215
176
     1
 90
        1
176
     1
 90
        4
176
     1
 62
     7
176
     1
 62
   257
176
     1
 90
        1
176
     1
 90
        1
176
     1
 40
1.0
176
     1
 90
        8
176
     1
 62
     7
176
     1
 40
1.0
176
     1
 90
        1
176
     1
 90
        6
176
     1
 90
        2
176
     1
 62
     7
176
     1
 90
        5
176
     1
 90
        0
176
     1
 90
        0
176
     1
290
     0
176
     1
 90
        1
176
     1
 40
50.0
176
     1
 90
        0
176
     1
290
     0
176
     1
290
     1
176
     1
290
     1
176
     1
290
     0
176
     1
290
     0
176
     1
290
     0
176
     1
290
     0
176
     1
290
     0
176
     1
290
     0
176
     1
 90
       50
176
     1
 40
0.0
176
     1
 40
1.0
176
     1
 90
        0
176
     1
 62
    18
420
        0
176
     1
 90
       50
176
     1
 90
        3
176
     1
 62
     5
420
      255
176
     1
290
     0
176
     1
 90
       50
176
     1
 90
       50
176
     1
 90
       50
176
     1
290
     0
176
     1
 90
       50
176
     1
 62
   256
176
     0
 40
1.0
176
     0
 90
        2
176
     1
  1
strokes_ogs.tif
176
     1
290
     0
176
     1
 40
1.0
176
     1
 40
1.0
176
     1
  0
VISUALSTYLE
  5
3A
102
{ACAD_REACTORS
330
2A
102
}
330
2A
100
AcDbVisualStyle
  2
ColorChange
 70
    16
177
     3
291
     1
 70
    58
 90
        2
176
     1
 90
        2
176
     1
 90
        3
176
     1
 90
        0
176
     1
 40
0.6
176
     1
 40
30.0
176
     1
 62
     8
420
  8421504
176
     1
 90
        1
176
     1
 90
        4
176
     1
 62
     7
176
     1
 62
   257
176
     1
 90
        1
176
     1
 90
        1
176
     1
 40
1.0
176
     1
 90
        8
176
     1
 62
     8
420
  8421504
176
     1
 40
1.0
176
     1
 90
        1
176
     1
 90
        6
176
     1
 90
        2
176
     1
 62
     7
176
     1
 90
        5
176
     1
 90
        0
176
     1
 90
        0
176
     1
290
     0
176
     1
 90
        1
176
     1
 40
0.0
176
     1
 90
        0
176
     1
290
     0
176
     1
290
     1
176
     1
290
     1
176
     1
290
     0
176
     1
290
     0
176
     1
290
     0
176
     1
290
     0
176
     1
290
     0
176
     1
290
     0
176
     1
 90
       50
176
     1
 40
0.0
176
     1
 40
1.0
176
     1
 90
        0
176
     1
 62
    18
420
        0
176
     1
 90
       50
176
     1
 90
        3
176
     1
 62
     5
420
      255
176
     1
290
     0
176
     1
 90
       50
176
     1
 90
       50
176
     1
 90
       50
176
     1
290
     0
176
     1
 90
       50
176
     1
 62
   256
176
     0
 40
1.0
176
     0
 90
        2
176
     1
  1
strokes_ogs.tif
176
     1
290
     0
176
     1
 40
1.0
176
     1
 40
1.0
176
     1
  0
VISUALSTYLE
  5
34
102
{ACAD_REACTORS
330
2A
102
}
330
2A
100
AcDbVisualStyle
  2
Conceptual
 70
     9
177
     3
291
     0
 70
    58
 90
        3
176
     1
 90
        2
176
     1
 90
        0
176
     1
 90
        0
176
     1
 40
0.6
176
     1
 40
30.0
176
     1
 62
     7
420
 16777215
176
     1
 90
        2
176
     1
 90
        2
176
     1
 62
     7
176
     1
 62
   257
176
     1
 90
        1
176
     1
 90
        1
176
     1
 40
179.0
176
     1
 90
        8
176
     1
 62
     7
176
     1
 40
1.0
176
     1
 90
        1
176
     1
 90
        6
176
     1
 90
        2
176
     1
 62
     7
176
     1
 90
        3
176
     1
 90
        0
176
     1
 90
        0
176
     1
290
     0
176
     1
 90
        1
176
     1
 40
0.0
176
     1
 90
        0
176
     1
290
     0
176
     1
290
     1
176
     1
290
     1
176
     1
290
     0
176
     1
290
     0
176
     1
290
     0
176
     1
290
     0
176
     1
290
     0
176
     1
290
     0
176
     1
 90
       50
176
     1
 40
0.0
176
     1
 40
1.0
176
     1
 90
        0
176
     1
 62
    18
420
        0
176
     1
 90
       50
176
     1
 90
        3
176
     1
 62
     5
420
      255
176
     1
290
     0
176
     1
 90
       50
176
     1
 90
       50
176
     1
 90
       50
176
     1
290
     0
176
     1
 90
       50
176
     1
 62
   256
176
     0
 40
1.0
176
     0
 90
        2
176
     1
  1
strokes_ogs.tif
176
     1
290
     0
176
     1
 40
1.0
176
     1
 40
1.0
176
     1
  0
VISUALSTYLE
  5
35
102
{ACAD_REACTORS
330
2A
102
}
330
2A
100
AcDbVisualStyle
  2
Dim
 70
    11
177
     3
291
     1
 70
    58
 90
        2
176
     1
 90
        2
176
     1
 90
        0
176
     1
 90
        0
176
     1
 40
0.6
176
     1
 40
30.0
176
     1
 62
     7
420
 16777215
176
     1
 90
        1
176
     1
 90
        4
176
     1
 62
     7
176
     1
 62
   257
176
     1
 90
        1
176
     1
 90
        1
176
     1
 40
1.0
176
     1
 90
        8
176
     1
 62
     7
176
     1
 40
1.0
176
     1
 90
        1
176
     1
 90
        6
176
     1
 90
        2
176
     1
 62
     7
176
     1
 90
        5
176
     1
 90
        0
176
     1
 90
        0
176
     1
290
     0
176
     1
 90
        1
176
     1
 40
-50.0
176
     1
 90
        0
176
     1
290
     0
176
     1
290
     1
176
     1
290
     1
176
     1
290
     0
176
     1
290
     0
176
     1
290
     0
176
     1
290
     0
176
     1
290
     0
176
     1
290
     0
176
     1
 90
       50
176
     1
 40
0.0
176
     1
 40
1.0
176
     1
 90
        0
176
     1
 62
    18
420
        0
176
     1
 90
       50
176
     1
 90
        3
176
     1
 62
     5
420
      255
176
     1
290
     0
176
     1
 90
       50
176
     1
 90
       50
176
     1
 90
       50
176
     1
290
     0
176
     1
 90
       50
176
     1
 62
   256
176
     0
 40
1.0
176
     0
 90
        2
176
     1
  1
strokes_ogs.tif
176
     1
290
     0
176
     1
 40
1.0
176
     1
 40
1.0
176
     1
  0
VISUALSTYLE
  5
3D
102
{ACAD_REACTORS
330
2A
102
}
330
2A
100
AcDbVisualStyle
  2
EdgeColorOff
 70
    22
177
     3
291
     1
 70
    58
 90
        2
176
     0
 90
        2
176
     0
 90
        0
176
     0
 90
        0
176
     0
 40
0.6
176
     0
 40
30.0
176
     0
 62
     7
420
 16777215
176
     0
 90
        1
176
     0
 90
        4
176
     0
 62
     7
176
     0
 62
   257
176
     0
 90
        1
176
     0
 90
        1
176
     0
 40
1.0
176
     0
 90
        8
176
     2
 62
     7
176
     0
 40
1.0
176
     0
 90
        1
176
     0
 90
        6
176
     0
 90
        2
176
     0
 62
     7
176
     0
 90
        5
176
     0
 90
        0
176
     0
 90
        0
176
     0
290
     0
176
     0
 90
        1
176
     0
 40
0.0
176
     0
 90
        0
176
     0
290
     0
176
     0
290
     1
176
     0
290
     1
176
     0
290
     0
176
     0
290
     0
176
     0
290
     0
176
     0
290
     0
176
     0
290
     0
176
     0
290
     0
176
     0
 90
       50
176
     0
 40
0.0
176
     0
 40
1.0
176
     0
 90
        0
176
     0
 62
    18
420
        0
176
     0
 90
       50
176
     0
 90
        3
176
     0
 62
     5
420
      255
176
     0
290
     0
176
     0
 90
       50
176
     0
 90
       50
176
     0
 90
       50
176
     0
290
     0
176
     0
 90
       50
176
     0
 62
   256
176
     0
 40
1.0
176
     0
 90
        2
176
     0
  1
strokes_ogs.tif
176
     0
290
     0
176
     0
 40
1.0
176
     0
 40
1.0
176
     0
  0
VISUALSTYLE
  5
39
102
{ACAD_REACTORS
330
2A
102
}
330
2A
100
AcDbVisualStyle
  2
Facepattern
 70
    15
177
     3
291
     1
 70
    58
 90
        2
176
     1
 90
        2
176
     1
 90
        0
176
     1
 90
        0
176
     1
 40
0.6
176
     1
 40
30.0
176
     1
 62
     7
420
 16777215
176
     1
 90
        1
176
     1
 90
        4
176
     1
 62
     7
176
     1
 62
   257
176
     1
 90
        1
176
     1
 90
        1
176
     1
 40
1.0
176
     1
 90
        8
176
     1
 62
     7
176
     1
 40
1.0
176
     1
 90
        1
176
     1
 90
        6
176
     1
 90
        2
176
     1
 62
     7
176
     1
 90
        5
176
     1
 90
        0
176
     1
 90
        0
176
     1
290
     0
176
     1
 90
        1
176
     1
 40
0.0
176
     1
 90
        0
176
     1
290
     0
176
     1
290
     1
176
     1
290
     1
176
     1
290
     0
176
     1
290
     0
176
     1
290
     0
176
     1
290
     0
176
     1
290
     0
176
     1
290
     0
176
     1
 90
       50
176
     1
 40
0.0
176
     1
 40
1.0
176
     1
 90
        0
176
     1
 62
    18
420
        0
176
     1
 90
       50
176
     1
 90
        3
176
     1
 62
     5
420
      255
176
     1
290
     0
176
     1
 90
       50
176
     1
 90
       50
176
     1
 90
       50
176
     1
290
     0
176
     1
 90
       50
176
     1
 62
   256
176
     0
 40
1.0
176
     0
 90
        2
176
     1
  1
strokes_ogs.tif
176
     1
290
     0
176
     1
 40
1.0
176
     1
 40
1.0
176
     1
  0
VISUALSTYLE
  5
2B
102
{ACAD_REACTORS
330
2A
102
}
330
2A
100
AcDbVisualStyle
  2
Flat
 70
     0
177
     3
291
     1
 70
    58
 90
        2
176
     1
 90
        1
176
     1
 90
        1
176
     1
 90
        2
176
     1
 40
0.6
176
     1
 40
30.0
176
     1
 62
     7
420
 16777215
176
     1
 90
        0
176
     1
 90
        0
176
     1
 62
     7
176
     1
 62
   257
176
     1
 90
        1
176
     1
 90
        1
176
     1
 40
1.0
176
     1
 90
        8
176
     1
 62
     7
176
     1
 40
1.0
176
     1
 90
        1
176
     1
 90
        6
176
     1
 90
        2
176
     1
 62
     7
176
     1
 90
        5
176
     1
 90
        0
176
     1
 90
        0
176
     1
290
     0
176
     1
 90
       13
176
     1
 40
0.0
176
     1
 90
        0
176
     1
290
     0
176
     1
290
     1
176
     1
290
     1
176
     1
290
     0
176
     1
290
     0
176
     1
290
     0
176
     1
290
     0
176
     1
290
     0
176
     1
290
     0
176
     1
 90
       50
176
     1
 40
0.0
176
     1
 40
1.0
176
     1
 90
        0
176
     1
 62
    18
420
        0
176
     1
 90
       50
176
     1
 90
        3
176
     1
 62
     5
420
      255
176
     1
290
     0
176
     1
 90
       50
176
     1
 90
       50
176
     1
 90
       50
176
     1
290
     0
176
     1
 90
       50
176
     1
 62
   256
176
     0
 40
1.0
176
     0
 90
        2
176
     1
  1
strokes_ogs.tif
176
     1
290
     0
176
     1
 40
1.0
176
     1
 40
1.0
176
     1
  0
VISUALSTYLE
  5
2C
102
{ACAD_REACTORS
330
2A
102
}
330
2A
100
AcDbVisualStyle
  2
FlatWithEdges
 70
     1
177
     3
291
     1
 70
    58
 90
        2
176
     1
 90
        1
176
     1
 90
        1
176
     1
 90
        2
176
     1
 40
0.6
176
     1
 40
30.0
176
     1
 62
     7
420
 16777215
176
     1
 90
        1
176
     1
 90
        0
176
     1
 62
     7
176
     1
 62
   257
176
     1
 90
        1
176
     1
 90
        1
176
     1
 40
1.0
176
     1
 90
        0
176
     1
 62
   257
176
     1
 40
1.0
176
     1
 90
        1
176
     1
 90
        6
176
     1
 90
        2
176
     1
 62
     7
176
     1
 90
        5
176
     1
 90
        0
176
     1
 90
        0
176
     1
290
     0
176
     1
 90
       13
176
     1
 40
0.0
176
     1
 90
        0
176
     1
290
     0
176
     1
290
     1
176
     1
290
     1
176
     1
290
     0
176
     1
290
     0
176
     1
290
     0
176
     1
290
     0
176
     1
290
     0
176
     1
290
     0
176
     1
 90
       50
176
     1
 40
0.0
176
     1
 40
1.0
176
     1
 90
        0
176
     1
 62
    18
420
        0
176
     1
 90
       50
176
     1
 90
        3
176
     1
 62
     5
420
      255
176
     1
290
     0
176
     1
 90
       50
176
     1
 90
       50
176
     1
 90
       50
176
     1
290
     0
176
     1
 90
       50
176
     1
 62
   256
176
     0
 40
1.0
176
     0
 90
        2
176
     1
  1
strokes_ogs.tif
176
     1
290
     0
176
     1
 40
1.0
176
     1
 40
1.0
176
     1
  0
VISUALSTYLE
  5
2D
102
{ACAD_REACTORS
330
2A
102
}
330
2A
100
AcDbVisualStyle
  2
Gouraud
 70
     2
177
     3
291
     1
 70
    58
 90
        2
176
     1
 90
        2
176
     1
 90
        1
176
     1
 90
        2
176
     1
 40
0.6
176
     1
 40
30.0
176
     1
 62
     7
420
 16777215
176
     1
 90
        0
176
     1
 90
        0
176
     1
 62
     7
176
     1
 62
   257
176
     1
 90
        1
176
     1
 90
        1
176
     1
 40
1.0
176
     1
 90
        0
176
     1
 62
     7
176
     1
 40
1.0
176
     1
 90
        1
176
     1
 90
        6
176
     1
 90
        2
176
     1
 62
     7
176
     1
 90
        5
176
     1
 90
        0
176
     1
 90
        0
176
     1
290
     0
176
     1
 90
       13
176
     1
 40
0.0
176
     1
 90
        0
176
     1
290
     0
176
     1
290
     1
176
     1
290
     1
176
     1
290
     0
176
     1
290
     0
176
     1
290
     0
176
     1
290
     0
176
     1
290
     0
176
     1
290
     0
176
     1
 90
       50
176
     1
 40
0.0
176
     1
 40
1.0
176
     1
 90
        0
176
     1
 62
    18
420
        0
176
     1
 90
       50
176
     1
 90
        3
176
     1
 62
     5
420
      255
176
     1
290
     0
176
     1
 90
       50
176
     1
 90
       50
176
     1
 90
       50
176
     1
290
     0
176
     1
 90
       50
176
     1
 62
   256
176
     0
 40
1.0
176
     0
 90
        2
176
     1
  1
strokes_ogs.tif
176
     1
290
     0
176
     1
 40
1.0
176
     1
 40
1.0
176
     1
  0
VISUALSTYLE
  5
2E
102
{ACAD_REACTORS
330
2A
102
}
330
2A
100
AcDbVisualStyle
  2
GouraudWithEdges
 70
     3
177
     3
291
     1
 70
    58
 90
        2
176
     1
 90
        2
176
     1
 90
        1
176
     1
 90
        2
176
     1
 40
0.6
176
     1
 40
30.0
176
     1
 62
     7
420
 16777215
176
     1
 90
        1
176
     1
 90
        0
176
     1
 62
     7
176
     1
 62
   257
176
     1
 90
        1
176
     1
 90
        1
176
     1
 40
1.0
176
     1
 90
        0
176
     1
 62
   257
176
     1
 40
1.0
176
     1
 90
        1
176
     1
 90
        6
176
     1
 90
        2
176
     1
 62
     7
176
     1
 90
        5
176
     1
 90
        0
176
     1
 90
        0
176
     1
290
     0
176
     1
 90
       13
176
     1
 40
0.0
176
     1
 90
        0
176
     1
290
     0
176
     1
290
     1
176
     1
290
     1
176
     1
290
     0
176
     1
290
     0
176
     1
290
     0
176
     1
290
     0
176
     1
290
     0
176
     1
290
     0
176
     1
 90
       50
176
     1
 40
0.0
176
     1
 40
1.0
176
     1
 90
        0
176
     1
 62
    18
420
        0
176
     1
 90
       50
176
     1
 90
        3
176
     1
 62
     5
420
      255
176
     1
290
     0
176
     1
 90
       50
176
     1
 90
       50
176
     1
 90
       50
176
     1
290
     0
176
     1
 90
       50
176
     1
 62
   256
176
     0
 40
1.0
176
     0
 90
        2
176
     1
  1
strokes_ogs.tif
176
     1
290
     0
176
     1
 40
1.0
176
     1
 40
1.0
176
     1
  0
VISUALSTYLE
  5
31
102
{ACAD_REACTORS
330
2A
102
}
330
2A
100
AcDbVisualStyle
  2
Hidden
 70
     6
177
     3
291
     0
 70
    58
 90
        1
176
     1
 90
        2
176
     1
 90
        2
176
     1
 90
        0
176
     1
 40
0.6
176
     1
 40
30.0
176
     1
 62
     7
420
 16777215
176
     1
 90
        2
176
     1
 90
        2
176
     1
 62
     7
176
     1
 62
   257
176
     1
 90
        2
176
     1
 90
        1
176
     1
 40
40.0
176
     1
 90
        0
176
     1
 62
   257
176
     1
 40
1.0
176
     1
 90
        1
176
     1
 90
        6
176
     1
 90
        2
176
     1
 62
     7
176
     1
 90
        3
176
     1
 90
        0
176
     1
 90
        0
176
     1
290
     0
176
     1
 90
        1
176
     1
 40
0.0
176
     1
 90
        0
176
     1
290
     0
176
     1
290
     1
176
     1
290
     1
176
     1
290
     0
176
     1
290
     0
176
     1
290
     0
176
     1
290
     0
176
     1
290
     0
176
     1
290
     0
176
     1
 90
       50
176
     1
 40
0.0
176
     1
 40
1.0
176
     1
 90
        0
176
     1
 62
    18
420
        0
176
     1
 90
       50
176
     1
 90
        3
176
     1
 62
     5
420
      255
176
     1
290
     0
176
     1
 90
       50
176
     1
 90
       50
176
     1
 90
       50
176
     1
290
     0
176
     1
 90
       50
176
     1
 62
   256
176
     0
 40
1.0
176
     0
 90
        2
176
     1
  1
strokes_ogs.tif
176
     1
290
     0
176
     1
 40
1.0
176
     1
 40
1.0
176
     1
  0
VISUALSTYLE
  5
3B
102
{ACAD_REACTORS
330
2A
102
}
330
2A
100
AcDbVisualStyle
  2
JitterOff
 70
    20
177
     3
291
     1
 70
    58
 90
        2
176
     0
 90
        2
176
     0
 90
        0
176
     0
 90
        0
176
     0
 40
0.6
176
     0
 40
30.0
176
     0
 62
     7
420
 16777215
176
     0
 90
        1
176
     0
 90
        4
176
     0
 62
     7
176
     0
 62
   257
176
     0
 90
        1
176
     0
 90
        1
176
     0
 40
1.0
176
     0
 90
       10
176
     2
 62
     7
176
     0
 40
1.0
176
     0
 90
        1
176
     0
 90
        6
176
     0
 90
        2
176
     0
 62
     7
176
     0
 90
        5
176
     0
 90
        0
176
     0
 90
        0
176
     0
290
     0
176
     0
 90
        1
176
     0
 40
0.0
176
     0
 90
        0
176
     0
290
     0
176
     0
290
     1
176
     0
290
     1
176
     0
290
     0
176
     0
290
     0
176
     0
290
     0
176
     0
290
     0
176
     0
290
     0
176
     0
290
     0
176
     0
 90
       50
176
     0
 40
0.0
176
     0
 40
1.0
176
     0
 90
        0
176
     0
 62
    18
420
        0
176
     0
 90
       50
176
     0
 90
        3
176
     0
 62
     5
420
      255
176
     0
290
     0
176
     0
 90
       50
176
     0
 90
       50
176
     0
 90
       50
176
     0
290
     0
176
     0
 90
       50
176
     0
 62
   256
176
     0
 40
1.0
176
     0
 90
        2
176
     0
  1
strokes_ogs.tif
176
     0
290
     0
176
     0
 40
1.0
176
     0
 40
1.0
176
     0
  0
VISUALSTYLE
  5
38
102
{ACAD_REACTORS
330
2A
102
}
330
2A
100
AcDbVisualStyle
  2
Linepattern
 70
    14
177
     3
291
     1
 70
    58
 90
        2
176
     1
 90
        2
176
     1
 90
        0
176
     1
 90
        0
176
     1
 40
0.6
176
     1
 40
30.0
176
     1
 62
     7
420
 16777215
176
     1
 90
        1
176
     1
 90
        4
176
     1
 62
     7
176
     1
 62
   257
176
     1
 90
        7
176
     1
 90
        7
176
     1
 40
1.0
176
     1
 90
        8
176
     1
 62
     7
176
     1
 40
1.0
176
     1
 90
        1
176
     1
 90
        6
176
     1
 90
        2
176
     1
 62
     7
176
     1
 90
        5
176
     1
 90
        0
176
     1
 90
        0
176
     1
290
     0
176
     1
 90
        1
176
     1
 40
0.0
176
     1
 90
        0
176
     1
290
     0
176
     1
290
     1
176
     1
290
     1
176
     1
290
     0
176
     1
290
     0
176
     1
290
     0
176
     1
290
     0
176
     1
290
     0
176
     1
290
     0
176
     1
 90
       50
176
     1
 40
0.0
176
     1
 40
1.0
176
     1
 90
        0
176
     1
 62
    18
420
        0
176
     1
 90
       50
176
     1
 90
        3
176
     1
 62
     5
420
      255
176
     1
290
     0
176
     1
 90
       50
176
     1
 90
       50
176
     1
 90
       50
176
     1
290
     0
176
     1
 90
       50
176
     1
 62
   256
176
     0
 40
1.0
176
     0
 90
        2
176
     1
  1
strokes_ogs.tif
176
     1
290
     0
176
     1
 40
1.0
176
     1
 40
1.0
176
     1
  0
VISUALSTYLE
  5
3C
102
{ACAD_REACTORS
330
2A
102
}
330
2A
100
AcDbVisualStyle
  2
OverhangOff
 70
    21
177
     3
291
     1
 70
    58
 90
        2
176
     0
 90
        2
176
     0
 90
        0
176
     0
 90
        0
176
     0
 40
0.6
176
     0
 40
30.0
176
     0
 62
     7
420
 16777215
176
     0
 90
        1
176
     0
 90
        4
176
     0
 62
     7
176
     0
 62
   257
176
     0
 90
        1
176
     0
 90
        1
176
     0
 40
1.0
176
     0
 90
        9
176
     2
 62
     7
176
     0
 40
1.0
176
     0
 90
        1
176
     0
 90
        6
176
     0
 90
        2
176
     0
 62
     7
176
     0
 90
        5
176
     0
 90
        0
176
     0
 90
        0
176
     0
290
     0
176
     0
 90
        1
176
     0
 40
0.0
176
     0
 90
        0
176
     0
290
     0
176
     0
290
     1
176
     0
290
     1
176
     0
290
     0
176
     0
290
     0
176
     0
290
     0
176
     0
290
     0
176
     0
290
     0
176
     0
290
     0
176
     0
 90
       50
176
     0
 40
0.0
176
     0
 40
1.0
176
     0
 90
        0
176
     0
 62
    18
420
        0
176
     0
 90
       50
176
     0
 90
        3
176
     0
 62
     5
420
      255
176
     0
290
     0
176
     0
 90
       50
176
     0
 90
       50
176
     0
 90
       50
176
     0
290
     0
176
     0
 90
       50
176
     0
 62
   256
176
     0
 40
1.0
176
     0
 90
        2
176
     0
  1
strokes_ogs.tif
176
     0
290
     0
176
     0
 40
1.0
176
     0
 40
1.0
176
     0
  0
VISUALSTYLE
  5
33
102
{ACAD_REACTORS
330
2A
102
}
330
2A
100
AcDbVisualStyle
  2
Realistic
 70
     8
177
     3
291
     0
 70
    58
 90
        2
176
     1
 90
        3
176
     1
 90
        0
176
     1
 90
        2
176
     1
 40
0.6
176
     1
 40
30.0
176
     1
 62
     7
420
 16777215
176
     1
 90
        0
176
     1
 90
        0
176
     1
 62
     7
176
     1
 62
   257
176
     1
 90
        1
176
     1
 90
        1
176
     1
 40
1.0
176
     1
 90
        8
176
     1
 62
   257
176
     1
 40
1.0
176
     1
 90
        1
176
     1
 90
        6
176
     1
 90
        2
176
     1
 62
     7
176
     1
 90
        3
176
     1
 90
        0
176
     1
 90
        0
176
     1
290
     0
176
     1
 90
       13
176
     1
 40
0.0
176
     1
 90
        0
176
     1
290
     0
176
     1
290
     1
176
     1
290
     1
176
     1
290
     0
176
     1
290
     0
176
     1
290
     0
176
     1
290
     0
176
     1
290
     0
176
     1
290
     0
176
     1
 90
       50
176
     1
 40
0.0
176
     1
 40
1.0
176
     1
 90
        0
176
     1
 62
    18
420
        0
176
     1
 90
       50
176
     1
 90
        3
176
     1
 62
     5
420
      255
176
     1
290
     0
176
     1
 90
       50
176
     1
 90
       50
176
     1
 90
       50
176
     1
290
     0
176
     1
 90
       50
176
     1
 62
   256
176
     0
 40
1.0
176
     0
 90
        2
176
     1
  1
strokes_ogs.tif
176
     1
290
     0
176
     1
 40
1.0
176
     1
 40
1.0
176
     1
  0
VISUALSTYLE
  5
42
102
{ACAD_REACTORS
330
2A
102
}
330
2A
100
AcDbVisualStyle
  2
Shaded
 70
    27
177
     3
291
     0
 70
    58
 90
        2
176
     1
 90
        2
176
     1
 90
        1
176
     1
 90
        2
176
     1
 40
0.6
176
     1
 40
30.0
176
     1
 62
     7
420
 16777215
176
     1
 90
        0
176
     1
 90
        4
176
     1
 62
     7
176
     1
 62
   257
176
     1
 90
        1
176
     1
 90
        1
176
     1
 40
1.0
176
     1
 90
        8
176
     1
 62
   257
176
     1
 40
1.0
176
     1
 90
        1
176
     1
 90
        6
176
     1
 90
        2
176
     1
 62
     8
420
  7895160
176
     1
 90
        3
176
     1
 90
        0
176
     1
 90
        0
176
     1
290
     0
176
     1
 90
        5
176
     1
 40
0.0
176
     1
 90
        0
176
     1
290
     0
176
     1
290
     1
176
     1
290
     1
176
     1
290
     0
176
     1
290
     0
176
     1
290
     0
176
     1
290
     0
176
     1
290
     0
176
     1
290
     0
176
     1
 90
       50
176
     1
 40
0.0
176
     1
 40
1.0
176
     1
 90
        0
176
     1
 62
    18
420
        0
176
     1
 90
       50
176
     1
 90
        3
176
     1
 62
     5
420
      255
176
     1
290
     0
176
     1
 90
       50
176
     1
 90
       50
176
     1
 90
       50
176
     1
290
     0
176
     1
 90
       50
176
     1
 62
   256
176
     0
 40
1.0
176
     0
 90
        2
176
     1
  1
strokes_ogs.tif
176
     1
290
     0
176
     1
 40
1.0
176
     1
 40
1.0
176
     1
  0
VISUALSTYLE
  5
41
102
{ACAD_REACTORS
330
2A
102
}
330
2A
100
AcDbVisualStyle
  2
Shaded with edges
 70
    26
177
     3
291
     0
 70
    58
 90
        2
176
     1
 90
        2
176
     1
 90
        1
176
     1
 90
        2
176
     1
 40
0.6
176
     1
 40
30.0
176
     1
 62
     7
420
 16777215
176
     1
 90
        1
176
     1
 90
       10
176
     1
 62
     7
176
     1
 62
   257
176
     1
 90
        2
176
     1
 90
        1
176
     1
 40
1.0
176
     1
 90
        8
176
     1
 62
   257
176
     1
 40
1.0
176
     1
 90
        1
176
     1
 90
        6
176
     1
 90
        2
176
     1
 62
     7
176
     1
 90
        3
176
     1
 90
        0
176
     1
 90
        0
176
     1
290
     0
176
     1
 90
        5
176
     1
 40
0.0
176
     1
 90
        0
176
     1
290
     0
176
     1
290
     1
176
     1
290
     1
176
     1
290
     0
176
     1
290
     0
176
     1
290
     0
176
     1
290
     0
176
     1
290
     0
176
     1
290
     0
176
     1
 90
       50
176
     1
 40
0.0
176
     1
 40
1.0
176
     1
 90
        0
176
     1
 62
    18
420
        0
176
     1
 90
       50
176
     1
 90
        3
176
     1
 62
     5
420
      255
176
     1
290
     0
176
     1
 90
       50
176
     1
 90
       50
176
     1
 90
       50
176
     1
290
     0
176
     1
 90
       50
176
     1
 62
   256
176
     0
 40
1.0
176
     0
 90
        2
176
     1
  1
strokes_ogs.tif
176
     1
290
     0
176
     1
 40
1.0
176
     1
 40
1.0
176
     1
  0
VISUALSTYLE
  5
3E
102
{ACAD_REACTORS
330
2A
102
}
330
2A
100
AcDbVisualStyle
  2
Shades of Gray
 70
    23
177
     3
291
     0
 70
    58
 90
        2
176
     1
 90
        2
176
     1
 90
        3
176
     1
 90
        0
176
     1
 40
0.6
176
     1
 40
30.0
176
     1
 62
     7
420
 16777215
176
     1
 90
        2
176
     1
 90
        2
176
     1
 62
     7
176
     1
 62
     7
176
     1
 90
        1
176
     1
 90
        1
176
     1
 40
40.0
176
     1
 90
        8
176
     1
 62
     7
176
     1
 40
1.0
176
     1
 90
        1
176
     1
 90
        6
176
     1
 90
        2
176
     1
 62
     7
176
     1
 90
        3
176
     1
 90
        0
176
     1
 90
        0
176
     1
290
     0
176
     1
 90
        1
176
     1
 40
0.0
176
     1
 90
        0
176
     1
290
     0
176
     1
290
     1
176
     1
290
     1
176
     1
290
     0
176
     1
290
     0
176
     1
290
     0
176
     1
290
     0
176
     1
290
     0
176
     1
290
     0
176
     1
 90
       50
176
     1
 40
0.0
176
     1
 40
1.0
176
     1
 90
        0
176
     1
 62
    18
420
        0
176
     1
 90
       50
176
     1
 90
        3
176
     1
 62
     5
420
      255
176
     1
290
     0
176
     1
 90
       50
176
     1
 90
       50
176
     1
 90
       50
176
     1
290
     0
176
     1
 90
       50
176
     1
 62
   256
176
     0
 40
1.0
176
     0
 90
        2
176
     1
  1
strokes_ogs.tif
176
     1
290
     0
176
     1
 40
1.0
176
     1
 40
1.0
176
     1
  0
VISUALSTYLE
  5
3F
102
{ACAD_REACTORS
330
2A
102
}
330
2A
100
AcDbVisualStyle
  2
Sketchy
 70
    24
177
     3
291
     0
 70
    58
 90
        1
176
     1
 90
        2
176
     1
 90
        2
176
     1
 90
        0
176
     1
 40
0.6
176
     1
 40
30.0
176
     1
 62
     7
420
 16777215
176
     1
 90
        2
176
     1
 90
        2
176
     1
 62
     7
176
     1
 62
     7
176
     1
 90
        1
176
     1
 90
        1
176
     1
 40
40.0
176
     1
 90
       11
176
     1
 62
     7
176
     1
 40
1.0
176
     1
 90
        1
176
     1
 90
        6
176
     1
 90
        2
176
     1
 62
     7
176
     1
 90
        6
176
     1
 90
        0
176
     1
 90
        0
176
     1
290
     0
176
     1
 90
        1
176
     1
 40
0.0
176
     1
 90
        0
176
     1
290
     0
176
     1
290
     1
176
     1
290
     1
176
     1
290
     0
176
     1
290
     0
176
     1
290
     0
176
     1
290
     0
176
     1
290
     0
176
     1
290
     0
176
     1
 90
       50
176
     1
 40
0.0
176
     1
 40
1.0
176
     1
 90
        0
176
     1
 62
    18
420
        0
176
     1
 90
       50
176
     1
 90
        3
176
     1
 62
     5
420
      255
176
     1
290
     0
176
     1
 90
       50
176
     1
 90
       50
176
     1
 90
       50
176
     1
290
     0
176
     1
 90
       50
176
     1
 62
   256
176
     0
 40
1.0
176
     0
 90
        2
176
     1
  1
strokes_ogs.tif
176
     1
290
     0
176
     1
 40
1.0
176
     1
 40
1.0
176
     1
  0
VISUALSTYLE
  5
37
102
{ACAD_REACTORS
330
2A
102
}
330
2A
100
AcDbVisualStyle
  2
Thicken
 70
    13
177
     3
291
     1
 70
    58
 90
        2
176
     1
 90
        2
176
     1
 90
        0
176
     1
 90
        0
176
     1
 40
0.6
176
     1
 40
30.0
176
     1
 62
     7
420
 16777215
176
     1
 90
        1
176
     1
 90
        4
176
     1
 62
     7
176
     1
 62
   257
176
     1
 90
        1
176
     1
 90
        1
176
     1
 40
1.0
176
     1
 90
       12
176
     1
 62
     7
176
     1
 40
1.0
176
     1
 90
        1
176
     1
 90
        6
176
     1
 90
        2
176
     1
 62
     7
176
     1
 90
        5
176
     1
 90
        0
176
     1
 90
        0
176
     1
290
     0
176
     1
 90
        1
176
     1
 40
0.0
176
     1
 90
        0
176
     1
290
     0
176
     1
290
     1
176
     1
290
     1
176
     1
290
     0
176
     1
290
     0
176
     1
290
     0
176
     1
290
     0
176
     1
290
     0
176
     1
290
     0
176
     1
 90
       50
176
     1
 40
0.0
176
     1
 40
1.0
176
     1
 90
        0
176
     1
 62
    18
420
        0
176
     1
 90
       50
176
     1
 90
        3
176
     1
 62
     5
420
      255
176
     1
290
     0
176
     1
 90
       50
176
     1
 90
       50
176
     1
 90
       50
176
     1
290
     0
176
     1
 90
       50
176
     1
 62
   256
176
     0
 40
1.0
176
     0
 90
        2
176
     1
  1
strokes_ogs.tif
176
     1
290
     0
176
     1
 40
1.0
176
     1
 40
1.0
176
     1
  0
VISUALSTYLE
  5
30
102
{ACAD_REACTORS
330
2A
102
}
330
2A
100
AcDbVisualStyle
  2
Wireframe
 70
     5
177
     3
291
     0
 70
    58
 90
        0
176
     1
 90
        2
176
     1
 90
        0
176
     1
 90
        0
176
     1
 40
0.6
176
     1
 40
30.0
176
     1
 62
     7
420
 16777215
176
     1
 90
        1
176
     1
 90
        4
176
     1
 62
     7
176
     1
 62
   257
176
     1
 90
        1
176
     1
 90
        1
176
     1
 40
1.0
176
     1
 90
        0
176
     1
 62
   257
176
     1
 40
1.0
176
     1
 90
        1
176
     1
 90
        6
176
     1
 90
        2
176
     1
 62
     7
176
     1
 90
        3
176
     1
 90
        0
176
     1
 90
        0
176
     1
290
     0
176
     1
 90
        1
176
     1
 40
0.0
176
     1
 90
        0
176
     1
290
     0
176
     1
290
     1
176
     1
290
     1
176
     1
290
     0
176
     1
290
     0
176
     1
290
     0
176
     1
290
     0
176
     1
290
     0
176
     1
290
     0
176
     1
 90
       50
176
     1
 40
0.0
176
     1
 40
1.0
176
     1
 90
        0
176
     1
 62
    18
420
        0
176
     1
 90
       50
176
     1
 90
        3
176
     1
 62
     5
420
      255
176
     1
290
     0
176
     1
 90
       50
176
     1
 90
       50
176
     1
 90
       50
176
     1
290
     0
176
     1
 90
       50
176
     1
 62
   256
176
     0
 40
1.0
176
     0
 90
        2
176
     1
  1
strokes_ogs.tif
176
     1
290
     0
176
     1
 40
1.0
176
     1
 40
1.0
176
     1
  0
VISUALSTYLE
  5
40
102
{ACAD_REACTORS
330
2A
102
}
330
2A
100
AcDbVisualStyle
  2
X-Ray
 70
    25
177
     3
291
     0
 70
    58
 90
        2
176
     1
 90
        2
176
     1
 90
        1
176
     1
 90
        1
176
     1
 40
0.5
176
     1
 40
30.0
176
     1
 62
     7
420
 16777215
176
     1
 90
        1
176
     1
 90
        0
176
     1
 62
     7
176
     1
 62
   257
176
     1
 90
        1
176
     1
 90
        1
176
     1
 40
1.0
176
     1
 90
        8
176
     1
 62
     7
176
     1
 40
1.0
176
     1
 90
        1
176
     1
 90
        6
176
     1
 90
        2
176
     1
 62
     7
176
     1
 90
        3
176
     1
 90
        0
176
     1
 90
        0
176
     1
290
     0
176
     1
 90
       13
176
     1
 40
0.0
176
     1
 90
        0
176
     1
290
     0
176
     1
290
     1
176
     1
290
     1
176
     1
290
     0
176
     1
290
     0
176
     1
290
     0
176
     1
290
     0
176
     1
290
     0
176
     1
290
     0
176
     1
 90
       50
176
     1
 40
0.0
176
     1
 40
1.0
176
     1
 90
        0
176
     1
 62
    18
420
        0
176
     1
 90
       50
176
     1
 90
        3
176
     1
 62
     5
420
      255
176
     1
290
     0
176
     1
 90
       50
176
     1
 90
       50
176
     1
 90
       50
176
     1
290
     0
176
     1
 90
       50
176
     1
 62
   256
176
     0
 40
1.0
176
     0
 90
        2
176
     1
  1
strokes_ogs.tif
176
     1
290
     0
176
     1
 40
1.0
176
     1
 40
1.0
176
     1
  0
DICTIONARYVAR
  5
192
102
{ACAD_REACTORS
330
191
102
}
330
191
100
DictionaryVariables
280
     0
  1
1:1
  0
DICTIONARYVAR
  5
197
102
{ACAD_REACTORS
330
191
102
}
330
191
100
DictionaryVariables
280
     0
  1
Standard
  0
DICTIONARYVAR
  5
196
102
{ACAD_REACTORS
330
191
102
}
330
191
100
DictionaryVariables
280
     0
  1
Standard
  0
DICTIONARY
  5
193
330
6A
100
AcDbDictionary
280
     1
281
     1
  3
ACAD_ROUNDTRIP_2008_TABLESTYLE_CELLSTYLEMAP
360
194
  0
CELLSTYLEMAP
  5
194
102
{ACAD_REACTORS
330
193
102
}
330
193
100
AcDbCellStyleMap
 90
        3
300
CELLSTYLE
  1
TABLEFORMAT_BEGIN
 90
        5
170
     1
 91
        0
 92
    32768
 62
   257
 93
        1
300
CONTENTFORMAT
  1
CONTENTFORMAT_BEGIN
 90
        0
 91
        0
 92
        4
 93
        0
300

 40
0.0
140
1.0
 94
        5
 62
     0
340
11
144
0.25
309
CONTENTFORMAT_END
171
     1
301
MARGIN
  1
CELLMARGIN_BEGIN
 40
0.06
 40
0.06
 40
0.06
 40
0.06
 40
0.06
 40
0.06
309
CELLMARGIN_END
 94
        6
 95
        1
302
GRIDFORMAT
  1
GRIDFORMAT_BEGIN
 90
        0
 91
        1
 62
     0
 92
       -2
340
14
 93
        0
 40
0.045
309
GRIDFORMAT_END
 95
        2
302
GRIDFORMAT
  1
GRIDFORMAT_BEGIN
 90
        0
 91
        1
 62
     0
 92
       -2
340
14
 93
        0
 40
0.045
309
GRIDFORMAT_END
 95
        4
302
GRIDFORMAT
  1
GRIDFORMAT_BEGIN
 90
        0
 91
        1
 62
     0
 92
       -2
340
14
 93
        0
 40
0.045
309
GRIDFORMAT_END
 95
        8
302
GRIDFORMAT
  1
GRIDFORMAT_BEGIN
 90
        0
 91
        1
 62
     0
 92
       -2
340
14
 93
        0
 40
0.045
309
GRIDFORMAT_END
 95
       16
302
GRIDFORMAT
  1
GRIDFORMAT_BEGIN
 90
        0
 91
        1
 62
     0
 92
       -2
340
14
 93
        0
 40
0.045
309
GRIDFORMAT_END
 95
       32
302
GRIDFORMAT
  1
GRIDFORMAT_BEGIN
 90
        0
 91
        1
 62
     0
 92
       -2
340
14
 93
        0
 40
0.045
309
GRIDFORMAT_END
309
TABLEFORMAT_END
  1
CELLSTYLE_BEGIN
 90
        1
 91
        1
300
_TITLE
309
CELLSTYLE_END
300
CELLSTYLE
  1
TABLEFORMAT_BEGIN
 90
        5
170
     1
 91
        0
 92
        0
 62
   257
 93
        1
300
CONTENTFORMAT
  1
CONTENTFORMAT_BEGIN
 90
        0
 91
        0
 92
        4
 93
        0
300

 40
0.0
140
1.0
 94
        5
 62
     0
340
11
144
0.18
309
CONTENTFORMAT_END
171
     1
301
MARGIN
  1
CELLMARGIN_BEGIN
 40
0.06
 40
0.06
 40
0.06
 40
0.06
 40
0.06
 40
0.06
309
CELLMARGIN_END
 94
        6
 95
        1
302
GRIDFORMAT
  1
GRIDFORMAT_BEGIN
 90
        0
 91
        1
 62
     0
 92
       -2
340
14
 93
        0
 40
0.045
309
GRIDFORMAT_END
 95
        2
302
GRIDFORMAT
  1
GRIDFORMAT_BEGIN
 90
        0
 91
        1
 62
     0
 92
       -2
340
14
 93
        0
 40
0.045
309
GRIDFORMAT_END
 95
        4
302
GRIDFORMAT
  1
GRIDFORMAT_BEGIN
 90
        0
 91
        1
 62
     0
 92
       -2
340
14
 93
        0
 40
0.045
309
GRIDFORMAT_END
 95
        8
302
GRIDFORMAT
  1
GRIDFORMAT_BEGIN
 90
        0
 91
        1
 62
     0
 92
       -2
340
14
 93
        0
 40
0.045
309
GRIDFORMAT_END
 95
       16
302
GRIDFORMAT
  1
GRIDFORMAT_BEGIN
 90
        0
 91
        1
 62
     0
 92
       -2
340
14
 93
        0
 40
0.045
309
GRIDFORMAT_END
 95
       32
302
GRIDFORMAT
  1
GRIDFORMAT_BEGIN
 90
        0
 91
        1
 62
     0
 92
       -2
340
14
 93
        0
 40
0.045
309
GRIDFORMAT_END
309
TABLEFORMAT_END
  1
CELLSTYLE_BEGIN
 90
        2
 91
        1
300
_HEADER
309
CELLSTYLE_END
300
CELLSTYLE
  1
TABLEFORMAT_BEGIN
 90
        5
170
     1
 91
        0
 92
        0
 62
   257
 93
        1
300
CONTENTFORMAT
  1
CONTENTFORMAT_BEGIN
 90
        0
 91
        0
 92
        4
 93
        0
300

 40
0.0
140
1.0
 94
        2
 62
     0
340
11
144
0.18
309
CONTENTFORMAT_END
171
     1
301
MARGIN
  1
CELLMARGIN_BEGIN
 40
0.06
 40
0.06
 40
0.06
 40
0.06
 40
0.06
 40
0.06
309
CELLMARGIN_END
 94
        6
 95
        1
302
GRIDFORMAT
  1
GRIDFORMAT_BEGIN
 90
        0
 91
        1
 62
     0
 92
       -2
340
14
 93
        0
 40
0.045
309
GRIDFORMAT_END
 95
        2
302
GRIDFORMAT
  1
GRIDFORMAT_BEGIN
 90
        0
 91
        1
 62
     0
 92
       -2
340
14
 93
        0
 40
0.045
309
GRIDFORMAT_END
 95
        4
302
GRIDFORMAT
  1
GRIDFORMAT_BEGIN
 90
        0
 91
        1
 62
     0
 92
       -2
340
14
 93
        0
 40
0.045
309
GRIDFORMAT_END
 95
        8
302
GRIDFORMAT
  1
GRIDFORMAT_BEGIN
 90
        0
 91
        1
 62
     0
 92
       -2
340
14
 93
        0
 40
0.045
309
GRIDFORMAT_END
 95
       16
302
GRIDFORMAT
  1
GRIDFORMAT_BEGIN
 90
        0
 91
        1
 62
     0
 92
       -2
340
14
 93
        0
 40
0.045
309
GRIDFORMAT_END
 95
       32
302
GRIDFORMAT
  1
GRIDFORMAT_BEGIN
 90
        0
 91
        1
 62
     0
 92
       -2
340
14
 93
        0
 40
0.045
309
GRIDFORMAT_END
309
TABLEFORMAT_END
  1
CELLSTYLE_BEGIN
 90
        3
 91
        2
300
_DATA
309
CELLSTYLE_END
  0
ENDSEC
  0
EOF