0
SECTION
  2
HEADER
  9
$ACADVER
  1
AC1027
  9
$ACADMAINTVER
 70
     8
  9
$DWGCODEPAGE
  3
ANSI_1252
  9
$REQUIREDVERSIONS
160
                 0
  9
$COMMENTS
  1
File was created by Cadenas
  9
$CUSTOMPROPERTYTAG
  1
NN
  9
$CUSTOMPROPERTY
  1
Set Screw Four-Bolt Flange Inch Bore
  9
$CUSTOMPROPERTYTAG
  1
NT
  9
$CUSTOMPROPERTY
  1
SC 4 Bolt Flange Bearings -(Normal Duty)
  9
$CUSTOMPROPERTYTAG
  1
NB
  9
$CUSTOMPROPERTY
  1
124099
  9
$CUSTOMPROPERTYTAG
  1
NBSYN
  9
$CUSTOMPROPERTY
  1
$PN.
  9
$CUSTOMPROPERTYTAG
  1
LINA
  9
$CUSTOMPROPERTY
  1
124099
  9
$CUSTOMPROPERTYTAG
  1
SERIES
  9
$CUSTOMPROPERTY
  1
204
  9
$CUSTOMPROPERTYTAG
  1
SS
  9
$CUSTOMPROPERTY
  1
5/8
  9
$CUSTOMPROPERTYTAG
  1
PN
  9
$CUSTOMPROPERTY
  1
124099
  9
$CUSTOMPROPERTYTAG
  1
DESCRIPTION
  9
$CUSTOMPROPERTY
  1
F4B-SC-010L
  9
$CUSTOMPROPERTYTAG
  1
WEIGHT
  9
$CUSTOMPROPERTY
  1
1.7
  9
$CUSTOMPROPERTYTAG
  1
LF
  9
$CUSTOMPROPERTY
  1
RE-LUBE
  9
$CUSTOMPROPERTYTAG
  1
A
  9
$CUSTOMPROPERTY
  1
1.23
  9
$CUSTOMPROPERTYTAG
  1
B
  9
$CUSTOMPROPERTY
  1
3.38
  9
$CUSTOMPROPERTYTAG
  1
C
  9
$CUSTOMPROPERTY
  1
1.34
  9
$CUSTOMPROPERTYTAG
  1
D
  9
$CUSTOMPROPERTY
  1
2.50
  9
$CUSTOMPROPERTYTAG
  1
F
  9
$CUSTOMPROPERTY
  1
3/8
  9
$CUSTOMPROPERTYTAG
  1
H
  9
$CUSTOMPROPERTY
  1
0.44
  9
$CUSTOMPROPERTYTAG
  1
J
  9
$CUSTOMPROPERTY
  1
0.36
  9
$CUSTOMPROPERTYTAG
  1
L
  9
$CUSTOMPROPERTY
  1
1.12
  9
$CUSTOMPROPERTYTAG
  1
N
  9
$CUSTOMPROPERTY
  1
1.94
  9
$CUSTOMPROPERTYTAG
  1
COMPANY
  9
$CUSTOMPROPERTY
  1
baldor
  9
$INSBASE
 10
0.0
 20
0.0
 30
0.0
  9
$EXTMIN
 10
1.000000000000000E+20
 20
1.000000000000000E+20
 30
1.000000000000000E+20
  9
$EXTMAX
 10
-1.000000000000000E+20
 20
-1.000000000000000E+20
 30
-1.000000000000000E+20
  9
$LIMMIN
 10
0.0
 20
0.0
  9
$LIMMAX
 10
12.0
 20
9.0
  9
$ORTHOMODE
 70
     0
  9
$REGENMODE
 70
     1
  9
$FILLMODE
 70
     1
  9
$QTEXTMODE
 70
     0
  9
$MIRRTEXT
 70
     1
  9
$LTSCALE
 40
1.0
  9
$ATTMODE
 70
     1
  9
$TEXTSIZE
 40
0.2
  9
$TRACEWID
 40
0.05
  9
$TEXTSTYLE
  7
Standard
  9
$CLAYER
  8
0
  9
$CELTYPE
  6
ByLayer
  9
$CECOLOR
 62
   256
  9
$CELTSCALE
 40
1.0
  9
$DISPSILH
 70
     0
  9
$DIMSCALE
 40
1.0
  9
$DIMASZ
 40
0.18
  9
$DIMEXO
 40
0.0625
  9
$DIMDLI
 40
0.38
  9
$DIMRND
 40
0.0
  9
$DIMDLE
 40
0.0
  9
$DIMEXE
 40
0.18
  9
$DIMTP
 40
0.0
  9
$DIMTM
 40
0.0
  9
$DIMTXT
 40
0.18
  9
$DIMCEN
 40
0.09
  9
$DIMTSZ
 40
0.0
  9
$DIMTOL
 70
     0
  9
$DIMLIM
 70
     0
  9
$DIMTIH
 70
     1
  9
$DIMTOH
 70
     1
  9
$DIMSE1
 70
     0
  9
$DIMSE2
 70
     0
  9
$DIMTAD
 70
     0
  9
$DIMZIN
 70
     0
  9
$DIMBLK
  1

  9
$DIMASO
 70
     1
  9
$DIMSHO
 70
     1
  9
$DIMPOST
  1

  9
$DIMAPOST
  1

  9
$DIMALT
 70
     0
  9
$DIMALTD
 70
     2
  9
$DIMALTF
 40
25.4
  9
$DIMLFAC
 40
1.0
  9
$DIMTOFL
 70
     0
  9
$DIMTVP
 40
0.0
  9
$DIMTIX
 70
     0
  9
$DIMSOXD
 70
     0
  9
$DIMSAH
 70
     0
  9
$DIMBLK1
  1

  9
$DIMBLK2
  1

  9
$DIMSTYLE
  2
Standard
  9
$DIMCLRD
 70
     0
  9
$DIMCLRE
 70
     0
  9
$DIMCLRT
 70
     0
  9
$DIMTFAC
 40
1.0
  9
$DIMGAP
 40
0.09
  9
$DIMJUST
 70
     0
  9
$DIMSD1
 70
     0
  9
$DIMSD2
 70
     0
  9
$DIMTOLJ
 70
     1
  9
$DIMTZIN
 70
     0
  9
$DIMALTZ
 70
     0
  9
$DIMALTTZ
 70
     0
  9
$DIMUPT
 70
     0
  9
$DIMDEC
 70
     4
  9
$DIMTDEC
 70
     4
  9
$DIMALTU
 70
     2
  9
$DIMALTTD
 70
     2
  9
$DIMTXSTY
  7
Standard
  9
$DIMAUNIT
 70
     0
  9
$DIMADEC
 70
     0
  9
$DIMALTRND
 40
0.0
  9
$DIMAZIN
 70
     0
  9
$DIMDSEP
 70
    46
  9
$DIMATFIT
 70
     3
  9
$DIMFRAC
 70
     0
  9
$DIMLDRBLK
  1

  9
$DIMLUNIT
 70
     2
  9
$DIMLWD
 70
    -2
  9
$DIMLWE
 70
    -2
  9
$DIMTMOVE
 70
     0
  9
$DIMFXL
 40
1.0
  9
$DIMFXLON
 70
     0
  9
$DIMJOGANG
 40
0.7853981633974483
  9
$DIMTFILL
 70
     0
  9
$DIMTFILLCLR
 70
     0
  9
$DIMARCSYM
 70
     0
  9
$DIMLTYPE
  6

  9
$DIMLTEX1
  6

  9
$DIMLTEX2
  6

  9
$DIMTXTDIRECTION
 70
     0
  9
$LUNITS
 70
     2
  9
$LUPREC
 70
     4
  9
$SKETCHINC
 40
0.1
  9
$FILLETRAD
 40
0.5
  9
$AUNITS
 70
     0
  9
$AUPREC
 70
     0
  9
$MENU
  1
.
  9
$ELEVATION
 40
0.0
  9
$PELEVATION
 40
0.0
  9
$THICKNESS
 40
0.0
  9
$LIMCHECK
 70
     0
  9
$CHAMFERA
 40
0.0
  9
$CHAMFERB
 40
0.0
  9
$CHAMFERC
 40
0.0
  9
$CHAMFERD
 40
0.0
  9
$SKPOLY
 70
     0
  9
$TDCREATE
 40
2458168.978818715
  9
$TDUCREATE
 40
2458168.937152049
  9
$TDUPDATE
 40
2458168.978818715
  9
$TDUUPDATE
 40
2458168.937152049
  9
$TDINDWG
 40
0.0000000116
  9
$TDUSRTIMER
 40
0.0000000116
  9
$USRTIMER
 70
     1
  9
$ANGBASE
 50
0.0
  9
$ANGDIR
 70
     0
  9
$PDMODE
 70
     0
  9
$PDSIZE
 40
0.0
  9
$PLINEWID
 40
0.0
  9
$SPLFRAME
 70
     0
  9
$SPLINETYPE
 70
     6
  9
$SPLINESEGS
 70
     8
  9
$HANDSEED
  5
180
  9
$SURFTAB1
 70
     6
  9
$SURFTAB2
 70
     6
  9
$SURFTYPE
 70
     6
  9
$SURFU
 70
     6
  9
$SURFV
 70
     6
  9
$UCSBASE
  2

  9
$UCSNAME
  2

  9
$UCSORG
 10
0.0
 20
0.0
 30
0.0
  9
$UCSXDIR
 10
1.0
 20
0.0
 30
0.0
  9
$UCSYDIR
 10
0.0
 20
1.0
 30
0.0
  9
$UCSORTHOREF
  2

  9
$UCSORTHOVIEW
 70
     0
  9
$UCSORGTOP
 10
0.0
 20
0.0
 30
0.0
  9
$UCSORGBOTTOM
 10
0.0
 20
0.0
 30
0.0
  9
$UCSORGLEFT
 10
0.0
 20
0.0
 30
0.0
  9
$UCSORGRIGHT
 10
0.0
 20
0.0
 30
0.0
  9
$UCSORGFRONT
 10
0.0
 20
0.0
 30
0.0
  9
$UCSORGBACK
 10
0.0
 20
0.0
 30
0.0
  9
$PUCSBASE
  2

  9
$PUCSNAME
  2

  9
$PUCSORG
 10
0.0
 20
0.0
 30
0.0
  9
$PUCSXDIR
 10
1.0
 20
0.0
 30
0.0
  9
$PUCSYDIR
 10
0.0
 20
1.0
 30
0.0
  9
$PUCSORTHOREF
  2

  9
$PUCSORTHOVIEW
 70
     0
  9
$PUCSORGTOP
 10
0.0
 20
0.0
 30
0.0
  9
$PUCSORGBOTTOM
 10
0.0
 20
0.0
 30
0.0
  9
$PUCSORGLEFT
 10
0.0
 20
0.0
 30
0.0
  9
$PUCSORGRIGHT
 10
0.0
 20
0.0
 30
0.0
  9
$PUCSORGFRONT
 10
0.0
 20
0.0
 30
0.0
  9
$PUCSORGBACK
 10
0.0
 20
0.0
 30
0.0
  9
$USERI1
 70
     0
  9
$USERI2
 70
     0
  9
$USERI3
 70
     0
  9
$USERI4
 70
     0
  9
$USERI5
 70
     0
  9
$USERR1
 40
0.0
  9
$USERR2
 40
0.0
  9
$USERR3
 40
0.0
  9
$USERR4
 40
0.0
  9
$USERR5
 40
0.0
  9
$WORLDVIEW
 70
     1
  9
$SHADEDGE
 70
     3
  9
$SHADEDIF
 70
    70
  9
$TILEMODE
 70
     1
  9
$MAXACTVP
 70
    64
  9
$PINSBASE
 10
0.0
 20
0.0
 30
0.0
  9
$PLIMCHECK
 70
     0
  9
$PEXTMIN
 10
1.000000000000000E+20
 20
1.000000000000000E+20
 30
1.000000000000000E+20
  9
$PEXTMAX
 10
-1.000000000000000E+20
 20
-1.000000000000000E+20
 30
-1.000000000000000E+20
  9
$PLIMMIN
 10
0.0
 20
0.0
  9
$PLIMMAX
 10
12.0
 20
9.0
  9
$UNITMODE
 70
     0
  9
$VISRETAIN
 70
     1
  9
$PLINEGEN
 70
     0
  9
$PSLTSCALE
 70
     1
  9
$TREEDEPTH
 70
  3020
  9
$CMLSTYLE
  2
Standard
  9
$CMLJUST
 70
     0
  9
$CMLSCALE
 40
1.0
  9
$PROXYGRAPHICS
 70
     1
  9
$MEASUREMENT
 70
     0
  9
$CELWEIGHT
370
    -1
  9
$ENDCAPS
280
     0
  9
$JOINSTYLE
280
     0
  9
$LWDISPLAY
290
     0
  9
$INSUNITS
 70
     1
  9
$HYPERLINKBASE
  1

  9
$STYLESHEET
  1

  9
$XEDIT
290
     1
  9
$CEPSNTYPE
380
     0
  9
$PSTYLEMODE
290
     1
  9
$FINGERPRINTGUID
  2
{2508F0EA-9F84-41E5-8B5C-ACD9F540AA84}
  9
$VERSIONGUID
  2
{FAEB1C32-E019-11D5-929B-00C0DF256EC4}
  9
$EXTNAMES
290
     1
  9
$PSVPSCALE
 40
0.0
  9
$OLESTARTUP
290
     0
  9
$SORTENTS
280
   127
  9
$INDEXCTL
280
     0
  9
$HIDETEXT
280
     1
  9
$XCLIPFRAME
280
     2
  9
$HALOGAP
280
     0
  9
$OBSCOLOR
 70
   257
  9
$OBSLTYPE
280
     0
  9
$INTERSECTIONDISPLAY
280
     0
  9
$INTERSECTIONCOLOR
 70
   257
  9
$DIMASSOC
280
     2
  9
$PROJECTNAME
  1

  9
$CAMERADISPLAY
290
     0
  9
$LENSLENGTH
 40
50.0
  9
$CAMERAHEIGHT
 40
0.0
  9
$STEPSPERSEC
 40
2.0
  9
$STEPSIZE
 40
6.0
  9
$3DDWFPREC
 40
2.0
  9
$PSOLWIDTH
 40
0.25
  9
$PSOLHEIGHT
 40
4.0
  9
$LOFTANG1
 40
1.570796326794897
  9
$LOFTANG2
 40
1.570796326794897
  9
$LOFTMAG1
 40
0.0
  9
$LOFTMAG2
 40
0.0
  9
$LOFTPARAM
 70
     7
  9
$LOFTNORMALS
280
     1
  9
$LATITUDE
 40
37.795
  9
$LONGITUDE
 40
-122.394
  9
$NORTHDIRECTION
 40
0.0
  9
$TIMEZONE
 70
 -8000
  9
$LIGHTGLYPHDISPLAY
280
     1
  9
$TILEMODELIGHTSYNCH
280
     1
  9
$CMATERIAL
347
44
  9
$SOLIDHIST
280
     0
  9
$SHOWHIST
280
     1
  9
$DWFFRAME
280
     2
  9
$DGNFRAME
280
     2
  9
$REALWORLDSCALE
290
     1
  9
$INTERFERECOLOR
 62
   256
  9
$CSHADOW
280
     0
  9
$SHADOWPLANELOCATION
 40
0.0
  0
ENDSEC
  0
SECTION
  2
CLASSES
  0
CLASS
  1
ACDBDICTIONARYWDFLT
  2
AcDbDictionaryWithDefault
  3
ObjectDBX Classes
 90
        0
 91
        4
280
     0
281
     0
  0
CLASS
  1
VISUALSTYLE
  2
AcDbVisualStyle
  3
ObjectDBX Classes
 90
     4095
 91
        4
280
     0
281
     0
  0
CLASS
  1
MATERIAL
  2
AcDbMaterial
  3
ObjectDBX Classes
 90
     1153
 91
        4
280
     0
281
     0
  0
CLASS
  1
SCALE
  2
AcDbScale
  3
ObjectDBX Classes
 90
     1153
 91
        4
280
     0
281
     0
  0
CLASS
  1
TABLESTYLE
  2
AcDbTableStyle
  3
ObjectDBX Classes
 90
     4095
 91
        4
280
     0
281
     0
  0
CLASS
  1
MLEADERSTYLE
  2
AcDbMLeaderStyle
  3
ACDB_MLEADERSTYLE_CLASS
 90
     4095
 91
        4
280
     0
281
     0
  0
CLASS
  1
SUN
  2
AcDbSun
  3
SCENEOE
 90
     1153
 91
        4
280
     0
281
     0
  0
CLASS
  1
DICTIONARYVAR
  2
AcDbDictionaryVar
  3
ObjectDBX Classes
 90
        0
 91
        4
280
     0
281
     0
  0
CLASS
  1
CELLSTYLEMAP
  2
AcDbCellStyleMap
  3
ObjectDBX Classes
 90
     1152
 91
        4
280
     0
281
     0
  0
ENDSEC
  0
SECTION
  2
TABLES
  0
TABLE
  2
VPORT
  5
8
330
0
100
AcDbSymbolTable
 70
     1
  0
VPORT
  5
29
330
8
100
AcDbSymbolTableRecord
100
AcDbViewportTableRecord
  2
*Active
 70
     0
 10
0.0
 20
0.0
 11
1.0
 21
1.0
 12
-0.6762499999999996
 22
0.141
 13
0.0
 23
0.0
 14
0.5
 24
0.5
 15
0.5
 25
0.5
 16
0.0
 26
0.0
 36
1.0
 17
0.0
 27
0.0
 37
0.0
 40
3.735239999999999
 41
0.39609503003823
 42
50.0
 43
0.0
 44
0.0
 50
0.0
 51
0.0
 71
     0
 72
   100
 73
     1
 74
     3
 75
     0
 76
     0
 77
     0
 78
     0
281
     0
 65
     1
110
0.0
120
0.0
130
0.0
111
1.0
121
0.0
131
0.0
112
0.0
122
1.0
132
0.0
 79
     0
146
0.0
348
2F
 60
     3
 61
     5
292
     1
282
     1
141
0.0
142
0.0
 63
   250
361
6D
  0
ENDTAB
  0
TABLE
  2
LTYPE
  5
5
330
0
100
AcDbSymbolTable
 70
     3
  0
LTYPE
  5
14
330
5
100
AcDbSymbolTableRecord
100
AcDbLinetypeTableRecord
  2
ByBlock
 70
     0
  3

 72
    65
 73
     0
 40
0.0
  0
LTYPE
  5
15
330
5
100
AcDbSymbolTableRecord
100
AcDbLinetypeTableRecord
  2
ByLayer
 70
     0
  3

 72
    65
 73
     0
 40
0.0
  0
LTYPE
  5
16
330
5
100
AcDbSymbolTableRecord
100
AcDbLinetypeTableRecord
  2
Continuous
 70
     0
  3
Solid line
 72
    65
 73
     0
 40
0.0
  0
LTYPE
  5
94
330
5
100
AcDbSymbolTableRecord
100
AcDbLinetypeTableRecord
  2
Dashed
 70
     0
  3

 72
    65
 73
     2
 40
2.0
 49
1.0
 74
     0
 49
-1.0
 74
     0
  0
LTYPE
  5
A9
330
5
100
AcDbSymbolTableRecord
100
AcDbLinetypeTableRecord
  2
Center
 70
     0
  3

 72
    65
 73
     4
 40
1.5
 49
0.45
 74
     0
 49
-0.5
 74
     0
 49
0.05
 74
     0
 49
-0.5
 74
     0
  0
ENDTAB
  0
TABLE
  2
LAYER
  5
2
330
0
100
AcDbSymbolTable
 70
     7
  0
LAYER
  5
10
330
2
100
AcDbSymbolTableRecord
100
AcDbLayerTableRecord
  2
0
 70
     0
 62
     7
  6
Continuous
370
    -3
390
F
347
46
348
0
  0
LAYER
  5
72
330
2
100
AcDbSymbolTableRecord
100
AcDbLayerTableRecord
  2
AM_6
 70
     0
 62
    -2
  6
Continuous
370
    35
390
F
347
46
348
0
  0
LAYER
  5
95
330
2
100
AcDbSymbolTableRecord
100
AcDbLayerTableRecord
  2
AM_9
 70
     0
 62
     6
  6
Dashed
370
    25
390
F
347
46
348
0
  0
LAYER
  5
A3
330
2
100
AcDbSymbolTableRecord
100
AcDbLayerTableRecord
  2
AM_5
 70
     0
 62
     3
  6
Continuous
370
    25
390
F
347
46
348
0
  0
LAYER
  5
AA
330
2
100
AcDbSymbolTableRecord
100
AcDbLayerTableRecord
  2
AM_7
 70
     0
 62
     7
  6
Center
370
    25
390
F
347
46
348
0
  0
LAYER
  5
AC
330
2
100
AcDbSymbolTableRecord
100
AcDbLayerTableRecord
  2
AM_4
 70
     0
 62
     7
  6
Continuous
370
    50
390
F
347
46
348
0
  0
LAYER
  5
172
330
2
100
AcDbSymbolTableRecord
100
AcDbLayerTableRecord
  2
ConnectionPoints
 70
     0
 62
     7
  6
Continuous
370
    50
390
F
347
46
348
0
  0
ENDTAB
  0
TABLE
  2
STYLE
  5
3
330
0
100
AcDbSymbolTable
 70
     1
  0
STYLE
  5
11
330
3
100
AcDbSymbolTableRecord
100
AcDbTextStyleTableRecord
  2
Standard
 70
     0
 40
0.0
 41
1.0
 50
0.0
 71
     0
 42
0.2
  3
txt
  4

  0
ENDTAB
  0
TABLE
  2
VIEW
  5
6
330
0
100
AcDbSymbolTable
 70
     0
  0
ENDTAB
  0
TABLE
  2
UCS
  5
7
330
0
100
AcDbSymbolTable
 70
     0
  0
ENDTAB
  0
TABLE
  2
APPID
  5
9
330
0
100
AcDbSymbolTable
 70
     1
  0
APPID
  5
12
330
9
100
AcDbSymbolTableRecord
100
AcDbRegAppTableRecord
  2
ACAD
 70
     0
  0
ENDTAB
  0
TABLE
  2
DIMSTYLE
  5
A
330
0
100
AcDbSymbolTable
 70
     1
100
AcDbDimStyleTable
  0
DIMSTYLE
105
27
330
A
100
AcDbSymbolTableRecord
100
AcDbDimStyleTableRecord
  2
Standard
 70
     0
178
     0
340
11
  0
ENDTAB
  0
TABLE
  2
BLOCK_RECORD
  5
1
330
0
100
AcDbSymbolTable
 70
     5
  0
BLOCK_RECORD
  5
1F
330
1
100
AcDbSymbolTableRecord
100
AcDbBlockTableRecord
  2
*Model_Space
340
22
 70
     0
280
     1
281
     0
  0
BLOCK_RECORD
  5
1B
330
1
100
AcDbSymbolTableRecord
100
AcDbBlockTableRecord
  2
*Paper_Space
340
1E
 70
     0
280
     1
281
     0
  0
BLOCK_RECORD
  5
23
330
1
100
AcDbSymbolTableRecord
100
AcDbBlockTableRecord
  2
*Paper_Space0
340
26
 70
     0
280
     1
281
     0
  0
BLOCK_RECORD
  5
6E
330
1
100
AcDbSymbolTableRecord
100
AcDbBlockTableRecord
  2
1_124099_2
340
0
102
{BLKREFS
331
6F
102
}
 70
     0
280
     1
281
     0
  0
BLOCK_RECORD
  5
88
330
1
100
AcDbSymbolTableRecord
100
AcDbBlockTableRecord
  2
2_405015E_Inch_0_in_124099_2
340
0
102
{BLKREFS
331
89
102
}
 70
     0
280
     1
281
     0
  0
BLOCK_RECORD
  5
C9
330
1
100
AcDbSymbolTableRecord
100
AcDbBlockTableRecord
  2
3_123331_0_in_124099_2
340
0
102
{BLKREFS
331
CA
102
}
 70
     0
280
     1
281
     0
  0
BLOCK_RECORD
  5
121
330
1
100
AcDbSymbolTableRecord
100
AcDbBlockTableRecord
  2
4_124099H_0_in_124099_2
340
0
102
{BLKREFS
331
122
102
}
 70
     0
280
     1
281
     0
  0
ENDTAB
  0
ENDSEC
  0
SECTION
  2
BLOCKS
  0
BLOCK
  5
20
330
1F
100
AcDbEntity
  8
0
100
AcDbBlockBegin
  2
*Model_Space
 70
     0
 10
0.0
 20
0.0
 30
0.0
  3
*Model_Space
  1

  0
ENDBLK
  5
21
330
1F
100
AcDbEntity
  8
0
100
AcDbBlockEnd
  0
BLOCK
  5
1C
330
1B
100
AcDbEntity
 67
     1
  8
0
100
AcDbBlockBegin
  2
*Paper_Space
 70
     0
 10
0.0
 20
0.0
 30
0.0
  3
*Paper_Space
  1

  0
ENDBLK
  5
1D
330
1B
100
AcDbEntity
 67
     1
  8
0
100
AcDbBlockEnd
  0
BLOCK
  5
24
330
23
100
AcDbEntity
  8
0
100
AcDbBlockBegin
  2
*Paper_Space0
 70
     0
 10
0.0
 20
0.0
 30
0.0
  3
*Paper_Space0
  1

  0
ENDBLK
  5
25
330
23
100
AcDbEntity
  8
0
100
AcDbBlockEnd
  0
BLOCK
  5
70
330
6E
100
AcDbEntity
  8
0
100
AcDbBlockBegin
  2
1_124099_2
 70
     2
 10
0.0
 20
0.0
 30
0.0
  3
1_124099_2
  1

  0
ATTDEF
  5
73
330
6E
100
AcDbEntity
  8
AM_6
100
AcDbText
 10
5.048999999999999
 20
1.972
 30
0.0
 40
0.5
  1
Set Screw Four-Bolt Flange Inch Bore
100
AcDbAttributeDefinition
  3

  2
NN
 70
     8
280
     0
  0
ATTDEF
  5
74
330
6E
100
AcDbEntity
  8
AM_6
100
AcDbText
 10
5.048999999999999
 20
1.472
 30
0.0
 40
0.5
  1
SC 4 Bolt Flange Bearings -(Normal Duty)
100
AcDbAttributeDefinition
  3

  2
NT
 70
     8
280
     0
  0
ATTDEF
  5
75
330
6E
100
AcDbEntity
  8
AM_6
100
AcDbText
 10
5.048999999999999
 20
0.9719999999999998
 30
0.0
 40
0.5
  1
124099
100
AcDbAttributeDefinition
  3

  2
NB
 70
     8
280
     0
  0
ATTDEF
  5
76
330
6E
100
AcDbEntity
  8
AM_6
100
AcDbText
 10
5.048999999999999
 20
0.4719999999999998
 30
0.0
 40
0.5
  1
$PN.
100
AcDbAttributeDefinition
  3

  2
NBSYN
 70
     8
280
     0
  0
ATTDEF
  5
77
330
6E
100
AcDbEntity
  8
AM_6
100
AcDbText
 10
5.048999999999999
 20
-0.0280000000000002
 30
0.0
 40
0.5
  1
124099
100
AcDbAttributeDefinition
  3

  2
LINA
 70
     8
280
     0
  0
ATTDEF
  5
78
330
6E
100
AcDbEntity
  8
AM_6
100
AcDbText
 10
5.048999999999999
 20
-0.5280000000000002
 30
0.0
 40
0.5
  1
204
100
AcDbAttributeDefinition
  3

  2
SERIES
 70
     8
280
     0
  0
ATTDEF
  5
79
330
6E
100
AcDbEntity
  8
AM_6
100
AcDbText
 10
5.048999999999999
 20
-1.028
 30
0.0
 40
0.5
  1
5/8
100
AcDbAttributeDefinition
  3

  2
SS
 70
     8
280
     0
  0
ATTDEF
  5
7A
330
6E
100
AcDbEntity
  8
AM_6
100
AcDbText
 10
5.048999999999999
 20
-1.528
 30
0.0
 40
0.5
  1
124099
100
AcDbAttributeDefinition
  3

  2
PN
 70
     8
280
     0
  0
ATTDEF
  5
7B
330
6E
100
AcDbEntity
  8
AM_6
100
AcDbText
 10
5.048999999999999
 20
-2.028
 30
0.0
 40
0.5
  1
F4B-SC-010L
100
AcDbAttributeDefinition
  3

  2
DESCRIPTION
 70
     8
280
     0
  0
ATTDEF
  5
7C
330
6E
100
AcDbEntity
  8
AM_6
100
AcDbText
 10
5.048999999999999
 20
-2.528
 30
0.0
 40
0.5
  1
1.7
100
AcDbAttributeDefinition
  3

  2
WEIGHT
 70
     8
280
     0
  0
ATTDEF
  5
7D
330
6E
100
AcDbEntity
  8
AM_6
100
AcDbText
 10
5.048999999999999
 20
-3.028
 30
0.0
 40
0.5
  1
RE-LUBE
100
AcDbAttributeDefinition
  3

  2
LF
 70
     8
280
     0
  0
ATTDEF
  5
7E
330
6E
100
AcDbEntity
  8
AM_6
100
AcDbText
 10
5.048999999999999
 20
-3.528
 30
0.0
 40
0.5
  1
1.23
100
AcDbAttributeDefinition
  3

  2
A
 70
     8
280
     0
  0
ATTDEF
  5
7F
330
6E
100
AcDbEntity
  8
AM_6
100
AcDbText
 10
5.048999999999999
 20
-4.028
 30
0.0
 40
0.5
  1
3.38
100
AcDbAttributeDefinition
  3

  2
B
 70
     8
280
     0
  0
ATTDEF
  5
80
330
6E
100
AcDbEntity
  8
AM_6
100
AcDbText
 10
5.048999999999999
 20
-4.528
 30
0.0
 40
0.5
  1
1.34
100
AcDbAttributeDefinition
  3

  2
C
 70
     8
280
     0
  0
ATTDEF
  5
81
330
6E
100
AcDbEntity
  8
AM_6
100
AcDbText
 10
5.048999999999999
 20
-5.028
 30
0.0
 40
0.5
  1
2.50
100
AcDbAttributeDefinition
  3

  2
D
 70
     8
280
     0
  0
ATTDEF
  5
82
330
6E
100
AcDbEntity
  8
AM_6
100
AcDbText
 10
5.048999999999999
 20
-5.528
 30
0.0
 40
0.5
  1
3/8
100
AcDbAttributeDefinition
  3

  2
F
 70
     8
280
     0
  0
ATTDEF
  5
83
330
6E
100
AcDbEntity
  8
AM_6
100
AcDbText
 10
5.048999999999999
 20
-6.028
 30
0.0
 40
0.5
  1
0.44
100
AcDbAttributeDefinition
  3

  2
H
 70
     8
280
     0
  0
ATTDEF
  5
84
330
6E
100
AcDbEntity
  8
AM_6
100
AcDbText
 10
5.048999999999999
 20
-6.528
 30
0.0
 40
0.5
  1
0.36
100
AcDbAttributeDefinition
  3

  2
J
 70
     8
280
     0
  0
ATTDEF
  5
85
330
6E
100
AcDbEntity
  8
AM_6
100
AcDbText
 10
5.048999999999999
 20
-7.028
 30
0.0
 40
0.5
  1
1.12
100
AcDbAttributeDefinition
  3

  2
L
 70
     8
280
     0
  0
ATTDEF
  5
86
330
6E
100
AcDbEntity
  8
AM_6
100
AcDbText
 10
5.048999999999999
 20
-7.528
 30
0.0
 40
0.5
  1
1.94
100
AcDbAttributeDefinition
  3

  2
N
 70
     8
280
     0
  0
ATTDEF
  5
87
330
6E
100
AcDbEntity
  8
AM_6
100
AcDbText
 10
5.048999999999999
 20
-8.028
 30
0.0
 40
0.5
  1
baldor
100
AcDbAttributeDefinition
  3

  2
COMPANY
 70
     8
280
     0
  0
INSERT
  5
89
330
6E
100
AcDbEntity
  8
0
100
AcDbBlockReference
  2
2_405015E_Inch_0_in_124099_2
 10
0.0
 20
0.0
 30
0.0
  0
INSERT
  5
CA
330
6E
100
AcDbEntity
  8
0
100
AcDbBlockReference
  2
3_123331_0_in_124099_2
 10
0.0
 20
0.0
 30
0.0
  0
INSERT
  5
122
330
6E
100
AcDbEntity
  8
0
100
AcDbBlockReference
  2
4_124099H_0_in_124099_2
 10
0.0
 20
0.0
 30
0.0
  0
ENDBLK
  5
71
330
6E
100
AcDbEntity
  8
0
100
AcDbBlockEnd
  0
BLOCK
  5
8A
330
88
100
AcDbEntity
  8
0
100
AcDbBlockBegin
  2
2_405015E_Inch_0_in_124099_2
 70
     2
 10
0.0
 20
0.0
 30
0.0
  3
2_405015E_Inch_0_in_124099_2
  1

  0
ATTDEF
  5
8C
330
88
100
AcDbEntity
  8
AM_6
100
AcDbText
 10
4.60875
 20
1.972
 30
0.0
 40
0.5
  1
405015E -Inch
100
AcDbAttributeDefinition
  3

  2
NN
 70
     8
280
     0
  0
ATTDEF
  5
8D
330
88
100
AcDbEntity
  8
AM_6
100
AcDbText
 10
4.60875
 20
1.472
 30
0.0
 40
0.5
  1
Grease Fitting
100
AcDbAttributeDefinition
  3

  2
NT
 70
     8
280
     0
  0
ATTDEF
  5
8E
330
88
100
AcDbEntity
  8
AM_6
100
AcDbText
 10
4.60875
 20
0.9719999999999998
 30
0.0
 40
0.5
  1
405015E-Inch
100
AcDbAttributeDefinition
  3

  2
NB
 70
     8
280
     0
  0
ATTDEF
  5
8F
330
88
100
AcDbEntity
  8
AM_6
100
AcDbText
 10
4.60875
 20
0.4719999999999998
 30
0.0
 40
0.5
  1
$MN.-Inch
100
AcDbAttributeDefinition
  3

  2
NBSYN
 70
     8
280
     0
  0
ATTDEF
  5
90
330
88
100
AcDbEntity
  8
AM_6
100
AcDbText
 10
4.60875
 20
-0.0280000000000002
 30
0.0
 40
0.5
  1
405015E
100
AcDbAttributeDefinition
  3

  2
LINA
 70
     8
280
     0
  0
ATTDEF
  5
91
330
88
100
AcDbEntity
  8
AM_6
100
AcDbText
 10
4.60875
 20
-0.5280000000000002
 30
0.0
 40
0.5
  1
405015E
100
AcDbAttributeDefinition
  3

  2
MN
 70
     8
280
     0
  0
ATTDEF
  5
92
330
88
100
AcDbEntity
  8
AM_6
100
AcDbText
 10
4.60875
 20
-1.028
 30
0.0
 40
0.5
  1
1/8 x 27PTF
100
AcDbAttributeDefinition
  3

  2
T
 70
     8
280
     0
  0
ATTDEF
  5
93
330
88
100
AcDbEntity
  8
AM_6
100
AcDbText
 10
4.60875
 20
-1.528
 30
0.0
 40
0.5
  1
baldor
100
AcDbAttributeDefinition
  3

  2
COMPANY
 70
     8
280
     0
  0
LINE
  5
96
330
88
100
AcDbEntity
  8
AM_9
100
AcDbLine
 10
-0.4400000000000001
 20
1.665
 30
0.0
 11
-0.39125
 21
1.665
 31
0.0
  0
LINE
  5
97
330
88
100
AcDbEntity
  8
AM_9
100
AcDbLine
 10
-0.3912499999999999
 20
1.565
 30
0.0
 11
-0.39125
 21
1.665
 31
0.0
  0
LINE
  5
98
330
88
100
AcDbEntity
  8
AM_9
100
AcDbLine
 10
-0.4374659467169846
 20
1.683318198540882
 30
0.0
 11
-0.4400000000000001
 21
1.685886264440175
 31
0.0
  0
LWPOLYLINE
  5
99
330
88
100
AcDbEntity
  8
AM_9
100
AcDbPolyline
 90
        3
 70
     0
 43
0.0
 10
-0.4399786519754743
 20
1.662069779604945
 10
-0.4167940595141951
 20
1.659517587482156
 10
-0.3912499999999999
 20
1.655932400303385
  0
LWPOLYLINE
  5
9A
330
88
100
AcDbEntity
  8
AM_9
100
AcDbPolyline
 90
        3
 70
     0
 43
0.0
 10
-0.3912499999999999
 20
1.574067599696614
 10
-0.4167940595141952
 20
1.570482412517844
 10
-0.439978796835565
 20
1.56793020673004
  0
LINE
  5
9B
330
88
100
AcDbEntity
  8
AM_9
100
AcDbLine
 10
-0.448097127527731
 20
1.3
 30
0.0
 11
-0.4113823732187846
 21
1.336714754308946
 31
0.0
  0
LINE
  5
9C
330
88
100
AcDbEntity
  8
AM_9
100
AcDbLine
 10
-0.8086176267812154
 20
1.336714754308946
 30
0.0
 11
-0.771902872472269
 21
1.3
 31
0.0
  0
LINE
  5
9D
330
88
100
AcDbEntity
  8
AM_9
100
AcDbLine
 10
-0.771902872472269
 20
1.3
 30
0.0
 11
-0.448097127527731
 21
1.3
 31
0.0
  0
LINE
  5
9E
330
88
100
AcDbEntity
  8
AM_9
100
AcDbLine
 10
-0.4113823732187846
 20
1.336714754308946
 30
0.0
 11
-0.4042481027769304
 21
1.565
 31
0.0
  0
LINE
  5
9F
330
88
100
AcDbEntity
  8
AM_9
100
AcDbLine
 10
-0.8157518972230696
 20
1.565
 30
0.0
 11
-0.8086176267812154
 21
1.336714754308946
 31
0.0
  0
LINE
  5
A0
330
88
100
AcDbEntity
  8
AM_9
100
AcDbLine
 10
-0.8086176267812154
 20
1.336714754308946
 30
0.0
 11
-0.4113823732187846
 21
1.336714754308946
 31
0.0
  0
LINE
  5
A1
330
88
100
AcDbEntity
  8
AM_9
100
AcDbLine
 10
-0.4399999999999999
 20
1.683318198540882
 30
0.0
 11
-0.4374659467169846
 21
1.683318198540882
 31
0.0
  0
LINE
  5
A2
330
88
100
AcDbEntity
  8
AM_9
100
AcDbLine
 10
-0.39625
 20
1.665
 30
0.0
 11
-0.4374659467169846
 21
1.683318198540882
 31
0.0
  0
LINE
  5
A4
330
88
100
AcDbEntity
  8
AM_5
100
AcDbLine
 10
-0.441850875147652
 20
1.499870087748463
 30
0.0
 11
-0.448097127527731
 21
1.3
 31
0.0
  0
LINE
  5
A5
330
88
100
AcDbEntity
  8
AM_5
100
AcDbLine
 10
-0.4042481027769304
 20
1.565
 30
0.0
 11
-0.441850875147652
 21
1.499870087748463
 31
0.0
  0
LINE
  5
A6
330
88
100
AcDbEntity
  8
AM_5
100
AcDbLine
 10
-0.778149124852348
 20
1.499870087748463
 30
0.0
 11
-0.7719028724722689
 21
1.3
 31
0.0
  0
LINE
  5
A7
330
88
100
AcDbEntity
  8
AM_5
100
AcDbLine
 10
-0.8157518972230696
 20
1.565
 30
0.0
 11
-0.778149124852348
 21
1.499870087748463
 31
0.0
  0
LINE
  5
A8
330
88
100
AcDbEntity
  8
AM_5
100
AcDbLine
 10
-0.4062835142484432
 20
1.499870087748463
 30
0.0
 11
-0.8137164857515566
 21
1.499870087748463
 31
0.0
  0
LINE
  5
AB
330
88
100
AcDbEntity
  8
AM_7
100
AcDbLine
 10
-0.61
 20
1.972
 30
0.0
 11
-0.61
 21
1.268
 31
0.0
  0
LINE
  5
AD
330
88
100
AcDbEntity
  8
AM_4
100
AcDbLine
 10
-0.5049999999999999
 20
1.77
 30
0.0
 11
-0.5049999999999999
 21
1.8
 31
0.0
  0
LINE
  5
AE
330
88
100
AcDbEntity
  8
AM_4
100
AcDbLine
 10
-0.715
 20
1.8
 30
0.0
 11
-0.715
 21
1.77
 31
0.0
  0
LINE
  5
AF
330
88
100
AcDbEntity
  8
AM_4
100
AcDbLine
 10
-0.715
 20
1.77
 30
0.0
 11
-0.5049999999999999
 21
1.77
 31
0.0
  0
LINE
  5
B0
330
88
100
AcDbEntity
  8
AM_4
100
AcDbLine
 10
-0.715
 20
1.77
 30
0.0
 11
-0.7288200907348975
 21
1.737753121618572
 31
0.0
  0
LINE
  5
B1
330
88
100
AcDbEntity
  8
AM_4
100
AcDbLine
 10
-0.4911799092651024
 20
1.737753121618572
 30
0.0
 11
-0.5049999999999999
 21
1.77
 31
0.0
  0
LINE
  5
B2
330
88
100
AcDbEntity
  8
AM_4
100
AcDbLine
 10
-0.715
 20
1.8
 30
0.0
 11
-0.5049999999999999
 21
1.8
 31
0.0
  0
LINE
  5
B3
330
88
100
AcDbEntity
  8
AM_4
100
AcDbLine
 10
-0.5049999999999999
 20
1.8
 30
0.0
 11
-0.475
 21
1.86
 31
0.0
  0
LINE
  5
B4
330
88
100
AcDbEntity
  8
AM_4
100
AcDbLine
 10
-0.745
 20
1.86
 30
0.0
 11
-0.715
 21
1.8
 31
0.0
  0
LINE
  5
B5
330
88
100
AcDbEntity
  8
AM_4
100
AcDbLine
 10
-0.7126779019331875
 20
1.94
 30
0.0
 11
-0.5073220980668125
 21
1.94
 31
0.0
  0
LINE
  5
B6
330
88
100
AcDbEntity
  8
AM_4
100
AcDbLine
 10
-0.745
 20
1.86
 30
0.0
 11
-0.475
 21
1.86
 31
0.0
  0
LINE
  5
B7
330
88
100
AcDbEntity
  8
AM_4
100
AcDbLine
 10
-0.7126779019331875
 20
1.94
 30
0.0
 11
-0.745
 21
1.86
 31
0.0
  0
LINE
  5
B8
330
88
100
AcDbEntity
  8
AM_4
100
AcDbLine
 10
-0.475
 20
1.86
 30
0.0
 11
-0.5073220980668125
 21
1.94
 31
0.0
  0
LINE
  5
B9
330
88
100
AcDbEntity
  8
AM_4
100
AcDbLine
 10
-0.82875
 20
1.665
 30
0.0
 11
-0.4400000000000001
 21
1.665
 31
0.0
  0
LINE
  5
BA
330
88
100
AcDbEntity
  8
AM_4
100
AcDbLine
 10
-0.82875
 20
1.665
 30
0.0
 11
-0.82875
 21
1.565
 31
0.0
  0
LINE
  5
BB
330
88
100
AcDbEntity
  8
AM_4
100
AcDbLine
 10
-0.7288200907348975
 20
1.737753121618572
 30
0.0
 11
-0.4911799092651024
 21
1.737753121618572
 31
0.0
  0
LINE
  5
BC
330
88
100
AcDbEntity
  8
AM_4
100
AcDbLine
 10
-0.7288200907348975
 20
1.737753121618572
 30
0.0
 11
-0.7825340532830154
 21
1.683318198540882
 31
0.0
  0
LINE
  5
BD
330
88
100
AcDbEntity
  8
AM_4
100
AcDbLine
 10
-0.4400000000000001
 20
1.685886264440175
 30
0.0
 11
-0.4911799092651024
 21
1.737753121618572
 31
0.0
  0
LWPOLYLINE
  5
BE
330
88
100
AcDbEntity
  8
AM_4
100
AcDbPolyline
 90
        3
 70
     0
 43
0.0
 10
-0.500625
 20
1.665
 10
-0.4587095297570976
 20
1.663582439282862
 10
-0.4399786519754743
 20
1.662069779604945
  0
LWPOLYLINE
  5
BF
330
88
100
AcDbEntity
  8
AM_4
100
AcDbPolyline
 90
        3
 70
     0
 43
0.0
 10
-0.439978796835565
 20
1.56793020673004
 10
-0.4585860127177311
 20
1.566425828243072
 10
-0.500625
 20
1.565
  0
LWPOLYLINE
  5
C0
330
88
100
AcDbEntity
  8
AM_4
100
AcDbPolyline
 90
        5
 70
     0
 43
0.0
 10
-0.500625
 20
1.565
 10
-0.52796875
 20
1.565607414003999
 10
-0.5553125
 20
1.567393380785034
 10
-0.5826863491615617
 20
1.570262816495164
 10
-0.6100000000000001
 20
1.574067599696614
  0
LWPOLYLINE
  5
C1
330
88
100
AcDbEntity
  8
AM_4
100
AcDbPolyline
 90
        5
 70
     0
 43
0.0
 10
-0.6100000000000001
 20
1.655932400303385
 10
-0.5828325951815904
 20
1.659719184458392
 10
-0.5555583897258504
 20
1.66258547505038
 10
-0.528129998909235
 20
1.664385438185773
 10
-0.500625
 20
1.665
  0
LINE
  5
C2
330
88
100
AcDbEntity
  8
AM_4
100
AcDbLine
 10
-0.7825340532830154
 20
1.683318198540882
 30
0.0
 11
-0.4399999999999999
 21
1.683318198540882
 31
0.0
  0
LINE
  5
C3
330
88
100
AcDbEntity
  8
AM_4
100
AcDbLine
 10
-0.7825340532830154
 20
1.683318198540882
 30
0.0
 11
-0.8237499999999999
 21
1.665
 31
0.0
  0
LINE
  5
C4
330
88
100
AcDbEntity
  8
AM_4
100
AcDbLine
 10
-0.6100000000000001
 20
1.655932400303385
 30
0.0
 11
-0.6100000000000001
 21
1.574067599696614
 31
0.0
  0
LWPOLYLINE
  5
C5
330
88
100
AcDbEntity
  8
AM_4
100
AcDbPolyline
 90
        5
 70
     0
 43
0.0
 10
-0.719375
 20
1.665
 10
-0.6920312500000001
 20
1.664392585996001
 10
-0.6646875
 20
1.662606619214965
 10
-0.6373136508384383
 20
1.659737183504836
 10
-0.6100000000000001
 20
1.655932400303385
  0
LWPOLYLINE
  5
C6
330
88
100
AcDbEntity
  8
AM_4
100
AcDbPolyline
 90
        5
 70
     0
 43
0.0
 10
-0.82875
 20
1.655932400303385
 10
-0.8015825951815903
 20
1.659719184458392
 10
-0.7743083897258504
 20
1.66258547505038
 10
-0.7468799989092348
 20
1.664385438185773
 10
-0.719375
 20
1.665
  0
LWPOLYLINE
  5
C7
330
88
100
AcDbEntity
  8
AM_4
100
AcDbPolyline
 90
        5
 70
     0
 43
0.0
 10
-0.719375
 20
1.565
 10
-0.74671875
 20
1.565607414003999
 10
-0.7740625
 20
1.567393380785034
 10
-0.8014363491615616
 20
1.570262816495164
 10
-0.82875
 20
1.574067599696614
  0
LWPOLYLINE
  5
C8
330
88
100
AcDbEntity
  8
AM_4
100
AcDbPolyline
 90
        5
 70
     0
 43
0.0
 10
-0.6100000000000001
 20
1.574067599696614
 10
-0.6371674048184098
 20
1.570280815541608
 10
-0.6644416102741496
 20
1.56741452494962
 10
-0.6918700010907651
 20
1.565614561814227
 10
-0.719375
 20
1.565
  0
ENDBLK
  5
8B
330
88
100
AcDbEntity
  8
0
100
AcDbBlockEnd
  0
BLOCK
  5
CB
330
C9
100
AcDbEntity
  8
0
100
AcDbBlockBegin
  2
3_123331_0_in_124099_2
 70
     2
 10
0.0
 20
0.0
 30
0.0
  3
3_123331_0_in_124099_2
  1

  0
ATTDEF
  5
CD
330
C9
100
AcDbEntity
  8
AM_6
100
AcDbText
 10
4.89
 20
0.924466108247824
 30
0.0
 40
0.5
  1
Set Screw Insert Inch Bore
100
AcDbAttributeDefinition
  3

  2
NN
 70
     8
280
     0
  0
ATTDEF
  5
CE
330
C9
100
AcDbEntity
  8
AM_6
100
AcDbText
 10
4.89
 20
0.424466108247824
 30
0.0
 40
0.5
  1
SC Normal Duty Bearing Inserts
100
AcDbAttributeDefinition
  3

  2
NT
 70
     8
280
     0
  0
ATTDEF
  5
CF
330
C9
100
AcDbEntity
  8
AM_6
100
AcDbText
 10
4.89
 20
-0.075533891752176
 30
0.0
 40
0.5
  1
123331
100
AcDbAttributeDefinition
  3

  2
NB
 70
     8
280
     0
  0
ATTDEF
  5
D0
330
C9
100
AcDbEntity
  8
AM_6
100
AcDbText
 10
4.89
 20
-0.575533891752176
 30
0.0
 40
0.5
  1
$PN.
100
AcDbAttributeDefinition
  3

  2
NBSYN
 70
     8
280
     0
  0
ATTDEF
  5
D1
330
C9
100
AcDbEntity
  8
AM_6
100
AcDbText
 10
4.89
 20
-1.075533891752176
 30
0.0
 40
0.5
  1
123331
100
AcDbAttributeDefinition
  3

  2
LINA
 70
     8
280
     0
  0
ATTDEF
  5
D2
330
C9
100
AcDbEntity
  8
AM_6
100
AcDbText
 10
4.89
 20
-1.575533891752176
 30
0.0
 40
0.5
  1
204
100
AcDbAttributeDefinition
  3

  2
SERIES
 70
     8
280
     0
  0
ATTDEF
  5
D3
330
C9
100
AcDbEntity
  8
AM_6
100
AcDbText
 10
4.89
 20
-2.075533891752176
 30
0.0
 40
0.5
  1
5/8
100
AcDbAttributeDefinition
  3

  2
SS
 70
     8
280
     0
  0
ATTDEF
  5
D4
330
C9
100
AcDbEntity
  8
AM_6
100
AcDbText
 10
4.89
 20
-2.575533891752176
 30
0.0
 40
0.5
  1
123331
100
AcDbAttributeDefinition
  3

  2
PN
 70
     8
280
     0
  0
ATTDEF
  5
D5
330
C9
100
AcDbEntity
  8
AM_6
100
AcDbText
 10
4.89
 20
-3.075533891752176
 30
0.0
 40
0.5
  1
INS-SC-010L
100
AcDbAttributeDefinition
  3

  2
DESCRIPTION
 70
     8
280
     0
  0
ATTDEF
  5
D6
330
C9
100
AcDbEntity
  8
AM_6
100
AcDbText
 10
4.89
 20
-3.575533891752176
 30
0.0
 40
0.5
  1
1.23
100
AcDbAttributeDefinition
  3

  2
A
 70
     8
280
     0
  0
ATTDEF
  5
D7
330
C9
100
AcDbEntity
  8
AM_6
100
AcDbText
 10
4.89
 20
-4.075533891752176
 30
0.0
 40
0.5
  1
0.58
100
AcDbAttributeDefinition
  3

  2
C
 70
     8
280
     0
  0
ATTDEF
  5
D8
330
C9
100
AcDbEntity
  8
AM_6
100
AcDbText
 10
4.89
 20
-4.575533891752176
 30
0.0
 40
0.5
  1
1.8504
100
AcDbAttributeDefinition
  3

  2
D
 70
     8
280
     0
  0
ATTDEF
  5
D9
330
C9
100
AcDbEntity
  8
AM_6
100
AcDbText
 10
4.89
 20
-5.075533891752176
 30
0.0
 40
0.5
  1
0.15
100
AcDbAttributeDefinition
  3

  2
J
 70
     8
280
     0
  0
ATTDEF
  5
DA
330
C9
100
AcDbEntity
  8
AM_6
100
AcDbText
 10
4.89
 20
-5.575533891752176
 30
0.0
 40
0.5
  1
1.12
100
AcDbAttributeDefinition
  3

  2
L
 70
     8
280
     0
  0
ATTDEF
  5
DB
330
C9
100
AcDbEntity
  8
AM_6
100
AcDbText
 10
4.89
 20
-6.075533891752176
 30
0.0
 40
0.5
  1
1/4-28
100
AcDbAttributeDefinition
  3

  2
N
 70
     8
280
     0
  0
ATTDEF
  5
DC
330
C9
100
AcDbEntity
  8
AM_6
100
AcDbText
 10
4.89
 20
-6.575533891752176
 30
0.0
 40
0.5
  1
0.5
100
AcDbAttributeDefinition
  3

  2
W
 70
     8
280
     0
  0
ATTDEF
  5
DD
330
C9
100
AcDbEntity
  8
AM_6
100
AcDbText
 10
4.89
 20
-7.075533891752176
 30
0.0
 40
0.5
  1
0.73
100
AcDbAttributeDefinition
  3

  2
Y
 70
     8
280
     0
  0
ATTDEF
  5
DE
330
C9
100
AcDbEntity
  8
AM_6
100
AcDbText
 10
4.89
 20
-7.575533891752176
 30
0.0
 40
0.5
  1
baldor
100
AcDbAttributeDefinition
  3

  2
COMPANY
 70
     8
280
     0
  0
CIRCLE
  5
DF
330
C9
100
AcDbEntity
  8
AM_9
100
AcDbCircle
 10
-0.4600000000000001
 20
-0.0000000000000001
 30
0.0
 40
0.0106060606060555
  0
ARC
  5
E0
330
C9
100
AcDbEntity
  8
AM_9
100
AcDbCircle
 10
-0.4600000000000001
 20
-0.0000000000000001
 30
0.0
 40
0.0633333333333318
100
AcDbArc
 50
312.2263422974304
 51
47.77365770257025
  0
LINE
  5
E1
330
C9
100
AcDbEntity
  8
AM_9
100
AcDbLine
 10
-1.04755
 20
0.3125
 30
0.0
 11
-1.04755
 21
0.551883139804071
 31
0.0
  0
LINE
  5
E2
330
C9
100
AcDbEntity
  8
AM_9
100
AcDbLine
 10
-1.19245
 20
0.551883139804071
 30
0.0
 11
-1.19245
 21
0.3125
 31
0.0
  0
LINE
  5
E3
330
C9
100
AcDbEntity
  8
AM_9
100
AcDbLine
 10
-1.19245
 20
0.551883139804071
 30
0.0
 11
-1.04755
 21
0.551883139804071
 31
0.0
  0
LINE
  5
E4
330
C9
100
AcDbEntity
  8
AM_9
100
AcDbLine
 10
-1.04755
 20
0.551883139804071
 30
0.0
 11
-1.039433139804071
 21
0.56
 31
0.0
  0
LINE
  5
E5
330
C9
100
AcDbEntity
  8
AM_9
100
AcDbLine
 10
-1.200566860195929
 20
0.56
 30
0.0
 11
-1.19245
 21
0.551883139804071
 31
0.0
  0
LWPOLYLINE
  5
E6
330
C9
100
AcDbEntity
  8
AM_9
100
AcDbPolyline
 90
       20
 70
     0
 43
0.0
 10
-1.19245
 20
0.3125
 10
-1.191480655447095
 20
0.3122766907778189
 10
-1.188490356347315
 20
0.3116058029186589
 10
-1.183742801562539
 20
0.3105968323261544
 10
-1.177112217697847
 20
0.3093041430539951
 10
-1.168999366783834
 20
0.3079093786249725
 10
-1.159262872072162
 20
0.3065107186108749
 10
-1.148558566497702
 20
0.305324154335034
 10
-1.136671707587693
 20
0.3044424302456699
 10
-1.124844485458804
 20
0.3040242038709428
 10
-1.112516743277629
 20
0.304077698345625
 10
-1.100995664679211
 20
0.3045790739052586
 10
-1.089688214715703
 20
0.3054931289360227
 10
-1.079424095207161
 20
0.3066816778840196
 10
-1.070008730551087
 20
0.308068782126839
 10
-1.062012923603472
 20
0.3094668779191351
 10
-1.055453231342271
 20
0.310762824102489
 10
-1.050875387901167
 20
0.3117458251489733
 10
-1.048174785282777
 20
0.3123557410536505
 10
-1.047550000001167
 20
0.3124999999997294
  0
LINE
  5
E7
330
C9
100
AcDbEntity
  8
AM_9
100
AcDbLine
 10
-0.1759999999999999
 20
-0.3125
 30
0.0
 11
-0.1324000000000001
 21
-0.3125
 31
0.0
  0
LINE
  5
E8
330
C9
100
AcDbEntity
  8
AM_9
100
AcDbLine
 10
-1.3176
 20
-0.3125
 30
0.0
 11
-0.588
 21
-0.3125
 31
0.0
  0
LINE
  5
E9
330
C9
100
AcDbEntity
  8
AM_9
100
AcDbLine
 10
-0.588
 20
0.3125
 30
0.0
 11
-1.04755
 21
0.3125
 31
0.0
  0
LINE
  5
EA
330
C9
100
AcDbEntity
  8
AM_9
100
AcDbLine
 10
-0.1324000000000001
 20
0.3125
 30
0.0
 11
-0.1759999999999999
 21
0.3125
 31
0.0
  0
LINE
  5
EB
330
C9
100
AcDbEntity
  8
AM_9
100
AcDbLine
 10
-1.19245
 20
0.3125
 30
0.0
 11
-1.3176
 21
0.3125
 31
0.0
  0
LINE
  5
EC
330
C9
100
AcDbEntity
  8
AM_9
100
AcDbLine
 10
-0.1324000000000001
 20
-0.3125
 30
0.0
 11
-0.1100000000000001
 21
-0.3349
 31
0.0
  0
LINE
  5
ED
330
C9
100
AcDbEntity
  8
AM_9
100
AcDbLine
 10
-0.1100000000000001
 20
0.3349
 30
0.0
 11
-0.1324000000000001
 21
0.3125
 31
0.0
  0
LINE
  5
EE
330
C9
100
AcDbEntity
  8
AM_9
100
AcDbLine
 10
-1.3176
 20
0.3125
 30
0.0
 11
-1.34
 21
0.3349
 31
0.0
  0
LINE
  5
EF
330
C9
100
AcDbEntity
  8
AM_9
100
AcDbLine
 10
-1.34
 20
-0.3349
 30
0.0
 11
-1.3176
 21
-0.3125
 31
0.0
  0
LWPOLYLINE
  5
F0
330
C9
100
AcDbEntity
  8
AM_9
100
AcDbPolyline
 90
        8
 70
     0
 43
0.0
 10
-1.164398925539907
 20
0.1817204285853788
 10
-1.164558401180535
 20
0.1816177760414088
 10
-1.173354299665307
 20
0.1748549666418203
 10
-1.180882432176214
 20
0.1666141516023971
 10
-1.186579244517334
 20
0.157407746132172
 10
-1.190502907266632
 20
0.1470003384186346
 10
-1.192286857108735
 20
0.1364562598780073
 10
-1.19244999985764
 20
0.1320723230491028
  0
LINE
  5
F1
330
C9
100
AcDbEntity
  8
AM_9
100
AcDbLine
 10
-1.04755
 20
0.1320536901990529
 30
0.0
 11
-1.04755
 21
0.2332358932279959
 31
0.0
  0
LINE
  5
F2
330
C9
100
AcDbEntity
  8
AM_9
100
AcDbLine
 10
-1.19245
 20
0.2332358932279959
 30
0.0
 11
-1.19245
 21
0.1320436857132263
 31
0.0
  0
LWPOLYLINE
  5
F3
330
C9
100
AcDbEntity
  8
AM_9
100
AcDbPolyline
 90
       21
 70
     0
 43
0.0
 10
-1.19244999985764
 20
0.1320723230491028
 10
-1.192064458845171
 20
0.1252655432977527
 10
-1.189914122611048
 20
0.1146035880232802
 10
-1.185798910125322
 20
0.1039626825063525
 10
-1.180010814152022
 20
0.094160525739443
 10
-1.172421283930015
 20
0.0850415254444275
 10
-1.163418651137101
 20
0.0772092231481364
 10
-1.152895758993315
 20
0.0707165441853515
 10
-1.141684329465456
 20
0.0661443307370811
 10
-1.129474966398284
 20
0.0634341968547712
 10
-1.117614918232309
 20
0.062847412981905
 10
-1.105474272742478
 20
0.0642877145001229
 10
-1.094238444125949
 20
0.0675595806892883
 10
-1.083412504065349
 20
0.0727230411447786
 10
-1.073704071917694
 20
0.0794438383743942
 10
-1.06502507206844
 20
0.0877864576517034
 10
-1.05793945266158
 20
0.0972393017851328
 10
-1.052445981609375
 20
0.1078756341642155
 10
-1.049039539715581
 20
0.1186774568774257
 10
-1.047585190494471
 20
0.1300184570757525
 10
-1.047550000389455
 20
0.1320613984557562
  0
LWPOLYLINE
  5
F4
330
C9
100
AcDbEntity
  8
AM_9
100
AcDbPolyline
 90
        7
 70
     0
 43
0.0
 10
-1.047550000389455
 20
0.1320613984557562
 10
-1.048179601025701
 20
0.1406444509712995
 10
-1.050777953400782
 20
0.1511398492540132
 10
-1.055135230097066
 20
0.160611542632491
 10
-1.061369367907519
 20
0.169411090934118
 10
-1.069151718089267
 20
0.1770280957260352
 10
-1.075799503183442
 20
0.1818473028665496
  0
LINE
  5
F5
330
C9
100
AcDbEntity
  8
AM_9
100
AcDbLine
 10
-0.3200000000000001
 20
-0.5599999999999996
 30
0.0
 11
-0.1324000000000001
 21
-0.5599999999999996
 31
0.0
  0
LINE
  5
F6
330
C9
100
AcDbEntity
  8
AM_9
100
AcDbLine
 10
-0.1324000000000001
 20
0.5599999999999996
 30
0.0
 11
-0.3200000000000001
 21
0.5599999999999996
 31
0.0
  0
LINE
  5
F7
330
C9
100
AcDbEntity
  8
AM_9
100
AcDbLine
 10
-0.1100000000000001
 20
0.5376000000000001
 30
0.0
 11
-0.1324000000000001
 21
0.56
 31
0.0
  0
LINE
  5
F8
330
C9
100
AcDbEntity
  8
AM_9
100
AcDbLine
 10
-0.1324000000000001
 20
-0.56
 30
0.0
 11
-0.1100000000000001
 21
-0.5376000000000001
 31
0.0
  0
LINE
  5
F9
330
C9
100
AcDbEntity
  8
AM_9
100
AcDbLine
 10
-0.1324000000000001
 20
0.56
 30
0.0
 11
-0.1324000000000001
 21
-0.56
 31
0.0
  0
LINE
  5
FA
330
C9
100
AcDbEntity
  8
AM_9
100
AcDbLine
 10
-0.1100000000000001
 20
0.5376000000000001
 30
0.0
 11
-0.1100000000000001
 21
-0.5376000000000001
 31
0.0
  0
LINE
  5
FB
330
C9
100
AcDbEntity
  8
AM_9
100
AcDbLine
 10
-0.98
 20
-0.56
 30
0.0
 11
-0.9000000000000002
 21
-0.56
 31
0.0
  0
LINE
  5
FC
330
C9
100
AcDbEntity
  8
AM_9
100
AcDbLine
 10
-0.9000000000000002
 20
0.56
 30
0.0
 11
-0.98
 21
0.56
 31
0.0
  0
LINE
  5
FD
330
C9
100
AcDbEntity
  8
AM_9
100
AcDbLine
 10
-0.79
 20
-0.8752
 30
0.0
 11
-0.7300000000000001
 21
-0.8752
 31
0.0
  0
LINE
  5
FE
330
C9
100
AcDbEntity
  8
AM_9
100
AcDbLine
 10
-0.7300000000000001
 20
0.8752
 30
0.0
 11
-0.79
 21
0.8752
 31
0.0
  0
LINE
  5
FF
330
C9
100
AcDbEntity
  8
AM_9
100
AcDbLine
 10
-0.9000000000000002
 20
0.8566113704592063
 30
0.0
 11
-0.9000000000000002
 21
-0.8566113704592063
 31
0.0
  0
ARC
  5
100
330
C9
100
AcDbEntity
  8
AM_9
100
AcDbCircle
 10
-0.8699999999999997
 20
-0.8566113704592061
 30
0.0
 40
0.0300000000000005
100
AcDbArc
 50
180.0
 51
253.1158262695218
  0
ARC
  5
101
330
C9
100
AcDbEntity
  8
AM_9
100
AcDbCircle
 10
-0.8699999999999997
 20
0.8566113704592061
 30
0.0
 40
0.0300000000000006
100
AcDbArc
 50
106.8841737304782
 51
180.0
  0
LINE
  5
102
330
C9
100
AcDbEntity
  8
AM_9
100
AcDbLine
 10
-0.3200000000000001
 20
0.8566113704592064
 30
0.0
 11
-0.3200000000000001
 21
-0.8566113704592064
 31
0.0
  0
ARC
  5
103
330
C9
100
AcDbEntity
  8
AM_9
100
AcDbCircle
 10
-0.3500000000000009
 20
-0.856611370459206
 30
0.0
 40
0.0300000000000007
100
AcDbArc
 50
286.884172190084
 51
0.0
  0
ARC
  5
104
330
C9
100
AcDbEntity
  8
AM_9
100
AcDbCircle
 10
-0.3500000000000007
 20
0.856611370459206
 30
0.0
 40
0.0300000000000006
100
AcDbArc
 50
0.0
 51
73.11582780991631
  0
ARC
  5
105
330
C9
100
AcDbEntity
  8
AM_9
100
AcDbCircle
 10
-0.6100000000000025
 20
0.0000000000000061
 30
0.0
 40
0.9251999999999935
100
AcDbArc
 50
101.2185847845103
 51
106.8841737304781
  0
ARC
  5
106
330
C9
100
AcDbEntity
  8
AM_9
100
AcDbCircle
 10
-0.6099999999892229
 20
0.0000000000431245
 30
0.0
 40
0.9252000000443422
100
AcDbArc
 50
253.1158262696579
 51
258.7814152153538
  0
LINE
  5
107
330
C9
100
AcDbEntity
  8
AM_9
100
AcDbLine
 10
-0.8787131367292224
 20
0.885318185823121
 30
0.0
 11
-0.8787131367292224
 21
-0.8853181858230651
 31
0.0
  0
LINE
  5
108
330
C9
100
AcDbEntity
  8
AM_9
100
AcDbLine
 10
-0.79
 20
0.9075213716491749
 30
0.0
 11
-0.79
 21
-0.9075213716491188
 31
0.0
  0
LWPOLYLINE
  5
109
330
C9
100
AcDbEntity
  8
AM_9
100
AcDbPolyline
 90
       28
 70
     0
 43
0.0
 10
-0.4174361296678917
 20
-0.0468980602313399
 10
-0.4257285968957567
 20
-0.0532308210342534
 10
-0.4349436588829835
 20
-0.0580787413212349
 10
-0.4448652371345639
 20
-0.0612888186490439
 10
-0.4551761376194008
 20
-0.0627743225457531
 10
-0.4655688058446171
 20
-0.0624694001069932
 10
-0.4757656508646105
 20
-0.0604115984393537
 10
-0.4854676188254682
 20
-0.0566380755646533
 10
-0.4944144342457784
 20
-0.0512796680176578
 10
-0.5023508189654837
 20
-0.0444591701714255
 10
-0.5090580864161349
 20
-0.0363957226551792
 10
-0.5143420123556246
 20
-0.0272781175439989
 10
-0.5180573141011826
 20
-0.0173967574877829
 10
-0.5200815066014344
 20
-0.0069926493143562
 10
-0.5203694345702506
 20
0.0036079236034035
 10
-0.5188847385178593
 20
0.0141234812053178
 10
-0.5156910209593515
 20
0.0242406929416624
 10
-0.5108557063776357
 20
0.0336613648297283
 10
-0.5045358147992273
 20
0.0421304978826238
 10
-0.4969074859409026
 20
0.0493756536146085
 10
-0.488191650604861
 20
0.0552257413081038
 10
-0.4786510345073169
 20
0.0594807893042623
 10
-0.468543177933115
 20
0.0620599232776919
 10
-0.4581741157965895
 20
0.0628644587266166
 10
-0.4478178499504053
 20
0.0619040837405326
 10
-0.4377785277604933
 20
0.0591846133512352
 10
-0.4283260044086676
 20
0.054808239406616
 10
-0.4174361296678922
 20
0.0468980602313402
  0
LWPOLYLINE
  5
10A
330
C9
100
AcDbEntity
  8
AM_9
100
AcDbPolyline
 90
        5
 70
     0
 43
0.0
 10
-0.3978595739101103
 20
0.0122343187990935
 10
-0.4002513095739796
 20
0.0209860051686114
 10
-0.4045363703420275
 20
0.0305760837301668
 10
-0.410322915778112
 20
0.0392753221265815
 10
-0.4174361296678922
 20
0.0468980602313402
  0
LWPOLYLINE
  5
10B
330
C9
100
AcDbEntity
  8
AM_9
100
AcDbPolyline
 90
        4
 70
     0
 43
0.0
 10
-0.3966994490444856
 20
-0.0020374886108221
 10
-0.3966737476686093
 20
0.0002724906752037
 10
-0.3975957571711877
 20
0.0108084035857996
 10
-0.3978595739101103
 20
0.0122343187990935
  0
LWPOLYLINE
  5
10C
330
C9
100
AcDbEntity
  8
AM_9
100
AcDbPolyline
 90
        6
 70
     0
 43
0.0
 10
-0.4174361296678917
 20
-0.0468980602313399
 10
-0.4102396889738627
 20
-0.0391693195257035
 10
-0.404406477717715
 20
-0.0303392714375277
 10
-0.4001178679247968
 20
-0.0206011216859664
 10
-0.3975050863394395
 20
-0.0102711672983154
 10
-0.3966994490444856
 20
-0.0020374886108221
  0
ARC
  5
10D
330
C9
100
AcDbEntity
  8
AM_9
100
AcDbCircle
 10
-0.6100000000000045
 20
-0.0000000000000515
 30
0.0
 40
0.9252000000000506
100
AcDbArc
 50
73.1158263194705
 51
97.45235424469884
  0
ARC
  5
10E
330
C9
100
AcDbEntity
  8
AM_9
100
AcDbCircle
 10
-0.6100000000000014
 20
0.0000000000000134
 30
0.0
 40
0.925200000000013
100
AcDbArc
 50
262.5476457553006
 51
286.88417368053
  0
LINE
  5
10F
330
C9
100
AcDbEntity
  8
AM_9
100
AcDbLine
 10
-0.7300000000000001
 20
0.9173848919619291
 30
0.0
 11
-0.7300000000000001
 21
-0.9173848919619289
 31
0.0
  0
LINE
  5
110
330
C9
100
AcDbEntity
  8
AM_9
100
AcDbLine
 10
-0.3412868640425594
 20
0.8853181860573734
 30
0.0
 11
-0.3412868640425594
 21
-0.8853181860573732
 31
0.0
  0
LINE
  5
111
330
C9
100
AcDbEntity
  8
AM_5
100
AcDbLine
 10
-1.025
 20
0.3125
 30
0.0
 11
-1.025
 21
0.56
 31
0.0
  0
LINE
  5
112
330
C9
100
AcDbEntity
  8
AM_5
100
AcDbLine
 10
-1.215
 20
0.3125
 30
0.0
 11
-1.215
 21
0.56
 31
0.0
  0
LINE
  5
113
330
C9
100
AcDbEntity
  8
AM_7
100
AcDbLine
 10
-0.4600000000000001
 20
-0.0111363636363584
 30
0.0
 11
-0.4600000000000001
 21
0.0111363636363582
 31
0.0
  0
LINE
  5
114
330
C9
100
AcDbEntity
  8
AM_7
100
AcDbLine
 10
-1.12
 20
0.5893967962988261
 30
0.0
 11
-1.12
 21
0.2601963534142165
 31
0.0
  0
LWPOLYLINE
  5
115
330
C9
100
AcDbEntity
  8
AM_4
100
AcDbPolyline
 90
        5
 70
     0
 43
0.0
 10
-1.12
 20
0.1941318667697146
 10
-1.131806719969883
 20
0.1933509649560126
 10
-1.143613439939767
 20
0.1909333973525695
 10
-1.154420933616128
 20
0.1870689452822237
 10
-1.164398925539907
 20
0.1817204285853788
  0
LWPOLYLINE
  5
116
330
C9
100
AcDbEntity
  8
AM_4
100
AcDbPolyline
 90
        6
 70
     0
 43
0.0
 10
-1.075799503183442
 20
0.1818473028665496
 10
-1.078589861804045
 20
0.1835356339191483
 10
-1.089081616166194
 20
0.1885152338612987
 10
-1.100815513144151
 20
0.1920436057575602
 10
-1.110225423608288
 20
0.1935979296192026
 10
-1.12
 20
0.1941318667697146
  0
LINE
  5
117
330
C9
100
AcDbEntity
  8
AM_4
100
AcDbLine
 10
-1.34
 20
-0.5376000000000001
 30
0.0
 11
-1.3176
 21
-0.56
 31
0.0
  0
LINE
  5
118
330
C9
100
AcDbEntity
  8
AM_4
100
AcDbLine
 10
-1.3176
 20
0.56
 30
0.0
 11
-1.34
 21
0.5376000000000001
 31
0.0
  0
LINE
  5
119
330
C9
100
AcDbEntity
  8
AM_4
100
AcDbLine
 10
-1.34
 20
0.5376000000000001
 30
0.0
 11
-1.34
 21
-0.5376000000000001
 31
0.0
  0
LWPOLYLINE
  5
11A
330
C9
100
AcDbEntity
  8
AM_4
100
AcDbPolyline
 90
       38
 70
     0
 43
0.0
 10
-1.03948731324535
 20
0.2341601113953046
 10
-1.040986134177394
 20
0.223278978579505
 10
-1.044452320275326
 20
0.212682046403051
 10
-1.049720201135206
 20
0.2027696336516697
 10
-1.056606559113072
 20
0.1936864330361138
 10
-1.065373270548353
 20
0.1852827628110914
 10
-1.075428559348658
 20
0.1782315436731501
 10
-1.087269711210845
 20
0.1723991746146046
 10
-1.099937887486581
 20
0.1684144684328826
 10
-1.11376628106801
 20
0.1663442497126792
 10
-1.12776372501767
 20
0.166457799548789
 10
-1.141829924258417
 20
0.1688527704478029
 10
-1.155273052211044
 20
0.1734578821272315
 10
-1.167601824280326
 20
0.1801326113622748
 10
-1.178521427358075
 20
0.1886894500947437
 10
-1.187313142882778
 20
0.1984992863512292
 10
-1.194101941781874
 20
0.2095329419592224
 10
-1.198340222415118
 20
0.2206452420189639
 10
-1.200392125394185
 20
0.2321628973850693
 10
-1.200206958464798
 20
0.2430162381017912
 10
-1.198014852391073
 20
0.2535817373063142
 10
-1.193948046643035
 20
0.2634207967756029
 10
-1.18816377804815
 20
0.2724698104828472
 10
-1.180524819255435
 20
0.2808179988523185
 10
-1.171479189409976
 20
0.2879638629370233
 10
-1.160571023870728
 20
0.2941122705981489
 10
-1.148662936294243
 20
0.298683999231921
 10
-1.135321836693194
 20
0.3017182979214583
 10
-1.121574039368065
 20
0.302885050498067
 10
-1.107369864054186
 20
0.3020963369713409
 10
-1.09352084520733
 20
0.2993208479458999
 10
-1.08040295513605
 20
0.2945592026451728
 10
-1.068445201067409
 20
0.2879130082423482
 10
-1.05831990826653
 20
0.2797177113697275
 10
-1.0500382430607
 20
0.2700102065265018
 10
-1.044261695199488
 20
0.2596751247020676
 10
-1.040661673646025
 20
0.248479168012587
 10
-1.03948731324535
 20
0.2341601113953046
  0
LINE
  5
11B
330
C9
100
AcDbEntity
  8
AM_4
100
AcDbLine
 10
-1.3176
 20
-0.56
 30
0.0
 11
-0.98
 21
-0.56
 31
0.0
  0
LINE
  5
11C
330
C9
100
AcDbEntity
  8
AM_4
100
AcDbLine
 10
-0.98
 20
0.56
 30
0.0
 11
-1.039433139804071
 21
0.56
 31
0.0
  0
LINE
  5
11D
330
C9
100
AcDbEntity
  8
AM_4
100
AcDbLine
 10
-1.200566860195929
 20
0.56
 30
0.0
 11
-1.3176
 21
0.56
 31
0.0
  0
LINE
  5
11E
330
C9
100
AcDbEntity
  8
AM_4
100
AcDbLine
 10
-1.3176
 20
0.56
 30
0.0
 11
-1.3176
 21
-0.56
 31
0.0
  0
LWPOLYLINE
  5
11F
330
C9
100
AcDbEntity
  8
AM_4
100
AcDbPolyline
 90
       21
 70
     0
 43
0.0
 10
-1.039433139804075
 20
0.5599999999999996
 10
-1.039433473078692
 20
0.5599999580826958
 10
-1.040550038446206
 20
0.5598604661578477
 10
-1.043536485285933
 20
0.559496651607599
 10
-1.048441974517588
 20
0.5589284769792517
 10
-1.055024660277473
 20
0.5582238123635398
 10
-1.063302040465001
 20
0.5574323161629325
 10
-1.073229199387185
 20
0.5566230545459828
 10
-1.084559773404501
 20
0.5558873638488716
 10
-1.097186718167808
 20
0.555305208842635
 10
-1.110755424343956
 20
0.5549604393173386
 10
-1.124711786629496
 20
0.5549102668266782
 10
-1.138929003840099
 20
0.5551767412511168
 10
-1.152347927999855
 20
0.5557215703962436
 10
-1.165210640184966
 20
0.5565098259971895
 10
-1.176167299503131
 20
0.5573851847841792
 10
-1.185761202206183
 20
0.5583044447061526
 10
-1.192710571581979
 20
0.5590586744299095
 10
-1.197710878951767
 20
0.5596469630630021
 10
-1.200120949249499
 20
0.5599440661741747
 10
-1.200566860195864
 20
0.5599999999999917
  0
ELLIPSE
  5
120
330
C9
100
AcDbEntity
  8
AM_4
100
AcDbEllipse
 10
-1.12
 20
0.2332358932279959
 30
0.0
 11
0.0724499999999999
 21
0.0
 31
0.0
210
0.0
220
0.0
230
1.0
 40
0.9063077870366512
 41
0.0
 42
6.283185307179586
  0
ENDBLK
  5
CC
330
C9
100
AcDbEntity
  8
0
100
AcDbBlockEnd
  0
BLOCK
  5
123
330
121
100
AcDbEntity
  8
0
100
AcDbBlockBegin
  2
4_124099H_0_in_124099_2
 70
     2
 10
0.0
 20
0.0
 30
0.0
  3
4_124099H_0_in_124099_2
  1

  0
ATTDEF
  5
125
330
121
100
AcDbEntity
  8
AM_6
100
AcDbText
 10
5.048999999999999
 20
1.69
 30
0.0
 40
0.5
  1
F4B-SC -I-Housing
100
AcDbAttributeDefinition
  3

  2
NN
 70
     8
280
     0
  0
ATTDEF
  5
126
330
121
100
AcDbEntity
  8
AM_6
100
AcDbText
 10
5.048999999999999
 20
1.19
 30
0.0
 40
0.5
  1
SC 4 Bolt Flange Bearings -(Normal Duty)
100
AcDbAttributeDefinition
  3

  2
NT
 70
     8
280
     0
  0
ATTDEF
  5
127
330
121
100
AcDbEntity
  8
AM_6
100
AcDbText
 10
5.048999999999999
 20
0.6900000000000002
 30
0.0
 40
0.5
  1
124099H
100
AcDbAttributeDefinition
  3

  2
NB
 70
     8
280
     0
  0
ATTDEF
  5
128
330
121
100
AcDbEntity
  8
AM_6
100
AcDbText
 10
5.048999999999999
 20
0.1900000000000002
 30
0.0
 40
0.5
  1
$PN.H
100
AcDbAttributeDefinition
  3

  2
NBSYN
 70
     8
280
     0
  0
ATTDEF
  5
129
330
121
100
AcDbEntity
  8
AM_6
100
AcDbText
 10
5.048999999999999
 20
-0.3099999999999998
 30
0.0
 40
0.5
  1
124099
100
AcDbAttributeDefinition
  3

  2
LINA
 70
     8
280
     0
  0
ATTDEF
  5
12A
330
121
100
AcDbEntity
  8
AM_6
100
AcDbText
 10
5.048999999999999
 20
-0.8099999999999998
 30
0.0
 40
0.5
  1
204
100
AcDbAttributeDefinition
  3

  2
SERIES
 70
     8
280
     0
  0
ATTDEF
  5
12B
330
121
100
AcDbEntity
  8
AM_6
100
AcDbText
 10
5.048999999999999
 20
-1.31
 30
0.0
 40
0.5
  1
5/8
100
AcDbAttributeDefinition
  3

  2
SS
 70
     8
280
     0
  0
ATTDEF
  5
12C
330
121
100
AcDbEntity
  8
AM_6
100
AcDbText
 10
5.048999999999999
 20
-1.81
 30
0.0
 40
0.5
  1
124099
100
AcDbAttributeDefinition
  3

  2
PN
 70
     8
280
     0
  0
ATTDEF
  5
12D
330
121
100
AcDbEntity
  8
AM_6
100
AcDbText
 10
5.048999999999999
 20
-2.31
 30
0.0
 40
0.5
  1
F4B-SC-010L
100
AcDbAttributeDefinition
  3

  2
DESCRIPTION
 70
     8
280
     0
  0
ATTDEF
  5
12E
330
121
100
AcDbEntity
  8
AM_6
100
AcDbText
 10
5.048999999999999
 20
-2.81
 30
0.0
 40
0.5
  1
1
100
AcDbAttributeDefinition
  3

  2
LF1
 70
     8
280
     0
  0
ATTDEF
  5
12F
330
121
100
AcDbEntity
  8
AM_6
100
AcDbText
 10
5.048999999999999
 20
-3.31
 30
0.0
 40
0.5
  1
1.23
100
AcDbAttributeDefinition
  3

  2
A
 70
     8
280
     0
  0
ATTDEF
  5
130
330
121
100
AcDbEntity
  8
AM_6
100
AcDbText
 10
5.048999999999999
 20
-3.81
 30
0.0
 40
0.5
  1
3.38
100
AcDbAttributeDefinition
  3

  2
B
 70
     8
280
     0
  0
ATTDEF
  5
131
330
121
100
AcDbEntity
  8
AM_6
100
AcDbText
 10
5.048999999999999
 20
-4.31
 30
0.0
 40
0.5
  1
1.34
100
AcDbAttributeDefinition
  3

  2
C
 70
     8
280
     0
  0
ATTDEF
  5
132
330
121
100
AcDbEntity
  8
AM_6
100
AcDbText
 10
5.048999999999999
 20
-4.81
 30
0.0
 40
0.5
  1
2.5
100
AcDbAttributeDefinition
  3

  2
D
 70
     8
280
     0
  0
ATTDEF
  5
133
330
121
100
AcDbEntity
  8
AM_6
100
AcDbText
 10
5.048999999999999
 20
-5.31
 30
0.0
 40
0.5
  1
3/8
100
AcDbAttributeDefinition
  3

  2
F
 70
     8
280
     0
  0
ATTDEF
  5
134
330
121
100
AcDbEntity
  8
AM_6
100
AcDbText
 10
5.048999999999999
 20
-5.81
 30
0.0
 40
0.5
  1
0.44
100
AcDbAttributeDefinition
  3

  2
H
 70
     8
280
     0
  0
ATTDEF
  5
135
330
121
100
AcDbEntity
  8
AM_6
100
AcDbText
 10
5.048999999999999
 20
-6.31
 30
0.0
 40
0.5
  1
0.36
100
AcDbAttributeDefinition
  3

  2
J
 70
     8
280
     0
  0
ATTDEF
  5
136
330
121
100
AcDbEntity
  8
AM_6
100
AcDbText
 10
5.048999999999999
 20
-6.81
 30
0.0
 40
0.5
  1
1.12
100
AcDbAttributeDefinition
  3

  2
L
 70
     8
280
     0
  0
ATTDEF
  5
137
330
121
100
AcDbEntity
  8
AM_6
100
AcDbText
 10
5.048999999999999
 20
-7.31
 30
0.0
 40
0.5
  1
1.94
100
AcDbAttributeDefinition
  3

  2
N
 70
     8
280
     0
  0
ATTDEF
  5
138
330
121
100
AcDbEntity
  8
AM_6
100
AcDbText
 10
5.048999999999999
 20
-7.81
 30
0.0
 40
0.5
  1
baldor
100
AcDbAttributeDefinition
  3

  2
COMPANY
 70
     8
280
     0
  0
LINE
  5
139
330
121
100
AcDbEntity
  8
AM_9
100
AcDbLine
 10
-0.7599999999999999
 20
1.365
 30
0.0
 11
-0.46
 21
1.365
 31
0.0
  0
LINE
  5
13A
330
121
100
AcDbEntity
  8
AM_9
100
AcDbLine
 10
-0.46
 20
1.365
 30
0.0
 11
-0.46
 21
1.565
 31
0.0
  0
LINE
  5
13B
330
121
100
AcDbEntity
  8
AM_9
100
AcDbLine
 10
-0.7599999999999999
 20
1.565
 30
0.0
 11
-0.7599999999999999
 21
1.365
 31
0.0
  0
LINE
  5
13C
330
121
100
AcDbEntity
  8
AM_9
100
AcDbLine
 10
-0.2346666666666668
 20
1.69
 30
0.0
 11
-0.2346666666666668
 21
1.565
 31
0.0
  0
LINE
  5
13D
330
121
100
AcDbEntity
  8
AM_9
100
AcDbLine
 10
-0.1466666666666666
 20
1.69
 30
0.0
 11
-0.1466666666666666
 21
1.565
 31
0.0
  0
LINE
  5
13E
330
121
100
AcDbEntity
  8
AM_9
100
AcDbLine
 10
-0.396
 20
1.326210235533031
 30
0.0
 11
-0.44
 21
1.326210235533031
 31
0.0
  0
LINE
  5
13F
330
121
100
AcDbEntity
  8
AM_9
100
AcDbLine
 10
-0.4400000000000001
 20
1.565
 30
0.0
 11
-0.1466666666666666
 21
1.565
 31
0.0
  0
LINE
  5
140
330
121
100
AcDbEntity
  8
AM_9
100
AcDbLine
 10
-0.588
 20
0.3125000000000007
 30
0.0
 11
-0.1759999999999999
 21
0.3125000000000007
 31
0.0
  0
LINE
  5
141
330
121
100
AcDbEntity
  8
AM_9
100
AcDbLine
 10
-0.588
 20
-0.3125
 30
0.0
 11
-0.1759999999999999
 21
-0.3125
 31
0.0
  0
LINE
  5
142
330
121
100
AcDbEntity
  8
AM_9
100
AcDbLine
 10
-0.8920000000000001
 20
-0.9252
 30
0.0
 11
-0.176
 21
-0.9252
 31
0.0
  0
LINE
  5
143
330
121
100
AcDbEntity
  8
AM_9
100
AcDbLine
 10
-0.176
 20
0.9252
 30
0.0
 11
-0.8920000000000001
 21
0.9252
 31
0.0
  0
LINE
  5
144
330
121
100
AcDbEntity
  8
AM_9
100
AcDbLine
 10
-0.588
 20
-0.3125
 30
0.0
 11
-0.588
 21
0.3125000000000007
 31
0.0
  0
LINE
  5
145
330
121
100
AcDbEntity
  8
AM_9
100
AcDbLine
 10
-0.9800000000000001
 20
-0.9668666666666665
 30
0.0
 11
-0.8920000000000001
 21
-0.9668666666666665
 31
0.0
  0
LINE
  5
146
330
121
100
AcDbEntity
  8
AM_9
100
AcDbLine
 10
-0.8920000000000001
 20
0.9668666666666665
 30
0.0
 11
-0.9800000000000001
 21
0.9668666666666665
 31
0.0
  0
LINE
  5
147
330
121
100
AcDbEntity
  8
AM_9
100
AcDbLine
 10
-0.8920000000000001
 20
0.9668666666666665
 30
0.0
 11
-0.8920000000000001
 21
-0.9668666666666665
 31
0.0
  0
LINE
  5
148
330
121
100
AcDbEntity
  8
AM_9
100
AcDbLine
 10
-0.176
 20
-0.9668666666666665
 30
0.0
 11
0.0
 21
-0.9668666666666665
 31
0.0
  0
LINE
  5
149
330
121
100
AcDbEntity
  8
AM_9
100
AcDbLine
 10
0.0
 20
0.9668666666666665
 30
0.0
 11
-0.176
 21
0.9668666666666665
 31
0.0
  0
LINE
  5
14A
330
121
100
AcDbEntity
  8
AM_9
100
AcDbLine
 10
-0.176
 20
0.9668666666666665
 30
0.0
 11
-0.176
 21
-0.9668666666666665
 31
0.0
  0
LINE
  5
14B
330
121
100
AcDbEntity
  8
AM_9
100
AcDbLine
 10
-0.396
 20
-1.631917203068938
 30
0.0
 11
-0.4399999999999999
 21
-1.631917203068938
 31
0.0
  0
LINE
  5
14C
330
121
100
AcDbEntity
  8
AM_9
100
AcDbLine
 10
-0.396
 20
1.631917203068938
 30
0.0
 11
-0.4399999999999999
 21
1.631917203068938
 31
0.0
  0
LINE
  5
14D
330
121
100
AcDbEntity
  8
AM_9
100
AcDbLine
 10
-0.396
 20
1.69
 30
0.0
 11
-0.396
 21
1.326210235533031
 31
0.0
  0
LINE
  5
14E
330
121
100
AcDbEntity
  8
AM_9
100
AcDbLine
 10
-0.396
 20
-1.314707334800752
 30
0.0
 11
-0.396
 21
-1.69
 31
0.0
  0
LWPOLYLINE
  5
14F
330
121
100
AcDbEntity
  8
AM_9
100
AcDbPolyline
 90
        4
 70
     0
 43
0.0
 10
-0.9790000000000001
 20
1.231364294992838
 10
-0.9788723083110606
 20
1.230727447778116
 10
-0.9783278237970536
 20
1.231371923669589
 10
-0.9779748279792423
 20
1.231961733484505
  0
LINE
  5
150
330
121
100
AcDbEntity
  8
AM_9
100
AcDbLine
 10
-0.44
 20
-1.311959490648781
 30
0.0
 11
-0.396
 21
-1.314707334800752
 31
0.0
  0
LINE
  5
151
330
121
100
AcDbEntity
  8
AM_9
100
AcDbLine
 10
-0.4399999999999999
 20
-1.395408163265306
 30
0.0
 11
-0.396
 21
-1.399617346938776
 31
0.0
  0
LINE
  5
152
330
121
100
AcDbEntity
  8
AM_9
100
AcDbLine
 10
-0.4399999999999999
 20
1.0625
 30
0.0
 11
0.0000000000000001
 21
1.0625
 31
0.0
  0
LINE
  5
153
330
121
100
AcDbEntity
  8
AM_9
100
AcDbLine
 10
0.0000000000000001
 20
1.4375
 30
0.0
 11
-0.4399999999999999
 21
1.4375
 31
0.0
  0
LINE
  5
154
330
121
100
AcDbEntity
  8
AM_9
100
AcDbLine
 10
-0.4399999999999999
 20
-1.4375
 30
0.0
 11
0.0000000000000001
 21
-1.4375
 31
0.0
  0
LINE
  5
155
330
121
100
AcDbEntity
  8
AM_9
100
AcDbLine
 10
0.0000000000000001
 20
-1.0625
 30
0.0
 11
-0.4399999999999999
 21
-1.0625
 31
0.0
  0
LINE
  5
156
330
121
100
AcDbEntity
  8
AM_7
100
AcDbLine
 10
0.0219999999999999
 20
1.25
 30
0.0
 11
-0.4620000000000001
 21
1.25
 31
0.0
  0
LINE
  5
157
330
121
100
AcDbEntity
  8
AM_7
100
AcDbLine
 10
0.0219999999999999
 20
-1.25
 30
0.0
 11
-0.4620000000000001
 21
-1.25
 31
0.0
  0
LINE
  5
158
330
121
100
AcDbEntity
  8
AM_7
100
AcDbLine
 10
-1.4015
 20
0.0
 30
0.0
 11
0.0489999999999997
 21
0.0
 31
0.0
  0
LINE
  5
159
330
121
100
AcDbEntity
  8
AM_4
100
AcDbLine
 10
-0.9790000000000001
 20
1.565
 30
0.0
 11
-0.4400000000000001
 21
1.565
 31
0.0
  0
LINE
  5
15A
330
121
100
AcDbEntity
  8
AM_4
100
AcDbLine
 10
-0.9790000000000001
 20
1.565
 30
0.0
 11
-0.9790000000000001
 21
1.231364294992838
 31
0.0
  0
LINE
  5
15B
330
121
100
AcDbEntity
  8
AM_4
100
AcDbLine
 10
-0.9349999999999998
 20
1.565
 30
0.0
 11
-0.9349999999999998
 21
1.251899305197956
 31
0.0
  0
LWPOLYLINE
  5
15C
330
121
100
AcDbEntity
  8
AM_4
100
AcDbPolyline
 90
       12
 70
     0
 43
0.0
 10
-0.9401900547780907
 20
1.251487347623987
 10
-0.9467444828882231
 20
1.250779497319704
 10
-0.9529463823502899
 20
1.249450337294248
 10
-0.9586048396176174
 20
1.24758084895236
 10
-0.9636548804133434
 20
1.245267477292294
 10
-0.9683775568152702
 20
1.242356556937849
 10
-0.972268565816442
 20
1.239173077379855
 10
-0.9757562123191595
 20
1.235248001519923
 10
-0.9780495196413793
 20
1.231836094866535
 10
-0.9787310011612884
 20
1.230797005914873
 10
-0.9789785316275708
 20
1.230959485125583
 10
-0.9790000000000001
 20
1.231364294992838
  0
LINE
  5
15D
330
121
100
AcDbEntity
  8
AM_4
100
AcDbLine
 10
-0.9800000000000001
 20
1.303758310071277
 30
0.0
 11
-0.9800000000000001
 21
-1.303758310071277
 31
0.0
  0
ARC
  5
15E
330
121
100
AcDbEntity
  8
AM_4
100
AcDbCircle
 10
-0.9359999999999993
 20
-1.303758310071276
 30
0.0
 40
0.0440000000000008
100
AcDbArc
 50
180.0
 51
264.5355274590107
  0
ARC
  5
15F
330
121
100
AcDbEntity
  8
AM_4
100
AcDbCircle
 10
-0.9359999999999907
 20
1.303758310071275
 30
0.0
 40
0.0440000000000093
100
AcDbArc
 50
167.7612442320597
 51
180.0
  0
LINE
  5
160
330
121
100
AcDbEntity
  8
AM_4
100
AcDbLine
 10
-0.9349999999999998
 20
1.251899305197956
 30
0.0
 11
-0.44
 21
1.302752448513322
 31
0.0
  0
LINE
  5
161
330
121
100
AcDbEntity
  8
AM_4
100
AcDbLine
 10
-0.9401900547780907
 20
1.251487347623987
 30
0.0
 11
-0.9349999999999998
 21
1.251899305197956
 31
0.0
  0
LINE
  5
162
330
121
100
AcDbEntity
  8
AM_4
100
AcDbLine
 10
-0.9401900547780907
 20
1.251487347623987
 30
0.0
 11
-0.9401900547780907
 21
-1.347558349351586
 31
0.0
  0
LINE
  5
163
330
121
100
AcDbEntity
  8
AM_4
100
AcDbLine
 10
-0.9401900547780907
 20
-1.347558349351586
 30
0.0
 11
-0.4399999999999999
 21
-1.395408163265306
 31
0.0
  0
LINE
  5
164
330
121
100
AcDbEntity
  8
AM_4
100
AcDbLine
 10
-0.4399999999999999
 20
0.4753169858147773
 30
0.0
 11
-0.4399999999999999
 21
1.69
 31
0.0
  0
LINE
  5
165
330
121
100
AcDbEntity
  8
AM_4
100
AcDbLine
 10
-0.4399999999999999
 20
0.4753169858147773
 30
0.0
 11
-0.396
 21
0.4800763914972708
 31
0.0
  0
LINE
  5
166
330
121
100
AcDbEntity
  8
AM_4
100
AcDbLine
 10
-0.396
 20
-0.4800763914972708
 30
0.0
 11
-0.4399999999999999
 21
-0.4753169858147772
 31
0.0
  0
LINE
  5
167
330
121
100
AcDbEntity
  8
AM_4
100
AcDbLine
 10
-0.4399999999999999
 20
1.69
 30
0.0
 11
0.0000000000000001
 21
1.69
 31
0.0
  0
LINE
  5
168
330
121
100
AcDbEntity
  8
AM_4
100
AcDbLine
 10
-0.396
 20
-1.0295
 30
0.0
 11
-0.4399999999999999
 21
-1.0295
 31
0.0
  0
LINE
  5
169
330
121
100
AcDbEntity
  8
AM_4
100
AcDbLine
 10
-0.396
 20
1.0295
 30
0.0
 11
-0.4399999999999999
 21
1.0295
 31
0.0
  0
LINE
  5
16A
330
121
100
AcDbEntity
  8
AM_4
100
AcDbLine
 10
-0.3959999999999999
 20
1.220318355840674
 30
0.0
 11
-0.4399999999999999
 21
1.220318355840674
 31
0.0
  0
LINE
  5
16B
330
121
100
AcDbEntity
  8
AM_4
100
AcDbLine
 10
-0.3959999999999999
 20
-1.220318355840674
 30
0.0
 11
-0.3959999999999999
 21
1.220318355840674
 31
0.0
  0
LINE
  5
16C
330
121
100
AcDbEntity
  8
AM_4
100
AcDbLine
 10
-0.4399999999999999
 20
-1.220318355840674
 30
0.0
 11
-0.3959999999999999
 21
-1.220318355840674
 31
0.0
  0
LINE
  5
16D
330
121
100
AcDbEntity
  8
AM_4
100
AcDbLine
 10
-0.4399999999999999
 20
1.25
 30
0.0
 11
0.0000000000000001
 21
1.25
 31
0.0
  0
LINE
  5
16E
330
121
100
AcDbEntity
  8
AM_4
100
AcDbLine
 10
0.0000000000000001
 20
-1.69
 30
0.0
 11
0.0000000000000001
 21
1.69
 31
0.0
  0
LINE
  5
16F
330
121
100
AcDbEntity
  8
AM_4
100
AcDbLine
 10
-0.4399999999999999
 20
-1.25
 30
0.0
 11
0.0000000000000001
 21
-1.25
 31
0.0
  0
LINE
  5
170
330
121
100
AcDbEntity
  8
AM_4
100
AcDbLine
 10
-0.4399999999999999
 20
-1.69
 30
0.0
 11
-0.4399999999999999
 21
-0.4753169858147772
 31
0.0
  0
LINE
  5
171
330
121
100
AcDbEntity
  8
AM_4
100
AcDbLine
 10
-0.4399999999999999
 20
-1.69
 30
0.0
 11
0.0000000000000001
 21
-1.69
 31
0.0
  0
ENDBLK
  5
124
330
121
100
AcDbEntity
  8
0
100
AcDbBlockEnd
  0
ENDSEC
  0
SECTION
  2
ENTITIES
  0
INSERT
  5
6F
330
1F
100
AcDbEntity
  8
0
100
AcDbBlockReference
  2
1_124099_2
 10
0.0
 20
0.0
 30
0.0
  0
POINT
  5
173
330
1F
100
AcDbEntity
  8
ConnectionPoints
100
AcDbPoint
 10
-0.1100000000000001
 20
0.0
 30
0.0
  0
POINT
  5
174
330
1F
100
AcDbEntity
  8
ConnectionPoints
100
AcDbPoint
 10
-1.34
 20
0.0
 30
0.0000000000000001
  0
POINT
  5
175
330
1F
100
AcDbEntity
  8
ConnectionPoints
100
AcDbPoint
 10
-0.61
 20
1.565
 30
0.0
  0
POINT
  5
176
330
1F
100
AcDbEntity
  8
ConnectionPoints
100
AcDbPoint
 10
-1.34
 20
0.0
 30
0.0000000000000001
  0
ENDSEC
  0
SECTION
  2
OBJECTS
  0
DICTIONARY
  5
C
330
0
100
AcDbDictionary
281
     1
  3
ACAD_DETAILVIEWSTYLE
350
17E
  3
ACAD_GROUP
350
D
  3
ACAD_LAYOUT
350
1A
  3
ACAD_MATERIAL
350
43
  3
ACAD_MLEADERSTYLE
350
6B
  3
ACAD_MLINESTYLE
350
17
  3
ACAD_PLOTSETTINGS
350
19
  3
ACAD_PLOTSTYLENAME
350
E
  3
ACAD_SCALELIST
350
47
  3
ACAD_SECTIONVIEWSTYLE
350
17F
  3
ACAD_TABLESTYLE
350
69
  3
ACAD_VISUALSTYLE
350
2A
  3
ACDB_RECOMPOSE_DATA
350
17B
  3
AcDbVariableDictionary
350
177
  0
SUN
  5
6D
330
29
100
AcDbSun
 90
        1
290
     0
 63
     7
421
 16777215
 40
1.0
291
     1
 91
  2455826
 92
 54000000
292
     0
 70
     2
 71
   256
280
     1
  0
DICTIONARY
  5
17E
102
{ACAD_REACTORS
330
C
102
}
330
C
100
AcDbDictionary
281
     1
  0
DICTIONARY
  5
D
102
{ACAD_REACTORS
330
C
102
}
330
C
100
AcDbDictionary
281
     1
  0
DICTIONARY
  5
1A
102
{ACAD_REACTORS
330
C
102
}
330
C
100
AcDbDictionary
281
     1
  3
Layout1
350
1E
  3
Layout2
350
26
  3
Model
350
22
  0
DICTIONARY
  5
43
102
{ACAD_REACTORS
330
C
102
}
330
C
100
AcDbDictionary
281
     1
  3
ByBlock
350
45
  3
ByLayer
350
44
  3
Global
350
46
  0
DICTIONARY
  5
6B
102
{ACAD_REACTORS
330
C
102
}
330
C
100
AcDbDictionary
281
     1
  3
Standard
350
6C
  0
DICTIONARY
  5
17
102
{ACAD_REACTORS
330
C
102
}
330
C
100
AcDbDictionary
281
     1
  3
Standard
350
18
  0
DICTIONARY
  5
19
102
{ACAD_REACTORS
330
C
102
}
330
C
100
AcDbDictionary
281
     1
  0
ACDBDICTIONARYWDFLT
  5
E
102
{ACAD_REACTORS
330
C
102
}
330
C
100
AcDbDictionary
281
     1
  3
Normal
350
F
100
AcDbDictionaryWithDefault
340
F
  0
DICTIONARY
  5
47
102
{ACAD_REACTORS
330
C
102
}
330
C
100
AcDbDictionary
281
     1
  3
A0
350
48
  3
A1
350
49
  3
A2
350
4A
  3
A3
350
4B
  3
A4
350
4C
  3
A5
350
4D
  3
A6
350
4E
  3
A7
350
4F
  3
A8
350
50
  3
A9
350
51
  3
B0
350
52
  3
B1
350
53
  3
B2
350
54
  3
B3
350
55
  3
B4
350
56
  3
B5
350
57
  3
B6
350
58
  3
B7
350
59
  3
B8
350
5A
  3
B9
350
5B
  3
C0
350
5C
  3
C1
350
5D
  3
C2
350
5E
  3
C3
350
5F
  3
C4
350
60
  3
C5
350
61
  3
C6
350
62
  3
C7
350
63
  3
C8
350
64
  3
C9
350
65
  3
D0
350
66
  3
D1
350
67
  3
D2
350
68
  0
DICTIONARY
  5
17F
102
{ACAD_REACTORS
330
C
102
}
330
C
100
AcDbDictionary
281
     1
  0
DICTIONARY
  5
69
102
{ACAD_REACTORS
330
C
102
}
330
C
100
AcDbDictionary
281
     1
  3
Standard
350
6A
  0
DICTIONARY
  5
2A
102
{ACAD_REACTORS
330
C
102
}
330
C
100
AcDbDictionary
281
     1
  3
2dWireframe
350
2F
  3
Basic
350
32
  3
Brighten
350
36
  3
ColorChange
350
3A
  3
Conceptual
350
34
  3
Dim
350
35
  3
EdgeColorOff
350
3D
  3
Facepattern
350
39
  3
Flat
350
2B
  3
FlatWithEdges
350
2C
  3
Gouraud
350
2D
  3
GouraudWithEdges
350
2E
  3
Hidden
350
31
  3
JitterOff
350
3B
  3
Linepattern
350
38
  3
OverhangOff
350
3C
  3
Realistic
350
33
  3
Shaded
350
42
  3
Shaded with edges
350
41
  3
Shades of Gray
350
3E
  3
Sketchy
350
3F
  3
Thicken
350
37
  3
Wireframe
350
30
  3
X-Ray
350
40
  0
XRECORD
  5
17B
102
{ACAD_REACTORS
330
C
102
}
330
C
100
AcDbXrecord
280
     1
 90
        1
330
6A
  0
DICTIONARY
  5
177
102
{ACAD_REACTORS
330
C
102
}
330
C
100
AcDbDictionary
281
     1
  3
CANNOSCALE
350
178
  3
CMLEADERSTYLE
350
17D
  3
CTABLESTYLE
350
17C
  0
LAYOUT
  5
1E
102
{ACAD_REACTORS
330
1A
102
}
330
1A
100
AcDbPlotSettings
  1

  2
none_device
  4

  6

 40
0.0
 41
0.0
 42
0.0
 43
0.0
 44
0.0
 45
0.0
 46
0.0
 47
0.0
 48
0.0
 49
0.0
140
0.0
141
0.0
142
1.0
143
1.0
 70
   688
 72
     0
 73
     0
 74
     5
  7

 75
    16
 76
     0
 77
     2
 78
   300
147
1.0
148
0.0
149
0.0
100
AcDbLayout
  1
Layout1
 70
     1
 71
     1
 10
0.0
 20
0.0
 11
12.0
 21
9.0
 12
0.0
 22
0.0
 32
0.0
 14
1.000000000000000E+20
 24
1.000000000000000E+20
 34
1.000000000000000E+20
 15
-1.000000000000000E+20
 25
-1.000000000000000E+20
 35
-1.000000000000000E+20
146
0.0
 13
0.0
 23
0.0
 33
0.0
 16
1.0
 26
0.0
 36
0.0
 17
0.0
 27
1.0
 37
0.0
 76
     0
330
1B
  0
LAYOUT
  5
26
102
{ACAD_REACTORS
330
1A
102
}
330
1A
100
AcDbPlotSettings
  1

  2
none_device
  4

  6

 40
0.0
 41
0.0
 42
0.0
 43
0.0
 44
0.0
 45
0.0
 46
0.0
 47
0.0
 48
0.0
 49
0.0
140
0.0
141
0.0
142
1.0
143
1.0
 70
   688
 72
     0
 73
     0
 74
     5
  7

 75
    16
 76
     0
 77
     2
 78
   300
147
1.0
148
0.0
149
0.0
100
AcDbLayout
  1
Layout2
 70
     1
 71
     2
 10
0.0
 20
0.0
 11
0.0
 21
0.0
 12
0.0
 22
0.0
 32
0.0
 14
0.0
 24
0.0
 34
0.0
 15
0.0
 25
0.0
 35
0.0
146
0.0
 13
0.0
 23
0.0
 33
0.0
 16
1.0
 26
0.0
 36
0.0
 17
0.0
 27
1.0
 37
0.0
 76
     0
330
23
  0
LAYOUT
  5
22
102
{ACAD_REACTORS
330
1A
102
}
330
1A
100
AcDbPlotSettings
  1

  2
none_device
  4
Letter_(8.50_x_11.00_Inches)
  6

 40
6.35
 41
6.35
 42
6.35000508
 43
6.35000508
 44
215.9
 45
279.4
 46
0.0
 47
0.0
 48
0.0
 49
0.0
140
0.0
141
0.0
142
1.0
143
1.0
 70
  1712
 72
     0
 73
     0
 74
     0
  7

 75
     0
 76
     0
 77
     2
 78
   300
147
1.0
148
0.0
149
0.0
100
AcDbLayout
  1
Model
 70
     1
 71
     0
 10
0.0
 20
0.0
 11
12.0
 21
9.0
 12
0.0
 22
0.0
 32
0.0
 14
1.000000000000000E+20
 24
1.000000000000000E+20
 34
1.000000000000000E+20
 15
-1.000000000000000E+20
 25
-1.000000000000000E+20
 35
-1.000000000000000E+20
146
0.0
 13
0.0
 23
0.0
 33
0.0
 16
1.0
 26
0.0
 36
0.0
 17
0.0
 27
1.0
 37
0.0
 76
     0
330
1F
331
29
  0
MATERIAL
  5
45
102
{ACAD_REACTORS
330
43
102
}
330
43
100
AcDbMaterial
  1
ByBlock
 72
     1
 94
      127
  0
MATERIAL
  5
44
102
{ACAD_REACTORS
330
43
102
}
330
43
100
AcDbMaterial
  1
ByLayer
 72
     1
 94
      127
  0
MATERIAL
  5
46
102
{ACAD_REACTORS
330
43
102
}
330
43
100
AcDbMaterial
  1
Global
 72
     1
 94
      127
  0
MLEADERSTYLE
  5
6C
102
{ACAD_REACTORS
330
6B
102
}
330
6B
100
AcDbMLeaderStyle
179
     2
170
     2
171
     1
172
     0
 90
        2
 40
0.0
 41
0.0
173
     1
 91
-1056964608
340
14
 92
       -2
290
     1
 42
0.09
291
     1
 43
0.36
  3
Standard
341
0
 44
0.18
300

342
11
174
     1
178
     6
175
     1
176
     0
 93
-1056964608
 45
0.18
292
     0
297
     0
 46
0.18
343
0
 94
-1056964608
 47
1.0
 49
1.0
140
1.0
293
     1
141
0.0
294
     1
177
     0
142
1.0
295
     0
296
     0
143
0.125
271
     0
272
     9
273
     9
298
     0
  0
MLINESTYLE
  5
18
102
{ACAD_REACTORS
330
17
102
}
330
17
100
AcDbMlineStyle
  2
Standard
 70
     0
  3

 62
   256
 51
90.0
 52
90.0
 71
     2
 49
0.5
 62
   256
  6
BYLAYER
 49
-0.5
 62
   256
  6
BYLAYER
  0
ACDBPLACEHOLDER
  5
F
102
{ACAD_REACTORS
330
E
102
}
330
E
  0
SCALE
  5
48
102
{ACAD_REACTORS
330
47
102
}
330
47
100
AcDbScale
 70
     0
300
1:1
140
1.0
141
1.0
290
     1
  0
SCALE
  5
49
102
{ACAD_REACTORS
330
47
102
}
330
47
100
AcDbScale
 70
     0
300
1:2
140
1.0
141
2.0
290
     0
  0
SCALE
  5
4A
102
{ACAD_REACTORS
330
47
102
}
330
47
100
AcDbScale
 70
     0
300
1:4
140
1.0
141
4.0
290
     0
  0
SCALE
  5
4B
102
{ACAD_REACTORS
330
47
102
}
330
47
100
AcDbScale
 70
     0
300
1:5
140
1.0
141
5.0
290
     0
  0
SCALE
  5
4C
102
{ACAD_REACTORS
330
47
102
}
330
47
100
AcDbScale
 70
     0
300
1:8
140
1.0
141
8.0
290
     0
  0
SCALE
  5
4D
102
{ACAD_REACTORS
330
47
102
}
330
47
100
AcDbScale
 70
     0
300
1:10
140
1.0
141
10.0
290
     0
  0
SCALE
  5
4E
102
{ACAD_REACTORS
330
47
102
}
330
47
100
AcDbScale
 70
     0
300
1:16
140
1.0
141
16.0
290
     0
  0
SCALE
  5
4F
102
{ACAD_REACTORS
330
47
102
}
330
47
100
AcDbScale
 70
     0
300
1:20
140
1.0
141
20.0
290
     0
  0
SCALE
  5
50
102
{ACAD_REACTORS
330
47
102
}
330
47
100
AcDbScale
 70
     0
300
1:30
140
1.0
141
30.0
290
     0
  0
SCALE
  5
51
102
{ACAD_REACTORS
330
47
102
}
330
47
100
AcDbScale
 70
     0
300
1:40
140
1.0
141
40.0
290
     0
  0
SCALE
  5
52
102
{ACAD_REACTORS
330
47
102
}
330
47
100
AcDbScale
 70
     0
300
1:50
140
1.0
141
50.0
290
     0
  0
SCALE
  5
53
102
{ACAD_REACTORS
330
47
102
}
330
47
100
AcDbScale
 70
     0
300
1:100
140
1.0
141
100.0
290
     0
  0
SCALE
  5
54
102
{ACAD_REACTORS
330
47
102
}
330
47
100
AcDbScale
 70
     0
300
2:1
140
2.0
141
1.0
290
     0
  0
SCALE
  5
55
102
{ACAD_REACTORS
330
47
102
}
330
47
100
AcDbScale
 70
     0
300
4:1
140
4.0
141
1.0
290
     0
  0
SCALE
  5
56
102
{ACAD_REACTORS
330
47
102
}
330
47
100
AcDbScale
 70
     0
300
8:1
140
8.0
141
1.0
290
     0
  0
SCALE
  5
57
102
{ACAD_REACTORS
330
47
102
}
330
47
100
AcDbScale
 70
     0
300
10:1
140
10.0
141
1.0
290
     0
  0
SCALE
  5
58
102
{ACAD_REACTORS
330
47
102
}
330
47
100
AcDbScale
 70
     0
300
100:1
140
100.0
141
1.0
290
     0
  0
SCALE
  5
59
102
{ACAD_REACTORS
330
47
102
}
330
47
100
AcDbScale
 70
     0
300
1/128" = 1'-0"
140
0.0078125
141
12.0
290
     0
  0
SCALE
  5
5A
102
{ACAD_REACTORS
330
47
102
}
330
47
100
AcDbScale
 70
     0
300
1/64" = 1'-0"
140
0.015625
141
12.0
290
     0
  0
SCALE
  5
5B
102
{ACAD_REACTORS
330
47
102
}
330
47
100
AcDbScale
 70
     0
300
1/32" = 1'-0"
140
0.03125
141
12.0
290
     0
  0
SCALE
  5
5C
102
{ACAD_REACTORS
330
47
102
}
330
47
100
AcDbScale
 70
     0
300
1/16" = 1'-0"
140
0.0625
141
12.0
290
     0
  0
SCALE
  5
5D
102
{ACAD_REACTORS
330
47
102
}
330
47
100
AcDbScale
 70
     0
300
3/32" = 1'-0"
140
0.09375
141
12.0
290
     0
  0
SCALE
  5
5E
102
{ACAD_REACTORS
330
47
102
}
330
47
100
AcDbScale
 70
     0
300
1/8" = 1'-0"
140
0.125
141
12.0
290
     0
  0
SCALE
  5
5F
102
{ACAD_REACTORS
330
47
102
}
330
47
100
AcDbScale
 70
     0
300
3/16" = 1'-0"
140
0.1875
141
12.0
290
     0
  0
SCALE
  5
60
102
{ACAD_REACTORS
330
47
102
}
330
47
100
AcDbScale
 70
     0
300
1/4" = 1'-0"
140
0.25
141
12.0
290
     0
  0
SCALE
  5
61
102
{ACAD_REACTORS
330
47
102
}
330
47
100
AcDbScale
 70
     0
300
3/8" = 1'-0"
140
0.375
141
12.0
290
     0
  0
SCALE
  5
62
102
{ACAD_REACTORS
330
47
102
}
330
47
100
AcDbScale
 70
     0
300
1/2" = 1'-0"
140
0.5
141
12.0
290
     0
  0
SCALE
  5
63
102
{ACAD_REACTORS
330
47
102
}
330
47
100
AcDbScale
 70
     0
300
3/4" = 1'-0"
140
0.75
141
12.0
290
     0
  0
SCALE
  5
64
102
{ACAD_REACTORS
330
47
102
}
330
47
100
AcDbScale
 70
     0
300
1" = 1'-0"
140
1.0
141
12.0
290
     0
  0
SCALE
  5
65
102
{ACAD_REACTORS
330
47
102
}
330
47
100
AcDbScale
 70
     0
300
1-1/2" = 1'-0"
140
1.5
141
12.0
290
     0
  0
SCALE
  5
66
102
{ACAD_REACTORS
330
47
102
}
330
47
100
AcDbScale
 70
     0
300
3" = 1'-0"
140
3.0
141
12.0
290
     0
  0
SCALE
  5
67
102
{ACAD_REACTORS
330
47
102
}
330
47
100
AcDbScale
 70
     0
300
6" = 1'-0"
140
6.0
141
12.0
290
     0
  0
SCALE
  5
68
102
{ACAD_REACTORS
330
47
102
}
330
47
100
AcDbScale
 70
     0
300
1'-0" = 1'-0"
140
12.0
141
12.0
290
     0
  0
TABLESTYLE
  5
6A
102
{ACAD_REACTORS
330
69
102
}
102
{ACAD_XDICTIONARY
360
179
102
}
330
69
100
AcDbTableStyle
  3
Standard
 70
     0
 71
     0
 40
0.06
 41
0.06
280
     0
281
     0
  7
Standard
140
0.18
170
     2
 62
     0
 63
   257
283
     0
 90
        4
 91
        0
  1

274
    -2
284
     1
 64
     0
275
    -2
285
     1
 65
     0
276
    -2
286
     1
 66
     0
277
    -2
287
     1
 67
     0
278
    -2
288
     1
 68
     0
279
    -2
289
     1
 69
     0
  7
Standard
140
0.25
170
     5
 62
     0
 63
   257
283
     0
 90
        4
 91
        0
  1

274
    -2
284
     1
 64
     0
275
    -2
285
     1
 65
     0
276
    -2
286
     1
 66
     0
277
    -2
287
     1
 67
     0
278
    -2
288
     1
 68
     0
279
    -2
289
     1
 69
     0
  7
Standard
140
0.18
170
     5
 62
     0
 63
   257
283
     0
 90
        4
 91
        0
  1

274
    -2
284
     1
 64
     0
275
    -2
285
     1
 65
     0
276
    -2
286
     1
 66
     0
277
    -2
287
     1
 67
     0
278
    -2
288
     1
 68
     0
279
    -2
289
     1
 69
     0
  0
VISUALSTYLE
  5
2F
102
{ACAD_REACTORS
330
2A
102
}
330
2A
100
AcDbVisualStyle
  2
2dWireframe
 70
     4
177
     3
291
     0
 70
    58
 90
        0
176
     1
 90
        2
176
     1
 90
        0
176
     1
 90
        0
176
     1
 40
0.6
176
     1
 40
30.0
176
     1
 62
     7
420
 16777215
176
     1
 90
        1
176
     1
 90
        4
176
     1
 62
     7
176
     1
 62
   257
176
     1
 90
        1
176
     1
 90
        1
176
     1
 40
1.0
176
     1
 90
        0
176
     1
 62
   257
176
     1
 40
1.0
176
     1
 90
        1
176
     1
 90
        6
176
     1
 90
        2
176
     1
 62
     7
176
     1
 90
        5
176
     1
 90
        0
176
     1
 90
        0
176
     1
290
     0
176
     1
 90
        1
176
     1
 40
0.0
176
     1
 90
        0
176
     1
290
     1
176
     1
290
     1
176
     1
290
     0
176
     1
290
     0
176
     1
290
     0
176
     1
290
     0
176
     1
290
     0
176
     1
290
     0
176
     1
290
     0
176
     1
 90
       50
176
     1
 40
0.0
176
     1
 40
1.0
176
     1
 90
        0
176
     1
 62
    18
420
        0
176
     1
 90
       50
176
     1
 90
        3
176
     1
 62
     5
420
      255
176
     1
290
     0
176
     1
 90
       50
176
     1
 90
       50
176
     1
 90
       50
176
     1
290
     0
176
     1
 90
       50
176
     1
 62
   256
176
     0
 40
1.0
176
     0
 90
        2
176
     1
  1
strokes_ogs.tif
176
     1
290
     0
176
     1
 40
1.0
176
     1
 40
1.0
176
     1
  0
VISUALSTYLE
  5
32
102
{ACAD_REACTORS
330
2A
102
}
330
2A
100
AcDbVisualStyle
  2
Basic
 70
     7
177
     3
291
     1
 70
    58
 90
        1
176
     1
 90
        0
176
     1
 90
        1
176
     1
 90
        0
176
     1
 40
0.6
176
     1
 40
30.0
176
     1
 62
     7
420
 16777215
176
     1
 90
        0
176
     1
 90
        4
176
     1
 62
     7
176
     1
 62
   257
176
     1
 90
        1
176
     1
 90
        1
176
     1
 40
1.0
176
     1
 90
        8
176
     1
 62
     7
176
     1
 40
1.0
176
     1
 90
        1
176
     1
 90
        6
176
     1
 90
        2
176
     1
 62
     7
176
     1
 90
        5
176
     1
 90
        0
176
     1
 90
        0
176
     1
290
     0
176
     1
 90
        1
176
     1
 40
0.0
176
     1
 90
        0
176
     1
290
     0
176
     1
290
     1
176
     1
290
     1
176
     1
290
     0
176
     1
290
     0
176
     1
290
     0
176
     1
290
     0
176
     1
290
     0
176
     1
290
     0
176
     1
 90
       50
176
     1
 40
0.0
176
     1
 40
1.0
176
     1
 90
        0
176
     1
 62
    18
420
        0
176
     1
 90
       50
176
     1
 90
        3
176
     1
 62
     5
420
      255
176
     1
290
     0
176
     1
 90
       50
176
     1
 90
       50
176
     1
 90
       50
176
     1
290
     0
176
     1
 90
       50
176
     1
 62
   256
176
     0
 40
1.0
176
     0
 90
        2
176
     1
  1
strokes_ogs.tif
176
     1
290
     0
176
     1
 40
1.0
176
     1
 40
1.0
176
     1
  0
VISUALSTYLE
  5
36
102
{ACAD_REACTORS
330
2A
102
}
330
2A
100
AcDbVisualStyle
  2
Brighten
 70
    12
177
     3
291
     1
 70
    58
 90
        2
176
     1
 90
        2
176
     1
 90
        0
176
     1
 90
        0
176
     1
 40
0.6
176
     1
 40
30.0
176
     1
 62
     7
420
 16777215
176
     1
 90
        1
176
     1
 90
        4
176
     1
 62
     7
176
     1
 62
   257
176
     1
 90
        1
176
     1
 90
        1
176
     1
 40
1.0
176
     1
 90
        8
176
     1
 62
     7
176
     1
 40
1.0
176
     1
 90
        1
176
     1
 90
        6
176
     1
 90
        2
176
     1
 62
     7
176
     1
 90
        5
176
     1
 90
        0
176
     1
 90
        0
176
     1
290
     0
176
     1
 90
        1
176
     1
 40
50.0
176
     1
 90
        0
176
     1
290
     0
176
     1
290
     1
176
     1
290
     1
176
     1
290
     0
176
     1
290
     0
176
     1
290
     0
176
     1
290
     0
176
     1
290
     0
176
     1
290
     0
176
     1
 90
       50
176
     1
 40
0.0
176
     1
 40
1.0
176
     1
 90
        0
176
     1
 62
    18
420
        0
176
     1
 90
       50
176
     1
 90
        3
176
     1
 62
     5
420
      255
176
     1
290
     0
176
     1
 90
       50
176
     1
 90
       50
176
     1
 90
       50
176
     1
290
     0
176
     1
 90
       50
176
     1
 62
   256
176
     0
 40
1.0
176
     0
 90
        2
176
     1
  1
strokes_ogs.tif
176
     1
290
     0
176
     1
 40
1.0
176
     1
 40
1.0
176
     1
  0
VISUALSTYLE
  5
3A
102
{ACAD_REACTORS
330
2A
102
}
330
2A
100
AcDbVisualStyle
  2
ColorChange
 70
    16
177
     3
291
     1
 70
    58
 90
        2
176
     1
 90
        2
176
     1
 90
        3
176
     1
 90
        0
176
     1
 40
0.6
176
     1
 40
30.0
176
     1
 62
     8
420
  8421504
176
     1
 90
        1
176
     1
 90
        4
176
     1
 62
     7
176
     1
 62
   257
176
     1
 90
        1
176
     1
 90
        1
176
     1
 40
1.0
176
     1
 90
        8
176
     1
 62
     8
420
  8421504
176
     1
 40
1.0
176
     1
 90
        1
176
     1
 90
        6
176
     1
 90
        2
176
     1
 62
     7
176
     1
 90
        5
176
     1
 90
        0
176
     1
 90
        0
176
     1
290
     0
176
     1
 90
        1
176
     1
 40
0.0
176
     1
 90
        0
176
     1
290
     0
176
     1
290
     1
176
     1
290
     1
176
     1
290
     0
176
     1
290
     0
176
     1
290
     0
176
     1
290
     0
176
     1
290
     0
176
     1
290
     0
176
     1
 90
       50
176
     1
 40
0.0
176
     1
 40
1.0
176
     1
 90
        0
176
     1
 62
    18
420
        0
176
     1
 90
       50
176
     1
 90
        3
176
     1
 62
     5
420
      255
176
     1
290
     0
176
     1
 90
       50
176
     1
 90
       50
176
     1
 90
       50
176
     1
290
     0
176
     1
 90
       50
176
     1
 62
   256
176
     0
 40
1.0
176
     0
 90
        2
176
     1
  1
strokes_ogs.tif
176
     1
290
     0
176
     1
 40
1.0
176
     1
 40
1.0
176
     1
  0
VISUALSTYLE
  5
34
102
{ACAD_REACTORS
330
2A
102
}
330
2A
100
AcDbVisualStyle
  2
Conceptual
 70
     9
177
     3
291
     0
 70
    58
 90
        3
176
     1
 90
        2
176
     1
 90
        0
176
     1
 90
        0
176
     1
 40
0.6
176
     1
 40
30.0
176
     1
 62
     7
420
 16777215
176
     1
 90
        2
176
     1
 90
        2
176
     1
 62
     7
176
     1
 62
   257
176
     1
 90
        1
176
     1
 90
        1
176
     1
 40
179.0
176
     1
 90
        8
176
     1
 62
     7
176
     1
 40
1.0
176
     1
 90
        1
176
     1
 90
        6
176
     1
 90
        2
176
     1
 62
     7
176
     1
 90
        3
176
     1
 90
        0
176
     1
 90
        0
176
     1
290
     0
176
     1
 90
        1
176
     1
 40
0.0
176
     1
 90
        0
176
     1
290
     0
176
     1
290
     1
176
     1
290
     1
176
     1
290
     0
176
     1
290
     0
176
     1
290
     0
176
     1
290
     0
176
     1
290
     0
176
     1
290
     0
176
     1
 90
       50
176
     1
 40
0.0
176
     1
 40
1.0
176
     1
 90
        0
176
     1
 62
    18
420
        0
176
     1
 90
       50
176
     1
 90
        3
176
     1
 62
     5
420
      255
176
     1
290
     0
176
     1
 90
       50
176
     1
 90
       50
176
     1
 90
       50
176
     1
290
     0
176
     1
 90
       50
176
     1
 62
   256
176
     0
 40
1.0
176
     0
 90
        2
176
     1
  1
strokes_ogs.tif
176
     1
290
     0
176
     1
 40
1.0
176
     1
 40
1.0
176
     1
  0
VISUALSTYLE
  5
35
102
{ACAD_REACTORS
330
2A
102
}
330
2A
100
AcDbVisualStyle
  2
Dim
 70
    11
177
     3
291
     1
 70
    58
 90
        2
176
     1
 90
        2
176
     1
 90
        0
176
     1
 90
        0
176
     1
 40
0.6
176
     1
 40
30.0
176
     1
 62
     7
420
 16777215
176
     1
 90
        1
176
     1
 90
        4
176
     1
 62
     7
176
     1
 62
   257
176
     1
 90
        1
176
     1
 90
        1
176
     1
 40
1.0
176
     1
 90
        8
176
     1
 62
     7
176
     1
 40
1.0
176
     1
 90
        1
176
     1
 90
        6
176
     1
 90
        2
176
     1
 62
     7
176
     1
 90
        5
176
     1
 90
        0
176
     1
 90
        0
176
     1
290
     0
176
     1
 90
        1
176
     1
 40
-50.0
176
     1
 90
        0
176
     1
290
     0
176
     1
290
     1
176
     1
290
     1
176
     1
290
     0
176
     1
290
     0
176
     1
290
     0
176
     1
290
     0
176
     1
290
     0
176
     1
290
     0
176
     1
 90
       50
176
     1
 40
0.0
176
     1
 40
1.0
176
     1
 90
        0
176
     1
 62
    18
420
        0
176
     1
 90
       50
176
     1
 90
        3
176
     1
 62
     5
420
      255
176
     1
290
     0
176
     1
 90
       50
176
     1
 90
       50
176
     1
 90
       50
176
     1
290
     0
176
     1
 90
       50
176
     1
 62
   256
176
     0
 40
1.0
176
     0
 90
        2
176
     1
  1
strokes_ogs.tif
176
     1
290
     0
176
     1
 40
1.0
176
     1
 40
1.0
176
     1
  0
VISUALSTYLE
  5
3D
102
{ACAD_REACTORS
330
2A
102
}
330
2A
100
AcDbVisualStyle
  2
EdgeColorOff
 70
    22
177
     3
291
     1
 70
    58
 90
        2
176
     0
 90
        2
176
     0
 90
        0
176
     0
 90
        0
176
     0
 40
0.6
176
     0
 40
30.0
176
     0
 62
     7
420
 16777215
176
     0
 90
        1
176
     0
 90
        4
176
     0
 62
     7
176
     0
 62
   257
176
     0
 90
        1
176
     0
 90
        1
176
     0
 40
1.0
176
     0
 90
        8
176
     2
 62
     7
176
     0
 40
1.0
176
     0
 90
        1
176
     0
 90
        6
176
     0
 90
        2
176
     0
 62
     7
176
     0
 90
        5
176
     0
 90
        0
176
     0
 90
        0
176
     0
290
     0
176
     0
 90
        1
176
     0
 40
0.0
176
     0
 90
        0
176
     0
290
     0
176
     0
290
     1
176
     0
290
     1
176
     0
290
     0
176
     0
290
     0
176
     0
290
     0
176
     0
290
     0
176
     0
290
     0
176
     0
290
     0
176
     0
 90
       50
176
     0
 40
0.0
176
     0
 40
1.0
176
     0
 90
        0
176
     0
 62
    18
420
        0
176
     0
 90
       50
176
     0
 90
        3
176
     0
 62
     5
420
      255
176
     0
290
     0
176
     0
 90
       50
176
     0
 90
       50
176
     0
 90
       50
176
     0
290
     0
176
     0
 90
       50
176
     0
 62
   256
176
     0
 40
1.0
176
     0
 90
        2
176
     0
  1
strokes_ogs.tif
176
     0
290
     0
176
     0
 40
1.0
176
     0
 40
1.0
176
     0
  0
VISUALSTYLE
  5
39
102
{ACAD_REACTORS
330
2A
102
}
330
2A
100
AcDbVisualStyle
  2
Facepattern
 70
    15
177
     3
291
     1
 70
    58
 90
        2
176
     1
 90
        2
176
     1
 90
        0
176
     1
 90
        0
176
     1
 40
0.6
176
     1
 40
30.0
176
     1
 62
     7
420
 16777215
176
     1
 90
        1
176
     1
 90
        4
176
     1
 62
     7
176
     1
 62
   257
176
     1
 90
        1
176
     1
 90
        1
176
     1
 40
1.0
176
     1
 90
        8
176
     1
 62
     7
176
     1
 40
1.0
176
     1
 90
        1
176
     1
 90
        6
176
     1
 90
        2
176
     1
 62
     7
176
     1
 90
        5
176
     1
 90
        0
176
     1
 90
        0
176
     1
290
     0
176
     1
 90
        1
176
     1
 40
0.0
176
     1
 90
        0
176
     1
290
     0
176
     1
290
     1
176
     1
290
     1
176
     1
290
     0
176
     1
290
     0
176
     1
290
     0
176
     1
290
     0
176
     1
290
     0
176
     1
290
     0
176
     1
 90
       50
176
     1
 40
0.0
176
     1
 40
1.0
176
     1
 90
        0
176
     1
 62
    18
420
        0
176
     1
 90
       50
176
     1
 90
        3
176
     1
 62
     5
420
      255
176
     1
290
     0
176
     1
 90
       50
176
     1
 90
       50
176
     1
 90
       50
176
     1
290
     0
176
     1
 90
       50
176
     1
 62
   256
176
     0
 40
1.0
176
     0
 90
        2
176
     1
  1
strokes_ogs.tif
176
     1
290
     0
176
     1
 40
1.0
176
     1
 40
1.0
176
     1
  0
VISUALSTYLE
  5
2B
102
{ACAD_REACTORS
330
2A
102
}
330
2A
100
AcDbVisualStyle
  2
Flat
 70
     0
177
     3
291
     1
 70
    58
 90
        2
176
     1
 90
        1
176
     1
 90
        1
176
     1
 90
        2
176
     1
 40
0.6
176
     1
 40
30.0
176
     1
 62
     7
420
 16777215
176
     1
 90
        0
176
     1
 90
        0
176
     1
 62
     7
176
     1
 62
   257
176
     1
 90
        1
176
     1
 90
        1
176
     1
 40
1.0
176
     1
 90
        8
176
     1
 62
     7
176
     1
 40
1.0
176
     1
 90
        1
176
     1
 90
        6
176
     1
 90
        2
176
     1
 62
     7
176
     1
 90
        5
176
     1
 90
        0
176
     1
 90
        0
176
     1
290
     0
176
     1
 90
       13
176
     1
 40
0.0
176
     1
 90
        0
176
     1
290
     0
176
     1
290
     1
176
     1
290
     1
176
     1
290
     0
176
     1
290
     0
176
     1
290
     0
176
     1
290
     0
176
     1
290
     0
176
     1
290
     0
176
     1
 90
       50
176
     1
 40
0.0
176
     1
 40
1.0
176
     1
 90
        0
176
     1
 62
    18
420
        0
176
     1
 90
       50
176
     1
 90
        3
176
     1
 62
     5
420
      255
176
     1
290
     0
176
     1
 90
       50
176
     1
 90
       50
176
     1
 90
       50
176
     1
290
     0
176
     1
 90
       50
176
     1
 62
   256
176
     0
 40
1.0
176
     0
 90
        2
176
     1
  1
strokes_ogs.tif
176
     1
290
     0
176
     1
 40
1.0
176
     1
 40
1.0
176
     1
  0
VISUALSTYLE
  5
2C
102
{ACAD_REACTORS
330
2A
102
}
330
2A
100
AcDbVisualStyle
  2
FlatWithEdges
 70
     1
177
     3
291
     1
 70
    58
 90
        2
176
     1
 90
        1
176
     1
 90
        1
176
     1
 90
        2
176
     1
 40
0.6
176
     1
 40
30.0
176
     1
 62
     7
420
 16777215
176
     1
 90
        1
176
     1
 90
        0
176
     1
 62
     7
176
     1
 62
   257
176
     1
 90
        1
176
     1
 90
        1
176
     1
 40
1.0
176
     1
 90
        0
176
     1
 62
   257
176
     1
 40
1.0
176
     1
 90
        1
176
     1
 90
        6
176
     1
 90
        2
176
     1
 62
     7
176
     1
 90
        5
176
     1
 90
        0
176
     1
 90
        0
176
     1
290
     0
176
     1
 90
       13
176
     1
 40
0.0
176
     1
 90
        0
176
     1
290
     0
176
     1
290
     1
176
     1
290
     1
176
     1
290
     0
176
     1
290
     0
176
     1
290
     0
176
     1
290
     0
176
     1
290
     0
176
     1
290
     0
176
     1
 90
       50
176
     1
 40
0.0
176
     1
 40
1.0
176
     1
 90
        0
176
     1
 62
    18
420
        0
176
     1
 90
       50
176
     1
 90
        3
176
     1
 62
     5
420
      255
176
     1
290
     0
176
     1
 90
       50
176
     1
 90
       50
176
     1
 90
       50
176
     1
290
     0
176
     1
 90
       50
176
     1
 62
   256
176
     0
 40
1.0
176
     0
 90
        2
176
     1
  1
strokes_ogs.tif
176
     1
290
     0
176
     1
 40
1.0
176
     1
 40
1.0
176
     1
  0
VISUALSTYLE
  5
2D
102
{ACAD_REACTORS
330
2A
102
}
330
2A
100
AcDbVisualStyle
  2
Gouraud
 70
     2
177
     3
291
     1
 70
    58
 90
        2
176
     1
 90
        2
176
     1
 90
        1
176
     1
 90
        2
176
     1
 40
0.6
176
     1
 40
30.0
176
     1
 62
     7
420
 16777215
176
     1
 90
        0
176
     1
 90
        0
176
     1
 62
     7
176
     1
 62
   257
176
     1
 90
        1
176
     1
 90
        1
176
     1
 40
1.0
176
     1
 90
        0
176
     1
 62
     7
176
     1
 40
1.0
176
     1
 90
        1
176
     1
 90
        6
176
     1
 90
        2
176
     1
 62
     7
176
     1
 90
        5
176
     1
 90
        0
176
     1
 90
        0
176
     1
290
     0
176
     1
 90
       13
176
     1
 40
0.0
176
     1
 90
        0
176
     1
290
     0
176
     1
290
     1
176
     1
290
     1
176
     1
290
     0
176
     1
290
     0
176
     1
290
     0
176
     1
290
     0
176
     1
290
     0
176
     1
290
     0
176
     1
 90
       50
176
     1
 40
0.0
176
     1
 40
1.0
176
     1
 90
        0
176
     1
 62
    18
420
        0
176
     1
 90
       50
176
     1
 90
        3
176
     1
 62
     5
420
      255
176
     1
290
     0
176
     1
 90
       50
176
     1
 90
       50
176
     1
 90
       50
176
     1
290
     0
176
     1
 90
       50
176
     1
 62
   256
176
     0
 40
1.0
176
     0
 90
        2
176
     1
  1
strokes_ogs.tif
176
     1
290
     0
176
     1
 40
1.0
176
     1
 40
1.0
176
     1
  0
VISUALSTYLE
  5
2E
102
{ACAD_REACTORS
330
2A
102
}
330
2A
100
AcDbVisualStyle
  2
GouraudWithEdges
 70
     3
177
     3
291
     1
 70
    58
 90
        2
176
     1
 90
        2
176
     1
 90
        1
176
     1
 90
        2
176
     1
 40
0.6
176
     1
 40
30.0
176
     1
 62
     7
420
 16777215
176
     1
 90
        1
176
     1
 90
        0
176
     1
 62
     7
176
     1
 62
   257
176
     1
 90
        1
176
     1
 90
        1
176
     1
 40
1.0
176
     1
 90
        0
176
     1
 62
   257
176
     1
 40
1.0
176
     1
 90
        1
176
     1
 90
        6
176
     1
 90
        2
176
     1
 62
     7
176
     1
 90
        5
176
     1
 90
        0
176
     1
 90
        0
176
     1
290
     0
176
     1
 90
       13
176
     1
 40
0.0
176
     1
 90
        0
176
     1
290
     0
176
     1
290
     1
176
     1
290
     1
176
     1
290
     0
176
     1
290
     0
176
     1
290
     0
176
     1
290
     0
176
     1
290
     0
176
     1
290
     0
176
     1
 90
       50
176
     1
 40
0.0
176
     1
 40
1.0
176
     1
 90
        0
176
     1
 62
    18
420
        0
176
     1
 90
       50
176
     1
 90
        3
176
     1
 62
     5
420
      255
176
     1
290
     0
176
     1
 90
       50
176
     1
 90
       50
176
     1
 90
       50
176
     1
290
     0
176
     1
 90
       50
176
     1
 62
   256
176
     0
 40
1.0
176
     0
 90
        2
176
     1
  1
strokes_ogs.tif
176
     1
290
     0
176
     1
 40
1.0
176
     1
 40
1.0
176
     1
  0
VISUALSTYLE
  5
31
102
{ACAD_REACTORS
330
2A
102
}
330
2A
100
AcDbVisualStyle
  2
Hidden
 70
     6
177
     3
291
     0
 70
    58
 90
        1
176
     1
 90
        2
176
     1
 90
        2
176
     1
 90
        0
176
     1
 40
0.6
176
     1
 40
30.0
176
     1
 62
     7
420
 16777215
176
     1
 90
        2
176
     1
 90
        2
176
     1
 62
     7
176
     1
 62
   257
176
     1
 90
        2
176
     1
 90
        1
176
     1
 40
40.0
176
     1
 90
        0
176
     1
 62
   257
176
     1
 40
1.0
176
     1
 90
        1
176
     1
 90
        6
176
     1
 90
        2
176
     1
 62
     7
176
     1
 90
        3
176
     1
 90
        0
176
     1
 90
        0
176
     1
290
     0
176
     1
 90
        1
176
     1
 40
0.0
176
     1
 90
        0
176
     1
290
     0
176
     1
290
     1
176
     1
290
     1
176
     1
290
     0
176
     1
290
     0
176
     1
290
     0
176
     1
290
     0
176
     1
290
     0
176
     1
290
     0
176
     1
 90
       50
176
     1
 40
0.0
176
     1
 40
1.0
176
     1
 90
        0
176
     1
 62
    18
420
        0
176
     1
 90
       50
176
     1
 90
        3
176
     1
 62
     5
420
      255
176
     1
290
     0
176
     1
 90
       50
176
     1
 90
       50
176
     1
 90
       50
176
     1
290
     0
176
     1
 90
       50
176
     1
 62
   256
176
     0
 40
1.0
176
     0
 90
        2
176
     1
  1
strokes_ogs.tif
176
     1
290
     0
176
     1
 40
1.0
176
     1
 40
1.0
176
     1
  0
VISUALSTYLE
  5
3B
102
{ACAD_REACTORS
330
2A
102
}
330
2A
100
AcDbVisualStyle
  2
JitterOff
 70
    20
177
     3
291
     1
 70
    58
 90
        2
176
     0
 90
        2
176
     0
 90
        0
176
     0
 90
        0
176
     0
 40
0.6
176
     0
 40
30.0
176
     0
 62
     7
420
 16777215
176
     0
 90
        1
176
     0
 90
        4
176
     0
 62
     7
176
     0
 62
   257
176
     0
 90
        1
176
     0
 90
        1
176
     0
 40
1.0
176
     0
 90
       10
176
     2
 62
     7
176
     0
 40
1.0
176
     0
 90
        1
176
     0
 90
        6
176
     0
 90
        2
176
     0
 62
     7
176
     0
 90
        5
176
     0
 90
        0
176
     0
 90
        0
176
     0
290
     0
176
     0
 90
        1
176
     0
 40
0.0
176
     0
 90
        0
176
     0
290
     0
176
     0
290
     1
176
     0
290
     1
176
     0
290
     0
176
     0
290
     0
176
     0
290
     0
176
     0
290
     0
176
     0
290
     0
176
     0
290
     0
176
     0
 90
       50
176
     0
 40
0.0
176
     0
 40
1.0
176
     0
 90
        0
176
     0
 62
    18
420
        0
176
     0
 90
       50
176
     0
 90
        3
176
     0
 62
     5
420
      255
176
     0
290
     0
176
     0
 90
       50
176
     0
 90
       50
176
     0
 90
       50
176
     0
290
     0
176
     0
 90
       50
176
     0
 62
   256
176
     0
 40
1.0
176
     0
 90
        2
176
     0
  1
strokes_ogs.tif
176
     0
290
     0
176
     0
 40
1.0
176
     0
 40
1.0
176
     0
  0
VISUALSTYLE
  5
38
102
{ACAD_REACTORS
330
2A
102
}
330
2A
100
AcDbVisualStyle
  2
Linepattern
 70
    14
177
     3
291
     1
 70
    58
 90
        2
176
     1
 90
        2
176
     1
 90
        0
176
     1
 90
        0
176
     1
 40
0.6
176
     1
 40
30.0
176
     1
 62
     7
420
 16777215
176
     1
 90
        1
176
     1
 90
        4
176
     1
 62
     7
176
     1
 62
   257
176
     1
 90
        7
176
     1
 90
        7
176
     1
 40
1.0
176
     1
 90
        8
176
     1
 62
     7
176
     1
 40
1.0
176
     1
 90
        1
176
     1
 90
        6
176
     1
 90
        2
176
     1
 62
     7
176
     1
 90
        5
176
     1
 90
        0
176
     1
 90
        0
176
     1
290
     0
176
     1
 90
        1
176
     1
 40
0.0
176
     1
 90
        0
176
     1
290
     0
176
     1
290
     1
176
     1
290
     1
176
     1
290
     0
176
     1
290
     0
176
     1
290
     0
176
     1
290
     0
176
     1
290
     0
176
     1
290
     0
176
     1
 90
       50
176
     1
 40
0.0
176
     1
 40
1.0
176
     1
 90
        0
176
     1
 62
    18
420
        0
176
     1
 90
       50
176
     1
 90
        3
176
     1
 62
     5
420
      255
176
     1
290
     0
176
     1
 90
       50
176
     1
 90
       50
176
     1
 90
       50
176
     1
290
     0
176
     1
 90
       50
176
     1
 62
   256
176
     0
 40
1.0
176
     0
 90
        2
176
     1
  1
strokes_ogs.tif
176
     1
290
     0
176
     1
 40
1.0
176
     1
 40
1.0
176
     1
  0
VISUALSTYLE
  5
3C
102
{ACAD_REACTORS
330
2A
102
}
330
2A
100
AcDbVisualStyle
  2
OverhangOff
 70
    21
177
     3
291
     1
 70
    58
 90
        2
176
     0
 90
        2
176
     0
 90
        0
176
     0
 90
        0
176
     0
 40
0.6
176
     0
 40
30.0
176
     0
 62
     7
420
 16777215
176
     0
 90
        1
176
     0
 90
        4
176
     0
 62
     7
176
     0
 62
   257
176
     0
 90
        1
176
     0
 90
        1
176
     0
 40
1.0
176
     0
 90
        9
176
     2
 62
     7
176
     0
 40
1.0
176
     0
 90
        1
176
     0
 90
        6
176
     0
 90
        2
176
     0
 62
     7
176
     0
 90
        5
176
     0
 90
        0
176
     0
 90
        0
176
     0
290
     0
176
     0
 90
        1
176
     0
 40
0.0
176
     0
 90
        0
176
     0
290
     0
176
     0
290
     1
176
     0
290
     1
176
     0
290
     0
176
     0
290
     0
176
     0
290
     0
176
     0
290
     0
176
     0
290
     0
176
     0
290
     0
176
     0
 90
       50
176
     0
 40
0.0
176
     0
 40
1.0
176
     0
 90
        0
176
     0
 62
    18
420
        0
176
     0
 90
       50
176
     0
 90
        3
176
     0
 62
     5
420
      255
176
     0
290
     0
176
     0
 90
       50
176
     0
 90
       50
176
     0
 90
       50
176
     0
290
     0
176
     0
 90
       50
176
     0
 62
   256
176
     0
 40
1.0
176
     0
 90
        2
176
     0
  1
strokes_ogs.tif
176
     0
290
     0
176
     0
 40
1.0
176
     0
 40
1.0
176
     0
  0
VISUALSTYLE
  5
33
102
{ACAD_REACTORS
330
2A
102
}
330
2A
100
AcDbVisualStyle
  2
Realistic
 70
     8
177
     3
291
     0
 70
    58
 90
        2
176
     1
 90
        3
176
     1
 90
        0
176
     1
 90
        2
176
     1
 40
0.6
176
     1
 40
30.0
176
     1
 62
     7
420
 16777215
176
     1
 90
        0
176
     1
 90
        0
176
     1
 62
     7
176
     1
 62
   257
176
     1
 90
        1
176
     1
 90
        1
176
     1
 40
1.0
176
     1
 90
        8
176
     1
 62
   257
176
     1
 40
1.0
176
     1
 90
        1
176
     1
 90
        6
176
     1
 90
        2
176
     1
 62
     7
176
     1
 90
        3
176
     1
 90
        0
176
     1
 90
        0
176
     1
290
     0
176
     1
 90
       13
176
     1
 40
0.0
176
     1
 90
        0
176
     1
290
     0
176
     1
290
     1
176
     1
290
     1
176
     1
290
     0
176
     1
290
     0
176
     1
290
     0
176
     1
290
     0
176
     1
290
     0
176
     1
290
     0
176
     1
 90
       50
176
     1
 40
0.0
176
     1
 40
1.0
176
     1
 90
        0
176
     1
 62
    18
420
        0
176
     1
 90
       50
176
     1
 90
        3
176
     1
 62
     5
420
      255
176
     1
290
     0
176
     1
 90
       50
176
     1
 90
       50
176
     1
 90
       50
176
     1
290
     0
176
     1
 90
       50
176
     1
 62
   256
176
     0
 40
1.0
176
     0
 90
        2
176
     1
  1
strokes_ogs.tif
176
     1
290
     0
176
     1
 40
1.0
176
     1
 40
1.0
176
     1
  0
VISUALSTYLE
  5
42
102
{ACAD_REACTORS
330
2A
102
}
330
2A
100
AcDbVisualStyle
  2
Shaded
 70
    27
177
     3
291
     0
 70
    58
 90
        2
176
     1
 90
        2
176
     1
 90
        1
176
     1
 90
        2
176
     1
 40
0.6
176
     1
 40
30.0
176
     1
 62
     7
420
 16777215
176
     1
 90
        0
176
     1
 90
        4
176
     1
 62
     7
176
     1
 62
   257
176
     1
 90
        1
176
     1
 90
        1
176
     1
 40
1.0
176
     1
 90
        8
176
     1
 62
   257
176
     1
 40
1.0
176
     1
 90
        1
176
     1
 90
        6
176
     1
 90
        2
176
     1
 62
     8
420
  7895160
176
     1
 90
        3
176
     1
 90
        0
176
     1
 90
        0
176
     1
290
     0
176
     1
 90
        5
176
     1
 40
0.0
176
     1
 90
        0
176
     1
290
     0
176
     1
290
     1
176
     1
290
     1
176
     1
290
     0
176
     1
290
     0
176
     1
290
     0
176
     1
290
     0
176
     1
290
     0
176
     1
290
     0
176
     1
 90
       50
176
     1
 40
0.0
176
     1
 40
1.0
176
     1
 90
        0
176
     1
 62
    18
420
        0
176
     1
 90
       50
176
     1
 90
        3
176
     1
 62
     5
420
      255
176
     1
290
     0
176
     1
 90
       50
176
     1
 90
       50
176
     1
 90
       50
176
     1
290
     0
176
     1
 90
       50
176
     1
 62
   256
176
     0
 40
1.0
176
     0
 90
        2
176
     1
  1
strokes_ogs.tif
176
     1
290
     0
176
     1
 40
1.0
176
     1
 40
1.0
176
     1
  0
VISUALSTYLE
  5
41
102
{ACAD_REACTORS
330
2A
102
}
330
2A
100
AcDbVisualStyle
  2
Shaded with edges
 70
    26
177
     3
291
     0
 70
    58
 90
        2
176
     1
 90
        2
176
     1
 90
        1
176
     1
 90
        2
176
     1
 40
0.6
176
     1
 40
30.0
176
     1
 62
     7
420
 16777215
176
     1
 90
        1
176
     1
 90
       10
176
     1
 62
     7
176
     1
 62
   257
176
     1
 90
        2
176
     1
 90
        1
176
     1
 40
1.0
176
     1
 90
        8
176
     1
 62
   257
176
     1
 40
1.0
176
     1
 90
        1
176
     1
 90
        6
176
     1
 90
        2
176
     1
 62
     7
176
     1
 90
        3
176
     1
 90
        0
176
     1
 90
        0
176
     1
290
     0
176
     1
 90
        5
176
     1
 40
0.0
176
     1
 90
        0
176
     1
290
     0
176
     1
290
     1
176
     1
290
     1
176
     1
290
     0
176
     1
290
     0
176
     1
290
     0
176
     1
290
     0
176
     1
290
     0
176
     1
290
     0
176
     1
 90
       50
176
     1
 40
0.0
176
     1
 40
1.0
176
     1
 90
        0
176
     1
 62
    18
420
        0
176
     1
 90
       50
176
     1
 90
        3
176
     1
 62
     5
420
      255
176
     1
290
     0
176
     1
 90
       50
176
     1
 90
       50
176
     1
 90
       50
176
     1
290
     0
176
     1
 90
       50
176
     1
 62
   256
176
     0
 40
1.0
176
     0
 90
        2
176
     1
  1
strokes_ogs.tif
176
     1
290
     0
176
     1
 40
1.0
176
     1
 40
1.0
176
     1
  0
VISUALSTYLE
  5
3E
102
{ACAD_REACTORS
330
2A
102
}
330
2A
100
AcDbVisualStyle
  2
Shades of Gray
 70
    23
177
     3
291
     0
 70
    58
 90
        2
176
     1
 90
        2
176
     1
 90
        3
176
     1
 90
        0
176
     1
 40
0.6
176
     1
 40
30.0
176
     1
 62
     7
420
 16777215
176
     1
 90
        2
176
     1
 90
        2
176
     1
 62
     7
176
     1
 62
     7
176
     1
 90
        1
176
     1
 90
        1
176
     1
 40
40.0
176
     1
 90
        8
176
     1
 62
     7
176
     1
 40
1.0
176
     1
 90
        1
176
     1
 90
        6
176
     1
 90
        2
176
     1
 62
     7
176
     1
 90
        3
176
     1
 90
        0
176
     1
 90
        0
176
     1
290
     0
176
     1
 90
        1
176
     1
 40
0.0
176
     1
 90
        0
176
     1
290
     0
176
     1
290
     1
176
     1
290
     1
176
     1
290
     0
176
     1
290
     0
176
     1
290
     0
176
     1
290
     0
176
     1
290
     0
176
     1
290
     0
176
     1
 90
       50
176
     1
 40
0.0
176
     1
 40
1.0
176
     1
 90
        0
176
     1
 62
    18
420
        0
176
     1
 90
       50
176
     1
 90
        3
176
     1
 62
     5
420
      255
176
     1
290
     0
176
     1
 90
       50
176
     1
 90
       50
176
     1
 90
       50
176
     1
290
     0
176
     1
 90
       50
176
     1
 62
   256
176
     0
 40
1.0
176
     0
 90
        2
176
     1
  1
strokes_ogs.tif
176
     1
290
     0
176
     1
 40
1.0
176
     1
 40
1.0
176
     1
  0
VISUALSTYLE
  5
3F
102
{ACAD_REACTORS
330
2A
102
}
330
2A
100
AcDbVisualStyle
  2
Sketchy
 70
    24
177
     3
291
     0
 70
    58
 90
        1
176
     1
 90
        2
176
     1
 90
        2
176
     1
 90
        0
176
     1
 40
0.6
176
     1
 40
30.0
176
     1
 62
     7
420
 16777215
176
     1
 90
        2
176
     1
 90
        2
176
     1
 62
     7
176
     1
 62
     7
176
     1
 90
        1
176
     1
 90
        1
176
     1
 40
40.0
176
     1
 90
       11
176
     1
 62
     7
176
     1
 40
1.0
176
     1
 90
        1
176
     1
 90
        6
176
     1
 90
        2
176
     1
 62
     7
176
     1
 90
        6
176
     1
 90
        0
176
     1
 90
        0
176
     1
290
     0
176
     1
 90
        1
176
     1
 40
0.0
176
     1
 90
        0
176
     1
290
     0
176
     1
290
     1
176
     1
290
     1
176
     1
290
     0
176
     1
290
     0
176
     1
290
     0
176
     1
290
     0
176
     1
290
     0
176
     1
290
     0
176
     1
 90
       50
176
     1
 40
0.0
176
     1
 40
1.0
176
     1
 90
        0
176
     1
 62
    18
420
        0
176
     1
 90
       50
176
     1
 90
        3
176
     1
 62
     5
420
      255
176
     1
290
     0
176
     1
 90
       50
176
     1
 90
       50
176
     1
 90
       50
176
     1
290
     0
176
     1
 90
       50
176
     1
 62
   256
176
     0
 40
1.0
176
     0
 90
        2
176
     1
  1
strokes_ogs.tif
176
     1
290
     0
176
     1
 40
1.0
176
     1
 40
1.0
176
     1
  0
VISUALSTYLE
  5
37
102
{ACAD_REACTORS
330
2A
102
}
330
2A
100
AcDbVisualStyle
  2
Thicken
 70
    13
177
     3
291
     1
 70
    58
 90
        2
176
     1
 90
        2
176
     1
 90
        0
176
     1
 90
        0
176
     1
 40
0.6
176
     1
 40
30.0
176
     1
 62
     7
420
 16777215
176
     1
 90
        1
176
     1
 90
        4
176
     1
 62
     7
176
     1
 62
   257
176
     1
 90
        1
176
     1
 90
        1
176
     1
 40
1.0
176
     1
 90
       12
176
     1
 62
     7
176
     1
 40
1.0
176
     1
 90
        1
176
     1
 90
        6
176
     1
 90
        2
176
     1
 62
     7
176
     1
 90
        5
176
     1
 90
        0
176
     1
 90
        0
176
     1
290
     0
176
     1
 90
        1
176
     1
 40
0.0
176
     1
 90
        0
176
     1
290
     0
176
     1
290
     1
176
     1
290
     1
176
     1
290
     0
176
     1
290
     0
176
     1
290
     0
176
     1
290
     0
176
     1
290
     0
176
     1
290
     0
176
     1
 90
       50
176
     1
 40
0.0
176
     1
 40
1.0
176
     1
 90
        0
176
     1
 62
    18
420
        0
176
     1
 90
       50
176
     1
 90
        3
176
     1
 62
     5
420
      255
176
     1
290
     0
176
     1
 90
       50
176
     1
 90
       50
176
     1
 90
       50
176
     1
290
     0
176
     1
 90
       50
176
     1
 62
   256
176
     0
 40
1.0
176
     0
 90
        2
176
     1
  1
strokes_ogs.tif
176
     1
290
     0
176
     1
 40
1.0
176
     1
 40
1.0
176
     1
  0
VISUALSTYLE
  5
30
102
{ACAD_REACTORS
330
2A
102
}
330
2A
100
AcDbVisualStyle
  2
Wireframe
 70
     5
177
     3
291
     0
 70
    58
 90
        0
176
     1
 90
        2
176
     1
 90
        0
176
     1
 90
        0
176
     1
 40
0.6
176
     1
 40
30.0
176
     1
 62
     7
420
 16777215
176
     1
 90
        1
176
     1
 90
        4
176
     1
 62
     7
176
     1
 62
   257
176
     1
 90
        1
176
     1
 90
        1
176
     1
 40
1.0
176
     1
 90
        0
176
     1
 62
   257
176
     1
 40
1.0
176
     1
 90
        1
176
     1
 90
        6
176
     1
 90
        2
176
     1
 62
     7
176
     1
 90
        3
176
     1
 90
        0
176
     1
 90
        0
176
     1
290
     0
176
     1
 90
        1
176
     1
 40
0.0
176
     1
 90
        0
176
     1
290
     0
176
     1
290
     1
176
     1
290
     1
176
     1
290
     0
176
     1
290
     0
176
     1
290
     0
176
     1
290
     0
176
     1
290
     0
176
     1
290
     0
176
     1
 90
       50
176
     1
 40
0.0
176
     1
 40
1.0
176
     1
 90
        0
176
     1
 62
    18
420
        0
176
     1
 90
       50
176
     1
 90
        3
176
     1
 62
     5
420
      255
176
     1
290
     0
176
     1
 90
       50
176
     1
 90
       50
176
     1
 90
       50
176
     1
290
     0
176
     1
 90
       50
176
     1
 62
   256
176
     0
 40
1.0
176
     0
 90
        2
176
     1
  1
strokes_ogs.tif
176
     1
290
     0
176
     1
 40
1.0
176
     1
 40
1.0
176
     1
  0
VISUALSTYLE
  5
40
102
{ACAD_REACTORS
330
2A
102
}
330
2A
100
AcDbVisualStyle
  2
X-Ray
 70
    25
177
     3
291
     0
 70
    58
 90
        2
176
     1
 90
        2
176
     1
 90
        1
176
     1
 90
        1
176
     1
 40
0.5
176
     1
 40
30.0
176
     1
 62
     7
420
 16777215
176
     1
 90
        1
176
     1
 90
        0
176
     1
 62
     7
176
     1
 62
   257
176
     1
 90
        1
176
     1
 90
        1
176
     1
 40
1.0
176
     1
 90
        8
176
     1
 62
     7
176
     1
 40
1.0
176
     1
 90
        1
176
     1
 90
        6
176
     1
 90
        2
176
     1
 62
     7
176
     1
 90
        3
176
     1
 90
        0
176
     1
 90
        0
176
     1
290
     0
176
     1
 90
       13
176
     1
 40
0.0
176
     1
 90
        0
176
     1
290
     0
176
     1
290
     1
176
     1
290
     1
176
     1
290
     0
176
     1
290
     0
176
     1
290
     0
176
     1
290
     0
176
     1
290
     0
176
     1
290
     0
176
     1
 90
       50
176
     1
 40
0.0
176
     1
 40
1.0
176
     1
 90
        0
176
     1
 62
    18
420
        0
176
     1
 90
       50
176
     1
 90
        3
176
     1
 62
     5
420
      255
176
     1
290
     0
176
     1
 90
       50
176
     1
 90
       50
176
     1
 90
       50
176
     1
290
     0
176
     1
 90
       50
176
     1
 62
   256
176
     0
 40
1.0
176
     0
 90
        2
176
     1
  1
strokes_ogs.tif
176
     1
290
     0
176
     1
 40
1.0
176
     1
 40
1.0
176
     1
  0
DICTIONARYVAR
  5
178
102
{ACAD_REACTORS
330
177
102
}
330
177
100
DictionaryVariables
280
     0
  1
1:1
  0
DICTIONARYVAR
  5
17D
102
{ACAD_REACTORS
330
177
102
}
330
177
100
DictionaryVariables
280
     0
  1
Standard
  0
DICTIONARYVAR
  5
17C
102
{ACAD_REACTORS
330
177
102
}
330
177
100
DictionaryVariables
280
     0
  1
Standard
  0
DICTIONARY
  5
179
330
6A
100
AcDbDictionary
280
     1
281
     1
  3
ACAD_ROUNDTRIP_2008_TABLESTYLE_CELLSTYLEMAP
360
17A
  0
CELLSTYLEMAP
  5
17A
102
{ACAD_REACTORS
330
179
102
}
330
179
100
AcDbCellStyleMap
 90
        3
300
CELLSTYLE
  1
TABLEFORMAT_BEGIN
 90
        5
170
     1
 91
        0
 92
    32768
 62
   257
 93
        1
300
CONTENTFORMAT
  1
CONTENTFORMAT_BEGIN
 90
        0
 91
        0
 92
        4
 93
        0
300

 40
0.0
140
1.0
 94
        5
 62
     0
340
11
144
0.25
309
CONTENTFORMAT_END
171
     1
301
MARGIN
  1
CELLMARGIN_BEGIN
 40
0.06
 40
0.06
 40
0.06
 40
0.06
 40
0.06
 40
0.06
309
CELLMARGIN_END
 94
        6
 95
        1
302
GRIDFORMAT
  1
GRIDFORMAT_BEGIN
 90
        0
 91
        1
 62
     0
 92
       -2
340
14
 93
        0
 40
0.045
309
GRIDFORMAT_END
 95
        2
302
GRIDFORMAT
  1
GRIDFORMAT_BEGIN
 90
        0
 91
        1
 62
     0
 92
       -2
340
14
 93
        0
 40
0.045
309
GRIDFORMAT_END
 95
        4
302
GRIDFORMAT
  1
GRIDFORMAT_BEGIN
 90
        0
 91
        1
 62
     0
 92
       -2
340
14
 93
        0
 40
0.045
309
GRIDFORMAT_END
 95
        8
302
GRIDFORMAT
  1
GRIDFORMAT_BEGIN
 90
        0
 91
        1
 62
     0
 92
       -2
340
14
 93
        0
 40
0.045
309
GRIDFORMAT_END
 95
       16
302
GRIDFORMAT
  1
GRIDFORMAT_BEGIN
 90
        0
 91
        1
 62
     0
 92
       -2
340
14
 93
        0
 40
0.045
309
GRIDFORMAT_END
 95
       32
302
GRIDFORMAT
  1
GRIDFORMAT_BEGIN
 90
        0
 91
        1
 62
     0
 92
       -2
340
14
 93
        0
 40
0.045
309
GRIDFORMAT_END
309
TABLEFORMAT_END
  1
CELLSTYLE_BEGIN
 90
        1
 91
        1
300
_TITLE
309
CELLSTYLE_END
300
CELLSTYLE
  1
TABLEFORMAT_BEGIN
 90
        5
170
     1
 91
        0
 92
        0
 62
   257
 93
        1
300
CONTENTFORMAT
  1
CONTENTFORMAT_BEGIN
 90
        0
 91
        0
 92
        4
 93
        0
300

 40
0.0
140
1.0
 94
        5
 62
     0
340
11
144
0.18
309
CONTENTFORMAT_END
171
     1
301
MARGIN
  1
CELLMARGIN_BEGIN
 40
0.06
 40
0.06
 40
0.06
 40
0.06
 40
0.06
 40
0.06
309
CELLMARGIN_END
 94
        6
 95
        1
302
GRIDFORMAT
  1
GRIDFORMAT_BEGIN
 90
        0
 91
        1
 62
     0
 92
       -2
340
14
 93
        0
 40
0.045
309
GRIDFORMAT_END
 95
        2
302
GRIDFORMAT
  1
GRIDFORMAT_BEGIN
 90
        0
 91
        1
 62
     0
 92
       -2
340
14
 93
        0
 40
0.045
309
GRIDFORMAT_END
 95
        4
302
GRIDFORMAT
  1
GRIDFORMAT_BEGIN
 90
        0
 91
        1
 62
     0
 92
       -2
340
14
 93
        0
 40
0.045
309
GRIDFORMAT_END
 95
        8
302
GRIDFORMAT
  1
GRIDFORMAT_BEGIN
 90
        0
 91
        1
 62
     0
 92
       -2
340
14
 93
        0
 40
0.045
309
GRIDFORMAT_END
 95
       16
302
GRIDFORMAT
  1
GRIDFORMAT_BEGIN
 90
        0
 91
        1
 62
     0
 92
       -2
340
14
 93
        0
 40
0.045
309
GRIDFORMAT_END
 95
       32
302
GRIDFORMAT
  1
GRIDFORMAT_BEGIN
 90
        0
 91
        1
 62
     0
 92
       -2
340
14
 93
        0
 40
0.045
309
GRIDFORMAT_END
309
TABLEFORMAT_END
  1
CELLSTYLE_BEGIN
 90
        2
 91
        1
300
_HEADER
309
CELLSTYLE_END
300
CELLSTYLE
  1
TABLEFORMAT_BEGIN
 90
        5
170
     1
 91
        0
 92
        0
 62
   257
 93
        1
300
CONTENTFORMAT
  1
CONTENTFORMAT_BEGIN
 90
        0
 91
        0
 92
        4
 93
        0
300

 40
0.0
140
1.0
 94
        2
 62
     0
340
11
144
0.18
309
CONTENTFORMAT_END
171
     1
301
MARGIN
  1
CELLMARGIN_BEGIN
 40
0.06
 40
0.06
 40
0.06
 40
0.06
 40
0.06
 40
0.06
309
CELLMARGIN_END
 94
        6
 95
        1
302
GRIDFORMAT
  1
GRIDFORMAT_BEGIN
 90
        0
 91
        1
 62
     0
 92
       -2
340
14
 93
        0
 40
0.045
309
GRIDFORMAT_END
 95
        2
302
GRIDFORMAT
  1
GRIDFORMAT_BEGIN
 90
        0
 91
        1
 62
     0
 92
       -2
340
14
 93
        0
 40
0.045
309
GRIDFORMAT_END
 95
        4
302
GRIDFORMAT
  1
GRIDFORMAT_BEGIN
 90
        0
 91
        1
 62
     0
 92
       -2
340
14
 93
        0
 40
0.045
309
GRIDFORMAT_END
 95
        8
302
GRIDFORMAT
  1
GRIDFORMAT_BEGIN
 90
        0
 91
        1
 62
     0
 92
       -2
340
14
 93
        0
 40
0.045
309
GRIDFORMAT_END
 95
       16
302
GRIDFORMAT
  1
GRIDFORMAT_BEGIN
 90
        0
 91
        1
 62
     0
 92
       -2
340
14
 93
        0
 40
0.045
309
GRIDFORMAT_END
 95
       32
302
GRIDFORMAT
  1
GRIDFORMAT_BEGIN
 90
        0
 91
        1
 62
     0
 92
       -2
340
14
 93
        0
 40
0.045
309
GRIDFORMAT_END
309
TABLEFORMAT_END
  1
CELLSTYLE_BEGIN
 90
        3
 91
        2
300
_DATA
309
CELLSTYLE_END
  0
ENDSEC
  0
EOF