0
SECTION
  2
HEADER
  9
$ACADVER
  1
AC1027
  9
$ACADMAINTVER
 70
     8
  9
$DWGCODEPAGE
  3
ANSI_1252
  9
$REQUIREDVERSIONS
160
                 0
  9
$COMMENTS
  1
File was created by Cadenas
  9
$CUSTOMPROPERTYTAG
  1
NN
  9
$CUSTOMPROPERTY
  1
Set Screw Two-Bolt Pillow Block Inch Bore
  9
$CUSTOMPROPERTYTAG
  1
NT
  9
$CUSTOMPROPERTY
  1
SC Pillow Block Bearings -(Normal Duty)
  9
$CUSTOMPROPERTYTAG
  1
NB
  9
$CUSTOMPROPERTY
  1
123939
  9
$CUSTOMPROPERTYTAG
  1
NBSYN
  9
$CUSTOMPROPERTY
  1
$PN.
  9
$CUSTOMPROPERTYTAG
  1
LINA
  9
$CUSTOMPROPERTY
  1
123939
  9
$CUSTOMPROPERTYTAG
  1
SERIES
  9
$CUSTOMPROPERTY
  1
210
  9
$CUSTOMPROPERTYTAG
  1
SS
  9
$CUSTOMPROPERTY
  1
2
  9
$CUSTOMPROPERTYTAG
  1
PN
  9
$CUSTOMPROPERTY
  1
123939
  9
$CUSTOMPROPERTYTAG
  1
DESCRIPTION
  9
$CUSTOMPROPERTY
  1
P2B-SC-200-NL
  9
$CUSTOMPROPERTYTAG
  1
WEIGHT
  9
$CUSTOMPROPERTY
  1
7.0
  9
$CUSTOMPROPERTYTAG
  1
LF
  9
$CUSTOMPROPERTY
  1
NO-LUBE
  9
$CUSTOMPROPERTYTAG
  1
A
  9
$CUSTOMPROPERTY
  1
1.94
  9
$CUSTOMPROPERTYTAG
  1
B
  9
$CUSTOMPROPERTY
  1
8.12
  9
$CUSTOMPROPERTYTAG
  1
C
  9
$CUSTOMPROPERTY
  1
2.25
  9
$CUSTOMPROPERTYTAG
  1
DMIN
  9
$CUSTOMPROPERTY
  1
6.00
  9
$CUSTOMPROPERTYTAG
  1
DMAX
  9
$CUSTOMPROPERTY
  1
6.68
  9
$CUSTOMPROPERTYTAG
  1
F
  9
$CUSTOMPROPERTY
  1
5/8
  9
$CUSTOMPROPERTYTAG
  1
G
  9
$CUSTOMPROPERTY
  1
1.02
  9
$CUSTOMPROPERTYTAG
  1
H
  9
$CUSTOMPROPERTY
  1
0.75
  9
$CUSTOMPROPERTYTAG
  1
J
  9
$CUSTOMPROPERTY
  1
4.53
  9
$CUSTOMPROPERTYTAG
  1
L
  9
$CUSTOMPROPERTY
  1
2.43
  9
$CUSTOMPROPERTYTAG
  1
M
  9
$CUSTOMPROPERTY
  1
2.25
  9
$CUSTOMPROPERTYTAG
  1
R
  9
$CUSTOMPROPERTY
  1
0.75
  9
$CUSTOMPROPERTYTAG
  1
S
  9
$CUSTOMPROPERTY
  1
1.19
  9
$CUSTOMPROPERTYTAG
  1
U
  9
$CUSTOMPROPERTY
  1
3.69
  9
$CUSTOMPROPERTYTAG
  1
V
  9
$CUSTOMPROPERTY
  1
7.38
  9
$CUSTOMPROPERTYTAG
  1
W
  9
$CUSTOMPROPERTY
  1
0.81
  9
$CUSTOMPROPERTYTAG
  1
X
  9
$CUSTOMPROPERTY
  1
0.12
  9
$CUSTOMPROPERTYTAG
  1
COMPANY
  9
$CUSTOMPROPERTY
  1
baldor
  9
$INSBASE
 10
0.0
 20
0.0
 30
0.0
  9
$EXTMIN
 10
1.000000000000000E+20
 20
1.000000000000000E+20
 30
1.000000000000000E+20
  9
$EXTMAX
 10
-1.000000000000000E+20
 20
-1.000000000000000E+20
 30
-1.000000000000000E+20
  9
$LIMMIN
 10
0.0
 20
0.0
  9
$LIMMAX
 10
12.0
 20
9.0
  9
$ORTHOMODE
 70
     0
  9
$REGENMODE
 70
     1
  9
$FILLMODE
 70
     1
  9
$QTEXTMODE
 70
     0
  9
$MIRRTEXT
 70
     1
  9
$LTSCALE
 40
1.0
  9
$ATTMODE
 70
     1
  9
$TEXTSIZE
 40
0.2
  9
$TRACEWID
 40
0.05
  9
$TEXTSTYLE
  7
Standard
  9
$CLAYER
  8
0
  9
$CELTYPE
  6
ByLayer
  9
$CECOLOR
 62
   256
  9
$CELTSCALE
 40
1.0
  9
$DISPSILH
 70
     0
  9
$DIMSCALE
 40
1.0
  9
$DIMASZ
 40
0.18
  9
$DIMEXO
 40
0.0625
  9
$DIMDLI
 40
0.38
  9
$DIMRND
 40
0.0
  9
$DIMDLE
 40
0.0
  9
$DIMEXE
 40
0.18
  9
$DIMTP
 40
0.0
  9
$DIMTM
 40
0.0
  9
$DIMTXT
 40
0.18
  9
$DIMCEN
 40
0.09
  9
$DIMTSZ
 40
0.0
  9
$DIMTOL
 70
     0
  9
$DIMLIM
 70
     0
  9
$DIMTIH
 70
     1
  9
$DIMTOH
 70
     1
  9
$DIMSE1
 70
     0
  9
$DIMSE2
 70
     0
  9
$DIMTAD
 70
     0
  9
$DIMZIN
 70
     0
  9
$DIMBLK
  1

  9
$DIMASO
 70
     1
  9
$DIMSHO
 70
     1
  9
$DIMPOST
  1

  9
$DIMAPOST
  1

  9
$DIMALT
 70
     0
  9
$DIMALTD
 70
     2
  9
$DIMALTF
 40
25.4
  9
$DIMLFAC
 40
1.0
  9
$DIMTOFL
 70
     0
  9
$DIMTVP
 40
0.0
  9
$DIMTIX
 70
     0
  9
$DIMSOXD
 70
     0
  9
$DIMSAH
 70
     0
  9
$DIMBLK1
  1

  9
$DIMBLK2
  1

  9
$DIMSTYLE
  2
Standard
  9
$DIMCLRD
 70
     0
  9
$DIMCLRE
 70
     0
  9
$DIMCLRT
 70
     0
  9
$DIMTFAC
 40
1.0
  9
$DIMGAP
 40
0.09
  9
$DIMJUST
 70
     0
  9
$DIMSD1
 70
     0
  9
$DIMSD2
 70
     0
  9
$DIMTOLJ
 70
     1
  9
$DIMTZIN
 70
     0
  9
$DIMALTZ
 70
     0
  9
$DIMALTTZ
 70
     0
  9
$DIMUPT
 70
     0
  9
$DIMDEC
 70
     4
  9
$DIMTDEC
 70
     4
  9
$DIMALTU
 70
     2
  9
$DIMALTTD
 70
     2
  9
$DIMTXSTY
  7
Standard
  9
$DIMAUNIT
 70
     0
  9
$DIMADEC
 70
     0
  9
$DIMALTRND
 40
0.0
  9
$DIMAZIN
 70
     0
  9
$DIMDSEP
 70
    46
  9
$DIMATFIT
 70
     3
  9
$DIMFRAC
 70
     0
  9
$DIMLDRBLK
  1

  9
$DIMLUNIT
 70
     2
  9
$DIMLWD
 70
    -2
  9
$DIMLWE
 70
    -2
  9
$DIMTMOVE
 70
     0
  9
$DIMFXL
 40
1.0
  9
$DIMFXLON
 70
     0
  9
$DIMJOGANG
 40
0.7853981633974483
  9
$DIMTFILL
 70
     0
  9
$DIMTFILLCLR
 70
     0
  9
$DIMARCSYM
 70
     0
  9
$DIMLTYPE
  6

  9
$DIMLTEX1
  6

  9
$DIMLTEX2
  6

  9
$DIMTXTDIRECTION
 70
     0
  9
$LUNITS
 70
     2
  9
$LUPREC
 70
     4
  9
$SKETCHINC
 40
0.1
  9
$FILLETRAD
 40
0.5
  9
$AUNITS
 70
     0
  9
$AUPREC
 70
     0
  9
$MENU
  1
.
  9
$ELEVATION
 40
0.0
  9
$PELEVATION
 40
0.0
  9
$THICKNESS
 40
0.0
  9
$LIMCHECK
 70
     0
  9
$CHAMFERA
 40
0.0
  9
$CHAMFERB
 40
0.0
  9
$CHAMFERC
 40
0.0
  9
$CHAMFERD
 40
0.0
  9
$SKPOLY
 70
     0
  9
$TDCREATE
 40
2458169.011324248
  9
$TDUCREATE
 40
2458168.969657581
  9
$TDUPDATE
 40
2458169.011324422
  9
$TDUUPDATE
 40
2458168.969657755
  9
$TDINDWG
 40
0.0000000116
  9
$TDUSRTIMER
 40
0.0000000116
  9
$USRTIMER
 70
     1
  9
$ANGBASE
 50
0.0
  9
$ANGDIR
 70
     0
  9
$PDMODE
 70
     0
  9
$PDSIZE
 40
0.0
  9
$PLINEWID
 40
0.0
  9
$SPLFRAME
 70
     0
  9
$SPLINETYPE
 70
     6
  9
$SPLINESEGS
 70
     8
  9
$HANDSEED
  5
1CC
  9
$SURFTAB1
 70
     6
  9
$SURFTAB2
 70
     6
  9
$SURFTYPE
 70
     6
  9
$SURFU
 70
     6
  9
$SURFV
 70
     6
  9
$UCSBASE
  2

  9
$UCSNAME
  2

  9
$UCSORG
 10
0.0
 20
0.0
 30
0.0
  9
$UCSXDIR
 10
1.0
 20
0.0
 30
0.0
  9
$UCSYDIR
 10
0.0
 20
1.0
 30
0.0
  9
$UCSORTHOREF
  2

  9
$UCSORTHOVIEW
 70
     0
  9
$UCSORGTOP
 10
0.0
 20
0.0
 30
0.0
  9
$UCSORGBOTTOM
 10
0.0
 20
0.0
 30
0.0
  9
$UCSORGLEFT
 10
0.0
 20
0.0
 30
0.0
  9
$UCSORGRIGHT
 10
0.0
 20
0.0
 30
0.0
  9
$UCSORGFRONT
 10
0.0
 20
0.0
 30
0.0
  9
$UCSORGBACK
 10
0.0
 20
0.0
 30
0.0
  9
$PUCSBASE
  2

  9
$PUCSNAME
  2

  9
$PUCSORG
 10
0.0
 20
0.0
 30
0.0
  9
$PUCSXDIR
 10
1.0
 20
0.0
 30
0.0
  9
$PUCSYDIR
 10
0.0
 20
1.0
 30
0.0
  9
$PUCSORTHOREF
  2

  9
$PUCSORTHOVIEW
 70
     0
  9
$PUCSORGTOP
 10
0.0
 20
0.0
 30
0.0
  9
$PUCSORGBOTTOM
 10
0.0
 20
0.0
 30
0.0
  9
$PUCSORGLEFT
 10
0.0
 20
0.0
 30
0.0
  9
$PUCSORGRIGHT
 10
0.0
 20
0.0
 30
0.0
  9
$PUCSORGFRONT
 10
0.0
 20
0.0
 30
0.0
  9
$PUCSORGBACK
 10
0.0
 20
0.0
 30
0.0
  9
$USERI1
 70
     0
  9
$USERI2
 70
     0
  9
$USERI3
 70
     0
  9
$USERI4
 70
     0
  9
$USERI5
 70
     0
  9
$USERR1
 40
0.0
  9
$USERR2
 40
0.0
  9
$USERR3
 40
0.0
  9
$USERR4
 40
0.0
  9
$USERR5
 40
0.0
  9
$WORLDVIEW
 70
     1
  9
$SHADEDGE
 70
     3
  9
$SHADEDIF
 70
    70
  9
$TILEMODE
 70
     1
  9
$MAXACTVP
 70
    64
  9
$PINSBASE
 10
0.0
 20
0.0
 30
0.0
  9
$PLIMCHECK
 70
     0
  9
$PEXTMIN
 10
1.000000000000000E+20
 20
1.000000000000000E+20
 30
1.000000000000000E+20
  9
$PEXTMAX
 10
-1.000000000000000E+20
 20
-1.000000000000000E+20
 30
-1.000000000000000E+20
  9
$PLIMMIN
 10
0.0
 20
0.0
  9
$PLIMMAX
 10
12.0
 20
9.0
  9
$UNITMODE
 70
     0
  9
$VISRETAIN
 70
     1
  9
$PLINEGEN
 70
     0
  9
$PSLTSCALE
 70
     1
  9
$TREEDEPTH
 70
  3020
  9
$CMLSTYLE
  2
Standard
  9
$CMLJUST
 70
     0
  9
$CMLSCALE
 40
1.0
  9
$PROXYGRAPHICS
 70
     1
  9
$MEASUREMENT
 70
     0
  9
$CELWEIGHT
370
    -1
  9
$ENDCAPS
280
     0
  9
$JOINSTYLE
280
     0
  9
$LWDISPLAY
290
     0
  9
$INSUNITS
 70
     1
  9
$HYPERLINKBASE
  1

  9
$STYLESHEET
  1

  9
$XEDIT
290
     1
  9
$CEPSNTYPE
380
     0
  9
$PSTYLEMODE
290
     1
  9
$FINGERPRINTGUID
  2
{CF2BA11E-D18B-4613-948A-C70212405A5F}
  9
$VERSIONGUID
  2
{FAEB1C32-E019-11D5-929B-00C0DF256EC4}
  9
$EXTNAMES
290
     1
  9
$PSVPSCALE
 40
0.0
  9
$OLESTARTUP
290
     0
  9
$SORTENTS
280
   127
  9
$INDEXCTL
280
     0
  9
$HIDETEXT
280
     1
  9
$XCLIPFRAME
280
     2
  9
$HALOGAP
280
     0
  9
$OBSCOLOR
 70
   257
  9
$OBSLTYPE
280
     0
  9
$INTERSECTIONDISPLAY
280
     0
  9
$INTERSECTIONCOLOR
 70
   257
  9
$DIMASSOC
280
     2
  9
$PROJECTNAME
  1

  9
$CAMERADISPLAY
290
     0
  9
$LENSLENGTH
 40
50.0
  9
$CAMERAHEIGHT
 40
0.0
  9
$STEPSPERSEC
 40
2.0
  9
$STEPSIZE
 40
6.0
  9
$3DDWFPREC
 40
2.0
  9
$PSOLWIDTH
 40
0.25
  9
$PSOLHEIGHT
 40
4.0
  9
$LOFTANG1
 40
1.570796326794897
  9
$LOFTANG2
 40
1.570796326794897
  9
$LOFTMAG1
 40
0.0
  9
$LOFTMAG2
 40
0.0
  9
$LOFTPARAM
 70
     7
  9
$LOFTNORMALS
280
     1
  9
$LATITUDE
 40
37.795
  9
$LONGITUDE
 40
-122.394
  9
$NORTHDIRECTION
 40
0.0
  9
$TIMEZONE
 70
 -8000
  9
$LIGHTGLYPHDISPLAY
280
     1
  9
$TILEMODELIGHTSYNCH
280
     1
  9
$CMATERIAL
347
44
  9
$SOLIDHIST
280
     0
  9
$SHOWHIST
280
     1
  9
$DWFFRAME
280
     2
  9
$DGNFRAME
280
     2
  9
$REALWORLDSCALE
290
     1
  9
$INTERFERECOLOR
 62
   256
  9
$CSHADOW
280
     0
  9
$SHADOWPLANELOCATION
 40
0.0
  0
ENDSEC
  0
SECTION
  2
CLASSES
  0
CLASS
  1
ACDBDICTIONARYWDFLT
  2
AcDbDictionaryWithDefault
  3
ObjectDBX Classes
 90
        0
 91
        4
280
     0
281
     0
  0
CLASS
  1
VISUALSTYLE
  2
AcDbVisualStyle
  3
ObjectDBX Classes
 90
     4095
 91
        4
280
     0
281
     0
  0
CLASS
  1
MATERIAL
  2
AcDbMaterial
  3
ObjectDBX Classes
 90
     1153
 91
        4
280
     0
281
     0
  0
CLASS
  1
SCALE
  2
AcDbScale
  3
ObjectDBX Classes
 90
     1153
 91
        4
280
     0
281
     0
  0
CLASS
  1
TABLESTYLE
  2
AcDbTableStyle
  3
ObjectDBX Classes
 90
     4095
 91
        4
280
     0
281
     0
  0
CLASS
  1
MLEADERSTYLE
  2
AcDbMLeaderStyle
  3
ACDB_MLEADERSTYLE_CLASS
 90
     4095
 91
        4
280
     0
281
     0
  0
CLASS
  1
SUN
  2
AcDbSun
  3
SCENEOE
 90
     1153
 91
        4
280
     0
281
     0
  0
CLASS
  1
DICTIONARYVAR
  2
AcDbDictionaryVar
  3
ObjectDBX Classes
 90
        0
 91
        4
280
     0
281
     0
  0
CLASS
  1
CELLSTYLEMAP
  2
AcDbCellStyleMap
  3
ObjectDBX Classes
 90
     1152
 91
        4
280
     0
281
     0
  0
ENDSEC
  0
SECTION
  2
TABLES
  0
TABLE
  2
VPORT
  5
8
330
0
100
AcDbSymbolTable
 70
     1
  0
VPORT
  5
29
330
8
100
AcDbSymbolTableRecord
100
AcDbViewportTableRecord
  2
*Active
 70
     0
 10
0.0
 20
0.0
 11
1.0
 21
1.0
 12
0.0
 22
-0.02475
 13
0.0
 23
0.0
 14
0.5
 24
0.5
 15
0.5
 25
0.5
 16
0.0
 26
0.0
 36
1.0
 17
0.0
 27
0.0
 37
0.0
 40
2.57499
 41
3.216478510596157
 42
50.0
 43
0.0
 44
0.0
 50
0.0
 51
0.0
 71
     0
 72
   100
 73
     1
 74
     3
 75
     0
 76
     0
 77
     0
 78
     0
281
     0
 65
     1
110
0.0
120
0.0
130
0.0
111
1.0
121
0.0
131
0.0
112
0.0
122
1.0
132
0.0
 79
     0
146
0.0
348
2F
 60
     3
 61
     5
292
     1
282
     1
141
0.0
142
0.0
 63
   250
361
6D
  0
ENDTAB
  0
TABLE
  2
LTYPE
  5
5
330
0
100
AcDbSymbolTable
 70
     3
  0
LTYPE
  5
14
330
5
100
AcDbSymbolTableRecord
100
AcDbLinetypeTableRecord
  2
ByBlock
 70
     0
  3

 72
    65
 73
     0
 40
0.0
  0
LTYPE
  5
15
330
5
100
AcDbSymbolTableRecord
100
AcDbLinetypeTableRecord
  2
ByLayer
 70
     0
  3

 72
    65
 73
     0
 40
0.0
  0
LTYPE
  5
16
330
5
100
AcDbSymbolTableRecord
100
AcDbLinetypeTableRecord
  2
Continuous
 70
     0
  3
Solid line
 72
    65
 73
     0
 40
0.0
  0
LTYPE
  5
9B
330
5
100
AcDbSymbolTableRecord
100
AcDbLinetypeTableRecord
  2
Dashed
 70
     0
  3

 72
    65
 73
     2
 40
2.0
 49
1.0
 74
     0
 49
-1.0
 74
     0
  0
LTYPE
  5
10F
330
5
100
AcDbSymbolTableRecord
100
AcDbLinetypeTableRecord
  2
Center
 70
     0
  3

 72
    65
 73
     4
 40
1.5
 49
0.45
 74
     0
 49
-0.5
 74
     0
 49
0.05
 74
     0
 49
-0.5
 74
     0
  0
ENDTAB
  0
TABLE
  2
LAYER
  5
2
330
0
100
AcDbSymbolTable
 70
     7
  0
LAYER
  5
10
330
2
100
AcDbSymbolTableRecord
100
AcDbLayerTableRecord
  2
0
 70
     0
 62
     7
  6
Continuous
370
    -3
390
F
347
46
348
0
  0
LAYER
  5
72
330
2
100
AcDbSymbolTableRecord
100
AcDbLayerTableRecord
  2
AM_6
 70
     0
 62
    -2
  6
Continuous
370
    35
390
F
347
46
348
0
  0
LAYER
  5
9C
330
2
100
AcDbSymbolTableRecord
100
AcDbLayerTableRecord
  2
AM_9
 70
     0
 62
     6
  6
Dashed
370
    25
390
F
347
46
348
0
  0
LAYER
  5
AD
330
2
100
AcDbSymbolTableRecord
100
AcDbLayerTableRecord
  2
AM_4
 70
     0
 62
     7
  6
Continuous
370
    50
390
F
347
46
348
0
  0
LAYER
  5
110
330
2
100
AcDbSymbolTableRecord
100
AcDbLayerTableRecord
  2
AM_7
 70
     0
 62
     7
  6
Center
370
    25
390
F
347
46
348
0
  0
LAYER
  5
123
330
2
100
AcDbSymbolTableRecord
100
AcDbLayerTableRecord
  2
AM_5
 70
     0
 62
     3
  6
Continuous
370
    25
390
F
347
46
348
0
  0
LAYER
  5
1BE
330
2
100
AcDbSymbolTableRecord
100
AcDbLayerTableRecord
  2
ConnectionPoints
 70
     0
 62
     7
  6
Continuous
370
    50
390
F
347
46
348
0
  0
ENDTAB
  0
TABLE
  2
STYLE
  5
3
330
0
100
AcDbSymbolTable
 70
     1
  0
STYLE
  5
11
330
3
100
AcDbSymbolTableRecord
100
AcDbTextStyleTableRecord
  2
Standard
 70
     0
 40
0.0
 41
1.0
 50
0.0
 71
     0
 42
0.2
  3
txt
  4

  0
ENDTAB
  0
TABLE
  2
VIEW
  5
6
330
0
100
AcDbSymbolTable
 70
     0
  0
ENDTAB
  0
TABLE
  2
UCS
  5
7
330
0
100
AcDbSymbolTable
 70
     0
  0
ENDTAB
  0
TABLE
  2
APPID
  5
9
330
0
100
AcDbSymbolTable
 70
     1
  0
APPID
  5
12
330
9
100
AcDbSymbolTableRecord
100
AcDbRegAppTableRecord
  2
ACAD
 70
     0
  0
ENDTAB
  0
TABLE
  2
DIMSTYLE
  5
A
330
0
100
AcDbSymbolTable
 70
     1
100
AcDbDimStyleTable
  0
DIMSTYLE
105
27
330
A
100
AcDbSymbolTableRecord
100
AcDbDimStyleTableRecord
  2
Standard
 70
     0
178
     0
340
11
  0
ENDTAB
  0
TABLE
  2
BLOCK_RECORD
  5
1
330
0
100
AcDbSymbolTable
 70
     5
  0
BLOCK_RECORD
  5
1F
330
1
100
AcDbSymbolTableRecord
100
AcDbBlockTableRecord
  2
*Model_Space
340
22
 70
     0
280
     1
281
     0
  0
BLOCK_RECORD
  5
1B
330
1
100
AcDbSymbolTableRecord
100
AcDbBlockTableRecord
  2
*Paper_Space
340
1E
 70
     0
280
     1
281
     0
  0
BLOCK_RECORD
  5
23
330
1
100
AcDbSymbolTableRecord
100
AcDbBlockTableRecord
  2
*Paper_Space0
340
26
 70
     0
280
     1
281
     0
  0
BLOCK_RECORD
  5
6E
330
1
100
AcDbSymbolTableRecord
100
AcDbBlockTableRecord
  2
1_123939_4
340
0
102
{BLKREFS
331
6F
102
}
 70
     0
280
     1
281
     0
  0
BLOCK_RECORD
  5
90
330
1
100
AcDbSymbolTableRecord
100
AcDbBlockTableRecord
  2
2_430026_0_in_123939_4
340
0
102
{BLKREFS
331
91
102
}
 70
     0
280
     1
281
     0
  0
BLOCK_RECORD
  5
BF
330
1
100
AcDbSymbolTableRecord
100
AcDbBlockTableRecord
  2
3_123347_0_in_123939_4
340
0
102
{BLKREFS
331
C0
102
}
 70
     0
280
     1
281
     0
  0
BLOCK_RECORD
  5
126
330
1
100
AcDbSymbolTableRecord
100
AcDbBlockTableRecord
  2
4_123939H_0_in_123939_4
340
0
102
{BLKREFS
331
127
102
}
 70
     0
280
     1
281
     0
  0
ENDTAB
  0
ENDSEC
  0
SECTION
  2
BLOCKS
  0
BLOCK
  5
20
330
1F
100
AcDbEntity
  8
0
100
AcDbBlockBegin
  2
*Model_Space
 70
     0
 10
0.0
 20
0.0
 30
0.0
  3
*Model_Space
  1

  0
ENDBLK
  5
21
330
1F
100
AcDbEntity
  8
0
100
AcDbBlockEnd
  0
BLOCK
  5
1C
330
1B
100
AcDbEntity
 67
     1
  8
0
100
AcDbBlockBegin
  2
*Paper_Space
 70
     0
 10
0.0
 20
0.0
 30
0.0
  3
*Paper_Space
  1

  0
ENDBLK
  5
1D
330
1B
100
AcDbEntity
 67
     1
  8
0
100
AcDbBlockEnd
  0
BLOCK
  5
24
330
23
100
AcDbEntity
  8
0
100
AcDbBlockBegin
  2
*Paper_Space0
 70
     0
 10
0.0
 20
0.0
 30
0.0
  3
*Paper_Space0
  1

  0
ENDBLK
  5
25
330
23
100
AcDbEntity
  8
0
100
AcDbBlockEnd
  0
BLOCK
  5
70
330
6E
100
AcDbEntity
  8
0
100
AcDbBlockBegin
  2
1_123939_4
 70
     2
 10
0.0
 20
0.0
 30
0.0
  3
1_123939_4
  1

  0
ATTDEF
  5
73
330
6E
100
AcDbEntity
  8
AM_6
100
AcDbText
 10
9.059999999999999
 20
1.2375
 30
0.0
 40
0.5
  1
Set Screw Two-Bolt Pillow Block Inch Bore
100
AcDbAttributeDefinition
  3

  2
NN
 70
     8
280
     0
  0
ATTDEF
  5
74
330
6E
100
AcDbEntity
  8
AM_6
100
AcDbText
 10
9.059999999999999
 20
0.7375
 30
0.0
 40
0.5
  1
SC Pillow Block Bearings -(Normal Duty)
100
AcDbAttributeDefinition
  3

  2
NT
 70
     8
280
     0
  0
ATTDEF
  5
75
330
6E
100
AcDbEntity
  8
AM_6
100
AcDbText
 10
9.059999999999999
 20
0.2375
 30
0.0
 40
0.5
  1
123939
100
AcDbAttributeDefinition
  3

  2
NB
 70
     8
280
     0
  0
ATTDEF
  5
76
330
6E
100
AcDbEntity
  8
AM_6
100
AcDbText
 10
9.059999999999999
 20
-0.2625
 30
0.0
 40
0.5
  1
$PN.
100
AcDbAttributeDefinition
  3

  2
NBSYN
 70
     8
280
     0
  0
ATTDEF
  5
77
330
6E
100
AcDbEntity
  8
AM_6
100
AcDbText
 10
9.059999999999999
 20
-0.7625
 30
0.0
 40
0.5
  1
123939
100
AcDbAttributeDefinition
  3

  2
LINA
 70
     8
280
     0
  0
ATTDEF
  5
78
330
6E
100
AcDbEntity
  8
AM_6
100
AcDbText
 10
9.059999999999999
 20
-1.2625
 30
0.0
 40
0.5
  1
210
100
AcDbAttributeDefinition
  3

  2
SERIES
 70
     8
280
     0
  0
ATTDEF
  5
79
330
6E
100
AcDbEntity
  8
AM_6
100
AcDbText
 10
9.059999999999999
 20
-1.7625
 30
0.0
 40
0.5
  1
2
100
AcDbAttributeDefinition
  3

  2
SS
 70
     8
280
     0
  0
ATTDEF
  5
7A
330
6E
100
AcDbEntity
  8
AM_6
100
AcDbText
 10
9.059999999999999
 20
-2.2625
 30
0.0
 40
0.5
  1
123939
100
AcDbAttributeDefinition
  3

  2
PN
 70
     8
280
     0
  0
ATTDEF
  5
7B
330
6E
100
AcDbEntity
  8
AM_6
100
AcDbText
 10
9.059999999999999
 20
-2.7625
 30
0.0
 40
0.5
  1
P2B-SC-200-NL
100
AcDbAttributeDefinition
  3

  2
DESCRIPTION
 70
     8
280
     0
  0
ATTDEF
  5
7C
330
6E
100
AcDbEntity
  8
AM_6
100
AcDbText
 10
9.059999999999999
 20
-3.2625
 30
0.0
 40
0.5
  1
7.0
100
AcDbAttributeDefinition
  3

  2
WEIGHT
 70
     8
280
     0
  0
ATTDEF
  5
7D
330
6E
100
AcDbEntity
  8
AM_6
100
AcDbText
 10
9.059999999999999
 20
-3.7625
 30
0.0
 40
0.5
  1
NO-LUBE
100
AcDbAttributeDefinition
  3

  2
LF
 70
     8
280
     0
  0
ATTDEF
  5
7E
330
6E
100
AcDbEntity
  8
AM_6
100
AcDbText
 10
9.059999999999999
 20
-4.2625
 30
0.0
 40
0.5
  1
1.94
100
AcDbAttributeDefinition
  3

  2
A
 70
     8
280
     0
  0
ATTDEF
  5
7F
330
6E
100
AcDbEntity
  8
AM_6
100
AcDbText
 10
9.059999999999999
 20
-4.7625
 30
0.0
 40
0.5
  1
8.12
100
AcDbAttributeDefinition
  3

  2
B
 70
     8
280
     0
  0
ATTDEF
  5
80
330
6E
100
AcDbEntity
  8
AM_6
100
AcDbText
 10
9.059999999999999
 20
-5.2625
 30
0.0
 40
0.5
  1
2.25
100
AcDbAttributeDefinition
  3

  2
C
 70
     8
280
     0
  0
ATTDEF
  5
81
330
6E
100
AcDbEntity
  8
AM_6
100
AcDbText
 10
9.059999999999999
 20
-5.7625
 30
0.0
 40
0.5
  1
6.00
100
AcDbAttributeDefinition
  3

  2
DMIN
 70
     8
280
     0
  0
ATTDEF
  5
82
330
6E
100
AcDbEntity
  8
AM_6
100
AcDbText
 10
9.059999999999999
 20
-6.2625
 30
0.0
 40
0.5
  1
6.68
100
AcDbAttributeDefinition
  3

  2
DMAX
 70
     8
280
     0
  0
ATTDEF
  5
83
330
6E
100
AcDbEntity
  8
AM_6
100
AcDbText
 10
9.059999999999999
 20
-6.7625
 30
0.0
 40
0.5
  1
5/8
100
AcDbAttributeDefinition
  3

  2
F
 70
     8
280
     0
  0
ATTDEF
  5
84
330
6E
100
AcDbEntity
  8
AM_6
100
AcDbText
 10
9.059999999999999
 20
-7.2625
 30
0.0
 40
0.5
  1
1.02
100
AcDbAttributeDefinition
  3

  2
G
 70
     8
280
     0
  0
ATTDEF
  5
85
330
6E
100
AcDbEntity
  8
AM_6
100
AcDbText
 10
9.059999999999999
 20
-7.7625
 30
0.0
 40
0.5
  1
0.75
100
AcDbAttributeDefinition
  3

  2
H
 70
     8
280
     0
  0
ATTDEF
  5
86
330
6E
100
AcDbEntity
  8
AM_6
100
AcDbText
 10
9.059999999999999
 20
-8.2625
 30
0.0
 40
0.5
  1
4.53
100
AcDbAttributeDefinition
  3

  2
J
 70
     8
280
     0
  0
ATTDEF
  5
87
330
6E
100
AcDbEntity
  8
AM_6
100
AcDbText
 10
9.059999999999999
 20
-8.7625
 30
0.0
 40
0.5
  1
2.43
100
AcDbAttributeDefinition
  3

  2
L
 70
     8
280
     0
  0
ATTDEF
  5
88
330
6E
100
AcDbEntity
  8
AM_6
100
AcDbText
 10
9.059999999999999
 20
-9.2625
 30
0.0
 40
0.5
  1
2.25
100
AcDbAttributeDefinition
  3

  2
M
 70
     8
280
     0
  0
ATTDEF
  5
89
330
6E
100
AcDbEntity
  8
AM_6
100
AcDbText
 10
9.059999999999999
 20
-9.7625
 30
0.0
 40
0.5
  1
0.75
100
AcDbAttributeDefinition
  3

  2
R
 70
     8
280
     0
  0
ATTDEF
  5
8A
330
6E
100
AcDbEntity
  8
AM_6
100
AcDbText
 10
9.059999999999999
 20
-10.2625
 30
0.0
 40
0.5
  1
1.19
100
AcDbAttributeDefinition
  3

  2
S
 70
     8
280
     0
  0
ATTDEF
  5
8B
330
6E
100
AcDbEntity
  8
AM_6
100
AcDbText
 10
9.059999999999999
 20
-10.7625
 30
0.0
 40
0.5
  1
3.69
100
AcDbAttributeDefinition
  3

  2
U
 70
     8
280
     0
  0
ATTDEF
  5
8C
330
6E
100
AcDbEntity
  8
AM_6
100
AcDbText
 10
9.059999999999999
 20
-11.2625
 30
0.0
 40
0.5
  1
7.38
100
AcDbAttributeDefinition
  3

  2
V
 70
     8
280
     0
  0
ATTDEF
  5
8D
330
6E
100
AcDbEntity
  8
AM_6
100
AcDbText
 10
9.059999999999999
 20
-11.7625
 30
0.0
 40
0.5
  1
0.81
100
AcDbAttributeDefinition
  3

  2
W
 70
     8
280
     0
  0
ATTDEF
  5
8E
330
6E
100
AcDbEntity
  8
AM_6
100
AcDbText
 10
9.059999999999999
 20
-12.2625
 30
0.0
 40
0.5
  1
0.12
100
AcDbAttributeDefinition
  3

  2
X
 70
     8
280
     0
  0
ATTDEF
  5
8F
330
6E
100
AcDbEntity
  8
AM_6
100
AcDbText
 10
9.059999999999999
 20
-12.7625
 30
0.0
 40
0.5
  1
baldor
100
AcDbAttributeDefinition
  3

  2
COMPANY
 70
     8
280
     0
  0
INSERT
  5
91
330
6E
100
AcDbEntity
  8
0
100
AcDbBlockReference
  2
2_430026_0_in_123939_4
 10
0.0
 20
0.0
 30
0.0
  0
INSERT
  5
C0
330
6E
100
AcDbEntity
  8
0
100
AcDbBlockReference
  2
3_123347_0_in_123939_4
 10
0.0
 20
0.0
 30
0.0
  0
INSERT
  5
127
330
6E
100
AcDbEntity
  8
0
100
AcDbBlockReference
  2
4_123939H_0_in_123939_4
 10
0.0
 20
0.0
 30
0.0
  0
ENDBLK
  5
71
330
6E
100
AcDbEntity
  8
0
100
AcDbBlockEnd
  0
BLOCK
  5
92
330
90
100
AcDbEntity
  8
0
100
AcDbBlockBegin
  2
2_430026_0_in_123939_4
 70
     2
 10
0.0
 20
0.0
 30
0.0
  3
2_430026_0_in_123939_4
  1

  0
ATTDEF
  5
94
330
90
100
AcDbEntity
  8
AM_6
100
AcDbText
 10
6.776256164866961
 20
0.1993639982534386
 30
0.0
 40
0.5
  1
430026 Plug
100
AcDbAttributeDefinition
  3

  2
NN
 70
     8
280
     0
  0
ATTDEF
  5
95
330
90
100
AcDbEntity
  8
AM_6
100
AcDbText
 10
6.776256164866961
 20
-0.3006360017465614
 30
0.0
 40
0.5
  1
Plug
100
AcDbAttributeDefinition
  3

  2
NT
 70
     8
280
     0
  0
ATTDEF
  5
96
330
90
100
AcDbEntity
  8
AM_6
100
AcDbText
 10
6.776256164866961
 20
-0.8006360017465615
 30
0.0
 40
0.5
  1
430026
100
AcDbAttributeDefinition
  3

  2
NB
 70
     8
280
     0
  0
ATTDEF
  5
97
330
90
100
AcDbEntity
  8
AM_6
100
AcDbText
 10
6.776256164866961
 20
-1.300636001746561
 30
0.0
 40
0.5
  1
$PN.
100
AcDbAttributeDefinition
  3

  2
NBSYN
 70
     8
280
     0
  0
ATTDEF
  5
98
330
90
100
AcDbEntity
  8
AM_6
100
AcDbText
 10
6.776256164866961
 20
-1.800636001746561
 30
0.0
 40
0.5
  1
430026
100
AcDbAttributeDefinition
  3

  2
LINA
 70
     8
280
     0
  0
ATTDEF
  5
99
330
90
100
AcDbEntity
  8
AM_6
100
AcDbText
 10
6.776256164866961
 20
-2.300636001746561
 30
0.0
 40
0.5
  1
430026
100
AcDbAttributeDefinition
  3

  2
PN
 70
     8
280
     0
  0
ATTDEF
  5
9A
330
90
100
AcDbEntity
  8
AM_6
100
AcDbText
 10
6.776256164866961
 20
-2.800636001746561
 30
0.0
 40
0.5
  1
baldor
100
AcDbAttributeDefinition
  3

  2
COMPANY
 70
     8
280
     0
  0
ELLIPSE
  5
9D
330
90
100
AcDbEntity
  8
AM_9
100
AcDbEllipse
 10
1.428002144606233
 20
0.0000000000000001
 30
0.0
 11
-3.127431692422572E-17
 21
-0.1702494517657397
 31
0.0
210
0.0
220
0.0
230
1.0
 40
0.7071067811865475
 41
0.0
 42
6.283185307179586
  0
LINE
  5
9E
330
90
100
AcDbEntity
  8
AM_9
100
AcDbLine
 10
1.484038111616736
 20
0.0000000000000001
 30
0.0
 11
1.522311388847723
 21
-0.0937499999999999
 31
0.0
  0
LINE
  5
9F
330
90
100
AcDbEntity
  8
AM_9
100
AcDbLine
 10
1.522311388847723
 20
0.0937500000000001
 30
0.0
 11
1.484038111616736
 21
0.0000000000000001
 31
0.0
  0
LINE
  5
A0
330
90
100
AcDbEntity
  8
AM_9
100
AcDbLine
 10
1.598857943309697
 20
-0.0937499999999999
 30
0.0
 11
1.602859629807124
 21
-0.0839479099707201
 31
0.0
  0
LINE
  5
A1
330
90
100
AcDbEntity
  8
AM_9
100
AcDbLine
 10
1.602751324880603
 20
0.0842132017773259
 30
0.0
 11
1.598857943309697
 21
0.0937500000000001
 31
0.0
  0
ELLIPSE
  5
A2
330
90
100
AcDbEntity
  8
AM_9
100
AcDbEllipse
 10
1.560584666078704
 20
0.0000000000000004
 30
0.0
 11
5.740531871003235E-18
 21
0.09375000000000028
 31
0.0
210
0.0
220
0.0
230
1.0
 40
0.7071067811865346
 41
5.685042590671843
 42
10.0222589673773
  0
LINE
  5
A3
330
90
100
AcDbEntity
  8
AM_9
100
AcDbLine
 10
1.498117040185116
 20
-0.0661318839386912
 30
0.0
 11
1.536456620378739
 21
-0.0873197418766239
 31
0.0
  0
LINE
  5
A4
330
90
100
AcDbEntity
  8
AM_9
100
AcDbLine
 10
1.536456620378739
 20
0.0873197418766241
 30
0.0
 11
1.498117040185116
 21
0.0661318839386913
 31
0.0
  0
LINE
  5
A5
330
90
100
AcDbEntity
  8
AM_9
100
AcDbLine
 10
1.522311388847723
 20
-0.0937499999999999
 30
0.0
 11
1.610171651808682
 21
-0.0937499999999999
 31
0.0
  0
LINE
  5
A6
330
90
100
AcDbEntity
  8
AM_9
100
AcDbLine
 10
1.522311388847723
 20
0.0937500000000001
 30
0.0
 11
1.610171651808682
 21
0.0937500000000001
 31
0.0
  0
LINE
  5
A7
330
90
100
AcDbEntity
  8
AM_9
100
AcDbLine
 10
1.484038111616736
 20
0.0000000000000001
 30
0.0
 11
1.571898374577695
 21
0.0000000000000001
 31
0.0
  0
LINE
  5
A8
330
90
100
AcDbEntity
  8
AM_9
100
AcDbLine
 10
1.437923755078482
 20
-0.1907804974829229
 30
0.0
 11
1.607818123947499
 21
-0.1982851788212693
 31
0.0
  0
LINE
  5
A9
330
90
100
AcDbEntity
  8
AM_9
100
AcDbLine
 10
1.607818123947499
 20
0.1982851788212696
 30
0.0
 11
1.437923755078482
 21
0.1907804974829231
 31
0.0
  0
ELLIPSE
  5
AA
330
90
100
AcDbEntity
  8
AM_9
100
AcDbEllipse
 10
1.634837764954953
 20
0.0000000000000001
 30
0.0
 11
1.220859406418043E-17
 21
0.1993814718281308
 31
0.0
210
0.0
220
0.0
230
1.0
 40
0.7071067811865481
 41
4.463828942208137
 42
4.960949018561242
  0
ELLIPSE
  5
AB
330
90
100
AcDbEntity
  8
AM_9
100
AcDbEllipse
 10
1.516390492254551
 20
0.0000000000000001
 30
0.0
 11
4.347610051068799E-18
 21
0.07100186035836249
 31
0.0
210
0.0
220
0.0
230
1.0
 40
0.7071067811865476
 41
0.0
 42
6.283185307179586
  0
ELLIPSE
  5
AC
330
90
100
AcDbEntity
  8
AM_9
100
AcDbEllipse
 10
1.442137393378302
 20
0.0000000000000001
 30
0.0
 11
1.168763340082626E-17
 21
0.1908735385412944
 31
0.0
210
0.0
220
0.0
230
1.0
 40
0.7071067811865476
 41
0.0
 42
6.283185307179586
  0
LINE
  5
AE
330
90
100
AcDbEntity
  8
AM_4
100
AcDbLine
 10
1.602859629807124
 20
-0.0839479099707201
 30
0.0
 11
1.637131220540684
 21
0.0000000000000001
 31
0.0
  0
LINE
  5
AF
330
90
100
AcDbEntity
  8
AM_4
100
AcDbLine
 10
1.637131220540684
 20
0.0000000000000001
 30
0.0
 11
1.724991483501644
 21
0.0000000000000001
 31
0.0
  0
LINE
  5
B0
330
90
100
AcDbEntity
  8
AM_4
100
AcDbLine
 10
1.637131220540684
 20
0.0000000000000001
 30
0.0
 11
1.602751324880603
 21
0.0842132017773259
 31
0.0
  0
ELLIPSE
  5
B1
330
90
100
AcDbEntity
  8
AM_4
100
AcDbEllipse
 10
1.560584666078714
 20
-0.0000000000000003
 30
0.0
 11
5.740531871003267E-18
 21
0.0937500000000008
 31
0.0
210
0.0
220
0.0
230
1.0
 40
0.7071067811865164
 41
3.739073660197603
 42
5.685042590671966
  0
LWPOLYLINE
  5
B2
330
90
100
AcDbEntity
  8
AM_4
100
AcDbPolyline
 90
        8
 70
     0
 43
0.0
 10
1.610171651808682
 20
-0.0937499999999999
 10
1.595595841263933
 20
-0.0742104790331714
 10
1.589048634635971
 20
-0.063685504419161
 10
1.583357363364564
 20
-0.0527625339528986
 10
1.577467525531257
 20
-0.037736434300393
 10
1.573753546054262
 20
-0.022510364473931
 10
1.57232491128247
 20
-0.0111009620107463
 10
1.571898374577695
 20
0.0000000000000001
  0
LWPOLYLINE
  5
B3
330
90
100
AcDbEntity
  8
AM_4
100
AcDbPolyline
 90
        8
 70
     0
 43
0.0
 10
1.571898374577695
 20
0.0000000000000001
 10
1.573276516095327
 20
0.0195395209668287
 10
1.575322915254055
 20
0.0300644955808391
 10
1.578550212021926
 20
0.0409874660471014
 10
1.584929133179569
 20
0.0560135656996071
 10
1.593647187656847
 20
0.071239635526069
 10
1.601534290986674
 20
0.0826490379892537
 10
1.610171651808682
 20
0.0937500000000001
  0
LINE
  5
B4
330
90
100
AcDbEntity
  8
AM_4
100
AcDbLine
 10
1.610171651808682
 20
0.0937500000000001
 30
0.0
 11
1.686718206270656
 21
0.0937500000000001
 31
0.0
  0
LWPOLYLINE
  5
B5
330
90
100
AcDbEntity
  8
AM_4
100
AcDbPolyline
 90
        8
 70
     0
 43
0.0
 10
1.686718206270656
 20
0.0937500000000001
 10
1.688096347788288
 20
0.0742104790331716
 10
1.690142746947017
 20
0.0636855044191612
 10
1.693370043714888
 20
0.0527625339528989
 10
1.699748964872531
 20
0.0377364343003932
 10
1.708467019349809
 20
0.0225103644739312
 10
1.716354122679635
 20
0.0111009620107466
 10
1.724991483501644
 20
0.0000000000000001
  0
LWPOLYLINE
  5
B6
330
90
100
AcDbEntity
  8
AM_4
100
AcDbPolyline
 90
        8
 70
     0
 43
0.0
 10
1.724991483501644
 20
0.0000000000000001
 10
1.710415672956894
 20
-0.0195395209668285
 10
1.703868466328932
 20
-0.0300644955808388
 10
1.698177195057526
 20
-0.0409874660471012
 10
1.692287357224218
 20
-0.0560135656996069
 10
1.688573377747223
 20
-0.0712396355260688
 10
1.687144742975431
 20
-0.0826490379892535
 10
1.686718206270656
 20
-0.0937499999999999
  0
LINE
  5
B7
330
90
100
AcDbEntity
  8
AM_4
100
AcDbLine
 10
1.686718206270656
 20
-0.0937499999999999
 30
0.0
 11
1.610171651808682
 21
-0.0937499999999999
 31
0.0
  0
LINE
  5
B8
330
90
100
AcDbEntity
  8
AM_4
100
AcDbLine
 10
1.607818123947499
 20
-0.1982851788212693
 30
0.0
 11
1.630436309350427
 21
-0.1992842835887233
 31
0.0
  0
LINE
  5
B9
330
90
100
AcDbEntity
  8
AM_4
100
AcDbLine
 10
1.630436309350427
 20
0.1992842835887235
 30
0.0
 11
1.607818123947499
 21
0.1982851788212696
 31
0.0
  0
ELLIPSE
  5
BA
330
90
100
AcDbEntity
  8
AM_4
100
AcDbEllipse
 10
1.634837764954959
 20
0.0000000000000003
 30
0.0
 11
1.220859406417987E-17
 21
0.1993814718281217
 31
0.0
210
0.0
220
0.0
230
1.0
 40
0.707106781186547
 41
4.960949018561254
 42
10.74701424938771
  0
ELLIPSE
  5
BB
330
90
100
AcDbEntity
  8
AM_4
100
AcDbEllipse
 10
1.648973013727028
 20
0.0000000000000001
 30
0.0
 11
-2.002297516605922E-17
 21
-0.109
 31
0.0
210
0.0
220
0.0
230
1.0
 40
0.7071067811865483
 41
0.0
 42
6.283185307179586
  0
LINE
  5
BC
330
90
100
AcDbEntity
  8
AM_4
100
AcDbLine
 10
1.772344456977264
 20
0.0442828986057767
 30
0.0
 11
1.771488989103818
 21
0.0490495380771809
 31
0.0
  0
LINE
  5
BD
330
90
100
AcDbEntity
  8
AM_4
100
AcDbLine
 10
1.771488989103818
 20
-0.0490495380771807
 30
0.0
 11
1.772344456977264
 21
-0.0442828986057765
 31
0.0
  0
ELLIPSE
  5
BE
330
90
100
AcDbEntity
  8
AM_4
100
AcDbEllipse
 10
1.648973013727029
 20
0.0000000000000002
 30
0.0
 11
1.102216155863618E-17
 21
0.1800055586036763
 31
0.0
210
0.0
220
0.0
230
1.0
 40
0.7071067811865496
 41
0.0
 42
6.283185307179586
  0
ENDBLK
  5
93
330
90
100
AcDbEntity
  8
0
100
AcDbBlockEnd
  0
BLOCK
  5
C1
330
BF
100
AcDbEntity
  8
0
100
AcDbBlockBegin
  2
3_123347_0_in_123939_4
 70
     2
 10
0.0
 20
0.0
 30
0.0
  3
3_123347_0_in_123939_4
  1

  0
ATTDEF
  5
C3
330
BF
100
AcDbEntity
  8
AM_6
100
AcDbText
 10
6.770932289135581
 20
0.7499999999999999
 30
0.0
 40
0.5
  1
Set Screw Insert Inch Bore
100
AcDbAttributeDefinition
  3

  2
NN
 70
     8
280
     0
  0
ATTDEF
  5
C4
330
BF
100
AcDbEntity
  8
AM_6
100
AcDbText
 10
6.770932289135581
 20
0.2499999999999999
 30
0.0
 40
0.5
  1
SC Normal Duty Bearing Inserts
100
AcDbAttributeDefinition
  3

  2
NT
 70
     8
280
     0
  0
ATTDEF
  5
C5
330
BF
100
AcDbEntity
  8
AM_6
100
AcDbText
 10
6.770932289135581
 20
-0.2500000000000001
 30
0.0
 40
0.5
  1
123347
100
AcDbAttributeDefinition
  3

  2
NB
 70
     8
280
     0
  0
ATTDEF
  5
C6
330
BF
100
AcDbEntity
  8
AM_6
100
AcDbText
 10
6.770932289135581
 20
-0.7500000000000001
 30
0.0
 40
0.5
  1
$PN.
100
AcDbAttributeDefinition
  3

  2
NBSYN
 70
     8
280
     0
  0
ATTDEF
  5
C7
330
BF
100
AcDbEntity
  8
AM_6
100
AcDbText
 10
6.770932289135581
 20
-1.25
 30
0.0
 40
0.5
  1
123347
100
AcDbAttributeDefinition
  3

  2
LINA
 70
     8
280
     0
  0
ATTDEF
  5
C8
330
BF
100
AcDbEntity
  8
AM_6
100
AcDbText
 10
6.770932289135581
 20
-1.75
 30
0.0
 40
0.5
  1
210
100
AcDbAttributeDefinition
  3

  2
SERIES
 70
     8
280
     0
  0
ATTDEF
  5
C9
330
BF
100
AcDbEntity
  8
AM_6
100
AcDbText
 10
6.770932289135581
 20
-2.25
 30
0.0
 40
0.5
  1
2
100
AcDbAttributeDefinition
  3

  2
SS
 70
     8
280
     0
  0
ATTDEF
  5
CA
330
BF
100
AcDbEntity
  8
AM_6
100
AcDbText
 10
6.770932289135581
 20
-2.75
 30
0.0
 40
0.5
  1
123347
100
AcDbAttributeDefinition
  3

  2
PN
 70
     8
280
     0
  0
ATTDEF
  5
CB
330
BF
100
AcDbEntity
  8
AM_6
100
AcDbText
 10
6.770932289135581
 20
-3.25
 30
0.0
 40
0.5
  1
INS-SC-200
100
AcDbAttributeDefinition
  3

  2
DESCRIPTION
 70
     8
280
     0
  0
ATTDEF
  5
CC
330
BF
100
AcDbEntity
  8
AM_6
100
AcDbText
 10
6.770932289135581
 20
-3.75
 30
0.0
 40
0.5
  1
1.94
100
AcDbAttributeDefinition
  3

  2
A
 70
     8
280
     0
  0
ATTDEF
  5
CD
330
BF
100
AcDbEntity
  8
AM_6
100
AcDbText
 10
6.770932289135581
 20
-4.25
 30
0.0
 40
0.5
  1
0.87
100
AcDbAttributeDefinition
  3

  2
C
 70
     8
280
     0
  0
ATTDEF
  5
CE
330
BF
100
AcDbEntity
  8
AM_6
100
AcDbText
 10
6.770932289135581
 20
-4.75
 30
0.0
 40
0.5
  1
3.5433
100
AcDbAttributeDefinition
  3

  2
D
 70
     8
280
     0
  0
ATTDEF
  5
CF
330
BF
100
AcDbEntity
  8
AM_6
100
AcDbText
 10
6.770932289135581
 20
-5.25
 30
0.0
 40
0.5
  1
0.25
100
AcDbAttributeDefinition
  3

  2
J
 70
     8
280
     0
  0
ATTDEF
  5
D0
330
BF
100
AcDbEntity
  8
AM_6
100
AcDbText
 10
6.770932289135581
 20
-5.75
 30
0.0
 40
0.5
  1
2.43
100
AcDbAttributeDefinition
  3

  2
L
 70
     8
280
     0
  0
ATTDEF
  5
D1
330
BF
100
AcDbEntity
  8
AM_6
100
AcDbText
 10
6.770932289135581
 20
-6.25
 30
0.0
 40
0.5
  1
3/8 - 24
100
AcDbAttributeDefinition
  3

  2
N
 70
     8
280
     0
  0
ATTDEF
  5
D2
330
BF
100
AcDbEntity
  8
AM_6
100
AcDbText
 10
6.770932289135581
 20
-6.75
 30
0.0
 40
0.5
  1
0.75
100
AcDbAttributeDefinition
  3

  2
W
 70
     8
280
     0
  0
ATTDEF
  5
D3
330
BF
100
AcDbEntity
  8
AM_6
100
AcDbText
 10
6.770932289135581
 20
-7.25
 30
0.0
 40
0.5
  1
1.19
100
AcDbAttributeDefinition
  3

  2
Y
 70
     8
280
     0
  0
ATTDEF
  5
D4
330
BF
100
AcDbEntity
  8
AM_6
100
AcDbText
 10
6.770932289135581
 20
-7.75
 30
0.0
 40
0.5
  1
baldor
100
AcDbAttributeDefinition
  3

  2
COMPANY
 70
     8
280
     0
  0
LINE
  5
D5
330
BF
100
AcDbEntity
  8
AM_9
100
AcDbLine
 10
-1.79255909090909
 20
0.1249999999999999
 30
0.0
 11
-1.767179812784655
 21
0.1249999999999999
 31
0.0
  0
LINE
  5
D6
330
BF
100
AcDbEntity
  8
AM_9
100
AcDbLine
 10
-1.731560342632366
 20
0.3750000000000001
 30
0.0
 11
-1.79255909090909
 21
0.3750000000000001
 31
0.0
  0
LINE
  5
D7
330
BF
100
AcDbEntity
  8
AM_9
100
AcDbLine
 10
-1.87165
 20
0.2959090909090927
 30
0.0
 11
-1.87165
 21
0.2040909090909074
 31
0.0
  0
LINE
  5
D8
330
BF
100
AcDbEntity
  8
AM_9
100
AcDbLine
 10
-1.79255909090909
 20
0.3750000000000001
 30
0.0
 11
-1.79255909090909
 21
0.1249999999999999
 31
0.0
  0
ARC
  5
D9
330
BF
100
AcDbEntity
  8
AM_9
100
AcDbCircle
 10
-1.79255909090909
 20
0.2040909090909091
 30
0.0
 40
0.0790909090909093
100
AcDbArc
 50
180.0
 51
270.0
  0
ARC
  5
DA
330
BF
100
AcDbEntity
  8
AM_9
100
AcDbCircle
 10
-1.79255909090909
 20
0.295909090909091
 30
0.0
 40
0.0790909090909092
100
AcDbArc
 50
90.0
 51
180.0
  0
ELLIPSE
  5
DB
330
BF
100
AcDbEntity
  8
AM_9
100
AcDbEllipse
 10
0.9004753364813639
 20
-0.8125
 30
0.0
 11
-2.822504710334861E-17
 21
-0.15365
 31
0.0
210
0.0
220
0.0
230
1.0
 40
0.4226182617406985
 41
3.970471756685207
 42
5.454306204084173
  0
ELLIPSE
  5
DC
330
BF
100
AcDbEntity
  8
AM_9
100
AcDbEllipse
 10
0.9004753364813641
 20
-0.8125
 30
0.0
 11
-2.822504710334861E-17
 21
-0.15365
 31
0.0
210
0.0
220
0.0
230
1.0
 40
0.4226182617406985
 41
0.8288791030954163
 42
2.312713550494378
  0
LINE
  5
DD
330
BF
100
AcDbEntity
  8
AM_9
100
AcDbLine
 10
0.9062889412048264
 20
-0.9661500000000001
 30
0.0
 11
1.077731581779758
 21
-0.9661500000000001
 31
0.0
  0
LINE
  5
DE
330
BF
100
AcDbEntity
  8
AM_9
100
AcDbLine
 10
1.077731581779758
 20
-0.65885
 30
0.0
 11
0.9062889412048264
 21
-0.65885
 31
0.0
  0
LWPOLYLINE
  5
DF
330
BF
100
AcDbEntity
  8
AM_9
100
AcDbPolyline
 90
        7
 70
     0
 43
0.0
 10
0.906303684489086
 20
-0.6588500003066473
 10
0.9055563033813971
 20
-0.6588602504543171
 10
0.894215382823132
 20
-0.6613831247310965
 10
0.8830443800853018
 20
-0.667963562101196
 10
0.871724388197629
 20
-0.6787812424754878
 10
0.861846173492225
 20
-0.692070143704484
 10
0.8526066959775337
 20
-0.7086783138054917
  0
LWPOLYLINE
  5
E0
330
BF
100
AcDbEntity
  8
AM_9
100
AcDbPolyline
 90
        7
 70
     0
 43
0.0
 10
0.9063118894988099
 20
-0.9661499996933527
 10
0.9070564159474259
 20
-0.9661397495456828
 10
0.9177003752088427
 20
-0.9636168752689034
 10
0.9271065902085925
 20
-0.9570364378988038
 10
0.9356927481903251
 20
-0.9462187575245119
 10
0.9424986240168717
 20
-0.9329298562955155
 10
0.9483439769851942
 20
-0.9163216861945079
  0
ELLIPSE
  5
E1
330
BF
100
AcDbEntity
  8
AM_9
100
AcDbEllipse
 10
1.077731581779758
 20
-0.8125000000000002
 30
0.0
 11
-2.822504710334859E-17
 21
-0.1536499999999998
 31
0.0
210
0.0
220
0.0
230
1.0
 40
0.4226182617406952
 41
2.41538492145266
 42
5.917896581092949
  0
LINE
  5
E2
330
BF
100
AcDbEntity
  8
AM_9
100
AcDbLine
 10
1.047451756009353
 20
-0.9484222645321795
 30
0.0
 11
1.063615657208017
 21
-0.9685832816698104
 31
0.0
  0
LINE
  5
E3
330
BF
100
AcDbEntity
  8
AM_9
100
AcDbLine
 10
1.063762085110681
 20
-0.6562340807714252
 30
0.0
 11
1.047451756009353
 21
-0.6765777354678205
 31
0.0
  0
LWPOLYLINE
  5
E4
330
BF
100
AcDbEntity
  8
AM_9
100
AcDbPolyline
 90
        3
 70
     0
 43
0.0
 10
1.044362926186783
 20
-0.688619320549276
 10
1.052040372766059
 20
-0.6736640853249347
 10
1.063803840623945
 20
-0.6561819997022166
  0
LWPOLYLINE
  5
E5
330
BF
100
AcDbEntity
  8
AM_9
100
AcDbPolyline
 90
        6
 70
     0
 43
0.0
 10
1.063803840623945
 20
-0.6561819997022166
 10
1.064334977185003
 20
-0.6555247177511512
 10
1.076720546730878
 20
-0.6430162447970542
 10
1.089410569637113
 20
-0.6353689653107282
 10
1.097035012838221
 20
-0.6332990340578293
 10
1.104484606386856
 20
-0.6331954979757435
  0
LWPOLYLINE
  5
E6
330
BF
100
AcDbEntity
  8
AM_9
100
AcDbPolyline
 90
       12
 70
     0
 43
0.0
 10
-0.1132668529435204
 20
-0.7086783138054918
 10
-0.1141728390981037
 20
-0.7095205676421894
 10
-0.1322300781568437
 20
-0.7297697906017508
 10
-0.1463275685807092
 20
-0.752956561167131
 10
-0.1551827801966106
 20
-0.7764740855524245
 10
-0.1596417027227055
 20
-0.8012219792429784
 10
-0.1595881248475561
 20
-0.8241966434420008
 10
-0.1556645356197724
 20
-0.846827639272991
 10
-0.1482249512172903
 20
-0.8679306904519114
 10
-0.137564177176055
 20
-0.8875853060939003
 10
-0.1263123667214197
 20
-0.9027137154531821
 10
-0.1132668529435204
 20
-0.9163216861945082
  0
LWPOLYLINE
  5
E7
330
BF
100
AcDbEntity
  8
AM_9
100
AcDbPolyline
 90
       12
 70
     0
 43
0.0
 10
0.1132668529435204
 20
-0.9163216861945082
 10
0.1141728390981037
 20
-0.9154794323578106
 10
0.1322300781568437
 20
-0.895230209398249
 10
0.1463275685807092
 20
-0.872043438832869
 10
0.1551827801966106
 20
-0.8485259144475756
 10
0.1596417027227055
 20
-0.8237780207570216
 10
0.1595881248475561
 20
-0.8008033565579994
 10
0.1556645356197724
 20
-0.7781723607270091
 10
0.1482249512172903
 20
-0.7570693095480887
 10
0.137564177176055
 20
-0.7374146939060997
 10
0.1263123667214197
 20
-0.722286284546818
 10
0.1132668529435204
 20
-0.7086783138054918
  0
LWPOLYLINE
  5
E8
330
BF
100
AcDbEntity
  8
AM_9
100
AcDbPolyline
 90
       11
 70
     0
 43
0.0
 10
0.8526066959775347
 20
-0.7086783138054902
 10
0.8451429990671083
 20
-0.723440318702788
 10
0.836904821393095
 20
-0.7454289711305213
 10
0.8308730263504233
 20
-0.7698256477118256
 10
0.827732727602861
 20
-0.7934622294471838
 10
0.8270044258404323
 20
-0.8177193385264394
 10
0.8285836893851393
 20
-0.8400940368266185
 10
0.8321932516375048
 20
-0.8616986649845271
 10
0.8376793347040777
 20
-0.8820401487558264
 10
0.8447142822664746
 20
-0.9005932957460295
 10
0.8526066959775347
 20
-0.9163216861945098
  0
LWPOLYLINE
  5
E9
330
BF
100
AcDbEntity
  8
AM_9
100
AcDbPolyline
 90
        6
 70
     0
 43
0.0
 10
0.8526066959775347
 20
-0.9163216861945098
 10
0.8622958530040616
 20
-0.9336244794489732
 10
0.8732622322184529
 20
-0.9479471331471402
 10
0.8844603239229343
 20
-0.9580909270135364
 10
0.8961043243563861
 20
-0.9643347082021988
 10
0.9063118894988099
 20
-0.9661499996933527
  0
LWPOLYLINE
  5
EA
330
BF
100
AcDbEntity
  8
AM_9
100
AcDbPolyline
 90
       13
 70
     0
 43
0.0
 10
0.9483439769851935
 20
-0.9163216861945096
 10
0.9486670942842966
 20
-0.9153786354822305
 10
0.9542915916760665
 20
-0.8949609660623067
 10
0.958458560682226
 20
-0.8715730675393194
 10
0.9609510870212029
 20
-0.8480367054706951
 10
0.9621630842429615
 20
-0.8232871486187936
 10
0.9621271367672886
 20
-0.8003282017413303
 10
0.961013501216883
 20
-0.7777263183810383
 10
0.9588850568192988
 20
-0.7566447333526037
 10
0.9557526068543778
 20
-0.737021701613794
 10
0.952522330675294
 20
-0.7226397212325617
 10
0.9486696190682095
 20
-0.7096288110529542
 10
0.9483439769851935
 20
-0.7086783138054905
  0
LWPOLYLINE
  5
EB
330
BF
100
AcDbEntity
  8
AM_9
100
AcDbPolyline
 90
        5
 70
     0
 43
0.0
 10
0.9351207461395757
 20
-0.6778809583814727
 10
0.9345776996993587
 20
-0.6770528668528601
 10
0.9259682749130204
 20
-0.666909072986464
 10
0.9160085925795222
 20
-0.6606652917978013
 10
0.906303684489086
 20
-0.6588500003066473
  0
LWPOLYLINE
  5
EC
330
BF
100
AcDbEntity
  8
AM_9
100
AcDbPolyline
 90
        3
 70
     0
 43
0.0
 10
0.9483439769851935
 20
-0.7086783138054905
 10
0.9422017037825503
 20
-0.691375520551027
 10
0.9351207461395757
 20
-0.6778809583814727
  0
LINE
  5
ED
330
BF
100
AcDbEntity
  8
AM_9
100
AcDbLine
 10
1.0
 20
-1.1414
 30
0.0
 11
1.0
 21
0.7013999999999998
 31
0.0
  0
LINE
  5
EE
330
BF
100
AcDbEntity
  8
AM_9
100
AcDbLine
 10
-1.0
 20
0.7013999999999998
 30
0.0
 11
-1.0
 21
-1.1414
 31
0.0
  0
LINE
  5
EF
330
BF
100
AcDbEntity
  8
AM_9
100
AcDbLine
 10
1.0
 20
0.7013999999999998
 30
0.0
 11
1.0486
 21
0.7499999999999999
 31
0.0
  0
LINE
  5
F0
330
BF
100
AcDbEntity
  8
AM_9
100
AcDbLine
 10
-1.0486
 20
0.7499999999999999
 30
0.0
 11
-1.0
 21
0.7013999999999998
 31
0.0
  0
LINE
  5
F1
330
BF
100
AcDbEntity
  8
AM_9
100
AcDbLine
 10
-1.0
 20
-1.1414
 30
0.0
 11
-1.0486
 21
-1.19
 31
0.0
  0
LINE
  5
F2
330
BF
100
AcDbEntity
  8
AM_9
100
AcDbLine
 10
1.0486
 20
-1.19
 30
0.0
 11
1.0
 21
-1.1414
 31
0.0
  0
LINE
  5
F3
330
BF
100
AcDbEntity
  8
AM_9
100
AcDbLine
 10
-1.207528924088133
 20
0.7088710759118674
 30
0.0
 11
-1.215
 21
0.7014
 31
0.0
  0
LINE
  5
F4
330
BF
100
AcDbEntity
  8
AM_9
100
AcDbLine
 10
1.215
 20
0.7014
 30
0.0
 11
1.207528924088133
 21
0.7088710759118674
 31
0.0
  0
LWPOLYLINE
  5
F5
330
BF
100
AcDbEntity
  8
AM_9
100
AcDbPolyline
 90
        5
 70
     0
 43
0.0
 10
-0.0382772630770384
 20
-0.6377411327002618
 10
-0.0285190960909559
 20
-0.6356142854261919
 10
-0.0019937458984588
 20
-0.6330079383520415
 10
0.025409550285207
 20
-0.6350711707885632
 10
0.0381348608683833
 20
-0.637705417791507
  0
LWPOLYLINE
  5
F6
330
BF
100
AcDbEntity
  8
AM_9
100
AcDbPolyline
 90
        7
 70
     0
 43
0.0
 10
1.104484606386856
 20
-0.6331954979757435
 10
1.115267795455089
 20
-0.6368435444524553
 10
1.125158057398252
 20
-0.6448722314872549
 10
1.133845108163664
 20
-0.6568631172546109
 10
1.141365504583433
 20
-0.6724170625466561
 10
1.14796445261495
 20
-0.6921746218698432
 10
1.150277168695381
 20
-0.7010928228055581
  0
LINE
  5
F7
330
BF
100
AcDbEntity
  8
AM_9
100
AcDbLine
 10
1.215
 20
-0.7099126553457717
 30
0.0
 11
1.215
 21
-0.435
 31
0.0
  0
LINE
  5
F8
330
BF
100
AcDbEntity
  8
AM_9
100
AcDbLine
 10
-1.215
 20
-0.435
 30
0.0
 11
-1.215
 21
-0.7099126553457717
 31
0.0
  0
LINE
  5
F9
330
BF
100
AcDbEntity
  8
AM_9
100
AcDbLine
 10
1.151274818640624
 20
0.7014
 30
0.0
 11
1.215000000000001
 21
0.7014
 31
0.0
  0
LINE
  5
FA
330
BF
100
AcDbEntity
  8
AM_9
100
AcDbLine
 10
-1.215
 20
0.7014
 30
0.0
 11
-1.151274818640624
 21
0.7014
 31
0.0
  0
LINE
  5
FB
330
BF
100
AcDbEntity
  8
AM_9
100
AcDbLine
 10
1.215000000000001
 20
0.435
 30
0.0
 11
1.215000000000001
 21
0.7014
 31
0.0
  0
LINE
  5
FC
330
BF
100
AcDbEntity
  8
AM_9
100
AcDbLine
 10
-1.215000000000001
 20
0.7014
 30
0.0
 11
-1.215000000000001
 21
0.435
 31
0.0
  0
LINE
  5
FD
330
BF
100
AcDbEntity
  8
AM_9
100
AcDbLine
 10
1.688316666666667
 20
-0.3000000000000001
 30
0.0
 11
1.688316666666667
 21
-0.2
 31
0.0
  0
LINE
  5
FE
330
BF
100
AcDbEntity
  8
AM_9
100
AcDbLine
 10
-1.688316666666667
 20
-0.2
 30
0.0
 11
-1.688316666666667
 21
-0.3000000000000001
 31
0.0
  0
LINE
  5
FF
330
BF
100
AcDbEntity
  8
AM_9
100
AcDbLine
 10
-1.67805057209251
 20
0.435
 30
0.0
 11
1.678050572088572
 21
0.435
 31
0.0
  0
ARC
  5
100
330
BF
100
AcDbEntity
  8
AM_9
100
AcDbCircle
 10
1.67805057209251
 20
0.385
 30
0.0
 40
0.0500000000000001
100
AcDbArc
 50
12.92190045228223
 51
90.0
  0
ARC
  5
101
330
BF
100
AcDbEntity
  8
AM_9
100
AcDbCircle
 10
-1.67805057209251
 20
0.385
 30
0.0
 40
0.05
100
AcDbArc
 50
90.0
 51
167.0780995477178
  0
LINE
  5
102
330
BF
100
AcDbEntity
  8
AM_9
100
AcDbLine
 10
-1.678050572092514
 20
-0.435
 30
0.0
 11
1.678050572088577
 21
-0.435
 31
0.0
  0
ARC
  5
103
330
BF
100
AcDbEntity
  8
AM_9
100
AcDbCircle
 10
1.678050572092514
 20
-0.3849999999999992
 30
0.0
 40
0.0500000000000008
100
AcDbArc
 50
270.0
 51
347.0781236960815
  0
ARC
  5
104
330
BF
100
AcDbEntity
  8
AM_9
100
AcDbCircle
 10
-1.678050572092514
 20
-0.3849999999999991
 30
0.0
 40
0.0500000000000009
100
AcDbArc
 50
192.9218763039185
 51
270.0
  0
LINE
  5
105
330
BF
100
AcDbEntity
  8
AM_9
100
AcDbLine
 10
-1.746065211411074
 20
-0.2999999999999999
 30
0.0
 11
1.746065211411104
 21
-0.2999999999999999
 31
0.0
  0
LINE
  5
106
330
BF
100
AcDbEntity
  8
AM_9
100
AcDbLine
 10
-1.726784366253863
 20
-0.3961811138371493
 30
0.0
 11
1.726784366253893
 21
-0.3961811138371493
 31
0.0
  0
ARC
  5
107
330
BF
100
AcDbEntity
  8
AM_9
100
AcDbCircle
 10
0.000000000073846
 20
-0.0000000000147983
 30
0.0
 40
1.771649999924743
100
AcDbArc
 50
347.0781002291724
 51
350.2509203909797
  0
ARC
  5
108
330
BF
100
AcDbEntity
  8
AM_9
100
AcDbCircle
 10
-0.0000000000739049
 20
-0.0000000000148093
 30
0.0
 40
1.771649999924684
100
AcDbArc
 50
189.7490796090202
 51
192.9218997708277
  0
LINE
  5
109
330
BF
100
AcDbEntity
  8
AM_9
100
AcDbLine
 10
-1.760324891177762
 20
-0.1999999999999999
 30
0.0
 11
1.76032489117777
 21
-0.1999999999999999
 31
0.0
  0
LINE
  5
10A
330
BF
100
AcDbEntity
  8
AM_9
100
AcDbLine
 10
-1.726784361541367
 20
0.3961811343769059
 30
0.0
 11
1.726784361541375
 21
0.3961811343769061
 31
0.0
  0
ARC
  5
10B
330
BF
100
AcDbEntity
  8
AM_9
100
AcDbCircle
 10
-0.0000000000010685
 20
-0.0000000000000604
 30
0.0
 40
1.771650000001062
100
AcDbArc
 50
353.5181126598273
 51
12.92190045227628
  0
ARC
  5
10C
330
BF
100
AcDbEntity
  8
AM_9
100
AcDbCircle
 10
-0.0000000001884004
 20
0.0000000000413725
 30
0.0
 40
1.771649999807126
100
AcDbArc
 50
167.0780995476595
 51
167.7918896820901
  0
ARC
  5
10D
330
BF
100
AcDbEntity
  8
AM_9
100
AcDbCircle
 10
-0.0000000000009128
 20
0.0000000000000228
 30
0.0
 40
1.771649999999103
100
AcDbArc
 50
175.9415316732314
 51
186.4818873401825
  0
LINE
  5
10E
330
BF
100
AcDbEntity
  8
AM_9
100
AcDbLine
 10
-1.73150764436907
 20
0.3749999999830573
 30
0.0
 11
-1.767234767227582
 21
0.125000000004258
 31
0.0
  0
LINE
  5
111
330
BF
100
AcDbEntity
  8
AM_7
100
AcDbLine
 10
-0.1613325
 20
-0.8124999999999999
 30
0.0
 11
0.1613325
 21
-0.8124999999999999
 31
0.0
  0
LINE
  5
112
330
BF
100
AcDbEntity
  8
AM_7
100
AcDbLine
 10
-1.9044825
 20
0.25
 30
0.0
 11
-1.1821675
 21
0.25
 31
0.0
  0
ELLIPSE
  5
113
330
BF
100
AcDbEntity
  8
AM_4
100
AcDbEllipse
 10
1.077731581779758
 20
-0.8125000000000001
 30
0.0
 11
-2.822504710334861E-17
 21
-0.15365
 31
0.0
210
0.0
220
0.0
230
1.0
 40
0.4226182617407007
 41
5.917896581092943
 42
8.698570228632262
  0
LWPOLYLINE
  5
114
330
BF
100
AcDbEntity
  8
AM_4
100
AcDbPolyline
 90
       13
 70
     0
 43
0.0
 10
1.063790353164311
 20
-0.9688011736451995
 10
1.059702757223979
 20
-0.963382804506076
 10
1.049173210240681
 20
-0.9461370851335582
 10
1.03984889376771
 20
-0.925796428500364
 10
1.031589104135544
 20
-0.9012918129506979
 10
1.025334532143306
 20
-0.8745995012538864
 10
1.021177909575051
 20
-0.8447361642544284
 10
1.019670027920984
 20
-0.8140160032942565
 10
1.020990481078578
 20
-0.7823472548050598
 10
1.025125740868013
 20
-0.7515276662451312
 10
1.031961356314121
 20
-0.722421463475518
 10
1.041163817903128
 20
-0.6959589075038334
 10
1.044362926186783
 20
-0.688619320549276
  0
LINE
  5
115
330
BF
100
AcDbEntity
  8
AM_4
100
AcDbLine
 10
-1.1664
 20
0.7499999999999999
 30
0.0
 11
1.1664
 21
0.7499999999999999
 31
0.0
  0
LINE
  5
116
330
BF
100
AcDbEntity
  8
AM_4
100
AcDbLine
 10
-1.1664
 20
0.7499999999999999
 30
0.0
 11
-1.207528924088133
 21
0.7088710759118674
 31
0.0
  0
LINE
  5
117
330
BF
100
AcDbEntity
  8
AM_4
100
AcDbLine
 10
1.207528924088133
 20
0.7088710759118674
 30
0.0
 11
1.1664
 21
0.7499999999999999
 31
0.0
  0
CIRCLE
  5
118
330
BF
100
AcDbEntity
  8
AM_4
100
AcDbCircle
 10
0.0
 20
-0.8124999999999999
 30
0.0
 40
0.15365
  0
LINE
  5
119
330
BF
100
AcDbEntity
  8
AM_4
100
AcDbLine
 10
-1.1664
 20
-1.19
 30
0.0
 11
1.1664
 21
-1.19
 31
0.0
  0
LINE
  5
11A
330
BF
100
AcDbEntity
  8
AM_4
100
AcDbLine
 10
1.1664
 20
-1.19
 30
0.0
 11
1.215
 21
-1.1414
 31
0.0
  0
LINE
  5
11B
330
BF
100
AcDbEntity
  8
AM_4
100
AcDbLine
 10
-1.215
 20
-1.1414
 30
0.0
 11
-1.1664
 21
-1.19
 31
0.0
  0
LINE
  5
11C
330
BF
100
AcDbEntity
  8
AM_4
100
AcDbLine
 10
-1.215
 20
-1.1414
 30
0.0
 11
1.215
 21
-1.1414
 31
0.0
  0
LWPOLYLINE
  5
11D
330
BF
100
AcDbEntity
  8
AM_4
100
AcDbPolyline
 90
       33
 70
     0
 43
0.0
 10
0.0381348608683833
 20
-0.637705417791507
 10
0.0504548534827932
 20
-0.6413243462920758
 10
0.0747873804410941
 20
-0.6518544319313062
 10
0.0970340328155544
 20
-0.6661165005017581
 10
0.117249384440494
 20
-0.6841610025675338
 10
0.1349731776114235
 20
-0.7059124703591408
 10
0.1494139183618907
 20
-0.7308195980424497
 10
0.1601171809823226
 20
-0.7587185009169708
 10
0.166376686073604
 20
-0.7887772808412375
 10
0.1677131463406062
 20
-0.8198452100244414
 10
0.1638137397846358
 20
-0.8515807158539039
 10
0.1548490379874522
 20
-0.8816725846817561
 10
0.1404837576852969
 20
-0.9106178403495624
 10
0.1222241196421028
 20
-0.9354168165328223
 10
0.099141843703017
 20
-0.9572573504399048
 10
0.0746447238000807
 20
-0.9732215947807643
 10
0.0467421692773064
 20
-0.9848804905527543
 10
0.0201489451016139
 20
-0.9907022070088238
 10
-0.0079353592827976
 20
-0.991803346094656
 10
-0.0336349744120958
 20
-0.9883513440178336
 10
-0.0591061421077496
 20
-0.9804703936052013
 10
-0.0824277418670604
 20
-0.9688026216196125
 10
-0.1041395425516264
 20
-0.9531829892084565
 10
-0.1236060847256023
 20
-0.9338264869495613
 10
-0.1402009802219208
 20
-0.9110786612037222
 10
-0.1535225247386706
 20
-0.8849672234395312
 10
-0.1627602181627493
 20
-0.8563121121766936
 10
-0.1673864092885866
 20
-0.8258685251888167
 10
-0.1669778852091676
 20
-0.7942140459855043
 10
-0.1614078158661213
 20
-0.7633135455730979
 10
-0.1504145628537401
 20
-0.7329430400003308
 10
-0.1377742059683369
 20
-0.7100880891667156
 10
-0.1216042494881212
 20
-0.6888821935281586
  0
LWPOLYLINE
  5
11E
330
BF
100
AcDbEntity
  8
AM_4
100
AcDbPolyline
 90
        5
 70
     0
 43
0.0
 10
-0.1216042494881212
 20
-0.6888821935281586
 10
-0.1033820791976686
 20
-0.6711789980098545
 10
-0.0822272577573799
 20
-0.6560764325681082
 10
-0.0567429041073014
 20
-0.6435976184015101
 10
-0.0382772630770384
 20
-0.6377411327002618
  0
LWPOLYLINE
  5
11F
330
BF
100
AcDbEntity
  8
AM_4
100
AcDbPolyline
 90
       18
 70
     0
 43
0.0
 10
1.150277168695381
 20
-0.7010928228055581
 10
1.153223264450843
 20
-0.7147638998619943
 10
1.15738033328884
 20
-0.7413381848395484
 10
1.160096085860106
 20
-0.7697115203900915
 10
1.161431780103634
 20
-0.8006291441840094
 10
1.161251562391281
 20
-0.831869189310161
 10
1.159492158424565
 20
-0.8631831288946017
 10
1.156117722846913
 20
-0.8930482309452622
 10
1.151101364385646
 20
-0.9203426907732947
 10
1.1443843487829
 20
-0.9444389023377264
 10
1.136277024051474
 20
-0.9637126640229118
 10
1.126612331154914
 20
-0.9784843020504522
 10
1.116289292981162
 20
-0.9875485055580274
 10
1.104944177763392
 20
-0.991744679808811
 10
1.093626319462467
 20
-0.9909980093244216
 10
1.082018892247721
 20
-0.9858163155180784
 10
1.070638837812401
 20
-0.9764914372825994
 10
1.063790353164311
 20
-0.9688011736451995
  0
LINE
  5
120
330
BF
100
AcDbEntity
  8
AM_4
100
AcDbLine
 10
1.215
 20
-1.1414
 30
0.0
 11
1.215
 21
-0.7099126553457717
 31
0.0
  0
LINE
  5
121
330
BF
100
AcDbEntity
  8
AM_4
100
AcDbLine
 10
-1.215
 20
-0.7099126553457717
 30
0.0
 11
-1.215
 21
-1.1414
 31
0.0
  0
LINE
  5
122
330
BF
100
AcDbEntity
  8
AM_4
100
AcDbLine
 10
-1.151274818640624
 20
0.7014
 30
0.0
 11
1.151274818640624
 21
0.7014
 31
0.0
  0
ARC
  5
124
330
BF
100
AcDbEntity
  8
AM_5
100
AcDbCircle
 10
0.0
 20
-0.8124999999999999
 30
0.0
 40
0.1875
100
AcDbArc
 50
75.00000000000001
 51
15.0
  0
ARC
  5
125
330
BF
100
AcDbEntity
  8
AM_5
100
AcDbCircle
 10
0.0
 20
-0.815
 30
0.0
 40
0.1875
100
AcDbArc
 50
75.00000000000001
 51
15.00000000000002
  0
ENDBLK
  5
C2
330
BF
100
AcDbEntity
  8
0
100
AcDbBlockEnd
  0
BLOCK
  5
128
330
126
100
AcDbEntity
  8
0
100
AcDbBlockBegin
  2
4_123939H_0_in_123939_4
 70
     2
 10
0.0
 20
0.0
 30
0.0
  3
4_123939H_0_in_123939_4
  1

  0
ATTDEF
  5
12A
330
126
100
AcDbEntity
  8
AM_6
100
AcDbText
 10
9.059999999999999
 20
1.2375
 30
0.0
 40
0.5
  1
P2B-SC -I-Housing
100
AcDbAttributeDefinition
  3

  2
NN
 70
     8
280
     0
  0
ATTDEF
  5
12B
330
126
100
AcDbEntity
  8
AM_6
100
AcDbText
 10
9.059999999999999
 20
0.7375
 30
0.0
 40
0.5
  1
SC Pillow Block Bearings -(Normal Duty)
100
AcDbAttributeDefinition
  3

  2
NT
 70
     8
280
     0
  0
ATTDEF
  5
12C
330
126
100
AcDbEntity
  8
AM_6
100
AcDbText
 10
9.059999999999999
 20
0.2375
 30
0.0
 40
0.5
  1
123939H
100
AcDbAttributeDefinition
  3

  2
NB
 70
     8
280
     0
  0
ATTDEF
  5
12D
330
126
100
AcDbEntity
  8
AM_6
100
AcDbText
 10
9.059999999999999
 20
-0.2625
 30
0.0
 40
0.5
  1
$PN.H
100
AcDbAttributeDefinition
  3

  2
NBSYN
 70
     8
280
     0
  0
ATTDEF
  5
12E
330
126
100
AcDbEntity
  8
AM_6
100
AcDbText
 10
9.059999999999999
 20
-0.7625
 30
0.0
 40
0.5
  1
123939
100
AcDbAttributeDefinition
  3

  2
LINA
 70
     8
280
     0
  0
ATTDEF
  5
12F
330
126
100
AcDbEntity
  8
AM_6
100
AcDbText
 10
9.059999999999999
 20
-1.2625
 30
0.0
 40
0.5
  1
210
100
AcDbAttributeDefinition
  3

  2
SERIES
 70
     8
280
     0
  0
ATTDEF
  5
130
330
126
100
AcDbEntity
  8
AM_6
100
AcDbText
 10
9.059999999999999
 20
-1.7625
 30
0.0
 40
0.5
  1
2
100
AcDbAttributeDefinition
  3

  2
SS
 70
     8
280
     0
  0
ATTDEF
  5
131
330
126
100
AcDbEntity
  8
AM_6
100
AcDbText
 10
9.059999999999999
 20
-2.2625
 30
0.0
 40
0.5
  1
123939
100
AcDbAttributeDefinition
  3

  2
PN
 70
     8
280
     0
  0
ATTDEF
  5
132
330
126
100
AcDbEntity
  8
AM_6
100
AcDbText
 10
9.059999999999999
 20
-2.7625
 30
0.0
 40
0.5
  1
P2B-SC-200-NL
100
AcDbAttributeDefinition
  3

  2
DESCRIPTION
 70
     8
280
     0
  0
ATTDEF
  5
133
330
126
100
AcDbEntity
  8
AM_6
100
AcDbText
 10
9.059999999999999
 20
-3.2625
 30
0.0
 40
0.5
  1
2
100
AcDbAttributeDefinition
  3

  2
LF1
 70
     8
280
     0
  0
ATTDEF
  5
134
330
126
100
AcDbEntity
  8
AM_6
100
AcDbText
 10
9.059999999999999
 20
-3.7625
 30
0.0
 40
0.5
  1
1.94
100
AcDbAttributeDefinition
  3

  2
A
 70
     8
280
     0
  0
ATTDEF
  5
135
330
126
100
AcDbEntity
  8
AM_6
100
AcDbText
 10
9.059999999999999
 20
-4.2625
 30
0.0
 40
0.5
  1
8.12
100
AcDbAttributeDefinition
  3

  2
B
 70
     8
280
     0
  0
ATTDEF
  5
136
330
126
100
AcDbEntity
  8
AM_6
100
AcDbText
 10
9.059999999999999
 20
-4.7625
 30
0.0
 40
0.5
  1
2.25
100
AcDbAttributeDefinition
  3

  2
C
 70
     8
280
     0
  0
ATTDEF
  5
137
330
126
100
AcDbEntity
  8
AM_6
100
AcDbText
 10
9.059999999999999
 20
-5.2625
 30
0.0
 40
0.5
  1
6.00
100
AcDbAttributeDefinition
  3

  2
DMIN
 70
     8
280
     0
  0
ATTDEF
  5
138
330
126
100
AcDbEntity
  8
AM_6
100
AcDbText
 10
9.059999999999999
 20
-5.7625
 30
0.0
 40
0.5
  1
6.68
100
AcDbAttributeDefinition
  3

  2
DMAX
 70
     8
280
     0
  0
ATTDEF
  5
139
330
126
100
AcDbEntity
  8
AM_6
100
AcDbText
 10
9.059999999999999
 20
-6.2625
 30
0.0
 40
0.5
  1
5/8
100
AcDbAttributeDefinition
  3

  2
F
 70
     8
280
     0
  0
ATTDEF
  5
13A
330
126
100
AcDbEntity
  8
AM_6
100
AcDbText
 10
9.059999999999999
 20
-6.7625
 30
0.0
 40
0.5
  1
1.02
100
AcDbAttributeDefinition
  3

  2
G
 70
     8
280
     0
  0
ATTDEF
  5
13B
330
126
100
AcDbEntity
  8
AM_6
100
AcDbText
 10
9.059999999999999
 20
-7.2625
 30
0.0
 40
0.5
  1
0.75
100
AcDbAttributeDefinition
  3

  2
H
 70
     8
280
     0
  0
ATTDEF
  5
13C
330
126
100
AcDbEntity
  8
AM_6
100
AcDbText
 10
9.059999999999999
 20
-7.7625
 30
0.0
 40
0.5
  1
4.53
100
AcDbAttributeDefinition
  3

  2
J
 70
     8
280
     0
  0
ATTDEF
  5
13D
330
126
100
AcDbEntity
  8
AM_6
100
AcDbText
 10
9.059999999999999
 20
-8.2625
 30
0.0
 40
0.5
  1
2.43
100
AcDbAttributeDefinition
  3

  2
L
 70
     8
280
     0
  0
ATTDEF
  5
13E
330
126
100
AcDbEntity
  8
AM_6
100
AcDbText
 10
9.059999999999999
 20
-8.7625
 30
0.0
 40
0.5
  1
2.25
100
AcDbAttributeDefinition
  3

  2
M
 70
     8
280
     0
  0
ATTDEF
  5
13F
330
126
100
AcDbEntity
  8
AM_6
100
AcDbText
 10
9.059999999999999
 20
-9.2625
 30
0.0
 40
0.5
  1
0.75
100
AcDbAttributeDefinition
  3

  2
R
 70
     8
280
     0
  0
ATTDEF
  5
140
330
126
100
AcDbEntity
  8
AM_6
100
AcDbText
 10
9.059999999999999
 20
-9.7625
 30
0.0
 40
0.5
  1
1.19
100
AcDbAttributeDefinition
  3

  2
S
 70
     8
280
     0
  0
ATTDEF
  5
141
330
126
100
AcDbEntity
  8
AM_6
100
AcDbText
 10
9.059999999999999
 20
-10.2625
 30
0.0
 40
0.5
  1
3.69
100
AcDbAttributeDefinition
  3

  2
U
 70
     8
280
     0
  0
ATTDEF
  5
142
330
126
100
AcDbEntity
  8
AM_6
100
AcDbText
 10
9.059999999999999
 20
-10.7625
 30
0.0
 40
0.5
  1
7.38
100
AcDbAttributeDefinition
  3

  2
V
 70
     8
280
     0
  0
ATTDEF
  5
143
330
126
100
AcDbEntity
  8
AM_6
100
AcDbText
 10
9.059999999999999
 20
-11.2625
 30
0.0
 40
0.5
  1
0.81
100
AcDbAttributeDefinition
  3

  2
W
 70
     8
280
     0
  0
ATTDEF
  5
144
330
126
100
AcDbEntity
  8
AM_6
100
AcDbText
 10
9.059999999999999
 20
-11.7625
 30
0.0
 40
0.5
  1
0.12
100
AcDbAttributeDefinition
  3

  2
X
 70
     8
280
     0
  0
ATTDEF
  5
145
330
126
100
AcDbEntity
  8
AM_6
100
AcDbText
 10
9.059999999999999
 20
-12.2625
 30
0.0
 40
0.5
  1
baldor
100
AcDbAttributeDefinition
  3

  2
COMPANY
 70
     8
280
     0
  0
LINE
  5
146
330
126
100
AcDbEntity
  8
AM_9
100
AcDbLine
 10
-1.87165
 20
-0.9000000000000007
 30
0.0
 11
-1.87165
 21
-0.5625000000000001
 31
0.0
  0
LINE
  5
147
330
126
100
AcDbEntity
  8
AM_9
100
AcDbLine
 10
-1.79665
 20
-0.9000000000000001
 30
0.0
 11
-1.79665
 21
-0.5625000000000001
 31
0.0
  0
LINE
  5
148
330
126
100
AcDbEntity
  8
AM_9
100
AcDbLine
 10
-1.87165
 20
0.2959090909090927
 30
0.0
 11
-1.87165
 21
0.9099999999999998
 31
0.0
  0
LINE
  5
149
330
126
100
AcDbEntity
  8
AM_9
100
AcDbLine
 10
-1.79665
 20
0.5624999999999998
 30
0.0
 11
-1.79665
 21
0.8999999999999998
 31
0.0
  0
LINE
  5
14A
330
126
100
AcDbEntity
  8
AM_9
100
AcDbLine
 10
1.87165
 20
-0.3375
 30
0.0
 11
1.87165
 21
0.9099999999999971
 31
0.0
  0
LINE
  5
14B
330
126
100
AcDbEntity
  8
AM_9
100
AcDbLine
 10
1.796649999999999
 20
0.5624999999999998
 30
0.0
 11
1.796649999999999
 21
0.8999999999999997
 31
0.0
  0
LINE
  5
14C
330
126
100
AcDbEntity
  8
AM_9
100
AcDbLine
 10
1.87165
 20
-0.9000000000000001
 30
0.0
 11
1.87165
 21
-0.5625000000000001
 31
0.0
  0
LINE
  5
14D
330
126
100
AcDbEntity
  8
AM_9
100
AcDbLine
 10
1.796649999999999
 20
-0.9000000000000001
 30
0.0
 11
1.796649999999999
 21
-0.5625000000000001
 31
0.0
  0
LINE
  5
14E
330
126
100
AcDbEntity
  8
AM_9
100
AcDbLine
 10
-3.53
 20
0.2819574435974337
 30
0.0
 11
-3.53
 21
0.5624999999999999
 31
0.0
  0
LINE
  5
14F
330
126
100
AcDbEntity
  8
AM_9
100
AcDbLine
 10
-3.68
 20
-0.5625000000000001
 30
0.0
 11
-3.68
 21
0.5624999999999999
 31
0.0
  0
LINE
  5
150
330
126
100
AcDbEntity
  8
AM_9
100
AcDbLine
 10
-3.53
 20
-0.5625000000000001
 30
0.0
 11
-3.53
 21
-0.2819574435974332
 31
0.0
  0
LINE
  5
151
330
126
100
AcDbEntity
  8
AM_9
100
AcDbLine
 10
-2.554739373190544
 20
-0.5625000000000001
 30
0.0
 11
-2.554739373190544
 21
0.5624999999999999
 31
0.0
  0
LINE
  5
152
330
126
100
AcDbEntity
  8
AM_9
100
AcDbLine
 10
3.529999999999998
 20
0.2819574435974344
 30
0.0
 11
3.529999999999998
 21
0.5624999999999999
 31
0.0
  0
LINE
  5
153
330
126
100
AcDbEntity
  8
AM_9
100
AcDbLine
 10
3.68
 20
-0.5625000000000001
 30
0.0
 11
3.68
 21
0.5624999999999999
 31
0.0
  0
LINE
  5
154
330
126
100
AcDbEntity
  8
AM_9
100
AcDbLine
 10
3.529999999999998
 20
-0.5625000000000001
 30
0.0
 11
3.529999999999998
 21
-0.2819574435974347
 31
0.0
  0
LINE
  5
155
330
126
100
AcDbEntity
  8
AM_9
100
AcDbLine
 10
2.554739373190547
 20
-0.5625000000000001
 30
0.0
 11
2.554739373190547
 21
0.5624999999999999
 31
0.0
  0
LINE
  5
156
330
126
100
AcDbEntity
  8
AM_9
100
AcDbLine
 10
-2.360625089363656
 20
-0.5625000000000001
 30
0.0
 11
-2.360625089363656
 21
0.5624999999999999
 31
0.0
  0
LINE
  5
157
330
126
100
AcDbEntity
  8
AM_9
100
AcDbLine
 10
2.360625089363656
 20
-0.5625000000000001
 30
0.0
 11
2.360625089363656
 21
0.5624999999999999
 31
0.0
  0
LINE
  5
158
330
126
100
AcDbEntity
  8
AM_9
100
AcDbLine
 10
1.194674396528296
 20
-0.5625000000000001
 30
0.0
 11
1.194674396528296
 21
0.5624999999999999
 31
0.0
  0
LINE
  5
159
330
126
100
AcDbEntity
  8
AM_9
100
AcDbLine
 10
-1.194674380718276
 20
-0.5625000000000001
 30
0.0
 11
-1.194674380718276
 21
0.5624999999999999
 31
0.0
  0
LINE
  5
15A
330
126
100
AcDbEntity
  8
AM_9
100
AcDbLine
 10
-1.499597381705775
 20
-0.5625000000000001
 30
0.0
 11
-1.499597381705775
 21
0.5624999999999999
 31
0.0
  0
LINE
  5
15B
330
126
100
AcDbEntity
  8
AM_9
100
AcDbLine
 10
1.499597381705775
 20
-0.5625000000000001
 30
0.0
 11
1.499597381705775
 21
0.5624999999999999
 31
0.0
  0
LINE
  5
15C
330
126
100
AcDbEntity
  8
AM_9
100
AcDbLine
 10
3.68
 20
-0.5625000000000001
 30
0.0
 11
-3.68
 21
-0.5625000000000001
 31
0.0
  0
LINE
  5
15D
330
126
100
AcDbEntity
  8
AM_9
100
AcDbLine
 10
3.68
 20
0.5624999999999999
 30
0.0
 11
-3.68
 21
0.5624999999999999
 31
0.0
  0
LINE
  5
15E
330
126
100
AcDbEntity
  8
AM_9
100
AcDbLine
 10
1.582110527902524
 20
-0.3375
 30
0.0
 11
1.582110527902524
 21
0.752976190476191
 31
0.0
  0
LINE
  5
15F
330
126
100
AcDbEntity
  8
AM_9
100
AcDbLine
 10
1.87165
 20
-0.3375
 30
0.0
 11
1.462444433987151
 21
-0.3375
 31
0.0
  0
LINE
  5
160
330
126
100
AcDbEntity
  8
AM_9
100
AcDbLine
 10
-1.462444433987151
 20
-0.3375
 30
0.0
 11
-1.87165
 21
-0.3375
 31
0.0
  0
LINE
  5
161
330
126
100
AcDbEntity
  8
AM_9
100
AcDbLine
 10
-1.582110527902523
 20
-0.3375
 30
0.0
 11
-1.582110527902523
 21
0.7529761904761906
 31
0.0
  0
LINE
  5
162
330
126
100
AcDbEntity
  8
AM_9
100
AcDbLine
 10
-1.87165
 20
0.2040909090909074
 30
0.0
 11
-1.87165
 21
-0.3375
 31
0.0
  0
LINE
  5
163
330
126
100
AcDbEntity
  8
AM_9
100
AcDbLine
 10
1.470782104868019
 20
-0.1499999999999987
 30
0.0
 11
1.612181084958267
 21
-0.1499999999999987
 31
0.0
  0
LINE
  5
164
330
126
100
AcDbEntity
  8
AM_9
100
AcDbLine
 10
1.612199301921419
 20
0.1499999999999989
 30
0.0
 11
1.470782104868019
 21
0.1499999999999989
 31
0.0
  0
LWPOLYLINE
  5
165
330
126
100
AcDbEntity
  8
AM_9
100
AcDbPolyline
 90
       20
 70
     0
 43
0.0
 10
1.612193377417666
 20
-0.1499999993221312
 10
1.624328332003023
 20
-0.1490092034119024
 10
1.641577732327467
 20
-0.1440050875425727
 10
1.657829576848239
 20
-0.1349604374665525
 10
1.672649610675329
 20
-0.1220664821398968
 10
1.685673971741114
 20
-0.1057446878691437
 10
1.696575099092428
 20
-0.0863714474948844
 10
1.705097384307888
 20
-0.0645603713662097
 10
1.711008263514039
 20
-0.0408969892905546
 10
1.714205942517434
 20
-0.0160759620026397
 10
1.714582441688812
 20
0.0091594999600942
 10
1.7121746249908
 20
0.034136393231341
 10
1.707006824170723
 20
0.0581157459612427
 10
1.699232012155741
 20
0.0804606625746753
 10
1.688979455321863
 20
0.1005420724820562
 10
1.676532948173231
 20
0.1177946658761395
 10
1.662141987156962
 20
0.1317071294507695
 10
1.646211307082072
 20
0.141904225933392
 10
1.629149942098579
 20
0.1480366759675091
 10
1.612198544915092
 20
0.1499999998388746
  0
LWPOLYLINE
  5
166
330
126
100
AcDbEntity
  8
AM_9
100
AcDbPolyline
 90
       11
 70
     0
 43
0.0
 10
1.612198544915092
 20
0.1499999998388746
 10
1.611422559805622
 20
0.1499959365339792
 10
1.593552045239678
 20
0.1476744785754451
 10
1.576022797509699
 20
0.1412058151655535
 10
1.559362478219861
 20
0.1307182439176358
 10
1.544063698119296
 20
0.1165632508981845
 10
1.530600896982397
 20
0.0990567095683202
 10
1.519405308749977
 20
0.0787591375584697
 10
1.510870351683464
 20
0.0561880403320066
 10
1.505249899046266
 20
0.0320269483740314
 10
1.502644646676772
 20
0.0000000000000001
  0
LINE
  5
167
330
126
100
AcDbEntity
  8
AM_9
100
AcDbLine
 10
-1.462444433987151
 20
-0.3375
 30
0.0
 11
-1.462444433987151
 21
0.7529761904761905
 31
0.0
  0
LINE
  5
168
330
126
100
AcDbEntity
  8
AM_9
100
AcDbLine
 10
1.462444433987151
 20
0.7529761904761905
 30
0.0
 11
1.462444433987151
 21
-0.3375
 31
0.0
  0
LINE
  5
169
330
126
100
AcDbEntity
  8
AM_9
100
AcDbLine
 10
1.77165
 20
-0.8999999999999999
 30
0.0
 11
1.77165
 21
-0.3375
 31
0.0
  0
LINE
  5
16A
330
126
100
AcDbEntity
  8
AM_9
100
AcDbLine
 10
-1.77165
 20
-0.3375
 30
0.0
 11
-1.77165
 21
-0.8999999999999999
 31
0.0
  0
LINE
  5
16B
330
126
100
AcDbEntity
  8
AM_9
100
AcDbLine
 10
1.215
 20
-0.9000000000000001
 30
0.0
 11
-1.215
 21
-0.9000000000000001
 31
0.0
  0
LWPOLYLINE
  5
16C
330
126
100
AcDbEntity
  8
AM_9
100
AcDbPolyline
 90
       11
 70
     0
 43
0.0
 10
1.502644646676772
 20
0.0000000000000001
 10
1.504256606321815
 20
-0.0251497999760609
 10
1.508990739942747
 20
-0.0495899419360572
 10
1.516732032374158
 20
-0.0726107721528609
 10
1.527182019835225
 20
-0.0935882278249647
 10
1.540054963336318
 20
-0.1119213406376526
 10
1.554894747422897
 20
-0.1271026966394195
 10
1.57127413181752
 20
-0.1386638577054211
 10
1.588659457249159
 20
-0.1463122042542984
 10
1.606509876836736
 20
-0.1497693736058504
 10
1.612193377417666
 20
-0.1499999993221312
  0
ELLIPSE
  5
16D
330
126
100
AcDbEntity
  8
AM_9
100
AcDbEllipse
 10
1.470782104868018
 20
0.0000000000000001
 30
0.0
 11
-2.755455298081533E-17
 21
-0.1499999999999994
 31
0.0
210
0.0
220
0.0
230
1.0
 40
0.7071067811865596
 41
0.0
 42
6.283185307179586
  0
LINE
  5
16E
330
126
100
AcDbEntity
  8
AM_7
100
AcDbLine
 10
0.0
 20
1.2375
 30
0.0
 11
0.0
 21
-1.287
 31
0.0
  0
LINE
  5
16F
330
126
100
AcDbEntity
  8
AM_7
100
AcDbLine
 10
2.643
 20
-0.0000000000000001
 30
0.0
 11
3.697
 21
-0.0000000000000001
 31
0.0
  0
LINE
  5
170
330
126
100
AcDbEntity
  8
AM_7
100
AcDbLine
 10
3.34
 20
-0.357
 30
0.0
 11
3.34
 21
0.3569999999999998
 31
0.0
  0
LINE
  5
171
330
126
100
AcDbEntity
  8
AM_7
100
AcDbLine
 10
3.0
 20
-0.357
 30
0.0
 11
3.0
 21
0.3569999999999998
 31
0.0
  0
LINE
  5
172
330
126
100
AcDbEntity
  8
AM_7
100
AcDbLine
 10
-3.697
 20
0.0000000000000004
 30
0.0
 11
-2.643
 21
0.0000000000000003
 31
0.0
  0
LINE
  5
173
330
126
100
AcDbEntity
  8
AM_7
100
AcDbLine
 10
-3.0
 20
-0.3569999999999995
 30
0.0
 11
-3.0
 21
0.3570000000000002
 31
0.0
  0
LINE
  5
174
330
126
100
AcDbEntity
  8
AM_7
100
AcDbLine
 10
-3.34
 20
-0.3569999999999995
 30
0.0
 11
-3.34
 21
0.3570000000000002
 31
0.0
  0
LINE
  5
175
330
126
100
AcDbEntity
  8
AM_4
100
AcDbLine
 10
3.654
 20
0.9299999999999999
 30
0.0
 11
3.654
 21
1.125
 31
0.0
  0
LINE
  5
176
330
126
100
AcDbEntity
  8
AM_4
100
AcDbLine
 10
3.654
 20
-1.125
 30
0.0
 11
3.654
 21
-0.9300000000000002
 31
0.0
  0
LINE
  5
177
330
126
100
AcDbEntity
  8
AM_4
100
AcDbLine
 10
-3.654
 20
0.9299999999999999
 30
0.0
 11
-3.654
 21
1.125
 31
0.0
  0
LINE
  5
178
330
126
100
AcDbEntity
  8
AM_4
100
AcDbLine
 10
-3.654
 20
-1.125
 30
0.0
 11
-3.654
 21
-0.9300000000000002
 31
0.0
  0
LINE
  5
179
330
126
100
AcDbEntity
  8
AM_4
100
AcDbLine
 10
-3.188461538461538
 20
-1.125
 30
0.0
 11
-3.188461538461538
 21
-0.9300000000000002
 31
0.0
  0
LINE
  5
17A
330
126
100
AcDbEntity
  8
AM_4
100
AcDbLine
 10
-3.188461538461538
 20
0.9299999999999999
 30
0.0
 11
-3.188461538461538
 21
1.125
 31
0.0
  0
LINE
  5
17B
330
126
100
AcDbEntity
  8
AM_4
100
AcDbLine
 10
3.188461538461539
 20
-1.125
 30
0.0
 11
3.188461538461539
 21
-0.9300000000000002
 31
0.0
  0
LINE
  5
17C
330
126
100
AcDbEntity
  8
AM_4
100
AcDbLine
 10
3.188461538461539
 20
0.9299999999999999
 30
0.0
 11
3.188461538461539
 21
1.125
 31
0.0
  0
ARC
  5
17D
330
126
100
AcDbEntity
  8
AM_4
100
AcDbCircle
 10
3.0
 20
-0.0000000000000001
 30
0.0
 40
0.3400000000000001
100
AcDbArc
 50
90.0
 51
270.0
  0
LINE
  5
17E
330
126
100
AcDbEntity
  8
AM_4
100
AcDbLine
 10
3.0
 20
0.34
 30
0.0
 11
3.339999999999999
 21
0.34
 31
0.0
  0
ARC
  5
17F
330
126
100
AcDbEntity
  8
AM_4
100
AcDbCircle
 10
3.34
 20
0.0
 30
0.0
 40
0.3400000000000002
100
AcDbArc
 50
270.0
 51
90.0
  0
LINE
  5
180
330
126
100
AcDbEntity
  8
AM_4
100
AcDbLine
 10
3.339999999999999
 20
-0.3400000000000001
 30
0.0
 11
3.0
 21
-0.3400000000000001
 31
0.0
  0
LINE
  5
181
330
126
100
AcDbEntity
  8
AM_4
100
AcDbLine
 10
3.655000000000001
 20
0.9299999999999998
 30
0.0
 11
3.0
 21
0.93
 31
0.0
  0
LINE
  5
182
330
126
100
AcDbEntity
  8
AM_4
100
AcDbLine
 10
3.0
 20
-0.9300000000000003
 30
0.0
 11
3.654999999999999
 21
-0.9300000000000002
 31
0.0
  0
ARC
  5
183
330
126
100
AcDbEntity
  8
AM_4
100
AcDbCircle
 10
3.655000000000001
 20
-0.5250000000000017
 30
0.0
 40
0.4049999999999985
100
AcDbArc
 50
270.0
 51
0.0
  0
LINE
  5
184
330
126
100
AcDbEntity
  8
AM_4
100
AcDbLine
 10
4.06
 20
-0.5250000000000011
 30
0.0
 11
4.06
 21
0.525
 31
0.0
  0
ARC
  5
185
330
126
100
AcDbEntity
  8
AM_4
100
AcDbCircle
 10
3.655
 20
0.5250000000000002
 30
0.0
 40
0.4049999999999998
100
AcDbArc
 50
0.0
 51
90.0
  0
ARC
  5
186
330
126
100
AcDbEntity
  8
AM_4
100
AcDbCircle
 10
-3.34
 20
0.0000000000000002
 30
0.0
 40
0.3400000000000002
100
AcDbArc
 50
90.0
 51
270.0
  0
LINE
  5
187
330
126
100
AcDbEntity
  8
AM_4
100
AcDbLine
 10
-3.339999999999999
 20
0.3400000000000004
 30
0.0
 11
-3.0
 21
0.3400000000000004
 31
0.0
  0
ARC
  5
188
330
126
100
AcDbEntity
  8
AM_4
100
AcDbCircle
 10
-3.0
 20
0.0000000000000004
 30
0.0
 40
0.3400000000000002
100
AcDbArc
 50
270.0
 51
90.0
  0
LINE
  5
189
330
126
100
AcDbEntity
  8
AM_4
100
AcDbLine
 10
-3.0
 20
-0.3399999999999998
 30
0.0
 11
-3.339999999999999
 21
-0.3399999999999997
 31
0.0
  0
LINE
  5
18A
330
126
100
AcDbEntity
  8
AM_4
100
AcDbLine
 10
-4.06
 20
0.52500000603497
 30
0.0
 11
-4.06
 21
-0.5250000000000006
 31
0.0
  0
ARC
  5
18B
330
126
100
AcDbEntity
  8
AM_4
100
AcDbCircle
 10
-3.655
 20
-0.5250000000000004
 30
0.0
 40
0.4049999999999998
100
AcDbArc
 50
180.0
 51
270.0
  0
LINE
  5
18C
330
126
100
AcDbEntity
  8
AM_4
100
AcDbLine
 10
-3.655
 20
-0.9300000000000003
 30
0.0
 11
-3.0
 21
-0.9299999999999999
 31
0.0
  0
LINE
  5
18D
330
126
100
AcDbEntity
  8
AM_4
100
AcDbLine
 10
-3.000000000000001
 20
0.9299999999999999
 30
0.0
 11
-3.654999999999999
 21
0.9299999999999999
 31
0.0
  0
ARC
  5
18E
330
126
100
AcDbEntity
  8
AM_4
100
AcDbCircle
 10
-3.654999999999998
 20
0.5249999999999989
 30
0.0
 40
0.405000000000001
100
AcDbArc
 50
90.0
 51
179.9999991462263
  0
LWPOLYLINE
  5
18F
330
126
100
AcDbEntity
  8
AM_4
100
AcDbPolyline
 90
       15
 70
     0
 43
0.0
 10
-2.134080000000001
 20
0.3392381959626643
 10
-2.166941643965898
 20
0.4134171929682668
 10
-2.206143365035603
 20
0.4844498355072546
 10
-2.251386814441129
 20
0.5517955222792236
 10
-2.302327662213759
 20
0.614941711943402
 10
-2.358578217743016
 20
0.6734078238677333
 10
-2.419710380336311
 20
0.7267488956376701
 10
-2.485258897323699
 20
0.774558969488823
 10
-2.554724904911629
 20
0.8164741818906731
 10
-2.627579724837635
 20
0.8521755327677449
 10
-2.703268887931137
 20
0.8813913132827993
 10
-2.781216353958627
 20
0.9038991737051456
 10
-2.860828895637669
 20
0.9195278156263523
 10
-2.94150061345472
 20
0.928158295644567
 10
-3.0
 20
0.9300000000000007
  0
LINE
  5
190
330
126
100
AcDbEntity
  8
AM_4
100
AcDbLine
 10
-3.048061538461539
 20
0.9299999999999999
 30
0.0
 11
-3.048061538461539
 21
1.125
 31
0.0
  0
LWPOLYLINE
  5
191
330
126
100
AcDbEntity
  8
AM_4
100
AcDbPolyline
 90
       15
 70
     0
 43
0.0
 10
-3.0
 20
-0.9299999999999999
 10
-2.918945159244678
 20
-0.9264610692253232
 10
-2.838507194769755
 20
-0.9158712103013533
 10
-2.759298288054656
 20
-0.8983110184488334
 10
-2.681921266707128
 20
-0.8739141373308948
 10
-2.60696501658115
 20
-0.8428662419440847
 10
-2.535000000000001
 20
-0.8054036255195282
 10
-2.466573914193527
 20
-0.7618114011887627
 10
-2.402207522991519
 20
-0.7124213321006502
 10
-2.342390693496511
 20
-0.6576093065034898
 10
-2.287578667899351
 20
-0.5977924770084823
 10
-2.238188598811238
 20
-0.5334260858064737
 10
-2.194596374480472
 20
-0.4650000000000009
 10
-2.157133758055916
 20
-0.3930349834188515
 10
-2.134080000000001
 20
-0.3392381959626633
  0
LINE
  5
192
330
126
100
AcDbEntity
  8
AM_4
100
AcDbLine
 10
-3.048061538461539
 20
-1.125
 30
0.0
 11
-3.048061538461539
 21
-0.9300000000000002
 31
0.0
  0
LWPOLYLINE
  5
193
330
126
100
AcDbEntity
  8
AM_4
100
AcDbPolyline
 90
       15
 70
     0
 43
0.0
 10
3.0
 20
0.93
 10
2.918945159244678
 20
0.9264610692253233
 10
2.838507194769755
 20
0.9158712103013538
 10
2.759298288054656
 20
0.8983110184488339
 10
2.681921266707128
 20
0.8739141373308952
 10
2.60696501658115
 20
0.8428662419440851
 10
2.535000000000001
 20
0.8054036255195286
 10
2.466573914193528
 20
0.7618114011887631
 10
2.402207522991519
 20
0.7124213321006505
 10
2.342390693496511
 20
0.6576093065034904
 10
2.287578667899351
 20
0.5977924770084828
 10
2.238188598811238
 20
0.5334260858064742
 10
2.194596374480473
 20
0.4650000000000015
 10
2.157133758055916
 20
0.3930349834188521
 10
2.13408
 20
0.339238195962662
  0
LINE
  5
194
330
126
100
AcDbEntity
  8
AM_4
100
AcDbLine
 10
3.048061538461539
 20
0.9299999999999999
 30
0.0
 11
3.048061538461539
 21
1.125
 31
0.0
  0
LWPOLYLINE
  5
195
330
126
100
AcDbEntity
  8
AM_4
100
AcDbPolyline
 90
       15
 70
     0
 43
0.0
 10
2.13408
 20
-0.339238195962662
 10
2.166941643965898
 20
-0.4134171929682646
 10
2.206143365035603
 20
-0.4844498355072524
 10
2.251386814441128
 20
-0.5517955222792216
 10
2.302327662213757
 20
-0.6149417119434001
 10
2.358578217743015
 20
-0.6734078238677316
 10
2.41971038033631
 20
-0.7267488956376683
 10
2.485258897323698
 20
-0.7745589694888214
 10
2.554724904911628
 20
-0.8164741818906716
 10
2.627579724837634
 20
-0.8521755327677436
 10
2.703268887931136
 20
-0.8813913132827981
 10
2.781216353958626
 20
-0.9038991737051445
 10
2.860828895637668
 20
-0.9195278156263514
 10
2.941500613454718
 20
-0.9281582956445664
 10
3.0
 20
-0.9300000000000003
  0
LINE
  5
196
330
126
100
AcDbEntity
  8
AM_4
100
AcDbLine
 10
3.048061538461539
 20
-1.125
 30
0.0
 11
3.048061538461539
 21
-0.9300000000000002
 31
0.0
  0
LINE
  5
197
330
126
100
AcDbEntity
  8
AM_4
100
AcDbLine
 10
1.582110527902523
 20
0.7529761904761906
 30
0.0
 11
1.582110527902523
 21
0.9000000000000001
 31
0.0
  0
LWPOLYLINE
  5
198
330
126
100
AcDbEntity
  8
AM_4
100
AcDbPolyline
 90
        4
 70
     0
 43
0.0
 10
1.86165
 20
0.8999999999999999
 10
1.863608385797239
 20
0.9001936385407648
 10
1.869310728275012
 20
0.9035724621901984
 10
1.871281674111253
 20
0.9073109753042016
  0
LINE
  5
199
330
126
100
AcDbEntity
  8
AM_4
100
AcDbLine
 10
1.87165
 20
0.9017857142857145
 30
0.0
 11
1.871281674111253
 21
0.9073109753042016
 31
0.0
  0
LINE
  5
19A
330
126
100
AcDbEntity
  8
AM_4
100
AcDbLine
 10
1.86165
 20
0.8999999999999999
 30
0.0
 11
-1.86165
 21
0.8999999999999999
 31
0.0
  0
LWPOLYLINE
  5
19B
330
126
100
AcDbEntity
  8
AM_4
100
AcDbPolyline
 90
        4
 70
     0
 43
0.0
 10
-1.871281674111253
 20
0.9073109753042015
 10
-1.869310728275013
 20
0.9035724621901987
 10
-1.86360838579724
 20
0.900193638540765
 10
-1.86165
 20
0.8999999999999999
  0
LINE
  5
19C
330
126
100
AcDbEntity
  8
AM_4
100
AcDbLine
 10
-1.582110527902522
 20
0.7529761904761906
 30
0.0
 11
-1.582110527902522
 21
0.9000000000000001
 31
0.0
  0
LWPOLYLINE
  5
19D
330
126
100
AcDbEntity
  8
AM_4
100
AcDbPolyline
 90
        8
 70
     0
 43
0.0
 10
-1.87165
 20
0.9017857142857145
 10
-1.864527806683416
 20
0.877511153881897
 10
-1.843215430925299
 20
0.8534213375401327
 10
-1.807875072773935
 20
0.8296996033086116
 10
-1.758775693693946
 20
0.80652648790841
 10
-1.696290969607146
 20
0.7840783527400332
 10
-1.620896446993146
 20
0.7625260416666672
 10
-1.582110527902522
 20
0.7529761904761906
  0
LINE
  5
19E
330
126
100
AcDbEntity
  8
AM_4
100
AcDbLine
 10
1.462444433987151
 20
0.7529761904761905
 30
0.0
 11
1.462444433987151
 21
0.8999999999999998
 31
0.0
  0
LINE
  5
19F
330
126
100
AcDbEntity
  8
AM_4
100
AcDbLine
 10
-1.462444433987151
 20
0.8999999999999998
 30
0.0
 11
-1.462444433987151
 21
0.7529761904761905
 31
0.0
  0
LINE
  5
1A0
330
126
100
AcDbEntity
  8
AM_4
100
AcDbLine
 10
-1.215
 20
-0.9000000000000001
 30
0.0
 11
-1.871650000000005
 21
-0.9000000000000009
 31
0.0
  0
LINE
  5
1A1
330
126
100
AcDbEntity
  8
AM_4
100
AcDbLine
 10
1.871650000000005
 20
-0.8999999999999999
 30
0.0
 11
1.215
 21
-0.9000000000000001
 31
0.0
  0
LINE
  5
1A2
330
126
100
AcDbEntity
  8
AM_4
100
AcDbLine
 10
-1.582110527902523
 20
0.7529761904761906
 30
0.0
 11
-1.462444433987151
 21
0.7529761904761905
 31
0.0
  0
LINE
  5
1A3
330
126
100
AcDbEntity
  8
AM_4
100
AcDbLine
 10
-1.871281674111253
 20
0.9073109753042015
 30
0.0
 11
-1.87165
 21
0.9017857142857145
 31
0.0
  0
LWPOLYLINE
  5
1A4
330
126
100
AcDbEntity
  8
AM_4
100
AcDbPolyline
 90
        5
 70
     0
 43
0.0
 10
-1.87165
 20
0.9099999999999998
 10
-1.871611946980917
 20
0.9091284425725232
 10
-1.871498077530122
 20
0.9082635182233306
 10
-1.871309258262891
 20
0.9074118095489747
 10
-1.871281674111253
 20
0.9073109753042015
  0
LINE
  5
1A5
330
126
100
AcDbEntity
  8
AM_4
100
AcDbLine
 10
-1.87165
 20
0.9099999999999998
 30
0.0
 11
-1.87165
 21
1.125
 31
0.0
  0
LINE
  5
1A6
330
126
100
AcDbEntity
  8
AM_4
100
AcDbLine
 10
-3.654
 20
1.125
 30
0.0
 11
-1.87165
 21
1.125
 31
0.0
  0
LINE
  5
1A7
330
126
100
AcDbEntity
  8
AM_4
100
AcDbLine
 10
-2.134080000000001
 20
0.7823571428571433
 30
0.0
 11
-3.0
 21
1.125
 31
0.0
  0
LINE
  5
1A8
330
126
100
AcDbEntity
  8
AM_4
100
AcDbLine
 10
3.0
 20
1.125
 30
0.0
 11
2.13408
 21
0.7823571428571429
 31
0.0
  0
LINE
  5
1A9
330
126
100
AcDbEntity
  8
AM_4
100
AcDbLine
 10
1.87165
 20
1.125
 30
0.0
 11
3.654
 21
1.125
 31
0.0
  0
LINE
  5
1AA
330
126
100
AcDbEntity
  8
AM_4
100
AcDbLine
 10
1.87165
 20
1.125
 30
0.0
 11
1.87165
 21
0.9099999999999943
 31
0.0
  0
LWPOLYLINE
  5
1AB
330
126
100
AcDbEntity
  8
AM_4
100
AcDbPolyline
 90
        5
 70
     0
 43
0.0
 10
1.871281674111253
 20
0.9073109753042016
 10
1.871479386628007
 20
0.9081606635660775
 10
1.871602291577376
 20
0.9090243502888372
 10
1.871649453578483
 20
0.9098954622950123
 10
1.87165
 20
0.9099999999999884
  0
LWPOLYLINE
  5
1AC
330
126
100
AcDbEntity
  8
AM_4
100
AcDbPolyline
 90
        8
 70
     0
 43
0.0
 10
1.582110527902524
 20
0.752976190476191
 10
1.663245862439285
 20
0.7740618035828113
 10
1.731722891667573
 20
0.7961194727716865
 10
1.787020464047399
 20
0.8189813258615045
 10
1.828717731663368
 20
0.8424733703458875
 10
1.856497353131421
 20
0.8664168175814252
 10
1.870147908758394
 20
0.8906294434772061
 10
1.87165
 20
0.9017857142857145
  0
LINE
  5
1AD
330
126
100
AcDbEntity
  8
AM_4
100
AcDbLine
 10
1.462444433987151
 20
0.7529761904761905
 30
0.0
 11
1.582110527902524
 21
0.752976190476191
 31
0.0
  0
LWPOLYLINE
  5
1AE
330
126
100
AcDbEntity
  8
AM_4
100
AcDbPolyline
 90
       24
 70
     0
 43
0.0
 10
-1.462444433987151
 20
0.7529761904761905
 10
-1.369723648644126
 20
0.7345751296185902
 10
-1.266578439273167
 20
0.7174466422748182
 10
-1.153793803198368
 20
0.7017210865760241
 10
-1.032228099601483
 20
0.6875181434964257
 10
-0.9028065168902627
 20
0.6749459060088304
 10
-0.7665140314560287
 20
0.6641000564318432
 10
-0.6243879114085877
 20
0.6550631382296483
 10
-0.4775098223395984
 20
0.6479039278064045
 10
-0.3269975951942911
 20
0.6426769110762822
 10
-0.1739967189030087
 20
0.6394218687927568
 10
-0.0196716225187831
 20
0.6381635737930539
 10
0.1348031867908608
 20
0.6389116024619008
 10
0.2882520624526367
 20
0.6416602618494552
 10
0.4395071658677939
 20
0.6463886329980923
 10
0.5874173543690148
 20
0.6530607301483023
 10
0.7308569421111912
 20
0.6616257746120494
 10
0.8687342672204142
 20
0.6720185812292495
 10
0.9999999999999974
 20
0.6841600544661975
 10
1.123655128963072
 20
0.6979577903803381
 10
1.23875856391322
 20
0.7133067798700642
 10
1.344434298209117
 20
0.7300902078573855
 10
1.439878075704018
 20
0.7481803423212076
 10
1.462444433987151
 20
0.7529761904761905
  0
LINE
  5
1AF
330
126
100
AcDbEntity
  8
AM_4
100
AcDbLine
 10
1.871650000000005
 20
-0.8999999999999999
 30
0.0
 11
1.871650000000005
 21
-1.125
 31
0.0
  0
LINE
  5
1B0
330
126
100
AcDbEntity
  8
AM_4
100
AcDbLine
 10
1.871650000000005
 20
-1.125
 30
0.0
 11
3.654
 21
-1.125
 31
0.0
  0
LINE
  5
1B1
330
126
100
AcDbEntity
  8
AM_4
100
AcDbLine
 10
2.134080000000001
 20
-0.7823571428571425
 30
0.0
 11
3.000000000000001
 21
-1.125
 31
0.0
  0
LINE
  5
1B2
330
126
100
AcDbEntity
  8
AM_4
100
AcDbLine
 10
-3.0
 20
-1.125
 30
0.0
 11
-2.134080000000001
 21
-0.7823571428571433
 31
0.0
  0
LINE
  5
1B3
330
126
100
AcDbEntity
  8
AM_4
100
AcDbLine
 10
-3.654
 20
-1.125
 30
0.0
 11
-1.871650000000005
 21
-1.125
 31
0.0
  0
LINE
  5
1B4
330
126
100
AcDbEntity
  8
AM_4
100
AcDbLine
 10
-1.871650000000005
 20
-1.125
 30
0.0
 11
-1.871650000000005
 21
-0.9000000000000009
 31
0.0
  0
LWPOLYLINE
  5
1B5
330
126
100
AcDbEntity
  8
AM_4
100
AcDbPolyline
 90
       37
 70
     0
 43
0.0
 10
1.771609359452585
 20
-0.9000000000000001
 10
1.763821982063407
 20
-0.8770297223275457
 10
1.742610854365895
 20
-0.8542478527019697
 10
1.708137405849456
 20
-0.8318277749071914
 10
1.660664000272937
 20
-0.8099401192728425
 10
1.600551938918002
 20
-0.7887514640744281
 10
1.528258710868218
 20
-0.7684230677720678
 10
1.444334511240886
 20
-0.7491096417362441
 10
1.349418053869989
 20
-0.7309581728008551
 10
1.244231710308243
 20
-0.7141068046046554
 10
1.129576012143403
 20
-0.6986837862347527
 10
1.006323558469508
 20
-0.6848064961736149
 10
0.8754123748808826
 20
-0.6725805489779442
 10
0.7378387745309694
 20
-0.6620989914881285
 10
0.5946497755876423
 20
-0.6534415946856025
 10
0.4469351327927419
 20
-0.6466742465875126
 10
0.2958190437704771
 20
-0.6418484507991218
 10
0.1424515932046967
 20
-0.6390009345402751
 10
-0.0119999999999952
 20
-0.6381533691290795
 10
-0.166360265958889
 20
-0.6393122050500881
 10
-0.3194544298427606
 20
-0.642468622862218
 10
-0.4701173526236703
 20
-0.6475986003200211
 10
-0.6172023984864952
 20
-0.6546630951974793
 10
-0.7595901614198403
 20
-0.6636083424229161
 10
-0.8961969845717008
 20
-0.6743662632636578
 10
-1.025983207532436
 20
-0.6868549834462964
 10
-1.147961078778251
 20
-0.7009794562693464
 10
-1.261202273056713
 20
-0.716632185966035
 10
-1.36484495650246
 20
-0.7336940458119932
 10
-1.458100345713305
 20
-0.7520351847515608
 10
-1.540258710868213
 20
-0.7715160156427253
 10
-1.610694777199775
 20
-0.7919882775995576
 10
-1.66887248371275
 20
-0.8132961643470764
 10
-1.714349062931914
 20
-0.8352775100010795
 10
-1.7467784106299
 20
-0.8577650232484404
 10
-1.76591371988935
 20
-0.8805875605350149
 10
-1.771609359452585
 20
-0.9000000000000001
  0
LINE
  5
1B6
330
126
100
AcDbEntity
  8
AM_4
100
AcDbLine
 10
-2.134080000000001
 20
-0.7823571428571433
 30
0.0
 11
-2.13408
 21
-0.3392381959626621
 31
0.0
  0
LWPOLYLINE
  5
1B7
330
126
100
AcDbEntity
  8
AM_4
100
AcDbPolyline
 90
       29
 70
     0
 43
0.0
 10
-2.134080000000001
 20
-0.7823571428571433
 10
-2.056011468404073
 20
-0.7551334308953227
 10
-1.962295448079923
 20
-0.7290258313611729
 10
-1.853645174529498
 20
-0.7042330388513484
 10
-1.730887541939345
 20
-0.6809437414871459
 10
-1.594956810016561
 20
-0.6593351848839697
 10
-1.446887493708298
 20
-0.639571823205173
 10
-1.28780648991836
 20
-0.6218040675665757
 10
-1.118924501141324
 20
-0.6061671413170514
 10
-0.9415268212855162
 20
-0.5927800509071932
 10
-0.7569635538102878
 20
-0.5817446801783666
 10
-0.5666393366234724
 20
-0.5731450149651568
 10
-0.3720026519387665
 20
-0.5670465039124561
 10
-0.174534802451464
 20
-0.5634955603717574
 10
0.0242613622694893
 20
-0.5625192091675236
 10
0.2228728833741608
 20
-0.564124880921956
 10
0.4197882072620285
 20
-0.5683003555034722
 10
0.6135086894175824
 20
-0.5750138550292864
 10
0.8025599999999934
 20
-0.5842142857142851
 10
0.985503344383427
 20
-0.595831626725584
 10
1.160946413252914
 20
-0.6097774630833444
 10
1.327553978918936
 20
-0.6259456585521576
 10
1.484058057206376
 20
-0.6442131634018827
 10
1.62926755757972
 20
-0.6644409508903921
 10
1.762077348061234
 20
-0.6864750753410265
 10
1.881476665952609
 20
-0.7101478437621481
 10
1.986556810349413
 20
-0.7352790920920642
 10
2.076518057903659
 20
-0.7616775563563213
 10
2.13408
 20
-0.7823571428571429
  0
LINE
  5
1B8
330
126
100
AcDbEntity
  8
AM_4
100
AcDbLine
 10
2.134080000000001
 20
-0.7823571428571425
 30
0.0
 11
2.13408
 21
-0.3392381959626624
 31
0.0
  0
LWPOLYLINE
  5
1B9
330
126
100
AcDbEntity
  8
AM_4
100
AcDbPolyline
 90
       22
 70
     0
 43
0.0
 10
2.13408
 20
0.3392381959626625
 10
2.123080658717711
 20
0.3096968081471629
 10
2.112530559674146
 20
0.2780251652058061
 10
2.102405656133851
 20
0.2433556249296261
 10
2.093223732233734
 20
0.2065352275421342
 10
2.086704555020557
 20
0.1754684991782227
 10
2.081094574317076
 20
0.1432229683063634
 10
2.076413650298462
 20
0.1090154442943005
 10
2.072944476162262
 20
0.0739463029633003
 10
2.070828245381974
 20
0.0391848440949414
 10
2.070009086263392
 20
0.004111005637296
 10
2.0705599615401
 20
-0.0321890338541149
 10
2.072505072695547
 20
-0.068214073507655
 10
2.075403927025069
 20
-0.1000968454480346
 10
2.079318619017807
 20
-0.1313232451347562
 10
2.084304121633548
 20
-0.162477682654845
 10
2.090164749892088
 20
-0.1926131295137339
 10
2.097127659813494
 20
-0.2229802353603763
 10
2.104793048136089
 20
-0.2520010185188266
 10
2.113196672360188
 20
-0.2801416218861286
 10
2.122056917916266
 20
-0.3067832208927255
 10
2.13408
 20
-0.3392381959626623
  0
LINE
  5
1BA
330
126
100
AcDbEntity
  8
AM_4
100
AcDbLine
 10
2.13408
 20
0.3392381959626619
 30
0.0
 11
2.13408
 21
0.7823571428571429
 31
0.0
  0
LWPOLYLINE
  5
1BB
330
126
100
AcDbEntity
  8
AM_4
100
AcDbPolyline
 90
       29
 70
     0
 43
0.0
 10
2.13408
 20
0.7823571428571429
 10
2.056011468404072
 20
0.7551334308953224
 10
1.962295448079922
 20
0.7290258313611726
 10
1.853645174529496
 20
0.7042330388513479
 10
1.730887541939344
 20
0.6809437414871458
 10
1.594956810016559
 20
0.6593351848839696
 10
1.446887493708296
 20
0.6395718232051729
 10
1.287806489918358
 20
0.6218040675665755
 10
1.118924501141321
 20
0.6061671413170513
 10
0.9415268212855137
 20
0.5927800509071932
 10
0.7569635538102851
 20
0.5817446801783667
 10
0.5666393366234698
 20
0.5731450149651568
 10
0.3720026519387638
 20
0.5670465039124564
 10
0.1745348024514612
 20
0.5634955603717576
 10
-0.0242613622694921
 20
0.562519209167524
 10
-0.2228728833741635
 20
0.5641248809219563
 10
-0.4197882072620311
 20
0.5683003555034726
 10
-0.613508689417585
 20
0.5750138550292868
 10
-0.8025599999999958
 20
0.5842142857142857
 10
-0.9855033443834295
 20
0.5958316267255844
 10
-1.160946413252916
 20
0.6097774630833448
 10
-1.327553978918938
 20
0.6259456585521581
 10
-1.484058057206378
 20
0.6442131634018831
 10
-1.629267557579722
 20
0.6644409508903927
 10
-1.762077348061236
 20
0.6864750753410271
 10
-1.881476665952611
 20
0.7101478437621489
 10
-1.986556810349414
 20
0.7352790920920649
 10
-2.076518057903661
 20
0.761677556356322
 10
-2.13408
 20
0.7823571428571433
  0
LINE
  5
1BC
330
126
100
AcDbEntity
  8
AM_4
100
AcDbLine
 10
-2.13408
 20
0.3392381959626649
 30
0.0
 11
-2.134080000000001
 21
0.7823571428571433
 31
0.0
  0
LWPOLYLINE
  5
1BD
330
126
100
AcDbEntity
  8
AM_4
100
AcDbPolyline
 90
       22
 70
     0
 43
0.0
 10
-2.13408
 20
-0.3392381959626621
 10
-2.123080658717711
 20
-0.3096968081471627
 10
-2.112530559674146
 20
-0.2780251652058061
 10
-2.102405656133851
 20
-0.2433556249296262
 10
-2.093223732233733
 20
-0.2065352275421343
 10
-2.086704555020556
 20
-0.1754684991782227
 10
-2.081094574317076
 20
-0.1432229683063635
 10
-2.076413650298462
 20
-0.1090154442943007
 10
-2.072944476162262
 20
-0.0739463029633005
 10
-2.070828245381974
 20
-0.0391848440949416
 10
-2.070009086263392
 20
-0.0041110056372961
 10
-2.0705599615401
 20
0.0321890338541149
 10
-2.072505072695547
 20
0.068214073507655
 10
-2.075403927025068
 20
0.1000968454480347
 10
-2.079318619017807
 20
0.1313232451347562
 10
-2.084304121633548
 20
0.1624776826548449
 10
-2.090164749892088
 20
0.1926131295137337
 10
-2.097127659813493
 20
0.2229802353603761
 10
-2.104793048136088
 20
0.2520010185188264
 10
-2.113196672360187
 20
0.2801416218861285
 10
-2.122056917916266
 20
0.3067832208927253
 10
-2.13408
 20
0.3392381959626635
  0
ENDBLK
  5
129
330
126
100
AcDbEntity
  8
0
100
AcDbBlockEnd
  0
ENDSEC
  0
SECTION
  2
ENTITIES
  0
INSERT
  5
6F
330
1F
100
AcDbEntity
  8
0
100
AcDbBlockReference
  2
1_123939_4
 10
0.0
 20
0.0
 30
0.0
  0
POINT
  5
1BF
330
1F
100
AcDbEntity
  8
ConnectionPoints
100
AcDbPoint
 10
0.0
 20
0.75
 30
0.0
  0
POINT
  5
1C0
330
1F
100
AcDbEntity
  8
ConnectionPoints
100
AcDbPoint
 10
0.0
 20
-1.19
 30
0.0000000000000001
  0
POINT
  5
1C1
330
1F
100
AcDbEntity
  8
ConnectionPoints
100
AcDbPoint
 10
1.612203461105328
 20
0.0000000000000001
 30
1.612203461105329
  0
POINT
  5
1C2
330
1F
100
AcDbEntity
  8
ConnectionPoints
100
AcDbPoint
 10
0.0
 20
-1.19
 30
0.0000000000000001
  0
ENDSEC
  0
SECTION
  2
OBJECTS
  0
DICTIONARY
  5
C
330
0
100
AcDbDictionary
281
     1
  3
ACAD_DETAILVIEWSTYLE
350
1CA
  3
ACAD_GROUP
350
D
  3
ACAD_LAYOUT
350
1A
  3
ACAD_MATERIAL
350
43
  3
ACAD_MLEADERSTYLE
350
6B
  3
ACAD_MLINESTYLE
350
17
  3
ACAD_PLOTSETTINGS
350
19
  3
ACAD_PLOTSTYLENAME
350
E
  3
ACAD_SCALELIST
350
47
  3
ACAD_SECTIONVIEWSTYLE
350
1CB
  3
ACAD_TABLESTYLE
350
69
  3
ACAD_VISUALSTYLE
350
2A
  3
ACDB_RECOMPOSE_DATA
350
1C7
  3
AcDbVariableDictionary
350
1C3
  0
SUN
  5
6D
330
29
100
AcDbSun
 90
        1
290
     0
 63
     7
421
 16777215
 40
1.0
291
     1
 91
  2455826
 92
 54000000
292
     0
 70
     2
 71
   256
280
     1
  0
DICTIONARY
  5
1CA
102
{ACAD_REACTORS
330
C
102
}
330
C
100
AcDbDictionary
281
     1
  0
DICTIONARY
  5
D
102
{ACAD_REACTORS
330
C
102
}
330
C
100
AcDbDictionary
281
     1
  0
DICTIONARY
  5
1A
102
{ACAD_REACTORS
330
C
102
}
330
C
100
AcDbDictionary
281
     1
  3
Layout1
350
1E
  3
Layout2
350
26
  3
Model
350
22
  0
DICTIONARY
  5
43
102
{ACAD_REACTORS
330
C
102
}
330
C
100
AcDbDictionary
281
     1
  3
ByBlock
350
45
  3
ByLayer
350
44
  3
Global
350
46
  0
DICTIONARY
  5
6B
102
{ACAD_REACTORS
330
C
102
}
330
C
100
AcDbDictionary
281
     1
  3
Standard
350
6C
  0
DICTIONARY
  5
17
102
{ACAD_REACTORS
330
C
102
}
330
C
100
AcDbDictionary
281
     1
  3
Standard
350
18
  0
DICTIONARY
  5
19
102
{ACAD_REACTORS
330
C
102
}
330
C
100
AcDbDictionary
281
     1
  0
ACDBDICTIONARYWDFLT
  5
E
102
{ACAD_REACTORS
330
C
102
}
330
C
100
AcDbDictionary
281
     1
  3
Normal
350
F
100
AcDbDictionaryWithDefault
340
F
  0
DICTIONARY
  5
47
102
{ACAD_REACTORS
330
C
102
}
330
C
100
AcDbDictionary
281
     1
  3
A0
350
48
  3
A1
350
49
  3
A2
350
4A
  3
A3
350
4B
  3
A4
350
4C
  3
A5
350
4D
  3
A6
350
4E
  3
A7
350
4F
  3
A8
350
50
  3
A9
350
51
  3
B0
350
52
  3
B1
350
53
  3
B2
350
54
  3
B3
350
55
  3
B4
350
56
  3
B5
350
57
  3
B6
350
58
  3
B7
350
59
  3
B8
350
5A
  3
B9
350
5B
  3
C0
350
5C
  3
C1
350
5D
  3
C2
350
5E
  3
C3
350
5F
  3
C4
350
60
  3
C5
350
61
  3
C6
350
62
  3
C7
350
63
  3
C8
350
64
  3
C9
350
65
  3
D0
350
66
  3
D1
350
67
  3
D2
350
68
  0
DICTIONARY
  5
1CB
102
{ACAD_REACTORS
330
C
102
}
330
C
100
AcDbDictionary
281
     1
  0
DICTIONARY
  5
69
102
{ACAD_REACTORS
330
C
102
}
330
C
100
AcDbDictionary
281
     1
  3
Standard
350
6A
  0
DICTIONARY
  5
2A
102
{ACAD_REACTORS
330
C
102
}
330
C
100
AcDbDictionary
281
     1
  3
2dWireframe
350
2F
  3
Basic
350
32
  3
Brighten
350
36
  3
ColorChange
350
3A
  3
Conceptual
350
34
  3
Dim
350
35
  3
EdgeColorOff
350
3D
  3
Facepattern
350
39
  3
Flat
350
2B
  3
FlatWithEdges
350
2C
  3
Gouraud
350
2D
  3
GouraudWithEdges
350
2E
  3
Hidden
350
31
  3
JitterOff
350
3B
  3
Linepattern
350
38
  3
OverhangOff
350
3C
  3
Realistic
350
33
  3
Shaded
350
42
  3
Shaded with edges
350
41
  3
Shades of Gray
350
3E
  3
Sketchy
350
3F
  3
Thicken
350
37
  3
Wireframe
350
30
  3
X-Ray
350
40
  0
XRECORD
  5
1C7
102
{ACAD_REACTORS
330
C
102
}
330
C
100
AcDbXrecord
280
     1
 90
        1
330
6A
  0
DICTIONARY
  5
1C3
102
{ACAD_REACTORS
330
C
102
}
330
C
100
AcDbDictionary
281
     1
  3
CANNOSCALE
350
1C4
  3
CMLEADERSTYLE
350
1C9
  3
CTABLESTYLE
350
1C8
  0
LAYOUT
  5
1E
102
{ACAD_REACTORS
330
1A
102
}
330
1A
100
AcDbPlotSettings
  1

  2
none_device
  4

  6

 40
0.0
 41
0.0
 42
0.0
 43
0.0
 44
0.0
 45
0.0
 46
0.0
 47
0.0
 48
0.0
 49
0.0
140
0.0
141
0.0
142
1.0
143
1.0
 70
   688
 72
     0
 73
     0
 74
     5
  7

 75
    16
 76
     0
 77
     2
 78
   300
147
1.0
148
0.0
149
0.0
100
AcDbLayout
  1
Layout1
 70
     1
 71
     1
 10
0.0
 20
0.0
 11
12.0
 21
9.0
 12
0.0
 22
0.0
 32
0.0
 14
1.000000000000000E+20
 24
1.000000000000000E+20
 34
1.000000000000000E+20
 15
-1.000000000000000E+20
 25
-1.000000000000000E+20
 35
-1.000000000000000E+20
146
0.0
 13
0.0
 23
0.0
 33
0.0
 16
1.0
 26
0.0
 36
0.0
 17
0.0
 27
1.0
 37
0.0
 76
     0
330
1B
  0
LAYOUT
  5
26
102
{ACAD_REACTORS
330
1A
102
}
330
1A
100
AcDbPlotSettings
  1

  2
none_device
  4

  6

 40
0.0
 41
0.0
 42
0.0
 43
0.0
 44
0.0
 45
0.0
 46
0.0
 47
0.0
 48
0.0
 49
0.0
140
0.0
141
0.0
142
1.0
143
1.0
 70
   688
 72
     0
 73
     0
 74
     5
  7

 75
    16
 76
     0
 77
     2
 78
   300
147
1.0
148
0.0
149
0.0
100
AcDbLayout
  1
Layout2
 70
     1
 71
     2
 10
0.0
 20
0.0
 11
0.0
 21
0.0
 12
0.0
 22
0.0
 32
0.0
 14
0.0
 24
0.0
 34
0.0
 15
0.0
 25
0.0
 35
0.0
146
0.0
 13
0.0
 23
0.0
 33
0.0
 16
1.0
 26
0.0
 36
0.0
 17
0.0
 27
1.0
 37
0.0
 76
     0
330
23
  0
LAYOUT
  5
22
102
{ACAD_REACTORS
330
1A
102
}
330
1A
100
AcDbPlotSettings
  1

  2
none_device
  4
Letter_(8.50_x_11.00_Inches)
  6

 40
6.35
 41
6.35
 42
6.35000508
 43
6.35000508
 44
215.9
 45
279.4
 46
0.0
 47
0.0
 48
0.0
 49
0.0
140
0.0
141
0.0
142
1.0
143
1.0
 70
  1712
 72
     0
 73
     0
 74
     0
  7

 75
     0
 76
     0
 77
     2
 78
   300
147
1.0
148
0.0
149
0.0
100
AcDbLayout
  1
Model
 70
     1
 71
     0
 10
0.0
 20
0.0
 11
12.0
 21
9.0
 12
0.0
 22
0.0
 32
0.0
 14
1.000000000000000E+20
 24
1.000000000000000E+20
 34
1.000000000000000E+20
 15
-1.000000000000000E+20
 25
-1.000000000000000E+20
 35
-1.000000000000000E+20
146
0.0
 13
0.0
 23
0.0
 33
0.0
 16
1.0
 26
0.0
 36
0.0
 17
0.0
 27
1.0
 37
0.0
 76
     0
330
1F
331
29
  0
MATERIAL
  5
45
102
{ACAD_REACTORS
330
43
102
}
330
43
100
AcDbMaterial
  1
ByBlock
 72
     1
 94
      127
  0
MATERIAL
  5
44
102
{ACAD_REACTORS
330
43
102
}
330
43
100
AcDbMaterial
  1
ByLayer
 72
     1
 94
      127
  0
MATERIAL
  5
46
102
{ACAD_REACTORS
330
43
102
}
330
43
100
AcDbMaterial
  1
Global
 72
     1
 94
      127
  0
MLEADERSTYLE
  5
6C
102
{ACAD_REACTORS
330
6B
102
}
330
6B
100
AcDbMLeaderStyle
179
     2
170
     2
171
     1
172
     0
 90
        2
 40
0.0
 41
0.0
173
     1
 91
-1056964608
340
14
 92
       -2
290
     1
 42
0.09
291
     1
 43
0.36
  3
Standard
341
0
 44
0.18
300

342
11
174
     1
178
     6
175
     1
176
     0
 93
-1056964608
 45
0.18
292
     0
297
     0
 46
0.18
343
0
 94
-1056964608
 47
1.0
 49
1.0
140
1.0
293
     1
141
0.0
294
     1
177
     0
142
1.0
295
     0
296
     0
143
0.125
271
     0
272
     9
273
     9
298
     0
  0
MLINESTYLE
  5
18
102
{ACAD_REACTORS
330
17
102
}
330
17
100
AcDbMlineStyle
  2
Standard
 70
     0
  3

 62
   256
 51
90.0
 52
90.0
 71
     2
 49
0.5
 62
   256
  6
BYLAYER
 49
-0.5
 62
   256
  6
BYLAYER
  0
ACDBPLACEHOLDER
  5
F
102
{ACAD_REACTORS
330
E
102
}
330
E
  0
SCALE
  5
48
102
{ACAD_REACTORS
330
47
102
}
330
47
100
AcDbScale
 70
     0
300
1:1
140
1.0
141
1.0
290
     1
  0
SCALE
  5
49
102
{ACAD_REACTORS
330
47
102
}
330
47
100
AcDbScale
 70
     0
300
1:2
140
1.0
141
2.0
290
     0
  0
SCALE
  5
4A
102
{ACAD_REACTORS
330
47
102
}
330
47
100
AcDbScale
 70
     0
300
1:4
140
1.0
141
4.0
290
     0
  0
SCALE
  5
4B
102
{ACAD_REACTORS
330
47
102
}
330
47
100
AcDbScale
 70
     0
300
1:5
140
1.0
141
5.0
290
     0
  0
SCALE
  5
4C
102
{ACAD_REACTORS
330
47
102
}
330
47
100
AcDbScale
 70
     0
300
1:8
140
1.0
141
8.0
290
     0
  0
SCALE
  5
4D
102
{ACAD_REACTORS
330
47
102
}
330
47
100
AcDbScale
 70
     0
300
1:10
140
1.0
141
10.0
290
     0
  0
SCALE
  5
4E
102
{ACAD_REACTORS
330
47
102
}
330
47
100
AcDbScale
 70
     0
300
1:16
140
1.0
141
16.0
290
     0
  0
SCALE
  5
4F
102
{ACAD_REACTORS
330
47
102
}
330
47
100
AcDbScale
 70
     0
300
1:20
140
1.0
141
20.0
290
     0
  0
SCALE
  5
50
102
{ACAD_REACTORS
330
47
102
}
330
47
100
AcDbScale
 70
     0
300
1:30
140
1.0
141
30.0
290
     0
  0
SCALE
  5
51
102
{ACAD_REACTORS
330
47
102
}
330
47
100
AcDbScale
 70
     0
300
1:40
140
1.0
141
40.0
290
     0
  0
SCALE
  5
52
102
{ACAD_REACTORS
330
47
102
}
330
47
100
AcDbScale
 70
     0
300
1:50
140
1.0
141
50.0
290
     0
  0
SCALE
  5
53
102
{ACAD_REACTORS
330
47
102
}
330
47
100
AcDbScale
 70
     0
300
1:100
140
1.0
141
100.0
290
     0
  0
SCALE
  5
54
102
{ACAD_REACTORS
330
47
102
}
330
47
100
AcDbScale
 70
     0
300
2:1
140
2.0
141
1.0
290
     0
  0
SCALE
  5
55
102
{ACAD_REACTORS
330
47
102
}
330
47
100
AcDbScale
 70
     0
300
4:1
140
4.0
141
1.0
290
     0
  0
SCALE
  5
56
102
{ACAD_REACTORS
330
47
102
}
330
47
100
AcDbScale
 70
     0
300
8:1
140
8.0
141
1.0
290
     0
  0
SCALE
  5
57
102
{ACAD_REACTORS
330
47
102
}
330
47
100
AcDbScale
 70
     0
300
10:1
140
10.0
141
1.0
290
     0
  0
SCALE
  5
58
102
{ACAD_REACTORS
330
47
102
}
330
47
100
AcDbScale
 70
     0
300
100:1
140
100.0
141
1.0
290
     0
  0
SCALE
  5
59
102
{ACAD_REACTORS
330
47
102
}
330
47
100
AcDbScale
 70
     0
300
1/128" = 1'-0"
140
0.0078125
141
12.0
290
     0
  0
SCALE
  5
5A
102
{ACAD_REACTORS
330
47
102
}
330
47
100
AcDbScale
 70
     0
300
1/64" = 1'-0"
140
0.015625
141
12.0
290
     0
  0
SCALE
  5
5B
102
{ACAD_REACTORS
330
47
102
}
330
47
100
AcDbScale
 70
     0
300
1/32" = 1'-0"
140
0.03125
141
12.0
290
     0
  0
SCALE
  5
5C
102
{ACAD_REACTORS
330
47
102
}
330
47
100
AcDbScale
 70
     0
300
1/16" = 1'-0"
140
0.0625
141
12.0
290
     0
  0
SCALE
  5
5D
102
{ACAD_REACTORS
330
47
102
}
330
47
100
AcDbScale
 70
     0
300
3/32" = 1'-0"
140
0.09375
141
12.0
290
     0
  0
SCALE
  5
5E
102
{ACAD_REACTORS
330
47
102
}
330
47
100
AcDbScale
 70
     0
300
1/8" = 1'-0"
140
0.125
141
12.0
290
     0
  0
SCALE
  5
5F
102
{ACAD_REACTORS
330
47
102
}
330
47
100
AcDbScale
 70
     0
300
3/16" = 1'-0"
140
0.1875
141
12.0
290
     0
  0
SCALE
  5
60
102
{ACAD_REACTORS
330
47
102
}
330
47
100
AcDbScale
 70
     0
300
1/4" = 1'-0"
140
0.25
141
12.0
290
     0
  0
SCALE
  5
61
102
{ACAD_REACTORS
330
47
102
}
330
47
100
AcDbScale
 70
     0
300
3/8" = 1'-0"
140
0.375
141
12.0
290
     0
  0
SCALE
  5
62
102
{ACAD_REACTORS
330
47
102
}
330
47
100
AcDbScale
 70
     0
300
1/2" = 1'-0"
140
0.5
141
12.0
290
     0
  0
SCALE
  5
63
102
{ACAD_REACTORS
330
47
102
}
330
47
100
AcDbScale
 70
     0
300
3/4" = 1'-0"
140
0.75
141
12.0
290
     0
  0
SCALE
  5
64
102
{ACAD_REACTORS
330
47
102
}
330
47
100
AcDbScale
 70
     0
300
1" = 1'-0"
140
1.0
141
12.0
290
     0
  0
SCALE
  5
65
102
{ACAD_REACTORS
330
47
102
}
330
47
100
AcDbScale
 70
     0
300
1-1/2" = 1'-0"
140
1.5
141
12.0
290
     0
  0
SCALE
  5
66
102
{ACAD_REACTORS
330
47
102
}
330
47
100
AcDbScale
 70
     0
300
3" = 1'-0"
140
3.0
141
12.0
290
     0
  0
SCALE
  5
67
102
{ACAD_REACTORS
330
47
102
}
330
47
100
AcDbScale
 70
     0
300
6" = 1'-0"
140
6.0
141
12.0
290
     0
  0
SCALE
  5
68
102
{ACAD_REACTORS
330
47
102
}
330
47
100
AcDbScale
 70
     0
300
1'-0" = 1'-0"
140
12.0
141
12.0
290
     0
  0
TABLESTYLE
  5
6A
102
{ACAD_REACTORS
330
69
102
}
102
{ACAD_XDICTIONARY
360
1C5
102
}
330
69
100
AcDbTableStyle
  3
Standard
 70
     0
 71
     0
 40
0.06
 41
0.06
280
     0
281
     0
  7
Standard
140
0.18
170
     2
 62
     0
 63
   257
283
     0
 90
        4
 91
        0
  1

274
    -2
284
     1
 64
     0
275
    -2
285
     1
 65
     0
276
    -2
286
     1
 66
     0
277
    -2
287
     1
 67
     0
278
    -2
288
     1
 68
     0
279
    -2
289
     1
 69
     0
  7
Standard
140
0.25
170
     5
 62
     0
 63
   257
283
     0
 90
        4
 91
        0
  1

274
    -2
284
     1
 64
     0
275
    -2
285
     1
 65
     0
276
    -2
286
     1
 66
     0
277
    -2
287
     1
 67
     0
278
    -2
288
     1
 68
     0
279
    -2
289
     1
 69
     0
  7
Standard
140
0.18
170
     5
 62
     0
 63
   257
283
     0
 90
        4
 91
        0
  1

274
    -2
284
     1
 64
     0
275
    -2
285
     1
 65
     0
276
    -2
286
     1
 66
     0
277
    -2
287
     1
 67
     0
278
    -2
288
     1
 68
     0
279
    -2
289
     1
 69
     0
  0
VISUALSTYLE
  5
2F
102
{ACAD_REACTORS
330
2A
102
}
330
2A
100
AcDbVisualStyle
  2
2dWireframe
 70
     4
177
     3
291
     0
 70
    58
 90
        0
176
     1
 90
        2
176
     1
 90
        0
176
     1
 90
        0
176
     1
 40
0.6
176
     1
 40
30.0
176
     1
 62
     7
420
 16777215
176
     1
 90
        1
176
     1
 90
        4
176
     1
 62
     7
176
     1
 62
   257
176
     1
 90
        1
176
     1
 90
        1
176
     1
 40
1.0
176
     1
 90
        0
176
     1
 62
   257
176
     1
 40
1.0
176
     1
 90
        1
176
     1
 90
        6
176
     1
 90
        2
176
     1
 62
     7
176
     1
 90
        5
176
     1
 90
        0
176
     1
 90
        0
176
     1
290
     0
176
     1
 90
        1
176
     1
 40
0.0
176
     1
 90
        0
176
     1
290
     1
176
     1
290
     1
176
     1
290
     0
176
     1
290
     0
176
     1
290
     0
176
     1
290
     0
176
     1
290
     0
176
     1
290
     0
176
     1
290
     0
176
     1
 90
       50
176
     1
 40
0.0
176
     1
 40
1.0
176
     1
 90
        0
176
     1
 62
    18
420
        0
176
     1
 90
       50
176
     1
 90
        3
176
     1
 62
     5
420
      255
176
     1
290
     0
176
     1
 90
       50
176
     1
 90
       50
176
     1
 90
       50
176
     1
290
     0
176
     1
 90
       50
176
     1
 62
   256
176
     0
 40
1.0
176
     0
 90
        2
176
     1
  1
strokes_ogs.tif
176
     1
290
     0
176
     1
 40
1.0
176
     1
 40
1.0
176
     1
  0
VISUALSTYLE
  5
32
102
{ACAD_REACTORS
330
2A
102
}
330
2A
100
AcDbVisualStyle
  2
Basic
 70
     7
177
     3
291
     1
 70
    58
 90
        1
176
     1
 90
        0
176
     1
 90
        1
176
     1
 90
        0
176
     1
 40
0.6
176
     1
 40
30.0
176
     1
 62
     7
420
 16777215
176
     1
 90
        0
176
     1
 90
        4
176
     1
 62
     7
176
     1
 62
   257
176
     1
 90
        1
176
     1
 90
        1
176
     1
 40
1.0
176
     1
 90
        8
176
     1
 62
     7
176
     1
 40
1.0
176
     1
 90
        1
176
     1
 90
        6
176
     1
 90
        2
176
     1
 62
     7
176
     1
 90
        5
176
     1
 90
        0
176
     1
 90
        0
176
     1
290
     0
176
     1
 90
        1
176
     1
 40
0.0
176
     1
 90
        0
176
     1
290
     0
176
     1
290
     1
176
     1
290
     1
176
     1
290
     0
176
     1
290
     0
176
     1
290
     0
176
     1
290
     0
176
     1
290
     0
176
     1
290
     0
176
     1
 90
       50
176
     1
 40
0.0
176
     1
 40
1.0
176
     1
 90
        0
176
     1
 62
    18
420
        0
176
     1
 90
       50
176
     1
 90
        3
176
     1
 62
     5
420
      255
176
     1
290
     0
176
     1
 90
       50
176
     1
 90
       50
176
     1
 90
       50
176
     1
290
     0
176
     1
 90
       50
176
     1
 62
   256
176
     0
 40
1.0
176
     0
 90
        2
176
     1
  1
strokes_ogs.tif
176
     1
290
     0
176
     1
 40
1.0
176
     1
 40
1.0
176
     1
  0
VISUALSTYLE
  5
36
102
{ACAD_REACTORS
330
2A
102
}
330
2A
100
AcDbVisualStyle
  2
Brighten
 70
    12
177
     3
291
     1
 70
    58
 90
        2
176
     1
 90
        2
176
     1
 90
        0
176
     1
 90
        0
176
     1
 40
0.6
176
     1
 40
30.0
176
     1
 62
     7
420
 16777215
176
     1
 90
        1
176
     1
 90
        4
176
     1
 62
     7
176
     1
 62
   257
176
     1
 90
        1
176
     1
 90
        1
176
     1
 40
1.0
176
     1
 90
        8
176
     1
 62
     7
176
     1
 40
1.0
176
     1
 90
        1
176
     1
 90
        6
176
     1
 90
        2
176
     1
 62
     7
176
     1
 90
        5
176
     1
 90
        0
176
     1
 90
        0
176
     1
290
     0
176
     1
 90
        1
176
     1
 40
50.0
176
     1
 90
        0
176
     1
290
     0
176
     1
290
     1
176
     1
290
     1
176
     1
290
     0
176
     1
290
     0
176
     1
290
     0
176
     1
290
     0
176
     1
290
     0
176
     1
290
     0
176
     1
 90
       50
176
     1
 40
0.0
176
     1
 40
1.0
176
     1
 90
        0
176
     1
 62
    18
420
        0
176
     1
 90
       50
176
     1
 90
        3
176
     1
 62
     5
420
      255
176
     1
290
     0
176
     1
 90
       50
176
     1
 90
       50
176
     1
 90
       50
176
     1
290
     0
176
     1
 90
       50
176
     1
 62
   256
176
     0
 40
1.0
176
     0
 90
        2
176
     1
  1
strokes_ogs.tif
176
     1
290
     0
176
     1
 40
1.0
176
     1
 40
1.0
176
     1
  0
VISUALSTYLE
  5
3A
102
{ACAD_REACTORS
330
2A
102
}
330
2A
100
AcDbVisualStyle
  2
ColorChange
 70
    16
177
     3
291
     1
 70
    58
 90
        2
176
     1
 90
        2
176
     1
 90
        3
176
     1
 90
        0
176
     1
 40
0.6
176
     1
 40
30.0
176
     1
 62
     8
420
  8421504
176
     1
 90
        1
176
     1
 90
        4
176
     1
 62
     7
176
     1
 62
   257
176
     1
 90
        1
176
     1
 90
        1
176
     1
 40
1.0
176
     1
 90
        8
176
     1
 62
     8
420
  8421504
176
     1
 40
1.0
176
     1
 90
        1
176
     1
 90
        6
176
     1
 90
        2
176
     1
 62
     7
176
     1
 90
        5
176
     1
 90
        0
176
     1
 90
        0
176
     1
290
     0
176
     1
 90
        1
176
     1
 40
0.0
176
     1
 90
        0
176
     1
290
     0
176
     1
290
     1
176
     1
290
     1
176
     1
290
     0
176
     1
290
     0
176
     1
290
     0
176
     1
290
     0
176
     1
290
     0
176
     1
290
     0
176
     1
 90
       50
176
     1
 40
0.0
176
     1
 40
1.0
176
     1
 90
        0
176
     1
 62
    18
420
        0
176
     1
 90
       50
176
     1
 90
        3
176
     1
 62
     5
420
      255
176
     1
290
     0
176
     1
 90
       50
176
     1
 90
       50
176
     1
 90
       50
176
     1
290
     0
176
     1
 90
       50
176
     1
 62
   256
176
     0
 40
1.0
176
     0
 90
        2
176
     1
  1
strokes_ogs.tif
176
     1
290
     0
176
     1
 40
1.0
176
     1
 40
1.0
176
     1
  0
VISUALSTYLE
  5
34
102
{ACAD_REACTORS
330
2A
102
}
330
2A
100
AcDbVisualStyle
  2
Conceptual
 70
     9
177
     3
291
     0
 70
    58
 90
        3
176
     1
 90
        2
176
     1
 90
        0
176
     1
 90
        0
176
     1
 40
0.6
176
     1
 40
30.0
176
     1
 62
     7
420
 16777215
176
     1
 90
        2
176
     1
 90
        2
176
     1
 62
     7
176
     1
 62
   257
176
     1
 90
        1
176
     1
 90
        1
176
     1
 40
179.0
176
     1
 90
        8
176
     1
 62
     7
176
     1
 40
1.0
176
     1
 90
        1
176
     1
 90
        6
176
     1
 90
        2
176
     1
 62
     7
176
     1
 90
        3
176
     1
 90
        0
176
     1
 90
        0
176
     1
290
     0
176
     1
 90
        1
176
     1
 40
0.0
176
     1
 90
        0
176
     1
290
     0
176
     1
290
     1
176
     1
290
     1
176
     1
290
     0
176
     1
290
     0
176
     1
290
     0
176
     1
290
     0
176
     1
290
     0
176
     1
290
     0
176
     1
 90
       50
176
     1
 40
0.0
176
     1
 40
1.0
176
     1
 90
        0
176
     1
 62
    18
420
        0
176
     1
 90
       50
176
     1
 90
        3
176
     1
 62
     5
420
      255
176
     1
290
     0
176
     1
 90
       50
176
     1
 90
       50
176
     1
 90
       50
176
     1
290
     0
176
     1
 90
       50
176
     1
 62
   256
176
     0
 40
1.0
176
     0
 90
        2
176
     1
  1
strokes_ogs.tif
176
     1
290
     0
176
     1
 40
1.0
176
     1
 40
1.0
176
     1
  0
VISUALSTYLE
  5
35
102
{ACAD_REACTORS
330
2A
102
}
330
2A
100
AcDbVisualStyle
  2
Dim
 70
    11
177
     3
291
     1
 70
    58
 90
        2
176
     1
 90
        2
176
     1
 90
        0
176
     1
 90
        0
176
     1
 40
0.6
176
     1
 40
30.0
176
     1
 62
     7
420
 16777215
176
     1
 90
        1
176
     1
 90
        4
176
     1
 62
     7
176
     1
 62
   257
176
     1
 90
        1
176
     1
 90
        1
176
     1
 40
1.0
176
     1
 90
        8
176
     1
 62
     7
176
     1
 40
1.0
176
     1
 90
        1
176
     1
 90
        6
176
     1
 90
        2
176
     1
 62
     7
176
     1
 90
        5
176
     1
 90
        0
176
     1
 90
        0
176
     1
290
     0
176
     1
 90
        1
176
     1
 40
-50.0
176
     1
 90
        0
176
     1
290
     0
176
     1
290
     1
176
     1
290
     1
176
     1
290
     0
176
     1
290
     0
176
     1
290
     0
176
     1
290
     0
176
     1
290
     0
176
     1
290
     0
176
     1
 90
       50
176
     1
 40
0.0
176
     1
 40
1.0
176
     1
 90
        0
176
     1
 62
    18
420
        0
176
     1
 90
       50
176
     1
 90
        3
176
     1
 62
     5
420
      255
176
     1
290
     0
176
     1
 90
       50
176
     1
 90
       50
176
     1
 90
       50
176
     1
290
     0
176
     1
 90
       50
176
     1
 62
   256
176
     0
 40
1.0
176
     0
 90
        2
176
     1
  1
strokes_ogs.tif
176
     1
290
     0
176
     1
 40
1.0
176
     1
 40
1.0
176
     1
  0
VISUALSTYLE
  5
3D
102
{ACAD_REACTORS
330
2A
102
}
330
2A
100
AcDbVisualStyle
  2
EdgeColorOff
 70
    22
177
     3
291
     1
 70
    58
 90
        2
176
     0
 90
        2
176
     0
 90
        0
176
     0
 90
        0
176
     0
 40
0.6
176
     0
 40
30.0
176
     0
 62
     7
420
 16777215
176
     0
 90
        1
176
     0
 90
        4
176
     0
 62
     7
176
     0
 62
   257
176
     0
 90
        1
176
     0
 90
        1
176
     0
 40
1.0
176
     0
 90
        8
176
     2
 62
     7
176
     0
 40
1.0
176
     0
 90
        1
176
     0
 90
        6
176
     0
 90
        2
176
     0
 62
     7
176
     0
 90
        5
176
     0
 90
        0
176
     0
 90
        0
176
     0
290
     0
176
     0
 90
        1
176
     0
 40
0.0
176
     0
 90
        0
176
     0
290
     0
176
     0
290
     1
176
     0
290
     1
176
     0
290
     0
176
     0
290
     0
176
     0
290
     0
176
     0
290
     0
176
     0
290
     0
176
     0
290
     0
176
     0
 90
       50
176
     0
 40
0.0
176
     0
 40
1.0
176
     0
 90
        0
176
     0
 62
    18
420
        0
176
     0
 90
       50
176
     0
 90
        3
176
     0
 62
     5
420
      255
176
     0
290
     0
176
     0
 90
       50
176
     0
 90
       50
176
     0
 90
       50
176
     0
290
     0
176
     0
 90
       50
176
     0
 62
   256
176
     0
 40
1.0
176
     0
 90
        2
176
     0
  1
strokes_ogs.tif
176
     0
290
     0
176
     0
 40
1.0
176
     0
 40
1.0
176
     0
  0
VISUALSTYLE
  5
39
102
{ACAD_REACTORS
330
2A
102
}
330
2A
100
AcDbVisualStyle
  2
Facepattern
 70
    15
177
     3
291
     1
 70
    58
 90
        2
176
     1
 90
        2
176
     1
 90
        0
176
     1
 90
        0
176
     1
 40
0.6
176
     1
 40
30.0
176
     1
 62
     7
420
 16777215
176
     1
 90
        1
176
     1
 90
        4
176
     1
 62
     7
176
     1
 62
   257
176
     1
 90
        1
176
     1
 90
        1
176
     1
 40
1.0
176
     1
 90
        8
176
     1
 62
     7
176
     1
 40
1.0
176
     1
 90
        1
176
     1
 90
        6
176
     1
 90
        2
176
     1
 62
     7
176
     1
 90
        5
176
     1
 90
        0
176
     1
 90
        0
176
     1
290
     0
176
     1
 90
        1
176
     1
 40
0.0
176
     1
 90
        0
176
     1
290
     0
176
     1
290
     1
176
     1
290
     1
176
     1
290
     0
176
     1
290
     0
176
     1
290
     0
176
     1
290
     0
176
     1
290
     0
176
     1
290
     0
176
     1
 90
       50
176
     1
 40
0.0
176
     1
 40
1.0
176
     1
 90
        0
176
     1
 62
    18
420
        0
176
     1
 90
       50
176
     1
 90
        3
176
     1
 62
     5
420
      255
176
     1
290
     0
176
     1
 90
       50
176
     1
 90
       50
176
     1
 90
       50
176
     1
290
     0
176
     1
 90
       50
176
     1
 62
   256
176
     0
 40
1.0
176
     0
 90
        2
176
     1
  1
strokes_ogs.tif
176
     1
290
     0
176
     1
 40
1.0
176
     1
 40
1.0
176
     1
  0
VISUALSTYLE
  5
2B
102
{ACAD_REACTORS
330
2A
102
}
330
2A
100
AcDbVisualStyle
  2
Flat
 70
     0
177
     3
291
     1
 70
    58
 90
        2
176
     1
 90
        1
176
     1
 90
        1
176
     1
 90
        2
176
     1
 40
0.6
176
     1
 40
30.0
176
     1
 62
     7
420
 16777215
176
     1
 90
        0
176
     1
 90
        0
176
     1
 62
     7
176
     1
 62
   257
176
     1
 90
        1
176
     1
 90
        1
176
     1
 40
1.0
176
     1
 90
        8
176
     1
 62
     7
176
     1
 40
1.0
176
     1
 90
        1
176
     1
 90
        6
176
     1
 90
        2
176
     1
 62
     7
176
     1
 90
        5
176
     1
 90
        0
176
     1
 90
        0
176
     1
290
     0
176
     1
 90
       13
176
     1
 40
0.0
176
     1
 90
        0
176
     1
290
     0
176
     1
290
     1
176
     1
290
     1
176
     1
290
     0
176
     1
290
     0
176
     1
290
     0
176
     1
290
     0
176
     1
290
     0
176
     1
290
     0
176
     1
 90
       50
176
     1
 40
0.0
176
     1
 40
1.0
176
     1
 90
        0
176
     1
 62
    18
420
        0
176
     1
 90
       50
176
     1
 90
        3
176
     1
 62
     5
420
      255
176
     1
290
     0
176
     1
 90
       50
176
     1
 90
       50
176
     1
 90
       50
176
     1
290
     0
176
     1
 90
       50
176
     1
 62
   256
176
     0
 40
1.0
176
     0
 90
        2
176
     1
  1
strokes_ogs.tif
176
     1
290
     0
176
     1
 40
1.0
176
     1
 40
1.0
176
     1
  0
VISUALSTYLE
  5
2C
102
{ACAD_REACTORS
330
2A
102
}
330
2A
100
AcDbVisualStyle
  2
FlatWithEdges
 70
     1
177
     3
291
     1
 70
    58
 90
        2
176
     1
 90
        1
176
     1
 90
        1
176
     1
 90
        2
176
     1
 40
0.6
176
     1
 40
30.0
176
     1
 62
     7
420
 16777215
176
     1
 90
        1
176
     1
 90
        0
176
     1
 62
     7
176
     1
 62
   257
176
     1
 90
        1
176
     1
 90
        1
176
     1
 40
1.0
176
     1
 90
        0
176
     1
 62
   257
176
     1
 40
1.0
176
     1
 90
        1
176
     1
 90
        6
176
     1
 90
        2
176
     1
 62
     7
176
     1
 90
        5
176
     1
 90
        0
176
     1
 90
        0
176
     1
290
     0
176
     1
 90
       13
176
     1
 40
0.0
176
     1
 90
        0
176
     1
290
     0
176
     1
290
     1
176
     1
290
     1
176
     1
290
     0
176
     1
290
     0
176
     1
290
     0
176
     1
290
     0
176
     1
290
     0
176
     1
290
     0
176
     1
 90
       50
176
     1
 40
0.0
176
     1
 40
1.0
176
     1
 90
        0
176
     1
 62
    18
420
        0
176
     1
 90
       50
176
     1
 90
        3
176
     1
 62
     5
420
      255
176
     1
290
     0
176
     1
 90
       50
176
     1
 90
       50
176
     1
 90
       50
176
     1
290
     0
176
     1
 90
       50
176
     1
 62
   256
176
     0
 40
1.0
176
     0
 90
        2
176
     1
  1
strokes_ogs.tif
176
     1
290
     0
176
     1
 40
1.0
176
     1
 40
1.0
176
     1
  0
VISUALSTYLE
  5
2D
102
{ACAD_REACTORS
330
2A
102
}
330
2A
100
AcDbVisualStyle
  2
Gouraud
 70
     2
177
     3
291
     1
 70
    58
 90
        2
176
     1
 90
        2
176
     1
 90
        1
176
     1
 90
        2
176
     1
 40
0.6
176
     1
 40
30.0
176
     1
 62
     7
420
 16777215
176
     1
 90
        0
176
     1
 90
        0
176
     1
 62
     7
176
     1
 62
   257
176
     1
 90
        1
176
     1
 90
        1
176
     1
 40
1.0
176
     1
 90
        0
176
     1
 62
     7
176
     1
 40
1.0
176
     1
 90
        1
176
     1
 90
        6
176
     1
 90
        2
176
     1
 62
     7
176
     1
 90
        5
176
     1
 90
        0
176
     1
 90
        0
176
     1
290
     0
176
     1
 90
       13
176
     1
 40
0.0
176
     1
 90
        0
176
     1
290
     0
176
     1
290
     1
176
     1
290
     1
176
     1
290
     0
176
     1
290
     0
176
     1
290
     0
176
     1
290
     0
176
     1
290
     0
176
     1
290
     0
176
     1
 90
       50
176
     1
 40
0.0
176
     1
 40
1.0
176
     1
 90
        0
176
     1
 62
    18
420
        0
176
     1
 90
       50
176
     1
 90
        3
176
     1
 62
     5
420
      255
176
     1
290
     0
176
     1
 90
       50
176
     1
 90
       50
176
     1
 90
       50
176
     1
290
     0
176
     1
 90
       50
176
     1
 62
   256
176
     0
 40
1.0
176
     0
 90
        2
176
     1
  1
strokes_ogs.tif
176
     1
290
     0
176
     1
 40
1.0
176
     1
 40
1.0
176
     1
  0
VISUALSTYLE
  5
2E
102
{ACAD_REACTORS
330
2A
102
}
330
2A
100
AcDbVisualStyle
  2
GouraudWithEdges
 70
     3
177
     3
291
     1
 70
    58
 90
        2
176
     1
 90
        2
176
     1
 90
        1
176
     1
 90
        2
176
     1
 40
0.6
176
     1
 40
30.0
176
     1
 62
     7
420
 16777215
176
     1
 90
        1
176
     1
 90
        0
176
     1
 62
     7
176
     1
 62
   257
176
     1
 90
        1
176
     1
 90
        1
176
     1
 40
1.0
176
     1
 90
        0
176
     1
 62
   257
176
     1
 40
1.0
176
     1
 90
        1
176
     1
 90
        6
176
     1
 90
        2
176
     1
 62
     7
176
     1
 90
        5
176
     1
 90
        0
176
     1
 90
        0
176
     1
290
     0
176
     1
 90
       13
176
     1
 40
0.0
176
     1
 90
        0
176
     1
290
     0
176
     1
290
     1
176
     1
290
     1
176
     1
290
     0
176
     1
290
     0
176
     1
290
     0
176
     1
290
     0
176
     1
290
     0
176
     1
290
     0
176
     1
 90
       50
176
     1
 40
0.0
176
     1
 40
1.0
176
     1
 90
        0
176
     1
 62
    18
420
        0
176
     1
 90
       50
176
     1
 90
        3
176
     1
 62
     5
420
      255
176
     1
290
     0
176
     1
 90
       50
176
     1
 90
       50
176
     1
 90
       50
176
     1
290
     0
176
     1
 90
       50
176
     1
 62
   256
176
     0
 40
1.0
176
     0
 90
        2
176
     1
  1
strokes_ogs.tif
176
     1
290
     0
176
     1
 40
1.0
176
     1
 40
1.0
176
     1
  0
VISUALSTYLE
  5
31
102
{ACAD_REACTORS
330
2A
102
}
330
2A
100
AcDbVisualStyle
  2
Hidden
 70
     6
177
     3
291
     0
 70
    58
 90
        1
176
     1
 90
        2
176
     1
 90
        2
176
     1
 90
        0
176
     1
 40
0.6
176
     1
 40
30.0
176
     1
 62
     7
420
 16777215
176
     1
 90
        2
176
     1
 90
        2
176
     1
 62
     7
176
     1
 62
   257
176
     1
 90
        2
176
     1
 90
        1
176
     1
 40
40.0
176
     1
 90
        0
176
     1
 62
   257
176
     1
 40
1.0
176
     1
 90
        1
176
     1
 90
        6
176
     1
 90
        2
176
     1
 62
     7
176
     1
 90
        3
176
     1
 90
        0
176
     1
 90
        0
176
     1
290
     0
176
     1
 90
        1
176
     1
 40
0.0
176
     1
 90
        0
176
     1
290
     0
176
     1
290
     1
176
     1
290
     1
176
     1
290
     0
176
     1
290
     0
176
     1
290
     0
176
     1
290
     0
176
     1
290
     0
176
     1
290
     0
176
     1
 90
       50
176
     1
 40
0.0
176
     1
 40
1.0
176
     1
 90
        0
176
     1
 62
    18
420
        0
176
     1
 90
       50
176
     1
 90
        3
176
     1
 62
     5
420
      255
176
     1
290
     0
176
     1
 90
       50
176
     1
 90
       50
176
     1
 90
       50
176
     1
290
     0
176
     1
 90
       50
176
     1
 62
   256
176
     0
 40
1.0
176
     0
 90
        2
176
     1
  1
strokes_ogs.tif
176
     1
290
     0
176
     1
 40
1.0
176
     1
 40
1.0
176
     1
  0
VISUALSTYLE
  5
3B
102
{ACAD_REACTORS
330
2A
102
}
330
2A
100
AcDbVisualStyle
  2
JitterOff
 70
    20
177
     3
291
     1
 70
    58
 90
        2
176
     0
 90
        2
176
     0
 90
        0
176
     0
 90
        0
176
     0
 40
0.6
176
     0
 40
30.0
176
     0
 62
     7
420
 16777215
176
     0
 90
        1
176
     0
 90
        4
176
     0
 62
     7
176
     0
 62
   257
176
     0
 90
        1
176
     0
 90
        1
176
     0
 40
1.0
176
     0
 90
       10
176
     2
 62
     7
176
     0
 40
1.0
176
     0
 90
        1
176
     0
 90
        6
176
     0
 90
        2
176
     0
 62
     7
176
     0
 90
        5
176
     0
 90
        0
176
     0
 90
        0
176
     0
290
     0
176
     0
 90
        1
176
     0
 40
0.0
176
     0
 90
        0
176
     0
290
     0
176
     0
290
     1
176
     0
290
     1
176
     0
290
     0
176
     0
290
     0
176
     0
290
     0
176
     0
290
     0
176
     0
290
     0
176
     0
290
     0
176
     0
 90
       50
176
     0
 40
0.0
176
     0
 40
1.0
176
     0
 90
        0
176
     0
 62
    18
420
        0
176
     0
 90
       50
176
     0
 90
        3
176
     0
 62
     5
420
      255
176
     0
290
     0
176
     0
 90
       50
176
     0
 90
       50
176
     0
 90
       50
176
     0
290
     0
176
     0
 90
       50
176
     0
 62
   256
176
     0
 40
1.0
176
     0
 90
        2
176
     0
  1
strokes_ogs.tif
176
     0
290
     0
176
     0
 40
1.0
176
     0
 40
1.0
176
     0
  0
VISUALSTYLE
  5
38
102
{ACAD_REACTORS
330
2A
102
}
330
2A
100
AcDbVisualStyle
  2
Linepattern
 70
    14
177
     3
291
     1
 70
    58
 90
        2
176
     1
 90
        2
176
     1
 90
        0
176
     1
 90
        0
176
     1
 40
0.6
176
     1
 40
30.0
176
     1
 62
     7
420
 16777215
176
     1
 90
        1
176
     1
 90
        4
176
     1
 62
     7
176
     1
 62
   257
176
     1
 90
        7
176
     1
 90
        7
176
     1
 40
1.0
176
     1
 90
        8
176
     1
 62
     7
176
     1
 40
1.0
176
     1
 90
        1
176
     1
 90
        6
176
     1
 90
        2
176
     1
 62
     7
176
     1
 90
        5
176
     1
 90
        0
176
     1
 90
        0
176
     1
290
     0
176
     1
 90
        1
176
     1
 40
0.0
176
     1
 90
        0
176
     1
290
     0
176
     1
290
     1
176
     1
290
     1
176
     1
290
     0
176
     1
290
     0
176
     1
290
     0
176
     1
290
     0
176
     1
290
     0
176
     1
290
     0
176
     1
 90
       50
176
     1
 40
0.0
176
     1
 40
1.0
176
     1
 90
        0
176
     1
 62
    18
420
        0
176
     1
 90
       50
176
     1
 90
        3
176
     1
 62
     5
420
      255
176
     1
290
     0
176
     1
 90
       50
176
     1
 90
       50
176
     1
 90
       50
176
     1
290
     0
176
     1
 90
       50
176
     1
 62
   256
176
     0
 40
1.0
176
     0
 90
        2
176
     1
  1
strokes_ogs.tif
176
     1
290
     0
176
     1
 40
1.0
176
     1
 40
1.0
176
     1
  0
VISUALSTYLE
  5
3C
102
{ACAD_REACTORS
330
2A
102
}
330
2A
100
AcDbVisualStyle
  2
OverhangOff
 70
    21
177
     3
291
     1
 70
    58
 90
        2
176
     0
 90
        2
176
     0
 90
        0
176
     0
 90
        0
176
     0
 40
0.6
176
     0
 40
30.0
176
     0
 62
     7
420
 16777215
176
     0
 90
        1
176
     0
 90
        4
176
     0
 62
     7
176
     0
 62
   257
176
     0
 90
        1
176
     0
 90
        1
176
     0
 40
1.0
176
     0
 90
        9
176
     2
 62
     7
176
     0
 40
1.0
176
     0
 90
        1
176
     0
 90
        6
176
     0
 90
        2
176
     0
 62
     7
176
     0
 90
        5
176
     0
 90
        0
176
     0
 90
        0
176
     0
290
     0
176
     0
 90
        1
176
     0
 40
0.0
176
     0
 90
        0
176
     0
290
     0
176
     0
290
     1
176
     0
290
     1
176
     0
290
     0
176
     0
290
     0
176
     0
290
     0
176
     0
290
     0
176
     0
290
     0
176
     0
290
     0
176
     0
 90
       50
176
     0
 40
0.0
176
     0
 40
1.0
176
     0
 90
        0
176
     0
 62
    18
420
        0
176
     0
 90
       50
176
     0
 90
        3
176
     0
 62
     5
420
      255
176
     0
290
     0
176
     0
 90
       50
176
     0
 90
       50
176
     0
 90
       50
176
     0
290
     0
176
     0
 90
       50
176
     0
 62
   256
176
     0
 40
1.0
176
     0
 90
        2
176
     0
  1
strokes_ogs.tif
176
     0
290
     0
176
     0
 40
1.0
176
     0
 40
1.0
176
     0
  0
VISUALSTYLE
  5
33
102
{ACAD_REACTORS
330
2A
102
}
330
2A
100
AcDbVisualStyle
  2
Realistic
 70
     8
177
     3
291
     0
 70
    58
 90
        2
176
     1
 90
        3
176
     1
 90
        0
176
     1
 90
        2
176
     1
 40
0.6
176
     1
 40
30.0
176
     1
 62
     7
420
 16777215
176
     1
 90
        0
176
     1
 90
        0
176
     1
 62
     7
176
     1
 62
   257
176
     1
 90
        1
176
     1
 90
        1
176
     1
 40
1.0
176
     1
 90
        8
176
     1
 62
   257
176
     1
 40
1.0
176
     1
 90
        1
176
     1
 90
        6
176
     1
 90
        2
176
     1
 62
     7
176
     1
 90
        3
176
     1
 90
        0
176
     1
 90
        0
176
     1
290
     0
176
     1
 90
       13
176
     1
 40
0.0
176
     1
 90
        0
176
     1
290
     0
176
     1
290
     1
176
     1
290
     1
176
     1
290
     0
176
     1
290
     0
176
     1
290
     0
176
     1
290
     0
176
     1
290
     0
176
     1
290
     0
176
     1
 90
       50
176
     1
 40
0.0
176
     1
 40
1.0
176
     1
 90
        0
176
     1
 62
    18
420
        0
176
     1
 90
       50
176
     1
 90
        3
176
     1
 62
     5
420
      255
176
     1
290
     0
176
     1
 90
       50
176
     1
 90
       50
176
     1
 90
       50
176
     1
290
     0
176
     1
 90
       50
176
     1
 62
   256
176
     0
 40
1.0
176
     0
 90
        2
176
     1
  1
strokes_ogs.tif
176
     1
290
     0
176
     1
 40
1.0
176
     1
 40
1.0
176
     1
  0
VISUALSTYLE
  5
42
102
{ACAD_REACTORS
330
2A
102
}
330
2A
100
AcDbVisualStyle
  2
Shaded
 70
    27
177
     3
291
     0
 70
    58
 90
        2
176
     1
 90
        2
176
     1
 90
        1
176
     1
 90
        2
176
     1
 40
0.6
176
     1
 40
30.0
176
     1
 62
     7
420
 16777215
176
     1
 90
        0
176
     1
 90
        4
176
     1
 62
     7
176
     1
 62
   257
176
     1
 90
        1
176
     1
 90
        1
176
     1
 40
1.0
176
     1
 90
        8
176
     1
 62
   257
176
     1
 40
1.0
176
     1
 90
        1
176
     1
 90
        6
176
     1
 90
        2
176
     1
 62
     8
420
  7895160
176
     1
 90
        3
176
     1
 90
        0
176
     1
 90
        0
176
     1
290
     0
176
     1
 90
        5
176
     1
 40
0.0
176
     1
 90
        0
176
     1
290
     0
176
     1
290
     1
176
     1
290
     1
176
     1
290
     0
176
     1
290
     0
176
     1
290
     0
176
     1
290
     0
176
     1
290
     0
176
     1
290
     0
176
     1
 90
       50
176
     1
 40
0.0
176
     1
 40
1.0
176
     1
 90
        0
176
     1
 62
    18
420
        0
176
     1
 90
       50
176
     1
 90
        3
176
     1
 62
     5
420
      255
176
     1
290
     0
176
     1
 90
       50
176
     1
 90
       50
176
     1
 90
       50
176
     1
290
     0
176
     1
 90
       50
176
     1
 62
   256
176
     0
 40
1.0
176
     0
 90
        2
176
     1
  1
strokes_ogs.tif
176
     1
290
     0
176
     1
 40
1.0
176
     1
 40
1.0
176
     1
  0
VISUALSTYLE
  5
41
102
{ACAD_REACTORS
330
2A
102
}
330
2A
100
AcDbVisualStyle
  2
Shaded with edges
 70
    26
177
     3
291
     0
 70
    58
 90
        2
176
     1
 90
        2
176
     1
 90
        1
176
     1
 90
        2
176
     1
 40
0.6
176
     1
 40
30.0
176
     1
 62
     7
420
 16777215
176
     1
 90
        1
176
     1
 90
       10
176
     1
 62
     7
176
     1
 62
   257
176
     1
 90
        2
176
     1
 90
        1
176
     1
 40
1.0
176
     1
 90
        8
176
     1
 62
   257
176
     1
 40
1.0
176
     1
 90
        1
176
     1
 90
        6
176
     1
 90
        2
176
     1
 62
     7
176
     1
 90
        3
176
     1
 90
        0
176
     1
 90
        0
176
     1
290
     0
176
     1
 90
        5
176
     1
 40
0.0
176
     1
 90
        0
176
     1
290
     0
176
     1
290
     1
176
     1
290
     1
176
     1
290
     0
176
     1
290
     0
176
     1
290
     0
176
     1
290
     0
176
     1
290
     0
176
     1
290
     0
176
     1
 90
       50
176
     1
 40
0.0
176
     1
 40
1.0
176
     1
 90
        0
176
     1
 62
    18
420
        0
176
     1
 90
       50
176
     1
 90
        3
176
     1
 62
     5
420
      255
176
     1
290
     0
176
     1
 90
       50
176
     1
 90
       50
176
     1
 90
       50
176
     1
290
     0
176
     1
 90
       50
176
     1
 62
   256
176
     0
 40
1.0
176
     0
 90
        2
176
     1
  1
strokes_ogs.tif
176
     1
290
     0
176
     1
 40
1.0
176
     1
 40
1.0
176
     1
  0
VISUALSTYLE
  5
3E
102
{ACAD_REACTORS
330
2A
102
}
330
2A
100
AcDbVisualStyle
  2
Shades of Gray
 70
    23
177
     3
291
     0
 70
    58
 90
        2
176
     1
 90
        2
176
     1
 90
        3
176
     1
 90
        0
176
     1
 40
0.6
176
     1
 40
30.0
176
     1
 62
     7
420
 16777215
176
     1
 90
        2
176
     1
 90
        2
176
     1
 62
     7
176
     1
 62
     7
176
     1
 90
        1
176
     1
 90
        1
176
     1
 40
40.0
176
     1
 90
        8
176
     1
 62
     7
176
     1
 40
1.0
176
     1
 90
        1
176
     1
 90
        6
176
     1
 90
        2
176
     1
 62
     7
176
     1
 90
        3
176
     1
 90
        0
176
     1
 90
        0
176
     1
290
     0
176
     1
 90
        1
176
     1
 40
0.0
176
     1
 90
        0
176
     1
290
     0
176
     1
290
     1
176
     1
290
     1
176
     1
290
     0
176
     1
290
     0
176
     1
290
     0
176
     1
290
     0
176
     1
290
     0
176
     1
290
     0
176
     1
 90
       50
176
     1
 40
0.0
176
     1
 40
1.0
176
     1
 90
        0
176
     1
 62
    18
420
        0
176
     1
 90
       50
176
     1
 90
        3
176
     1
 62
     5
420
      255
176
     1
290
     0
176
     1
 90
       50
176
     1
 90
       50
176
     1
 90
       50
176
     1
290
     0
176
     1
 90
       50
176
     1
 62
   256
176
     0
 40
1.0
176
     0
 90
        2
176
     1
  1
strokes_ogs.tif
176
     1
290
     0
176
     1
 40
1.0
176
     1
 40
1.0
176
     1
  0
VISUALSTYLE
  5
3F
102
{ACAD_REACTORS
330
2A
102
}
330
2A
100
AcDbVisualStyle
  2
Sketchy
 70
    24
177
     3
291
     0
 70
    58
 90
        1
176
     1
 90
        2
176
     1
 90
        2
176
     1
 90
        0
176
     1
 40
0.6
176
     1
 40
30.0
176
     1
 62
     7
420
 16777215
176
     1
 90
        2
176
     1
 90
        2
176
     1
 62
     7
176
     1
 62
     7
176
     1
 90
        1
176
     1
 90
        1
176
     1
 40
40.0
176
     1
 90
       11
176
     1
 62
     7
176
     1
 40
1.0
176
     1
 90
        1
176
     1
 90
        6
176
     1
 90
        2
176
     1
 62
     7
176
     1
 90
        6
176
     1
 90
        0
176
     1
 90
        0
176
     1
290
     0
176
     1
 90
        1
176
     1
 40
0.0
176
     1
 90
        0
176
     1
290
     0
176
     1
290
     1
176
     1
290
     1
176
     1
290
     0
176
     1
290
     0
176
     1
290
     0
176
     1
290
     0
176
     1
290
     0
176
     1
290
     0
176
     1
 90
       50
176
     1
 40
0.0
176
     1
 40
1.0
176
     1
 90
        0
176
     1
 62
    18
420
        0
176
     1
 90
       50
176
     1
 90
        3
176
     1
 62
     5
420
      255
176
     1
290
     0
176
     1
 90
       50
176
     1
 90
       50
176
     1
 90
       50
176
     1
290
     0
176
     1
 90
       50
176
     1
 62
   256
176
     0
 40
1.0
176
     0
 90
        2
176
     1
  1
strokes_ogs.tif
176
     1
290
     0
176
     1
 40
1.0
176
     1
 40
1.0
176
     1
  0
VISUALSTYLE
  5
37
102
{ACAD_REACTORS
330
2A
102
}
330
2A
100
AcDbVisualStyle
  2
Thicken
 70
    13
177
     3
291
     1
 70
    58
 90
        2
176
     1
 90
        2
176
     1
 90
        0
176
     1
 90
        0
176
     1
 40
0.6
176
     1
 40
30.0
176
     1
 62
     7
420
 16777215
176
     1
 90
        1
176
     1
 90
        4
176
     1
 62
     7
176
     1
 62
   257
176
     1
 90
        1
176
     1
 90
        1
176
     1
 40
1.0
176
     1
 90
       12
176
     1
 62
     7
176
     1
 40
1.0
176
     1
 90
        1
176
     1
 90
        6
176
     1
 90
        2
176
     1
 62
     7
176
     1
 90
        5
176
     1
 90
        0
176
     1
 90
        0
176
     1
290
     0
176
     1
 90
        1
176
     1
 40
0.0
176
     1
 90
        0
176
     1
290
     0
176
     1
290
     1
176
     1
290
     1
176
     1
290
     0
176
     1
290
     0
176
     1
290
     0
176
     1
290
     0
176
     1
290
     0
176
     1
290
     0
176
     1
 90
       50
176
     1
 40
0.0
176
     1
 40
1.0
176
     1
 90
        0
176
     1
 62
    18
420
        0
176
     1
 90
       50
176
     1
 90
        3
176
     1
 62
     5
420
      255
176
     1
290
     0
176
     1
 90
       50
176
     1
 90
       50
176
     1
 90
       50
176
     1
290
     0
176
     1
 90
       50
176
     1
 62
   256
176
     0
 40
1.0
176
     0
 90
        2
176
     1
  1
strokes_ogs.tif
176
     1
290
     0
176
     1
 40
1.0
176
     1
 40
1.0
176
     1
  0
VISUALSTYLE
  5
30
102
{ACAD_REACTORS
330
2A
102
}
330
2A
100
AcDbVisualStyle
  2
Wireframe
 70
     5
177
     3
291
     0
 70
    58
 90
        0
176
     1
 90
        2
176
     1
 90
        0
176
     1
 90
        0
176
     1
 40
0.6
176
     1
 40
30.0
176
     1
 62
     7
420
 16777215
176
     1
 90
        1
176
     1
 90
        4
176
     1
 62
     7
176
     1
 62
   257
176
     1
 90
        1
176
     1
 90
        1
176
     1
 40
1.0
176
     1
 90
        0
176
     1
 62
   257
176
     1
 40
1.0
176
     1
 90
        1
176
     1
 90
        6
176
     1
 90
        2
176
     1
 62
     7
176
     1
 90
        3
176
     1
 90
        0
176
     1
 90
        0
176
     1
290
     0
176
     1
 90
        1
176
     1
 40
0.0
176
     1
 90
        0
176
     1
290
     0
176
     1
290
     1
176
     1
290
     1
176
     1
290
     0
176
     1
290
     0
176
     1
290
     0
176
     1
290
     0
176
     1
290
     0
176
     1
290
     0
176
     1
 90
       50
176
     1
 40
0.0
176
     1
 40
1.0
176
     1
 90
        0
176
     1
 62
    18
420
        0
176
     1
 90
       50
176
     1
 90
        3
176
     1
 62
     5
420
      255
176
     1
290
     0
176
     1
 90
       50
176
     1
 90
       50
176
     1
 90
       50
176
     1
290
     0
176
     1
 90
       50
176
     1
 62
   256
176
     0
 40
1.0
176
     0
 90
        2
176
     1
  1
strokes_ogs.tif
176
     1
290
     0
176
     1
 40
1.0
176
     1
 40
1.0
176
     1
  0
VISUALSTYLE
  5
40
102
{ACAD_REACTORS
330
2A
102
}
330
2A
100
AcDbVisualStyle
  2
X-Ray
 70
    25
177
     3
291
     0
 70
    58
 90
        2
176
     1
 90
        2
176
     1
 90
        1
176
     1
 90
        1
176
     1
 40
0.5
176
     1
 40
30.0
176
     1
 62
     7
420
 16777215
176
     1
 90
        1
176
     1
 90
        0
176
     1
 62
     7
176
     1
 62
   257
176
     1
 90
        1
176
     1
 90
        1
176
     1
 40
1.0
176
     1
 90
        8
176
     1
 62
     7
176
     1
 40
1.0
176
     1
 90
        1
176
     1
 90
        6
176
     1
 90
        2
176
     1
 62
     7
176
     1
 90
        3
176
     1
 90
        0
176
     1
 90
        0
176
     1
290
     0
176
     1
 90
       13
176
     1
 40
0.0
176
     1
 90
        0
176
     1
290
     0
176
     1
290
     1
176
     1
290
     1
176
     1
290
     0
176
     1
290
     0
176
     1
290
     0
176
     1
290
     0
176
     1
290
     0
176
     1
290
     0
176
     1
 90
       50
176
     1
 40
0.0
176
     1
 40
1.0
176
     1
 90
        0
176
     1
 62
    18
420
        0
176
     1
 90
       50
176
     1
 90
        3
176
     1
 62
     5
420
      255
176
     1
290
     0
176
     1
 90
       50
176
     1
 90
       50
176
     1
 90
       50
176
     1
290
     0
176
     1
 90
       50
176
     1
 62
   256
176
     0
 40
1.0
176
     0
 90
        2
176
     1
  1
strokes_ogs.tif
176
     1
290
     0
176
     1
 40
1.0
176
     1
 40
1.0
176
     1
  0
DICTIONARYVAR
  5
1C4
102
{ACAD_REACTORS
330
1C3
102
}
330
1C3
100
DictionaryVariables
280
     0
  1
1:1
  0
DICTIONARYVAR
  5
1C9
102
{ACAD_REACTORS
330
1C3
102
}
330
1C3
100
DictionaryVariables
280
     0
  1
Standard
  0
DICTIONARYVAR
  5
1C8
102
{ACAD_REACTORS
330
1C3
102
}
330
1C3
100
DictionaryVariables
280
     0
  1
Standard
  0
DICTIONARY
  5
1C5
330
6A
100
AcDbDictionary
280
     1
281
     1
  3
ACAD_ROUNDTRIP_2008_TABLESTYLE_CELLSTYLEMAP
360
1C6
  0
CELLSTYLEMAP
  5
1C6
102
{ACAD_REACTORS
330
1C5
102
}
330
1C5
100
AcDbCellStyleMap
 90
        3
300
CELLSTYLE
  1
TABLEFORMAT_BEGIN
 90
        5
170
     1
 91
        0
 92
    32768
 62
   257
 93
        1
300
CONTENTFORMAT
  1
CONTENTFORMAT_BEGIN
 90
        0
 91
        0
 92
        4
 93
        0
300

 40
0.0
140
1.0
 94
        5
 62
     0
340
11
144
0.25
309
CONTENTFORMAT_END
171
     1
301
MARGIN
  1
CELLMARGIN_BEGIN
 40
0.06
 40
0.06
 40
0.06
 40
0.06
 40
0.06
 40
0.06
309
CELLMARGIN_END
 94
        6
 95
        1
302
GRIDFORMAT
  1
GRIDFORMAT_BEGIN
 90
        0
 91
        1
 62
     0
 92
       -2
340
14
 93
        0
 40
0.045
309
GRIDFORMAT_END
 95
        2
302
GRIDFORMAT
  1
GRIDFORMAT_BEGIN
 90
        0
 91
        1
 62
     0
 92
       -2
340
14
 93
        0
 40
0.045
309
GRIDFORMAT_END
 95
        4
302
GRIDFORMAT
  1
GRIDFORMAT_BEGIN
 90
        0
 91
        1
 62
     0
 92
       -2
340
14
 93
        0
 40
0.045
309
GRIDFORMAT_END
 95
        8
302
GRIDFORMAT
  1
GRIDFORMAT_BEGIN
 90
        0
 91
        1
 62
     0
 92
       -2
340
14
 93
        0
 40
0.045
309
GRIDFORMAT_END
 95
       16
302
GRIDFORMAT
  1
GRIDFORMAT_BEGIN
 90
        0
 91
        1
 62
     0
 92
       -2
340
14
 93
        0
 40
0.045
309
GRIDFORMAT_END
 95
       32
302
GRIDFORMAT
  1
GRIDFORMAT_BEGIN
 90
        0
 91
        1
 62
     0
 92
       -2
340
14
 93
        0
 40
0.045
309
GRIDFORMAT_END
309
TABLEFORMAT_END
  1
CELLSTYLE_BEGIN
 90
        1
 91
        1
300
_TITLE
309
CELLSTYLE_END
300
CELLSTYLE
  1
TABLEFORMAT_BEGIN
 90
        5
170
     1
 91
        0
 92
        0
 62
   257
 93
        1
300
CONTENTFORMAT
  1
CONTENTFORMAT_BEGIN
 90
        0
 91
        0
 92
        4
 93
        0
300

 40
0.0
140
1.0
 94
        5
 62
     0
340
11
144
0.18
309
CONTENTFORMAT_END
171
     1
301
MARGIN
  1
CELLMARGIN_BEGIN
 40
0.06
 40
0.06
 40
0.06
 40
0.06
 40
0.06
 40
0.06
309
CELLMARGIN_END
 94
        6
 95
        1
302
GRIDFORMAT
  1
GRIDFORMAT_BEGIN
 90
        0
 91
        1
 62
     0
 92
       -2
340
14
 93
        0
 40
0.045
309
GRIDFORMAT_END
 95
        2
302
GRIDFORMAT
  1
GRIDFORMAT_BEGIN
 90
        0
 91
        1
 62
     0
 92
       -2
340
14
 93
        0
 40
0.045
309
GRIDFORMAT_END
 95
        4
302
GRIDFORMAT
  1
GRIDFORMAT_BEGIN
 90
        0
 91
        1
 62
     0
 92
       -2
340
14
 93
        0
 40
0.045
309
GRIDFORMAT_END
 95
        8
302
GRIDFORMAT
  1
GRIDFORMAT_BEGIN
 90
        0
 91
        1
 62
     0
 92
       -2
340
14
 93
        0
 40
0.045
309
GRIDFORMAT_END
 95
       16
302
GRIDFORMAT
  1
GRIDFORMAT_BEGIN
 90
        0
 91
        1
 62
     0
 92
       -2
340
14
 93
        0
 40
0.045
309
GRIDFORMAT_END
 95
       32
302
GRIDFORMAT
  1
GRIDFORMAT_BEGIN
 90
        0
 91
        1
 62
     0
 92
       -2
340
14
 93
        0
 40
0.045
309
GRIDFORMAT_END
309
TABLEFORMAT_END
  1
CELLSTYLE_BEGIN
 90
        2
 91
        1
300
_HEADER
309
CELLSTYLE_END
300
CELLSTYLE
  1
TABLEFORMAT_BEGIN
 90
        5
170
     1
 91
        0
 92
        0
 62
   257
 93
        1
300
CONTENTFORMAT
  1
CONTENTFORMAT_BEGIN
 90
        0
 91
        0
 92
        4
 93
        0
300

 40
0.0
140
1.0
 94
        2
 62
     0
340
11
144
0.18
309
CONTENTFORMAT_END
171
     1
301
MARGIN
  1
CELLMARGIN_BEGIN
 40
0.06
 40
0.06
 40
0.06
 40
0.06
 40
0.06
 40
0.06
309
CELLMARGIN_END
 94
        6
 95
        1
302
GRIDFORMAT
  1
GRIDFORMAT_BEGIN
 90
        0
 91
        1
 62
     0
 92
       -2
340
14
 93
        0
 40
0.045
309
GRIDFORMAT_END
 95
        2
302
GRIDFORMAT
  1
GRIDFORMAT_BEGIN
 90
        0
 91
        1
 62
     0
 92
       -2
340
14
 93
        0
 40
0.045
309
GRIDFORMAT_END
 95
        4
302
GRIDFORMAT
  1
GRIDFORMAT_BEGIN
 90
        0
 91
        1
 62
     0
 92
       -2
340
14
 93
        0
 40
0.045
309
GRIDFORMAT_END
 95
        8
302
GRIDFORMAT
  1
GRIDFORMAT_BEGIN
 90
        0
 91
        1
 62
     0
 92
       -2
340
14
 93
        0
 40
0.045
309
GRIDFORMAT_END
 95
       16
302
GRIDFORMAT
  1
GRIDFORMAT_BEGIN
 90
        0
 91
        1
 62
     0
 92
       -2
340
14
 93
        0
 40
0.045
309
GRIDFORMAT_END
 95
       32
302
GRIDFORMAT
  1
GRIDFORMAT_BEGIN
 90
        0
 91
        1
 62
     0
 92
       -2
340
14
 93
        0
 40
0.045
309
GRIDFORMAT_END
309
TABLEFORMAT_END
  1
CELLSTYLE_BEGIN
 90
        3
 91
        2
300
_DATA
309
CELLSTYLE_END
  0
ENDSEC
  0
EOF