0
SECTION
  2
HEADER
  9
$ACADVER
  1
AC1027
  9
$ACADMAINTVER
 70
     8
  9
$DWGCODEPAGE
  3
ANSI_1252
  9
$REQUIREDVERSIONS
160
                 0
  9
$COMMENTS
  1
File was created by Cadenas
  9
$CUSTOMPROPERTYTAG
  1
NN
  9
$CUSTOMPROPERTY
  1
Set Screw Air-Handling Two-Bolt Pillow Block Inch Bore
  9
$CUSTOMPROPERTYTAG
  1
NT
  9
$CUSTOMPROPERTY
  1
SC Pillow Block Bearings -(Normal Duty) -Air Handling
  9
$CUSTOMPROPERTYTAG
  1
NB
  9
$CUSTOMPROPERTY
  1
123903
  9
$CUSTOMPROPERTYTAG
  1
NBSYN
  9
$CUSTOMPROPERTY
  1
$PN.
  9
$CUSTOMPROPERTYTAG
  1
LINA
  9
$CUSTOMPROPERTY
  1
123903
  9
$CUSTOMPROPERTYTAG
  1
SERIES
  9
$CUSTOMPROPERTY
  1
205
  9
$CUSTOMPROPERTYTAG
  1
SS
  9
$CUSTOMPROPERTY
  1
15/16
  9
$CUSTOMPROPERTYTAG
  1
PN
  9
$CUSTOMPROPERTY
  1
123903
  9
$CUSTOMPROPERTYTAG
  1
DESCRIPTION
  9
$CUSTOMPROPERTY
  1
P2B-SCAH-015
  9
$CUSTOMPROPERTYTAG
  1
WEIGHT
  9
$CUSTOMPROPERTY
  1
1.7
  9
$CUSTOMPROPERTYTAG
  1
A
  9
$CUSTOMPROPERTY
  1
1.34
  9
$CUSTOMPROPERTYTAG
  1
B
  9
$CUSTOMPROPERTY
  1
5.50
  9
$CUSTOMPROPERTYTAG
  1
C
  9
$CUSTOMPROPERTY
  1
1.40
  9
$CUSTOMPROPERTYTAG
  1
DMIN
  9
$CUSTOMPROPERTY
  1
3.69
  9
$CUSTOMPROPERTYTAG
  1
DMAX
  9
$CUSTOMPROPERTY
  1
4.50
  9
$CUSTOMPROPERTYTAG
  1
F
  9
$CUSTOMPROPERTY
  1
3/8
  9
$CUSTOMPROPERTYTAG
  1
G
  9
$CUSTOMPROPERTY
  1
0.85
  9
$CUSTOMPROPERTYTAG
  1
H
  9
$CUSTOMPROPERTY
  1
0.58
  9
$CUSTOMPROPERTYTAG
  1
J
  9
$CUSTOMPROPERTY
  1
2.77
  9
$CUSTOMPROPERTYTAG
  1
L
  9
$CUSTOMPROPERTY
  1
1.32
  9
$CUSTOMPROPERTYTAG
  1
M
  9
$CUSTOMPROPERTY
  1
1.44
  9
$CUSTOMPROPERTYTAG
  1
R
  9
$CUSTOMPROPERTY
  1
0.56
  9
$CUSTOMPROPERTYTAG
  1
S
  9
$CUSTOMPROPERTY
  1
0.78
  9
$CUSTOMPROPERTYTAG
  1
U
  9
$CUSTOMPROPERTY
  1
2.50
  9
$CUSTOMPROPERTYTAG
  1
V
  9
$CUSTOMPROPERTY
  1
5.00
  9
$CUSTOMPROPERTYTAG
  1
W
  9
$CUSTOMPROPERTY
  1
0.50
  9
$CUSTOMPROPERTYTAG
  1
X
  9
$CUSTOMPROPERTY
  1
0.12
  9
$CUSTOMPROPERTYTAG
  1
COMPANY
  9
$CUSTOMPROPERTY
  1
baldor
  9
$INSBASE
 10
0.0
 20
0.0
 30
0.0
  9
$EXTMIN
 10
1.000000000000000E+20
 20
1.000000000000000E+20
 30
1.000000000000000E+20
  9
$EXTMAX
 10
-1.000000000000000E+20
 20
-1.000000000000000E+20
 30
-1.000000000000000E+20
  9
$LIMMIN
 10
0.0
 20
0.0
  9
$LIMMAX
 10
12.0
 20
9.0
  9
$ORTHOMODE
 70
     0
  9
$REGENMODE
 70
     1
  9
$FILLMODE
 70
     1
  9
$QTEXTMODE
 70
     0
  9
$MIRRTEXT
 70
     1
  9
$LTSCALE
 40
1.0
  9
$ATTMODE
 70
     1
  9
$TEXTSIZE
 40
0.2
  9
$TRACEWID
 40
0.05
  9
$TEXTSTYLE
  7
Standard
  9
$CLAYER
  8
0
  9
$CELTYPE
  6
ByLayer
  9
$CECOLOR
 62
   256
  9
$CELTSCALE
 40
1.0
  9
$DISPSILH
 70
     0
  9
$DIMSCALE
 40
1.0
  9
$DIMASZ
 40
0.18
  9
$DIMEXO
 40
0.0625
  9
$DIMDLI
 40
0.38
  9
$DIMRND
 40
0.0
  9
$DIMDLE
 40
0.0
  9
$DIMEXE
 40
0.18
  9
$DIMTP
 40
0.0
  9
$DIMTM
 40
0.0
  9
$DIMTXT
 40
0.18
  9
$DIMCEN
 40
0.09
  9
$DIMTSZ
 40
0.0
  9
$DIMTOL
 70
     0
  9
$DIMLIM
 70
     0
  9
$DIMTIH
 70
     1
  9
$DIMTOH
 70
     1
  9
$DIMSE1
 70
     0
  9
$DIMSE2
 70
     0
  9
$DIMTAD
 70
     0
  9
$DIMZIN
 70
     0
  9
$DIMBLK
  1

  9
$DIMASO
 70
     1
  9
$DIMSHO
 70
     1
  9
$DIMPOST
  1

  9
$DIMAPOST
  1

  9
$DIMALT
 70
     0
  9
$DIMALTD
 70
     2
  9
$DIMALTF
 40
25.4
  9
$DIMLFAC
 40
1.0
  9
$DIMTOFL
 70
     0
  9
$DIMTVP
 40
0.0
  9
$DIMTIX
 70
     0
  9
$DIMSOXD
 70
     0
  9
$DIMSAH
 70
     0
  9
$DIMBLK1
  1

  9
$DIMBLK2
  1

  9
$DIMSTYLE
  2
Standard
  9
$DIMCLRD
 70
     0
  9
$DIMCLRE
 70
     0
  9
$DIMCLRT
 70
     0
  9
$DIMTFAC
 40
1.0
  9
$DIMGAP
 40
0.09
  9
$DIMJUST
 70
     0
  9
$DIMSD1
 70
     0
  9
$DIMSD2
 70
     0
  9
$DIMTOLJ
 70
     1
  9
$DIMTZIN
 70
     0
  9
$DIMALTZ
 70
     0
  9
$DIMALTTZ
 70
     0
  9
$DIMUPT
 70
     0
  9
$DIMDEC
 70
     4
  9
$DIMTDEC
 70
     4
  9
$DIMALTU
 70
     2
  9
$DIMALTTD
 70
     2
  9
$DIMTXSTY
  7
Standard
  9
$DIMAUNIT
 70
     0
  9
$DIMADEC
 70
     0
  9
$DIMALTRND
 40
0.0
  9
$DIMAZIN
 70
     0
  9
$DIMDSEP
 70
    46
  9
$DIMATFIT
 70
     3
  9
$DIMFRAC
 70
     0
  9
$DIMLDRBLK
  1

  9
$DIMLUNIT
 70
     2
  9
$DIMLWD
 70
    -2
  9
$DIMLWE
 70
    -2
  9
$DIMTMOVE
 70
     0
  9
$DIMFXL
 40
1.0
  9
$DIMFXLON
 70
     0
  9
$DIMJOGANG
 40
0.7853981633974483
  9
$DIMTFILL
 70
     0
  9
$DIMTFILLCLR
 70
     0
  9
$DIMARCSYM
 70
     0
  9
$DIMLTYPE
  6

  9
$DIMLTEX1
  6

  9
$DIMLTEX2
  6

  9
$DIMTXTDIRECTION
 70
     0
  9
$LUNITS
 70
     2
  9
$LUPREC
 70
     4
  9
$SKETCHINC
 40
0.1
  9
$FILLETRAD
 40
0.5
  9
$AUNITS
 70
     0
  9
$AUPREC
 70
     0
  9
$MENU
  1
.
  9
$ELEVATION
 40
0.0
  9
$PELEVATION
 40
0.0
  9
$THICKNESS
 40
0.0
  9
$LIMCHECK
 70
     0
  9
$CHAMFERA
 40
0.0
  9
$CHAMFERB
 40
0.0
  9
$CHAMFERC
 40
0.0
  9
$CHAMFERD
 40
0.0
  9
$SKPOLY
 70
     0
  9
$TDCREATE
 40
2458169.01020875
  9
$TDUCREATE
 40
2458168.968542083
  9
$TDUPDATE
 40
2458169.010208935
  9
$TDUUPDATE
 40
2458168.968542268
  9
$TDINDWG
 40
0.0000000116
  9
$TDUSRTIMER
 40
0.0000000116
  9
$USRTIMER
 70
     1
  9
$ANGBASE
 50
0.0
  9
$ANGDIR
 70
     0
  9
$PDMODE
 70
     0
  9
$PDSIZE
 40
0.0
  9
$PLINEWID
 40
0.0
  9
$SPLFRAME
 70
     0
  9
$SPLINETYPE
 70
     6
  9
$SPLINESEGS
 70
     8
  9
$HANDSEED
  5
1DF
  9
$SURFTAB1
 70
     6
  9
$SURFTAB2
 70
     6
  9
$SURFTYPE
 70
     6
  9
$SURFU
 70
     6
  9
$SURFV
 70
     6
  9
$UCSBASE
  2

  9
$UCSNAME
  2

  9
$UCSORG
 10
0.0
 20
0.0
 30
0.0
  9
$UCSXDIR
 10
1.0
 20
0.0
 30
0.0
  9
$UCSYDIR
 10
0.0
 20
1.0
 30
0.0
  9
$UCSORTHOREF
  2

  9
$UCSORTHOVIEW
 70
     0
  9
$UCSORGTOP
 10
0.0
 20
0.0
 30
0.0
  9
$UCSORGBOTTOM
 10
0.0
 20
0.0
 30
0.0
  9
$UCSORGLEFT
 10
0.0
 20
0.0
 30
0.0
  9
$UCSORGRIGHT
 10
0.0
 20
0.0
 30
0.0
  9
$UCSORGFRONT
 10
0.0
 20
0.0
 30
0.0
  9
$UCSORGBACK
 10
0.0
 20
0.0
 30
0.0
  9
$PUCSBASE
  2

  9
$PUCSNAME
  2

  9
$PUCSORG
 10
0.0
 20
0.0
 30
0.0
  9
$PUCSXDIR
 10
1.0
 20
0.0
 30
0.0
  9
$PUCSYDIR
 10
0.0
 20
1.0
 30
0.0
  9
$PUCSORTHOREF
  2

  9
$PUCSORTHOVIEW
 70
     0
  9
$PUCSORGTOP
 10
0.0
 20
0.0
 30
0.0
  9
$PUCSORGBOTTOM
 10
0.0
 20
0.0
 30
0.0
  9
$PUCSORGLEFT
 10
0.0
 20
0.0
 30
0.0
  9
$PUCSORGRIGHT
 10
0.0
 20
0.0
 30
0.0
  9
$PUCSORGFRONT
 10
0.0
 20
0.0
 30
0.0
  9
$PUCSORGBACK
 10
0.0
 20
0.0
 30
0.0
  9
$USERI1
 70
     0
  9
$USERI2
 70
     0
  9
$USERI3
 70
     0
  9
$USERI4
 70
     0
  9
$USERI5
 70
     0
  9
$USERR1
 40
0.0
  9
$USERR2
 40
0.0
  9
$USERR3
 40
0.0
  9
$USERR4
 40
0.0
  9
$USERR5
 40
0.0
  9
$WORLDVIEW
 70
     1
  9
$SHADEDGE
 70
     3
  9
$SHADEDIF
 70
    70
  9
$TILEMODE
 70
     1
  9
$MAXACTVP
 70
    64
  9
$PINSBASE
 10
0.0
 20
0.0
 30
0.0
  9
$PLIMCHECK
 70
     0
  9
$PEXTMIN
 10
1.000000000000000E+20
 20
1.000000000000000E+20
 30
1.000000000000000E+20
  9
$PEXTMAX
 10
-1.000000000000000E+20
 20
-1.000000000000000E+20
 30
-1.000000000000000E+20
  9
$PLIMMIN
 10
0.0
 20
0.0
  9
$PLIMMAX
 10
12.0
 20
9.0
  9
$UNITMODE
 70
     0
  9
$VISRETAIN
 70
     1
  9
$PLINEGEN
 70
     0
  9
$PSLTSCALE
 70
     1
  9
$TREEDEPTH
 70
  3020
  9
$CMLSTYLE
  2
Standard
  9
$CMLJUST
 70
     0
  9
$CMLSCALE
 40
1.0
  9
$PROXYGRAPHICS
 70
     1
  9
$MEASUREMENT
 70
     0
  9
$CELWEIGHT
370
    -1
  9
$ENDCAPS
280
     0
  9
$JOINSTYLE
280
     0
  9
$LWDISPLAY
290
     0
  9
$INSUNITS
 70
     1
  9
$HYPERLINKBASE
  1

  9
$STYLESHEET
  1

  9
$XEDIT
290
     1
  9
$CEPSNTYPE
380
     0
  9
$PSTYLEMODE
290
     1
  9
$FINGERPRINTGUID
  2
{7EBF29B7-33BC-4C04-A925-B99ACA474489}
  9
$VERSIONGUID
  2
{FAEB1C32-E019-11D5-929B-00C0DF256EC4}
  9
$EXTNAMES
290
     1
  9
$PSVPSCALE
 40
0.0
  9
$OLESTARTUP
290
     0
  9
$SORTENTS
280
   127
  9
$INDEXCTL
280
     0
  9
$HIDETEXT
280
     1
  9
$XCLIPFRAME
280
     2
  9
$HALOGAP
280
     0
  9
$OBSCOLOR
 70
   257
  9
$OBSLTYPE
280
     0
  9
$INTERSECTIONDISPLAY
280
     0
  9
$INTERSECTIONCOLOR
 70
   257
  9
$DIMASSOC
280
     2
  9
$PROJECTNAME
  1

  9
$CAMERADISPLAY
290
     0
  9
$LENSLENGTH
 40
50.0
  9
$CAMERAHEIGHT
 40
0.0
  9
$STEPSPERSEC
 40
2.0
  9
$STEPSIZE
 40
6.0
  9
$3DDWFPREC
 40
2.0
  9
$PSOLWIDTH
 40
0.25
  9
$PSOLHEIGHT
 40
4.0
  9
$LOFTANG1
 40
1.570796326794897
  9
$LOFTANG2
 40
1.570796326794897
  9
$LOFTMAG1
 40
0.0
  9
$LOFTMAG2
 40
0.0
  9
$LOFTPARAM
 70
     7
  9
$LOFTNORMALS
280
     1
  9
$LATITUDE
 40
37.795
  9
$LONGITUDE
 40
-122.394
  9
$NORTHDIRECTION
 40
0.0
  9
$TIMEZONE
 70
 -8000
  9
$LIGHTGLYPHDISPLAY
280
     1
  9
$TILEMODELIGHTSYNCH
280
     1
  9
$CMATERIAL
347
44
  9
$SOLIDHIST
280
     0
  9
$SHOWHIST
280
     1
  9
$DWFFRAME
280
     2
  9
$DGNFRAME
280
     2
  9
$REALWORLDSCALE
290
     1
  9
$INTERFERECOLOR
 62
   256
  9
$CSHADOW
280
     0
  9
$SHADOWPLANELOCATION
 40
0.0
  0
ENDSEC
  0
SECTION
  2
CLASSES
  0
CLASS
  1
ACDBDICTIONARYWDFLT
  2
AcDbDictionaryWithDefault
  3
ObjectDBX Classes
 90
        0
 91
        4
280
     0
281
     0
  0
CLASS
  1
VISUALSTYLE
  2
AcDbVisualStyle
  3
ObjectDBX Classes
 90
     4095
 91
        4
280
     0
281
     0
  0
CLASS
  1
MATERIAL
  2
AcDbMaterial
  3
ObjectDBX Classes
 90
     1153
 91
        4
280
     0
281
     0
  0
CLASS
  1
SCALE
  2
AcDbScale
  3
ObjectDBX Classes
 90
     1153
 91
        4
280
     0
281
     0
  0
CLASS
  1
TABLESTYLE
  2
AcDbTableStyle
  3
ObjectDBX Classes
 90
     4095
 91
        4
280
     0
281
     0
  0
CLASS
  1
MLEADERSTYLE
  2
AcDbMLeaderStyle
  3
ACDB_MLEADERSTYLE_CLASS
 90
     4095
 91
        4
280
     0
281
     0
  0
CLASS
  1
SUN
  2
AcDbSun
  3
SCENEOE
 90
     1153
 91
        4
280
     0
281
     0
  0
CLASS
  1
DICTIONARYVAR
  2
AcDbDictionaryVar
  3
ObjectDBX Classes
 90
        0
 91
        4
280
     0
281
     0
  0
CLASS
  1
CELLSTYLEMAP
  2
AcDbCellStyleMap
  3
ObjectDBX Classes
 90
     1152
 91
        4
280
     0
281
     0
  0
ENDSEC
  0
SECTION
  2
TABLES
  0
TABLE
  2
VPORT
  5
8
330
0
100
AcDbSymbolTable
 70
     1
  0
VPORT
  5
29
330
8
100
AcDbSymbolTableRecord
100
AcDbViewportTableRecord
  2
*Active
 70
     0
 10
0.0
 20
0.0
 11
1.0
 21
1.0
 12
0.0
 22
-0.0385
 13
0.0
 23
0.0
 14
0.5
 24
0.5
 15
0.5
 25
0.5
 16
0.0
 26
0.0
 36
1.0
 17
0.0
 27
0.0
 37
0.0
 40
1.649339999999999
 41
3.401360544217689
 42
50.0
 43
0.0
 44
0.0
 50
0.0
 51
0.0
 71
     0
 72
   100
 73
     1
 74
     3
 75
     0
 76
     0
 77
     0
 78
     0
281
     0
 65
     1
110
0.0
120
0.0
130
0.0
111
1.0
121
0.0
131
0.0
112
0.0
122
1.0
132
0.0
 79
     0
146
0.0
348
2F
 60
     3
 61
     5
292
     1
282
     1
141
0.0
142
0.0
 63
   250
361
6D
  0
ENDTAB
  0
TABLE
  2
LTYPE
  5
5
330
0
100
AcDbSymbolTable
 70
     3
  0
LTYPE
  5
14
330
5
100
AcDbSymbolTableRecord
100
AcDbLinetypeTableRecord
  2
ByBlock
 70
     0
  3

 72
    65
 73
     0
 40
0.0
  0
LTYPE
  5
15
330
5
100
AcDbSymbolTableRecord
100
AcDbLinetypeTableRecord
  2
ByLayer
 70
     0
  3

 72
    65
 73
     0
 40
0.0
  0
LTYPE
  5
16
330
5
100
AcDbSymbolTableRecord
100
AcDbLinetypeTableRecord
  2
Continuous
 70
     0
  3
Solid line
 72
    65
 73
     0
 40
0.0
  0
LTYPE
  5
9B
330
5
100
AcDbSymbolTableRecord
100
AcDbLinetypeTableRecord
  2
Dashed
 70
     0
  3

 72
    65
 73
     2
 40
2.0
 49
1.0
 74
     0
 49
-1.0
 74
     0
  0
LTYPE
  5
11B
330
5
100
AcDbSymbolTableRecord
100
AcDbLinetypeTableRecord
  2
Center
 70
     0
  3

 72
    65
 73
     4
 40
1.5
 49
0.45
 74
     0
 49
-0.5
 74
     0
 49
0.05
 74
     0
 49
-0.5
 74
     0
  0
ENDTAB
  0
TABLE
  2
LAYER
  5
2
330
0
100
AcDbSymbolTable
 70
     7
  0
LAYER
  5
10
330
2
100
AcDbSymbolTableRecord
100
AcDbLayerTableRecord
  2
0
 70
     0
 62
     7
  6
Continuous
370
    -3
390
F
347
46
348
0
  0
LAYER
  5
72
330
2
100
AcDbSymbolTableRecord
100
AcDbLayerTableRecord
  2
AM_6
 70
     0
 62
    -2
  6
Continuous
370
    35
390
F
347
46
348
0
  0
LAYER
  5
9C
330
2
100
AcDbSymbolTableRecord
100
AcDbLayerTableRecord
  2
AM_9
 70
     0
 62
     6
  6
Dashed
370
    25
390
F
347
46
348
0
  0
LAYER
  5
B9
330
2
100
AcDbSymbolTableRecord
100
AcDbLayerTableRecord
  2
AM_4
 70
     0
 62
     7
  6
Continuous
370
    50
390
F
347
46
348
0
  0
LAYER
  5
11C
330
2
100
AcDbSymbolTableRecord
100
AcDbLayerTableRecord
  2
AM_7
 70
     0
 62
     7
  6
Center
370
    25
390
F
347
46
348
0
  0
LAYER
  5
131
330
2
100
AcDbSymbolTableRecord
100
AcDbLayerTableRecord
  2
AM_5
 70
     0
 62
     3
  6
Continuous
370
    25
390
F
347
46
348
0
  0
LAYER
  5
1D1
330
2
100
AcDbSymbolTableRecord
100
AcDbLayerTableRecord
  2
ConnectionPoints
 70
     0
 62
     7
  6
Continuous
370
    50
390
F
347
46
348
0
  0
ENDTAB
  0
TABLE
  2
STYLE
  5
3
330
0
100
AcDbSymbolTable
 70
     1
  0
STYLE
  5
11
330
3
100
AcDbSymbolTableRecord
100
AcDbTextStyleTableRecord
  2
Standard
 70
     0
 40
0.0
 41
1.0
 50
0.0
 71
     0
 42
0.2
  3
txt
  4

  0
ENDTAB
  0
TABLE
  2
VIEW
  5
6
330
0
100
AcDbSymbolTable
 70
     0
  0
ENDTAB
  0
TABLE
  2
UCS
  5
7
330
0
100
AcDbSymbolTable
 70
     0
  0
ENDTAB
  0
TABLE
  2
APPID
  5
9
330
0
100
AcDbSymbolTable
 70
     1
  0
APPID
  5
12
330
9
100
AcDbSymbolTableRecord
100
AcDbRegAppTableRecord
  2
ACAD
 70
     0
  0
ENDTAB
  0
TABLE
  2
DIMSTYLE
  5
A
330
0
100
AcDbSymbolTable
 70
     1
100
AcDbDimStyleTable
  0
DIMSTYLE
105
27
330
A
100
AcDbSymbolTableRecord
100
AcDbDimStyleTableRecord
  2
Standard
 70
     0
178
     0
340
11
  0
ENDTAB
  0
TABLE
  2
BLOCK_RECORD
  5
1
330
0
100
AcDbSymbolTable
 70
     5
  0
BLOCK_RECORD
  5
1F
330
1
100
AcDbSymbolTableRecord
100
AcDbBlockTableRecord
  2
*Model_Space
340
22
 70
     0
280
     1
281
     0
  0
BLOCK_RECORD
  5
1B
330
1
100
AcDbSymbolTableRecord
100
AcDbBlockTableRecord
  2
*Paper_Space
340
1E
 70
     0
280
     1
281
     0
  0
BLOCK_RECORD
  5
23
330
1
100
AcDbSymbolTableRecord
100
AcDbBlockTableRecord
  2
*Paper_Space0
340
26
 70
     0
280
     1
281
     0
  0
BLOCK_RECORD
  5
6E
330
1
100
AcDbSymbolTableRecord
100
AcDbBlockTableRecord
  2
1_123903_4
340
0
102
{BLKREFS
331
6F
102
}
 70
     0
280
     1
281
     0
  0
BLOCK_RECORD
  5
8F
330
1
100
AcDbSymbolTableRecord
100
AcDbBlockTableRecord
  2
2_405015E_Inch_0_in_123903_4
340
0
102
{BLKREFS
331
90
102
}
 70
     0
280
     1
281
     0
  0
BLOCK_RECORD
  5
D5
330
1
100
AcDbSymbolTableRecord
100
AcDbBlockTableRecord
  2
3_123334_0_in_123903_4
340
0
102
{BLKREFS
331
D6
102
}
 70
     0
280
     1
281
     0
  0
BLOCK_RECORD
  5
134
330
1
100
AcDbSymbolTableRecord
100
AcDbBlockTableRecord
  2
4_123903H_0_in_123903_4
340
0
102
{BLKREFS
331
135
102
}
 70
     0
280
     1
281
     0
  0
ENDTAB
  0
ENDSEC
  0
SECTION
  2
BLOCKS
  0
BLOCK
  5
20
330
1F
100
AcDbEntity
  8
0
100
AcDbBlockBegin
  2
*Model_Space
 70
     0
 10
0.0
 20
0.0
 30
0.0
  3
*Model_Space
  1

  0
ENDBLK
  5
21
330
1F
100
AcDbEntity
  8
0
100
AcDbBlockEnd
  0
BLOCK
  5
1C
330
1B
100
AcDbEntity
 67
     1
  8
0
100
AcDbBlockBegin
  2
*Paper_Space
 70
     0
 10
0.0
 20
0.0
 30
0.0
  3
*Paper_Space
  1

  0
ENDBLK
  5
1D
330
1B
100
AcDbEntity
 67
     1
  8
0
100
AcDbBlockEnd
  0
BLOCK
  5
24
330
23
100
AcDbEntity
  8
0
100
AcDbBlockBegin
  2
*Paper_Space0
 70
     0
 10
0.0
 20
0.0
 30
0.0
  3
*Paper_Space0
  1

  0
ENDBLK
  5
25
330
23
100
AcDbEntity
  8
0
100
AcDbBlockEnd
  0
BLOCK
  5
70
330
6E
100
AcDbEntity
  8
0
100
AcDbBlockBegin
  2
1_123903_4
 70
     2
 10
0.0
 20
0.0
 30
0.0
  3
1_123903_4
  1

  0
ATTDEF
  5
73
330
6E
100
AcDbEntity
  8
AM_6
100
AcDbText
 10
7.75
 20
0.7699999999999999
 30
0.0
 40
0.5
  1
Set Screw Air-Handling Two-Bolt Pillow Block Inch Bore
100
AcDbAttributeDefinition
  3

  2
NN
 70
     8
280
     0
  0
ATTDEF
  5
74
330
6E
100
AcDbEntity
  8
AM_6
100
AcDbText
 10
7.75
 20
0.2699999999999999
 30
0.0
 40
0.5
  1
SC Pillow Block Bearings -(Normal Duty) -Air Handling
100
AcDbAttributeDefinition
  3

  2
NT
 70
     8
280
     0
  0
ATTDEF
  5
75
330
6E
100
AcDbEntity
  8
AM_6
100
AcDbText
 10
7.75
 20
-0.2300000000000001
 30
0.0
 40
0.5
  1
123903
100
AcDbAttributeDefinition
  3

  2
NB
 70
     8
280
     0
  0
ATTDEF
  5
76
330
6E
100
AcDbEntity
  8
AM_6
100
AcDbText
 10
7.75
 20
-0.7300000000000001
 30
0.0
 40
0.5
  1
$PN.
100
AcDbAttributeDefinition
  3

  2
NBSYN
 70
     8
280
     0
  0
ATTDEF
  5
77
330
6E
100
AcDbEntity
  8
AM_6
100
AcDbText
 10
7.75
 20
-1.23
 30
0.0
 40
0.5
  1
123903
100
AcDbAttributeDefinition
  3

  2
LINA
 70
     8
280
     0
  0
ATTDEF
  5
78
330
6E
100
AcDbEntity
  8
AM_6
100
AcDbText
 10
7.75
 20
-1.73
 30
0.0
 40
0.5
  1
205
100
AcDbAttributeDefinition
  3

  2
SERIES
 70
     8
280
     0
  0
ATTDEF
  5
79
330
6E
100
AcDbEntity
  8
AM_6
100
AcDbText
 10
7.75
 20
-2.23
 30
0.0
 40
0.5
  1
15/16
100
AcDbAttributeDefinition
  3

  2
SS
 70
     8
280
     0
  0
ATTDEF
  5
7A
330
6E
100
AcDbEntity
  8
AM_6
100
AcDbText
 10
7.75
 20
-2.73
 30
0.0
 40
0.5
  1
123903
100
AcDbAttributeDefinition
  3

  2
PN
 70
     8
280
     0
  0
ATTDEF
  5
7B
330
6E
100
AcDbEntity
  8
AM_6
100
AcDbText
 10
7.75
 20
-3.23
 30
0.0
 40
0.5
  1
P2B-SCAH-015
100
AcDbAttributeDefinition
  3

  2
DESCRIPTION
 70
     8
280
     0
  0
ATTDEF
  5
7C
330
6E
100
AcDbEntity
  8
AM_6
100
AcDbText
 10
7.75
 20
-3.73
 30
0.0
 40
0.5
  1
1.7
100
AcDbAttributeDefinition
  3

  2
WEIGHT
 70
     8
280
     0
  0
ATTDEF
  5
7D
330
6E
100
AcDbEntity
  8
AM_6
100
AcDbText
 10
7.75
 20
-4.23
 30
0.0
 40
0.5
  1
1.34
100
AcDbAttributeDefinition
  3

  2
A
 70
     8
280
     0
  0
ATTDEF
  5
7E
330
6E
100
AcDbEntity
  8
AM_6
100
AcDbText
 10
7.75
 20
-4.73
 30
0.0
 40
0.5
  1
5.50
100
AcDbAttributeDefinition
  3

  2
B
 70
     8
280
     0
  0
ATTDEF
  5
7F
330
6E
100
AcDbEntity
  8
AM_6
100
AcDbText
 10
7.75
 20
-5.23
 30
0.0
 40
0.5
  1
1.40
100
AcDbAttributeDefinition
  3

  2
C
 70
     8
280
     0
  0
ATTDEF
  5
80
330
6E
100
AcDbEntity
  8
AM_6
100
AcDbText
 10
7.75
 20
-5.73
 30
0.0
 40
0.5
  1
3.69
100
AcDbAttributeDefinition
  3

  2
DMIN
 70
     8
280
     0
  0
ATTDEF
  5
81
330
6E
100
AcDbEntity
  8
AM_6
100
AcDbText
 10
7.75
 20
-6.23
 30
0.0
 40
0.5
  1
4.50
100
AcDbAttributeDefinition
  3

  2
DMAX
 70
     8
280
     0
  0
ATTDEF
  5
82
330
6E
100
AcDbEntity
  8
AM_6
100
AcDbText
 10
7.75
 20
-6.73
 30
0.0
 40
0.5
  1
3/8
100
AcDbAttributeDefinition
  3

  2
F
 70
     8
280
     0
  0
ATTDEF
  5
83
330
6E
100
AcDbEntity
  8
AM_6
100
AcDbText
 10
7.75
 20
-7.23
 30
0.0
 40
0.5
  1
0.85
100
AcDbAttributeDefinition
  3

  2
G
 70
     8
280
     0
  0
ATTDEF
  5
84
330
6E
100
AcDbEntity
  8
AM_6
100
AcDbText
 10
7.75
 20
-7.73
 30
0.0
 40
0.5
  1
0.58
100
AcDbAttributeDefinition
  3

  2
H
 70
     8
280
     0
  0
ATTDEF
  5
85
330
6E
100
AcDbEntity
  8
AM_6
100
AcDbText
 10
7.75
 20
-8.23
 30
0.0
 40
0.5
  1
2.77
100
AcDbAttributeDefinition
  3

  2
J
 70
     8
280
     0
  0
ATTDEF
  5
86
330
6E
100
AcDbEntity
  8
AM_6
100
AcDbText
 10
7.75
 20
-8.73
 30
0.0
 40
0.5
  1
1.32
100
AcDbAttributeDefinition
  3

  2
L
 70
     8
280
     0
  0
ATTDEF
  5
87
330
6E
100
AcDbEntity
  8
AM_6
100
AcDbText
 10
7.75
 20
-9.23
 30
0.0
 40
0.5
  1
1.44
100
AcDbAttributeDefinition
  3

  2
M
 70
     8
280
     0
  0
ATTDEF
  5
88
330
6E
100
AcDbEntity
  8
AM_6
100
AcDbText
 10
7.75
 20
-9.73
 30
0.0
 40
0.5
  1
0.56
100
AcDbAttributeDefinition
  3

  2
R
 70
     8
280
     0
  0
ATTDEF
  5
89
330
6E
100
AcDbEntity
  8
AM_6
100
AcDbText
 10
7.75
 20
-10.23
 30
0.0
 40
0.5
  1
0.78
100
AcDbAttributeDefinition
  3

  2
S
 70
     8
280
     0
  0
ATTDEF
  5
8A
330
6E
100
AcDbEntity
  8
AM_6
100
AcDbText
 10
7.75
 20
-10.73
 30
0.0
 40
0.5
  1
2.50
100
AcDbAttributeDefinition
  3

  2
U
 70
     8
280
     0
  0
ATTDEF
  5
8B
330
6E
100
AcDbEntity
  8
AM_6
100
AcDbText
 10
7.75
 20
-11.23
 30
0.0
 40
0.5
  1
5.00
100
AcDbAttributeDefinition
  3

  2
V
 70
     8
280
     0
  0
ATTDEF
  5
8C
330
6E
100
AcDbEntity
  8
AM_6
100
AcDbText
 10
7.75
 20
-11.73
 30
0.0
 40
0.5
  1
0.50
100
AcDbAttributeDefinition
  3

  2
W
 70
     8
280
     0
  0
ATTDEF
  5
8D
330
6E
100
AcDbEntity
  8
AM_6
100
AcDbText
 10
7.75
 20
-12.23
 30
0.0
 40
0.5
  1
0.12
100
AcDbAttributeDefinition
  3

  2
X
 70
     8
280
     0
  0
ATTDEF
  5
8E
330
6E
100
AcDbEntity
  8
AM_6
100
AcDbText
 10
7.75
 20
-12.73
 30
0.0
 40
0.5
  1
baldor
100
AcDbAttributeDefinition
  3

  2
COMPANY
 70
     8
280
     0
  0
INSERT
  5
90
330
6E
100
AcDbEntity
  8
0
100
AcDbBlockReference
  2
2_405015E_Inch_0_in_123903_4
 10
0.0
 20
0.0
 30
0.0
  0
INSERT
  5
D6
330
6E
100
AcDbEntity
  8
0
100
AcDbBlockReference
  2
3_123334_0_in_123903_4
 10
0.0
 20
0.0
 30
0.0
  0
INSERT
  5
135
330
6E
100
AcDbEntity
  8
0
100
AcDbBlockReference
  2
4_123903H_0_in_123903_4
 10
0.0
 20
0.0
 30
0.0
  0
ENDBLK
  5
71
330
6E
100
AcDbEntity
  8
0
100
AcDbBlockEnd
  0
BLOCK
  5
91
330
8F
100
AcDbEntity
  8
0
100
AcDbBlockBegin
  2
2_405015E_Inch_0_in_123903_4
 70
     2
 10
0.0
 20
0.0
 30
0.0
  3
2_405015E_Inch_0_in_123903_4
  1

  0
ATTDEF
  5
93
330
8F
100
AcDbEntity
  8
AM_6
100
AcDbText
 10
6.278221302658027
 20
0.2187500000000001
 30
0.0
 40
0.5
  1
405015E -Inch
100
AcDbAttributeDefinition
  3

  2
NN
 70
     8
280
     0
  0
ATTDEF
  5
94
330
8F
100
AcDbEntity
  8
AM_6
100
AcDbText
 10
6.278221302658027
 20
-0.2812499999999999
 30
0.0
 40
0.5
  1
Grease Fitting
100
AcDbAttributeDefinition
  3

  2
NT
 70
     8
280
     0
  0
ATTDEF
  5
95
330
8F
100
AcDbEntity
  8
AM_6
100
AcDbText
 10
6.278221302658027
 20
-0.7812499999999999
 30
0.0
 40
0.5
  1
405015E-Inch
100
AcDbAttributeDefinition
  3

  2
NB
 70
     8
280
     0
  0
ATTDEF
  5
96
330
8F
100
AcDbEntity
  8
AM_6
100
AcDbText
 10
6.278221302658027
 20
-1.28125
 30
0.0
 40
0.5
  1
$MN.-Inch
100
AcDbAttributeDefinition
  3

  2
NBSYN
 70
     8
280
     0
  0
ATTDEF
  5
97
330
8F
100
AcDbEntity
  8
AM_6
100
AcDbText
 10
6.278221302658027
 20
-1.78125
 30
0.0
 40
0.5
  1
405015E
100
AcDbAttributeDefinition
  3

  2
LINA
 70
     8
280
     0
  0
ATTDEF
  5
98
330
8F
100
AcDbEntity
  8
AM_6
100
AcDbText
 10
6.278221302658027
 20
-2.28125
 30
0.0
 40
0.5
  1
405015E
100
AcDbAttributeDefinition
  3

  2
MN
 70
     8
280
     0
  0
ATTDEF
  5
99
330
8F
100
AcDbEntity
  8
AM_6
100
AcDbText
 10
6.278221302658027
 20
-2.78125
 30
0.0
 40
0.5
  1
1/8 x 27PTF
100
AcDbAttributeDefinition
  3

  2
T
 70
     8
280
     0
  0
ATTDEF
  5
9A
330
8F
100
AcDbEntity
  8
AM_6
100
AcDbText
 10
6.278221302658027
 20
-3.28125
 30
0.0
 40
0.5
  1
baldor
100
AcDbAttributeDefinition
  3

  2
COMPANY
 70
     8
280
     0
  0
LWPOLYLINE
  5
9D
330
8F
100
AcDbEntity
  8
AM_9
100
AcDbPolyline
 90
        4
 70
     0
 43
0.0
 10
1.125472407290609
 20
0.0
 10
1.098542278696747
 20
-0.0544416102741495
 10
1.086071918896767
 20
-0.081870001090765
 10
1.074408489286563
 20
-0.1093749999999999
  0
LWPOLYLINE
  5
9E
330
8F
100
AcDbEntity
  8
AM_9
100
AcDbPolyline
 90
        4
 70
     0
 43
0.0
 10
1.074408489286563
 20
0.109375
 10
1.08600103504015
 20
0.08203125
 10
1.098426943454365
 20
0.0546875000000001
 10
1.125472407290609
 20
0.0
  0
ELLIPSE
  5
9F
330
8F
100
AcDbEntity
  8
AM_9
100
AcDbEllipse
 10
0.7530687219636729
 20
0.0
 30
0.0
 11
9.913691727296317E-18
 21
0.161902872472269
 31
0.0
210
0.0
220
0.0
230
1.0
 40
0.7071067811865478
 41
0.0
 42
6.283185307179586
  0
LWPOLYLINE
  5
A0
330
8F
100
AcDbEntity
  8
AM_9
100
AcDbPolyline
 90
        4
 70
     0
 43
0.0
 10
1.145119167405218
 20
-0.1093749999999999
 10
1.155852700036374
 20
-0.0820312499999999
 10
1.165752870006901
 20
-0.0546874999999999
 10
1.183359562940142
 20
0.0
  0
LWPOLYLINE
  5
A1
330
8F
100
AcDbEntity
  8
AM_9
100
AcDbPolyline
 90
        4
 70
     0
 43
0.0
 10
1.183359562940142
 20
0.0
 10
1.165838302884961
 20
0.0544416102741496
 10
1.155913475362825
 20
0.0818700010907651
 10
1.145119167405218
 20
0.109375
  0
LWPOLYLINE
  5
A2
330
8F
100
AcDbEntity
  8
AM_9
100
AcDbPolyline
 90
        4
 70
     0
 43
0.0
 10
1.036168093751639
 20
0.2187500000000001
 10
1.05368935380682
 20
0.1643083897258505
 10
1.063614181328956
 20
0.1368799989092349
 10
1.074408489286563
 20
0.109375
  0
LINE
  5
A3
330
8F
100
AcDbEntity
  8
AM_9
100
AcDbLine
 10
1.183359562940142
 20
0.0
 30
0.0
 11
1.125472407290609
 21
0.0
 31
0.0
  0
LWPOLYLINE
  5
A4
330
8F
100
AcDbEntity
  8
AM_9
100
AcDbPolyline
 90
        4
 70
     0
 43
0.0
 10
1.074408489286563
 20
-0.1093749999999999
 10
1.063674956655407
 20
-0.1367187499999999
 10
1.05377478668488
 20
-0.1640624999999999
 10
1.036168093751639
 20
-0.2187499999999999
  0
LINE
  5
A5
330
8F
100
AcDbEntity
  8
AM_9
100
AcDbLine
 10
1.13515371261727
 20
-0.1329989572792848
 30
0.0
 11
1.145119167405218
 21
-0.1093749999999999
 31
0.0
  0
LINE
  5
A6
330
8F
100
AcDbEntity
  8
AM_9
100
AcDbLine
 10
1.145119167405218
 20
0.109375
 30
0.0
 11
1.135068658086456
 21
0.1331942913586516
 31
0.0
  0
LINE
  5
A7
330
8F
100
AcDbEntity
  8
AM_9
100
AcDbLine
 10
0.7746408834120999
 20
-0.1985206121313388
 30
0.0
 11
0.9358942940030694
 21
-0.2056509123207629
 31
0.0
  0
LINE
  5
A8
330
8F
100
AcDbEntity
  8
AM_9
100
AcDbLine
 10
0.9358942940030694
 20
0.2056509123207631
 30
0.0
 11
0.7746408834120999
 21
0.1985206121313389
 31
0.0
  0
ELLIPSE
  5
A9
330
8F
100
AcDbEntity
  8
AM_9
100
AcDbEllipse
 10
1.011162697096763
 20
0.0000000000000126
 30
0.0
 11
-4.018372309701838E-17
 21
-0.2187499999999775
 31
0.0
210
0.0
220
0.0
230
1.0
 40
0.7071067811865976
 41
0.9156936017146258
 42
2.225899051875075
  0
LINE
  5
AA
330
8F
100
AcDbEntity
  8
AM_9
100
AcDbLine
 10
1.117228714274745
 20
0.0948683298050515
 30
0.0
 11
1.098614847845679
 21
0.107354891002899
 31
0.0
  0
LINE
  5
AB
330
8F
100
AcDbEntity
  8
AM_9
100
AcDbLine
 10
1.098614847845679
 20
-0.1073548910028989
 30
0.0
 11
1.117228714274745
 21
-0.0948683298050513
 31
0.0
  0
ELLIPSE
  5
AC
330
8F
100
AcDbEntity
  8
AM_9
100
AcDbEllipse
 10
1.08540890912135
 20
0.0000000000000003
 30
0.0
 11
-1.928818708657087E-17
 21
-0.1050000000000003
 31
0.0
210
0.0
220
0.0
230
1.0
 40
0.7071067811865454
 41
0.0
 42
3.141592653589793
  0
ELLIPSE
  5
AD
330
8F
100
AcDbEntity
  8
AM_9
100
AcDbEllipse
 10
1.01116269709676
 20
0.0000000000000006
 30
0.0
 11
-3.926523799766233E-17
 21
-0.2137500000000017
 31
0.0
210
0.0
220
0.0
230
1.0
 40
0.7071067811865523
 41
0.9036552188403713
 42
2.237937434749419
  0
LINE
  5
AE
330
8F
100
AcDbEntity
  8
AM_9
100
AcDbLine
 10
1.086727900003889
 20
-0.1049999999999999
 30
0.0
 11
1.106622112556947
 21
-0.1049999999999999
 31
0.0
  0
LINE
  5
AF
330
8F
100
AcDbEntity
  8
AM_9
100
AcDbLine
 10
1.106622112556947
 20
0.1050000000000001
 30
0.0
 11
1.086727900003889
 21
0.1050000000000001
 31
0.0
  0
ELLIPSE
  5
B0
330
8F
100
AcDbEntity
  8
AM_9
100
AcDbEllipse
 10
1.106622112556947
 20
0.0
 30
0.0
 11
-1.928818708657081E-17
 21
-0.105
 31
0.0
210
0.0
220
0.0
230
1.0
 40
0.7071067811865455
 41
5.759586531581281
 42
9.948376736367681
  0
ELLIPSE
  5
B1
330
8F
100
AcDbEntity
  8
AM_9
100
AcDbEllipse
 10
1.062606922745727
 20
-0.0000000000000026
 30
0.0
 11
-2.182689656893819E-17
 21
-0.1188200907349228
 31
0.0
210
0.0
220
0.0
230
1.0
 40
0.7071067811865476
 41
0.3762206261011229
 42
2.765372027488687
  0
LINE
  5
B2
330
8F
100
AcDbEntity
  8
AM_9
100
AcDbLine
 10
1.145512636065423
 20
0.0192743186691521
 30
0.0
 11
1.144499795874432
 21
0.0279874918769154
 31
0.0
  0
LINE
  5
B3
330
8F
100
AcDbEntity
  8
AM_9
100
AcDbLine
 10
1.144499795874432
 20
-0.0279874918769153
 30
0.0
 11
1.145512636065423
 21
-0.0192743186691519
 31
0.0
  0
ELLIPSE
  5
B4
330
8F
100
AcDbEntity
  8
AM_9
100
AcDbEllipse
 10
1.024115619504142
 20
0.0000000000000005
 30
0.0
 11
-3.169399141454480E-17
 21
-0.1725340532830167
 31
0.0
210
0.0
220
0.0
230
1.0
 40
0.707106781186542
 41
0.7772913431420898
 42
2.364301310447699
  0
ELLIPSE
  5
B5
330
8F
100
AcDbEntity
  8
AM_9
100
AcDbEllipse
 10
1.14904851942814
 20
-0.0000000000000002
 30
0.0
 11
-2.479909768273394E-17
 21
-0.1350000000000002
 31
0.0
210
0.0
220
0.0
230
1.0
 40
0.7071067811865436
 41
0.4159140521025444
 42
2.72567860148725
  0
ELLIPSE
  5
B6
330
8F
100
AcDbEntity
  8
AM_9
100
AcDbEllipse
 10
0.9404520189781079
 20
0.0
 30
0.0
 11
-3.779601035290909E-17
 21
-0.2057518972230696
 31
0.0
210
0.0
220
0.0
230
1.0
 40
0.707106781186548
 41
0.0
 42
6.283185307179586
  0
ELLIPSE
  5
B7
330
8F
100
AcDbEntity
  8
AM_9
100
AcDbEllipse
 10
0.7790299737051269
 20
-0.0000000000000001
 30
0.0
 11
-3.648546613377888E-17
 21
-0.1986176267812155
 31
0.0
210
0.0
220
0.0
230
1.0
 40
0.7071067811865472
 41
0.0
 42
6.283185307179586
  0
ELLIPSE
  5
B8
330
8F
100
AcDbEntity
  8
AM_9
100
AcDbEllipse
 10
0.9404520189781084
 20
0.0000000000000001
 30
0.0
 11
-4.018372309702252E-17
 21
-0.21875
 31
0.0
210
0.0
220
0.0
230
1.0
 40
0.7071067811865488
 41
0.0
 42
6.283185307179586
  0
LWPOLYLINE
  5
BA
330
8F
100
AcDbEntity
  8
AM_4
100
AcDbPolyline
 90
        4
 70
     0
 43
0.0
 10
1.094055249401172
 20
-0.2187499999999999
 10
1.120985377995034
 20
-0.1643083897258503
 10
1.133455737795014
 20
-0.1368799989092348
 10
1.13515371261727
 20
-0.1329989572792848
  0
LWPOLYLINE
  5
BB
330
8F
100
AcDbEntity
  8
AM_4
100
AcDbPolyline
 90
        4
 70
     0
 43
0.0
 10
1.135068658086456
 20
0.1331942913586516
 10
1.133526621651631
 20
0.13671875
 10
1.121100713237416
 20
0.1640625
 10
1.094055249401172
 20
0.2187500000000001
  0
ELLIPSE
  5
BC
330
8F
100
AcDbEntity
  8
AM_4
100
AcDbEllipse
 10
1.011162697096762
 20
0.0000000000000002
 30
0.0
 11
-4.018372309702251E-17
 21
-0.2187499999999999
 31
0.0
210
0.0
220
0.0
230
1.0
 40
0.7071067811865485
 41
2.225899051875082
 42
7.198878908894295
  0
ELLIPSE
  5
BD
330
8F
100
AcDbEntity
  8
AM_4
100
AcDbEllipse
 10
1.062606922745745
 20
0.0000000000000001
 30
0.0
 11
-2.182689656893356E-17
 21
-0.1188200907348976
 31
0.0
210
0.0
220
0.0
230
1.0
 40
0.7071067811865479
 41
2.765372027488877
 42
6.659405933280503
  0
ELLIPSE
  5
BE
330
8F
100
AcDbEntity
  8
AM_4
100
AcDbEllipse
 10
1.011162697096763
 20
0.0000000000000001
 30
0.0
 11
-3.926523799766203E-17
 21
-0.2137500000000001
 31
0.0
210
0.0
220
0.0
230
1.0
 40
0.7071067811865472
 41
2.237937434749426
 42
7.186840526019953
  0
LINE
  5
BF
330
8F
100
AcDbEntity
  8
AM_4
100
AcDbLine
 10
1.08540890912135
 20
-0.1049999999999999
 30
0.0
 11
1.086727900003889
 21
-0.1049999999999999
 31
0.0
  0
LINE
  5
C0
330
8F
100
AcDbEntity
  8
AM_4
100
AcDbLine
 10
1.086727900003889
 20
0.1050000000000001
 30
0.0
 11
1.08540890912135
 21
0.1050000000000001
 31
0.0
  0
ELLIPSE
  5
C1
330
8F
100
AcDbEntity
  8
AM_4
100
AcDbEllipse
 10
1.08540890912135
 20
0.0000000000000001
 30
0.0
 11
-1.928818708657084E-17
 21
-0.1050000000000001
 31
0.0
210
0.0
220
0.0
230
1.0
 40
0.7071067811865465
 41
3.141592653589793
 42
6.283185307179586
  0
ELLIPSE
  5
C2
330
8F
100
AcDbEntity
  8
AM_4
100
AcDbEllipse
 10
1.024115619504142
 20
0.0000000000000001
 30
0.0
 11
-3.169399141454453E-17
 21
-0.1725340532830153
 31
0.0
210
0.0
220
0.0
230
1.0
 40
0.7071067811865479
 41
2.364301310447704
 42
7.060476650321677
  0
LWPOLYLINE
  5
C3
330
8F
100
AcDbEntity
  8
AM_4
100
AcDbPolyline
 90
        4
 70
     0
 43
0.0
 10
0.9154466223232315
 20
0.2187500000000001
 10
0.8979253622680509
 20
0.1643083897258504
 10
0.8880005347459148
 20
0.1368799989092349
 10
0.8772062267883075
 20
0.109375
  0
LINE
  5
C4
330
8F
100
AcDbEntity
  8
AM_4
100
AcDbLine
 10
1.094055249401172
 20
0.2187500000000001
 30
0.0
 11
0.8575594666736992
 21
0.2187500000000001
 31
0.0
  0
LWPOLYLINE
  5
C5
330
8F
100
AcDbEntity
  8
AM_4
100
AcDbPolyline
 90
        4
 70
     0
 43
0.0
 10
0.8064955486696529
 20
0.109375
 10
0.8180880944232397
 20
0.13671875
 10
0.8305140028374549
 20
0.1640625
 10
0.8575594666736992
 20
0.2187500000000001
  0
LWPOLYLINE
  5
C6
330
8F
100
AcDbEntity
  8
AM_4
100
AcDbPolyline
 90
        4
 70
     0
 43
0.0
 10
0.768255153134729
 20
0.0000000000000001
 10
0.7857764131899098
 20
0.0544416102741496
 10
0.7957012407120458
 20
0.0818700010907651
 10
0.8064955486696529
 20
0.109375
  0
LWPOLYLINE
  5
C7
330
8F
100
AcDbEntity
  8
AM_4
100
AcDbPolyline
 90
        4
 70
     0
 43
0.0
 10
0.8772062267883075
 20
0.109375
 10
0.8656136810347209
 20
0.08203125
 10
0.8531877726205055
 20
0.0546875
 10
0.8261423087842614
 20
0.0000000000000001
  0
LINE
  5
C8
330
8F
100
AcDbEntity
  8
AM_4
100
AcDbLine
 10
1.094055249401172
 20
-0.2187499999999999
 30
0.0
 11
0.857559466673699
 21
-0.2187499999999999
 31
0.0
  0
LWPOLYLINE
  5
C9
330
8F
100
AcDbEntity
  8
AM_4
100
AcDbPolyline
 90
        4
 70
     0
 43
0.0
 10
0.8772062267883075
 20
-0.1093749999999999
 10
0.8879397594194635
 20
-0.1367187499999999
 10
0.8978399293899905
 20
-0.1640624999999999
 10
0.9154466223232315
 20
-0.2187499999999999
  0
LWPOLYLINE
  5
CA
330
8F
100
AcDbEntity
  8
AM_4
100
AcDbPolyline
 90
        4
 70
     0
 43
0.0
 10
0.8261423087842614
 20
0.0000000000000001
 10
0.8530724373781237
 20
-0.0544416102741495
 10
0.8655427971781036
 20
-0.081870001090765
 10
0.8772062267883075
 20
-0.1093749999999999
  0
LINE
  5
CB
330
8F
100
AcDbEntity
  8
AM_4
100
AcDbLine
 10
0.8261423087842614
 20
0.0000000000000001
 30
0.0
 11
0.768255153134729
 21
0.0000000000000001
 31
0.0
  0
LWPOLYLINE
  5
CC
330
8F
100
AcDbEntity
  8
AM_4
100
AcDbPolyline
 90
        4
 70
     0
 43
0.0
 10
0.8064955486696529
 20
-0.1093749999999999
 10
0.795762016038497
 20
-0.0820312499999999
 10
0.7858618460679699
 20
-0.0546874999999999
 10
0.768255153134729
 20
0.0000000000000001
  0
LWPOLYLINE
  5
CD
330
8F
100
AcDbEntity
  8
AM_4
100
AcDbPolyline
 90
        4
 70
     0
 43
0.0
 10
0.857559466673699
 20
-0.2187499999999999
 10
0.830629338079837
 20
-0.1643083897258503
 10
0.818158978279857
 20
-0.1368799989092348
 10
0.8064955486696529
 20
-0.1093749999999999
  0
LINE
  5
CE
330
8F
100
AcDbEntity
  8
AM_4
100
AcDbLine
 10
1.069499006544653
 20
-0.090932667397366
 30
0.0
 11
1.101318811698047
 21
-0.1169134295108991
 31
0.0
  0
LINE
  5
CF
330
8F
100
AcDbEntity
  8
AM_4
100
AcDbLine
 10
1.101318811698047
 20
0.1169134295108993
 30
0.0
 11
1.069499006544653
 21
0.0909326673973661
 31
0.0
  0
ELLIPSE
  5
D0
330
8F
100
AcDbEntity
  8
AM_4
100
AcDbEllipse
 10
1.149048519428139
 20
0.0000000000000001
 30
0.0
 11
-2.479909768273389E-17
 21
-0.135
 31
0.0
210
0.0
220
0.0
230
1.0
 40
0.7071067811865467
 41
2.725678601487247
 42
6.699099359282133
  0
ELLIPSE
  5
D1
330
8F
100
AcDbEntity
  8
AM_4
100
AcDbEllipse
 10
1.106622112556946
 20
0.0000000000000001
 30
0.0
 11
-1.928818708657078E-17
 21
-0.1049999999999998
 31
0.0
210
0.0
220
0.0
230
1.0
 40
0.7071067811865485
 41
3.665191429188088
 42
5.759586531581293
  0
LINE
  5
D2
330
8F
100
AcDbEntity
  8
AM_4
100
AcDbLine
 10
1.234951079286838
 20
0.0939243440009288
 30
0.0
 11
1.187616626776948
 21
0.1234908992236335
 31
0.0
  0
LINE
  5
D3
330
8F
100
AcDbEntity
  8
AM_4
100
AcDbLine
 10
1.187616626776948
 20
-0.1234908992236334
 30
0.0
 11
1.234951079286838
 21
-0.0939243440009286
 31
0.0
  0
ELLIPSE
  5
D4
330
8F
100
AcDbEntity
  8
AM_4
100
AcDbEllipse
 10
1.205617061923064
 20
0.0000000000000004
 30
0.0
 11
-1.886162459184650E-17
 21
-0.102677901933187
 31
0.0
210
0.0
220
0.0
230
1.0
 40
0.7071067811865475
 41
0.0
 42
6.283185307179586
  0
ENDBLK
  5
92
330
8F
100
AcDbEntity
  8
0
100
AcDbBlockEnd
  0
BLOCK
  5
D7
330
D5
100
AcDbEntity
  8
0
100
AcDbBlockBegin
  2
3_123334_0_in_123903_4
 70
     2
 10
0.0
 20
0.0
 30
0.0
  3
3_123334_0_in_123903_4
  1

  0
ATTDEF
  5
D9
330
D5
100
AcDbEntity
  8
AM_6
100
AcDbText
 10
6.023071041524643
 20
0.56
 30
0.0
 40
0.5
  1
Set Screw Insert Inch Bore
100
AcDbAttributeDefinition
  3

  2
NN
 70
     8
280
     0
  0
ATTDEF
  5
DA
330
D5
100
AcDbEntity
  8
AM_6
100
AcDbText
 10
6.023071041524643
 20
0.0600000000000001
 30
0.0
 40
0.5
  1
SC Normal Duty Bearing Inserts
100
AcDbAttributeDefinition
  3

  2
NT
 70
     8
280
     0
  0
ATTDEF
  5
DB
330
D5
100
AcDbEntity
  8
AM_6
100
AcDbText
 10
6.023071041524643
 20
-0.4399999999999999
 30
0.0
 40
0.5
  1
123334
100
AcDbAttributeDefinition
  3

  2
NB
 70
     8
280
     0
  0
ATTDEF
  5
DC
330
D5
100
AcDbEntity
  8
AM_6
100
AcDbText
 10
6.023071041524643
 20
-0.94
 30
0.0
 40
0.5
  1
$PN.
100
AcDbAttributeDefinition
  3

  2
NBSYN
 70
     8
280
     0
  0
ATTDEF
  5
DD
330
D5
100
AcDbEntity
  8
AM_6
100
AcDbText
 10
6.023071041524643
 20
-1.44
 30
0.0
 40
0.5
  1
123334
100
AcDbAttributeDefinition
  3

  2
LINA
 70
     8
280
     0
  0
ATTDEF
  5
DE
330
D5
100
AcDbEntity
  8
AM_6
100
AcDbText
 10
6.023071041524643
 20
-1.94
 30
0.0
 40
0.5
  1
205
100
AcDbAttributeDefinition
  3

  2
SERIES
 70
     8
280
     0
  0
ATTDEF
  5
DF
330
D5
100
AcDbEntity
  8
AM_6
100
AcDbText
 10
6.023071041524643
 20
-2.44
 30
0.0
 40
0.5
  1
15/16
100
AcDbAttributeDefinition
  3

  2
SS
 70
     8
280
     0
  0
ATTDEF
  5
E0
330
D5
100
AcDbEntity
  8
AM_6
100
AcDbText
 10
6.023071041524643
 20
-2.94
 30
0.0
 40
0.5
  1
123334
100
AcDbAttributeDefinition
  3

  2
PN
 70
     8
280
     0
  0
ATTDEF
  5
E1
330
D5
100
AcDbEntity
  8
AM_6
100
AcDbText
 10
6.023071041524643
 20
-3.44
 30
0.0
 40
0.5
  1
INS-SC-015
100
AcDbAttributeDefinition
  3

  2
DESCRIPTION
 70
     8
280
     0
  0
ATTDEF
  5
E2
330
D5
100
AcDbEntity
  8
AM_6
100
AcDbText
 10
6.023071041524643
 20
-3.94
 30
0.0
 40
0.5
  1
1.34
100
AcDbAttributeDefinition
  3

  2
A
 70
     8
280
     0
  0
ATTDEF
  5
E3
330
D5
100
AcDbEntity
  8
AM_6
100
AcDbText
 10
6.023071041524643
 20
-4.44
 30
0.0
 40
0.5
  1
0.59
100
AcDbAttributeDefinition
  3

  2
C
 70
     8
280
     0
  0
ATTDEF
  5
E4
330
D5
100
AcDbEntity
  8
AM_6
100
AcDbText
 10
6.023071041524643
 20
-4.94
 30
0.0
 40
0.5
  1
2.0472
100
AcDbAttributeDefinition
  3

  2
D
 70
     8
280
     0
  0
ATTDEF
  5
E5
330
D5
100
AcDbEntity
  8
AM_6
100
AcDbText
 10
6.023071041524643
 20
-5.44
 30
0.0
 40
0.5
  1
0.16
100
AcDbAttributeDefinition
  3

  2
J
 70
     8
280
     0
  0
ATTDEF
  5
E6
330
D5
100
AcDbEntity
  8
AM_6
100
AcDbText
 10
6.023071041524643
 20
-5.94
 30
0.0
 40
0.5
  1
1.32
100
AcDbAttributeDefinition
  3

  2
L
 70
     8
280
     0
  0
ATTDEF
  5
E7
330
D5
100
AcDbEntity
  8
AM_6
100
AcDbText
 10
6.023071041524643
 20
-6.44
 30
0.0
 40
0.5
  1
1/4-28
100
AcDbAttributeDefinition
  3

  2
N
 70
     8
280
     0
  0
ATTDEF
  5
E8
330
D5
100
AcDbEntity
  8
AM_6
100
AcDbText
 10
6.023071041524643
 20
-6.94
 30
0.0
 40
0.5
  1
0.56
100
AcDbAttributeDefinition
  3

  2
W
 70
     8
280
     0
  0
ATTDEF
  5
E9
330
D5
100
AcDbEntity
  8
AM_6
100
AcDbText
 10
6.023071041524643
 20
-7.44
 30
0.0
 40
0.5
  1
0.78
100
AcDbAttributeDefinition
  3

  2
Y
 70
     8
280
     0
  0
ATTDEF
  5
EA
330
D5
100
AcDbEntity
  8
AM_6
100
AcDbText
 10
6.023071041524643
 20
-7.94
 30
0.0
 40
0.5
  1
baldor
100
AcDbAttributeDefinition
  3

  2
COMPANY
 70
     8
280
     0
  0
LINE
  5
EB
330
D5
100
AcDbEntity
  8
AM_9
100
AcDbLine
 10
-1.070475
 20
0.1896969696969725
 30
0.0
 11
-1.070475
 21
0.1303030303030275
 31
0.0
  0
ARC
  5
EC
330
D5
100
AcDbEntity
  8
AM_9
100
AcDbCircle
 10
-1.016838636363636
 20
0.1303030303030256
 30
0.0
 40
0.0536363636363637
100
AcDbArc
 50
179.9999991462263
 51
265.8963031517142
  0
ARC
  5
ED
330
D5
100
AcDbEntity
  8
AM_9
100
AcDbCircle
 10
-1.016838636363637
 20
0.1896969696969746
 30
0.0
 40
0.0536363636363635
100
AcDbArc
 50
90.0
 51
180.0
  0
LINE
  5
EE
330
D5
100
AcDbEntity
  8
AM_9
100
AcDbLine
 10
-0.9942817764723577
 20
0.2433333333333381
 30
0.0
 11
-1.016838636363636
 21
0.2433333333333381
 31
0.0
  0
LINE
  5
EF
330
D5
100
AcDbEntity
  8
AM_9
100
AcDbLine
 10
-1.016838636363636
 20
0.2433333333333381
 30
0.0
 11
-1.016838636363803
 21
0.1014115723541884
 31
0.0
  0
ELLIPSE
  5
F0
330
D5
100
AcDbEntity
  8
AM_9
100
AcDbEllipse
 10
0.4158375850442654
 20
-0.5375
 30
0.0
 11
-1.799312309647234E-17
 21
-0.0979499999999992
 31
0.0
210
0.0
220
0.0
230
1.0
 40
0.4226182617407062
 41
1.36806558591743
 42
1.773527067672364
  0
ELLIPSE
  5
F1
330
D5
100
AcDbEntity
  8
AM_9
100
AcDbEllipse
 10
0.4158375850442668
 20
-0.5375
 30
0.0
 11
-1.799312309647254E-17
 21
-0.09795000000000031
 31
0.0
210
0.0
220
0.0
230
1.0
 40
0.4226182617407099
 41
4.509658239507232
 42
4.915119721262148
  0
LINE
  5
F2
330
D5
100
AcDbEntity
  8
AM_9
100
AcDbLine
 10
0.4248059108212247
 20
-0.63545
 30
0.0
 11
0.5809476251235367
 21
-0.63545
 31
0.0
  0
LINE
  5
F3
330
D5
100
AcDbEntity
  8
AM_9
100
AcDbLine
 10
0.5809476251235367
 20
-0.4395500000000001
 30
0.0
 11
0.4248059108212248
 21
-0.4395500000000001
 31
0.0
  0
LWPOLYLINE
  5
F4
330
D5
100
AcDbEntity
  8
AM_9
100
AcDbPolyline
 90
       10
 70
     0
 43
0.0
 10
0.4248281532195701
 20
-0.6354499996250806
 10
0.4305849781147492
 20
-0.6344347847282986
 10
0.4366744739079535
 20
-0.6307116625244498
 10
0.4418243085982405
 20
-0.6245982667710911
 10
0.4462886609718212
 20
-0.6159284695108777
 10
0.4498746316435014
 20
-0.6052045310094335
 10
0.4527304983977276
 20
-0.5922525442225695
 10
0.4547668084425073
 20
-0.5779639733536521
 10
0.4561232007289566
 20
-0.5620433596054141
 10
0.4563852817549632
 20
-0.557221732426352
  0
LWPOLYLINE
  5
F5
330
D5
100
AcDbEntity
  8
AM_9
100
AcDbPolyline
 90
       10
 70
     0
 43
0.0
 10
0.4248353969852833
 20
-0.4395500003749194
 10
0.4186959516717835
 20
-0.4405652152717015
 10
0.4112359651355122
 20
-0.4442883374755505
 10
0.4039477667894126
 20
-0.4504017332289093
 10
0.3966913681860367
 20
-0.4590715304891228
 10
0.3900458613884801
 20
-0.4697954689905671
 10
0.3840820894798473
 20
-0.4827474557774311
 10
0.3793706238752109
 20
-0.4970360266463484
 10
0.3759734451649463
 20
-0.5129566403945865
 10
0.3752898883335676
 20
-0.5177782675736485
  0
ELLIPSE
  5
F6
330
D5
100
AcDbEntity
  8
AM_9
100
AcDbEllipse
 10
0.5809476251235366
 20
-0.5375000000000003
 30
0.0
 11
-1.799312309647238E-17
 21
-0.09794999999999943
 31
0.0
210
0.0
220
0.0
230
1.0
 40
0.4226182617407008
 41
3.474673180531962
 42
5.934428403691543
  0
LINE
  5
F7
330
D5
100
AcDbEntity
  8
AM_9
100
AcDbLine
 10
0.5616446057014005
 20
-0.6241487849718647
 30
0.0
 11
0.5734664300541957
 21
-0.6388939879055757
 31
0.0
  0
LINE
  5
F8
330
D5
100
AcDbEntity
  8
AM_9
100
AcDbLine
 10
0.5735311972996738
 20
-0.436025228777947
 30
0.0
 11
0.5616446057014005
 21
-0.4508512150281353
 31
0.0
  0
LWPOLYLINE
  5
F9
330
D5
100
AcDbEntity
  8
AM_9
100
AcDbPolyline
 90
        5
 70
     0
 43
0.0
 10
0.5814281483272093
 20
-0.4277892332680944
 10
0.5822966305390332
 20
-0.4270891663459395
 10
0.5906195405783191
 20
-0.4220813764447216
 10
0.5954217324961038
 20
-0.4207645784413315
 10
0.600093835093711
 20
-0.4206614607123884
  0
LWPOLYLINE
  5
FA
330
D5
100
AcDbEntity
  8
AM_9
100
AcDbPolyline
 90
        5
 70
     0
 43
0.0
 10
0.4563852817549631
 20
-0.5572217324263522
 10
0.4565827587491667
 20
-0.553626870402734
 10
0.4569621743584324
 20
-0.5400815024664853
 10
0.4567752218895296
 20
-0.5259891730967318
 10
0.4563852817549631
 20
-0.5177782675736478
  0
LWPOLYLINE
  5
FB
330
D5
100
AcDbEntity
  8
AM_9
100
AcDbPolyline
 90
       10
 70
     0
 43
0.0
 10
0.456385281754963
 20
-0.5177782675736478
 10
0.4552985654229133
 20
-0.5022160723035048
 10
0.4534727534729158
 20
-0.4872357735351546
 10
0.4509609391280149
 20
-0.47409480430923
 10
0.4475634559605484
 20
-0.4623900273499788
 10
0.4433782690487936
 20
-0.4529821443782704
 10
0.4381851905192576
 20
-0.4457482146215896
 10
0.43236305995762
 20
-0.4413348023904449
 10
0.425635072213089
 20
-0.4395686064745697
 10
0.4248353969852833
 20
-0.4395500003749194
  0
LWPOLYLINE
  5
FC
330
D5
100
AcDbEntity
  8
AM_9
100
AcDbPolyline
 90
        4
 70
     0
 43
0.0
 10
0.3752898883335682
 20
-0.5177782675736483
 10
0.3738585360666451
 20
-0.5317163750575374
 10
0.3739143228795876
 20
-0.5443848944307446
 10
0.3752898883335682
 20
-0.5572217324263516
  0
LWPOLYLINE
  5
FD
330
D5
100
AcDbEntity
  8
AM_9
100
AcDbPolyline
 90
       10
 70
     0
 43
0.0
 10
0.3752898883335681
 20
-0.5572217324263516
 10
0.378065742620581
 20
-0.5727839276964946
 10
0.3824139947351303
 20
-0.5877642264648447
 10
0.3878563271484159
 20
-0.6009051956907695
 10
0.3944230484806493
 20
-0.6126099726500208
 10
0.4015332167673528
 20
-0.6220178556217293
 10
0.4092019280812573
 20
-0.6292517853784102
 10
0.4166303660306894
 20
-0.633665197609555
 10
0.4240214313083808
 20
-0.6354313935254302
 10
0.4248281532195701
 20
-0.6354499996250806
  0
LINE
  5
FE
330
D5
100
AcDbEntity
  8
AM_9
100
AcDbLine
 10
0.46875
 20
-0.7535999999999998
 30
0.0
 11
0.46875
 21
0.5336000000000002
 31
0.0
  0
LINE
  5
FF
330
D5
100
AcDbEntity
  8
AM_9
100
AcDbLine
 10
-0.46875
 20
0.5336000000000002
 30
0.0
 11
-0.46875
 21
-0.7535999999999998
 31
0.0
  0
LINE
  5
100
330
D5
100
AcDbEntity
  8
AM_9
100
AcDbLine
 10
0.46875
 20
0.5336000000000002
 30
0.0
 11
0.49515
 21
0.56
 31
0.0
  0
LINE
  5
101
330
D5
100
AcDbEntity
  8
AM_9
100
AcDbLine
 10
-0.49515
 20
0.56
 30
0.0
 11
-0.46875
 21
0.5336000000000002
 31
0.0
  0
LINE
  5
102
330
D5
100
AcDbEntity
  8
AM_9
100
AcDbLine
 10
-0.46875
 20
-0.7535999999999998
 30
0.0
 11
-0.49515
 21
-0.7799999999999999
 31
0.0
  0
LINE
  5
103
330
D5
100
AcDbEntity
  8
AM_9
100
AcDbLine
 10
0.49515
 20
-0.7799999999999999
 30
0.0
 11
0.46875
 21
-0.7535999999999998
 31
0.0
  0
LWPOLYLINE
  5
104
330
D5
100
AcDbEntity
  8
AM_9
100
AcDbPolyline
 90
        4
 70
     0
 43
0.0
 10
0.600093835093711
 20
-0.4206614607123884
 10
0.6070854292907434
 20
-0.423006819058029
 10
0.6134254883492534
 20
-0.4282761286528374
 10
0.616146738893007
 20
-0.4317264584864094
  0
LINE
  5
105
330
D5
100
AcDbEntity
  8
AM_9
100
AcDbLine
 10
0.6599999999999998
 20
-0.4375152463814097
 30
0.0
 11
0.6599999999999998
 21
-0.295
 31
0.0
  0
LINE
  5
106
330
D5
100
AcDbEntity
  8
AM_9
100
AcDbLine
 10
-0.6599999999999998
 20
-0.295
 30
0.0
 11
-0.6599999999999998
 21
-0.4375152463814097
 31
0.0
  0
LINE
  5
107
330
D5
100
AcDbEntity
  8
AM_9
100
AcDbLine
 10
0.6599999999999998
 20
0.295
 30
0.0
 11
0.6599999999999998
 21
0.4375152463814102
 31
0.0
  0
LINE
  5
108
330
D5
100
AcDbEntity
  8
AM_9
100
AcDbLine
 10
-0.6599999999999998
 20
0.4375152463814102
 30
0.0
 11
-0.6599999999999998
 21
0.295
 31
0.0
  0
LINE
  5
109
330
D5
100
AcDbEntity
  8
AM_9
100
AcDbLine
 10
0.9702666666666667
 20
-0.192
 30
0.0
 11
0.9702666666666667
 21
-0.128
 31
0.0
  0
LINE
  5
10A
330
D5
100
AcDbEntity
  8
AM_9
100
AcDbLine
 10
-0.9702666666666667
 20
-0.128
 30
0.0
 11
-0.9702666666666667
 21
-0.192
 31
0.0
  0
LINE
  5
10B
330
D5
100
AcDbEntity
  8
AM_9
100
AcDbLine
 10
-0.9560865860370598
 20
0.295
 30
0.0
 11
0.9560865860354896
 21
0.295
 31
0.0
  0
ARC
  5
10C
330
D5
100
AcDbEntity
  8
AM_9
100
AcDbCircle
 10
0.9560865860370601
 20
0.2630000000000001
 30
0.0
 40
0.0319999999999998
100
AcDbArc
 50
15.38049883735852
 51
90.0
  0
ARC
  5
10D
330
D5
100
AcDbEntity
  8
AM_9
100
AcDbCircle
 10
-0.9560865860370601
 20
0.2630000000000001
 30
0.0
 40
0.0319999999999999
100
AcDbArc
 50
90.0
 51
164.6195011626415
  0
LINE
  5
10E
330
D5
100
AcDbEntity
  8
AM_9
100
AcDbLine
 10
-0.9560865860370598
 20
-0.295
 30
0.0
 11
0.9560865860354896
 21
-0.295
 31
0.0
  0
ARC
  5
10F
330
D5
100
AcDbEntity
  8
AM_9
100
AcDbCircle
 10
0.9560865860370598
 20
-0.2629999999999999
 30
0.0
 40
0.0320000000000001
100
AcDbArc
 50
270.0
 51
344.6195040508822
  0
ARC
  5
110
330
D5
100
AcDbEntity
  8
AM_9
100
AcDbCircle
 10
-0.9560865860370598
 20
-0.2629999999999999
 30
0.0
 40
0.032
100
AcDbArc
 50
195.3804959491178
 51
270.0
  0
LINE
  5
111
330
D5
100
AcDbEntity
  8
AM_9
100
AcDbLine
 10
-1.005431728164573
 20
-0.192
 30
0.0
 11
1.005431728164509
 21
-0.192
 31
0.0
  0
LINE
  5
112
330
D5
100
AcDbEntity
  8
AM_9
100
AcDbLine
 10
-0.9869405299188527
 20
-0.2714872932634126
 30
0.0
 11
0.9869405299187886
 21
-0.2714872932634126
 31
0.0
  0
ARC
  5
113
330
D5
100
AcDbEntity
  8
AM_9
100
AcDbCircle
 10
-0.0000000000011473
 20
0.0000000000002514
 30
0.0
 40
1.023600000001111
100
AcDbArc
 50
344.6195040508848
 51
349.188803187145
  0
ARC
  5
114
330
D5
100
AcDbEntity
  8
AM_9
100
AcDbCircle
 10
0.00000000007692
 20
0.0000000000178785
 30
0.0
 40
1.023600000078845
100
AcDbArc
 50
190.8111968130286
 51
195.3804959489416
  0
LINE
  5
115
330
D5
100
AcDbEntity
  8
AM_9
100
AcDbLine
 10
-1.015565340093881
 20
-0.1279999999999998
 30
0.0
 11
1.015565340093876
 21
-0.1279999999999998
 31
0.0
  0
LINE
  5
116
330
D5
100
AcDbEntity
  8
AM_9
100
AcDbLine
 10
-0.9869405294910142
 20
0.2714872948187388
 30
0.0
 11
0.9869405294910095
 21
0.2714872948187388
 31
0.0
  0
ARC
  5
117
330
D5
100
AcDbEntity
  8
AM_9
100
AcDbCircle
 10
0.0000000000038227
 20
0.0000000000002741
 30
0.0
 40
1.023599999996237
100
AcDbArc
 50
352.8164233462473
 51
15.38049603945252
  0
ARC
  5
118
330
D5
100
AcDbEntity
  8
AM_9
100
AcDbCircle
 10
0.0000000000217314
 20
-0.0000000000054943
 30
0.0
 40
1.023600000022406
100
AcDbArc
 50
164.6195039606156
 51
166.2568764353852
  0
ARC
  5
119
330
D5
100
AcDbEntity
  8
AM_9
100
AcDbCircle
 10
0.0000000000003486
 20
-0.0000000000000124
 30
0.0
 40
1.02360000000034
100
AcDbArc
 50
175.6860847613302
 51
187.1835766537075
  0
LINE
  5
11A
330
D5
100
AcDbEntity
  8
AM_9
100
AcDbLine
 10
-1.020714291167919
 20
0.0768068734099202
 30
0.0
 11
-0.994256430153201
 21
0.2433333332954697
 31
0.0
  0
LINE
  5
11D
330
D5
100
AcDbEntity
  8
AM_7
100
AcDbLine
 10
-0.1028475
 20
-0.5375
 30
0.0
 11
0.1028475
 21
-0.5375
 31
0.0
  0
LINE
  5
11E
330
D5
100
AcDbEntity
  8
AM_7
100
AcDbLine
 10
-1.09099875
 20
0.16
 30
0.0
 11
-0.6394762500000003
 21
0.16
 31
0.0
  0
ELLIPSE
  5
11F
330
D5
100
AcDbEntity
  8
AM_4
100
AcDbEllipse
 10
0.5809476251235367
 20
-0.5375
 30
0.0
 11
-1.799312309647248E-17
 21
-0.09794999999999998
 31
0.0
210
0.0
220
0.0
230
1.0
 40
0.4226182617406994
 41
5.934428403691541
 42
9.757858487711554
  0
LWPOLYLINE
  5
120
330
D5
100
AcDbEntity
  8
AM_4
100
AcDbPolyline
 90
       14
 70
     0
 43
0.0
 10
0.5735647753842176
 20
-0.6390166497187764
 10
0.5714078384851521
 20
-0.6361946477186203
 10
0.564493955429526
 20
-0.62519732793276
 10
0.5583292772178639
 20
-0.6122416833167248
 10
0.5527557870692259
 20
-0.5964457430728898
 10
0.5484903232467623
 20
-0.5792289197642856
 10
0.5455757897833863
 20
-0.5597665062562687
 10
0.544444707839863
 20
-0.5397166842617946
 10
0.5452287542830802
 20
-0.5189402803683477
 10
0.5479314580195819
 20
-0.4986857769239588
 10
0.5524785465026273
 20
-0.4795018300478562
 10
0.5586349173397498
 20
-0.4620245905247539
 10
0.5659117852474523
 20
-0.4472912187184293
 10
0.5735733747368229
 20
-0.4359726215192009
  0
LWPOLYLINE
  5
121
330
D5
100
AcDbEntity
  8
AM_4
100
AcDbPolyline
 90
        3
 70
     0
 43
0.0
 10
0.5735733747368229
 20
-0.4359726215192009
 10
0.5741291591790435
 20
-0.4352878062087918
 10
0.5814281483272093
 20
-0.4277892332680944
  0
CIRCLE
  5
122
330
D5
100
AcDbEntity
  8
AM_4
100
AcDbCircle
 10
0.0
 20
-0.5375
 30
0.0
 40
0.09795
  0
LINE
  5
123
330
D5
100
AcDbEntity
  8
AM_4
100
AcDbLine
 10
-0.6336
 20
-0.7799999999999999
 30
0.0
 11
0.6336
 21
-0.7799999999999999
 31
0.0
  0
LINE
  5
124
330
D5
100
AcDbEntity
  8
AM_4
100
AcDbLine
 10
0.6336
 20
-0.7799999999999999
 30
0.0
 11
0.66
 21
-0.7535999999999998
 31
0.0
  0
LINE
  5
125
330
D5
100
AcDbEntity
  8
AM_4
100
AcDbLine
 10
-0.66
 20
-0.7535999999999998
 30
0.0
 11
-0.6336
 21
-0.7799999999999999
 31
0.0
  0
LINE
  5
126
330
D5
100
AcDbEntity
  8
AM_4
100
AcDbLine
 10
-0.66
 20
-0.7535999999999998
 30
0.0
 11
0.6599999999999998
 21
-0.7535999999999998
 31
0.0
  0
LWPOLYLINE
  5
127
330
D5
100
AcDbEntity
  8
AM_4
100
AcDbPolyline
 90
       39
 70
     0
 43
0.0
 10
-0.078372397382643
 20
-0.4571037726986023
 10
-0.0666725202215014
 20
-0.4455614873035337
 10
-0.0530605573468765
 20
-0.4356881505788816
 10
-0.0366246876224394
 20
-0.4275091333378581
 10
-0.0183638534476256
 20
-0.4222643595858322
 10
-0.0014324577735071
 20
-0.420565109640859
 10
0.0160733748159454
 20
-0.4218622696286902
 10
0.0319451048237399
 20
-0.4258068200912995
 10
0.0473681808570583
 20
-0.4324416610495382
 10
0.0615551786911433
 20
-0.4414657641280406
 10
0.0744698822521896
 20
-0.4528691235174712
 10
0.0859750476588404
 20
-0.466783926965304
 10
0.0954056181904357
 20
-0.4827216400526052
 10
0.1025612426178792
 20
-0.5008061147716124
 10
0.1068642140846471
 20
-0.5203206269952015
 10
0.1080024346267457
 20
-0.5406545100096228
 10
0.105737249842032
 20
-0.5614702068852303
 10
0.1001467462707013
 20
-0.5812923201595683
 10
0.0910127902952815
 20
-0.6004114338406048
 10
0.0792829211409849
 20
-0.6168436870884977
 10
0.0643403169641321
 20
-0.6313676238678517
 10
0.0485033915562791
 20
-0.6419479438301265
 10
0.0303718446689342
 20
-0.649708239114298
 10
0.0133216343427603
 20
-0.6535486445030078
 10
-0.0047222394345463
 20
-0.6543329300227382
 10
-0.0210342924869955
 20
-0.6521971623237719
 10
-0.0372101995574243
 20
-0.6472595335138429
 10
-0.0520425802124549
 20
-0.6399271586761857
 10
-0.0658722295680686
 20
-0.630112722371478
 10
-0.0784419582158523
 20
-0.6178167259170323
 10
-0.0892103666313062
 20
-0.6033613557452286
 10
-0.0980442467245212
 20
-0.5865343391171857
 10
-0.1042757911488217
 20
-0.5680388567964157
 10
-0.1075882896617938
 20
-0.5481797640547055
 10
-0.1076428351619991
 20
-0.5274816013827808
 10
-0.104325811778742
 20
-0.5071611176332645
 10
-0.0974630625648359
 20
-0.487130536932985
 10
-0.0891610675405079
 20
-0.4715606120869232
 10
-0.0783723974908383
 20
-0.457103772627045
  0
LWPOLYLINE
  5
128
330
D5
100
AcDbEntity
  8
AM_4
100
AcDbPolyline
 90
       21
 70
     0
 43
0.0
 10
0.616146738893007
 20
-0.4317264584864094
 10
0.6187846031090378
 20
-0.4359349025159875
 10
0.62338170833554
 20
-0.4458236521894933
 10
0.6274252766237699
 20
-0.4584962801140242
 10
0.6306227019786164
 20
-0.4729699481751795
 10
0.6331674045721869
 20
-0.4901964113082438
 10
0.6348299550721147
 20
-0.5085999592550257
 10
0.635672056341646
 20
-0.5288160944415214
 10
0.6356043176383895
 20
-0.5492671266627338
 10
0.6345884299822034
 20
-0.5698350297017148
 10
0.6325858683756775
 20
-0.589478796956315
 10
0.6295551891949767
 20
-0.6074656289128557
 10
0.6254257090881933
 20
-0.623365888499601
 10
0.6203761349632002
 20
-0.6360439473616639
 10
0.6142594007258597
 20
-0.6457523029496319
 10
0.6077215355497608
 20
-0.6516104344390986
 10
0.6004574620119324
 20
-0.6542941108041649
 10
0.5932493495697903
 20
-0.6537759398670202
 10
0.5858069061982867
 20
-0.6504415215901896
 10
0.5784848892281329
 20
-0.6445040454015506
 10
0.5735647753842176
 20
-0.6390166497187764
  0
LINE
  5
129
330
D5
100
AcDbEntity
  8
AM_4
100
AcDbLine
 10
0.6599999999999998
 20
-0.7535999999999998
 30
0.0
 11
0.6599999999999998
 21
-0.4375152463814097
 31
0.0
  0
LINE
  5
12A
330
D5
100
AcDbEntity
  8
AM_4
100
AcDbLine
 10
-0.6599999999999998
 20
-0.4375152463814097
 30
0.0
 11
-0.6599999999999998
 21
-0.7535999999999998
 31
0.0
  0
LINE
  5
12B
330
D5
100
AcDbEntity
  8
AM_4
100
AcDbLine
 10
-0.6336
 20
0.56
 30
0.0
 11
0.6336
 21
0.56
 31
0.0
  0
LINE
  5
12C
330
D5
100
AcDbEntity
  8
AM_4
100
AcDbLine
 10
-0.6336
 20
0.56
 30
0.0
 11
-0.66
 21
0.5336000000000001
 31
0.0
  0
LINE
  5
12D
330
D5
100
AcDbEntity
  8
AM_4
100
AcDbLine
 10
0.66
 20
0.5336000000000001
 30
0.0
 11
0.6336
 21
0.56
 31
0.0
  0
LINE
  5
12E
330
D5
100
AcDbEntity
  8
AM_4
100
AcDbLine
 10
-0.66
 20
0.5336000000000001
 30
0.0
 11
0.6599999999999998
 21
0.5336000000000001
 31
0.0
  0
LINE
  5
12F
330
D5
100
AcDbEntity
  8
AM_4
100
AcDbLine
 10
0.6599999999999998
 20
0.4375152463814102
 30
0.0
 11
0.6599999999999998
 21
0.5336000000000001
 31
0.0
  0
LINE
  5
130
330
D5
100
AcDbEntity
  8
AM_4
100
AcDbLine
 10
-0.6599999999999998
 20
0.5336000000000001
 30
0.0
 11
-0.6599999999999998
 21
0.4375152463814102
 31
0.0
  0
ARC
  5
132
330
D5
100
AcDbEntity
  8
AM_5
100
AcDbCircle
 10
-0.0000000000000001
 20
-0.5375
 30
0.0
 40
0.125
100
AcDbArc
 50
74.99999999999996
 51
15.0
  0
ARC
  5
133
330
D5
100
AcDbEntity
  8
AM_5
100
AcDbCircle
 10
-0.0000000000000001
 20
-0.5300000000000001
 30
0.0
 40
0.1250000000000001
100
AcDbArc
 50
75.0
 51
15.00000000000004
  0
ENDBLK
  5
D8
330
D5
100
AcDbEntity
  8
0
100
AcDbBlockEnd
  0
BLOCK
  5
136
330
134
100
AcDbEntity
  8
0
100
AcDbBlockBegin
  2
4_123903H_0_in_123903_4
 70
     2
 10
0.0
 20
0.0
 30
0.0
  3
4_123903H_0_in_123903_4
  1

  0
ATTDEF
  5
138
330
134
100
AcDbEntity
  8
AM_6
100
AcDbText
 10
7.75
 20
0.7699999999999999
 30
0.0
 40
0.5
  1
P2B-SCAH - housing -Inch
100
AcDbAttributeDefinition
  3

  2
NN
 70
     8
280
     0
  0
ATTDEF
  5
139
330
134
100
AcDbEntity
  8
AM_6
100
AcDbText
 10
7.75
 20
0.2699999999999999
 30
0.0
 40
0.5
  1
SC Pillow Block Bearings -(Normal Duty) -Air Handling
100
AcDbAttributeDefinition
  3

  2
NT
 70
     8
280
     0
  0
ATTDEF
  5
13A
330
134
100
AcDbEntity
  8
AM_6
100
AcDbText
 10
7.75
 20
-0.2300000000000001
 30
0.0
 40
0.5
  1
123903H
100
AcDbAttributeDefinition
  3

  2
NB
 70
     8
280
     0
  0
ATTDEF
  5
13B
330
134
100
AcDbEntity
  8
AM_6
100
AcDbText
 10
7.75
 20
-0.7300000000000001
 30
0.0
 40
0.5
  1
$PN.H
100
AcDbAttributeDefinition
  3

  2
NBSYN
 70
     8
280
     0
  0
ATTDEF
  5
13C
330
134
100
AcDbEntity
  8
AM_6
100
AcDbText
 10
7.75
 20
-1.23
 30
0.0
 40
0.5
  1
123903
100
AcDbAttributeDefinition
  3

  2
LINA
 70
     8
280
     0
  0
ATTDEF
  5
13D
330
134
100
AcDbEntity
  8
AM_6
100
AcDbText
 10
7.75
 20
-1.73
 30
0.0
 40
0.5
  1
205
100
AcDbAttributeDefinition
  3

  2
SERIES
 70
     8
280
     0
  0
ATTDEF
  5
13E
330
134
100
AcDbEntity
  8
AM_6
100
AcDbText
 10
7.75
 20
-2.23
 30
0.0
 40
0.5
  1
15/16
100
AcDbAttributeDefinition
  3

  2
SS
 70
     8
280
     0
  0
ATTDEF
  5
13F
330
134
100
AcDbEntity
  8
AM_6
100
AcDbText
 10
7.75
 20
-2.73
 30
0.0
 40
0.5
  1
123903
100
AcDbAttributeDefinition
  3

  2
PN
 70
     8
280
     0
  0
ATTDEF
  5
140
330
134
100
AcDbEntity
  8
AM_6
100
AcDbText
 10
7.75
 20
-3.23
 30
0.0
 40
0.5
  1
P2B-SCAH-015
100
AcDbAttributeDefinition
  3

  2
DESCRIPTION
 70
     8
280
     0
  0
ATTDEF
  5
141
330
134
100
AcDbEntity
  8
AM_6
100
AcDbText
 10
7.75
 20
-3.73
 30
0.0
 40
0.5
  1
1.7
100
AcDbAttributeDefinition
  3

  2
WEIGHT
 70
     8
280
     0
  0
ATTDEF
  5
142
330
134
100
AcDbEntity
  8
AM_6
100
AcDbText
 10
7.75
 20
-4.23
 30
0.0
 40
0.5
  1
1.34
100
AcDbAttributeDefinition
  3

  2
A
 70
     8
280
     0
  0
ATTDEF
  5
143
330
134
100
AcDbEntity
  8
AM_6
100
AcDbText
 10
7.75
 20
-4.73
 30
0.0
 40
0.5
  1
5.50
100
AcDbAttributeDefinition
  3

  2
B
 70
     8
280
     0
  0
ATTDEF
  5
144
330
134
100
AcDbEntity
  8
AM_6
100
AcDbText
 10
7.75
 20
-5.23
 30
0.0
 40
0.5
  1
1.40
100
AcDbAttributeDefinition
  3

  2
C
 70
     8
280
     0
  0
ATTDEF
  5
145
330
134
100
AcDbEntity
  8
AM_6
100
AcDbText
 10
7.75
 20
-5.73
 30
0.0
 40
0.5
  1
3.69
100
AcDbAttributeDefinition
  3

  2
DMIN
 70
     8
280
     0
  0
ATTDEF
  5
146
330
134
100
AcDbEntity
  8
AM_6
100
AcDbText
 10
7.75
 20
-6.23
 30
0.0
 40
0.5
  1
4.50
100
AcDbAttributeDefinition
  3

  2
DMAX
 70
     8
280
     0
  0
ATTDEF
  5
147
330
134
100
AcDbEntity
  8
AM_6
100
AcDbText
 10
7.75
 20
-6.73
 30
0.0
 40
0.5
  1
3/8
100
AcDbAttributeDefinition
  3

  2
F
 70
     8
280
     0
  0
ATTDEF
  5
148
330
134
100
AcDbEntity
  8
AM_6
100
AcDbText
 10
7.75
 20
-7.23
 30
0.0
 40
0.5
  1
0.85
100
AcDbAttributeDefinition
  3

  2
G
 70
     8
280
     0
  0
ATTDEF
  5
149
330
134
100
AcDbEntity
  8
AM_6
100
AcDbText
 10
7.75
 20
-7.73
 30
0.0
 40
0.5
  1
0.58
100
AcDbAttributeDefinition
  3

  2
H
 70
     8
280
     0
  0
ATTDEF
  5
14A
330
134
100
AcDbEntity
  8
AM_6
100
AcDbText
 10
7.75
 20
-8.23
 30
0.0
 40
0.5
  1
2.77
100
AcDbAttributeDefinition
  3

  2
J
 70
     8
280
     0
  0
ATTDEF
  5
14B
330
134
100
AcDbEntity
  8
AM_6
100
AcDbText
 10
7.75
 20
-8.73
 30
0.0
 40
0.5
  1
1.32
100
AcDbAttributeDefinition
  3

  2
L
 70
     8
280
     0
  0
ATTDEF
  5
14C
330
134
100
AcDbEntity
  8
AM_6
100
AcDbText
 10
7.75
 20
-9.23
 30
0.0
 40
0.5
  1
1.44
100
AcDbAttributeDefinition
  3

  2
M
 70
     8
280
     0
  0
ATTDEF
  5
14D
330
134
100
AcDbEntity
  8
AM_6
100
AcDbText
 10
7.75
 20
-9.73
 30
0.0
 40
0.5
  1
0.56
100
AcDbAttributeDefinition
  3

  2
R
 70
     8
280
     0
  0
ATTDEF
  5
14E
330
134
100
AcDbEntity
  8
AM_6
100
AcDbText
 10
7.75
 20
-10.23
 30
0.0
 40
0.5
  1
0.78
100
AcDbAttributeDefinition
  3

  2
S
 70
     8
280
     0
  0
ATTDEF
  5
14F
330
134
100
AcDbEntity
  8
AM_6
100
AcDbText
 10
7.75
 20
-10.73
 30
0.0
 40
0.5
  1
2.50
100
AcDbAttributeDefinition
  3

  2
U
 70
     8
280
     0
  0
ATTDEF
  5
150
330
134
100
AcDbEntity
  8
AM_6
100
AcDbText
 10
7.75
 20
-11.23
 30
0.0
 40
0.5
  1
2.50
100
AcDbAttributeDefinition
  3

  2
U1
 70
     8
280
     0
  0
ATTDEF
  5
151
330
134
100
AcDbEntity
  8
AM_6
100
AcDbText
 10
7.75
 20
-11.73
 30
0.0
 40
0.5
  1
5.00
100
AcDbAttributeDefinition
  3

  2
V
 70
     8
280
     0
  0
ATTDEF
  5
152
330
134
100
AcDbEntity
  8
AM_6
100
AcDbText
 10
7.75
 20
-12.23
 30
0.0
 40
0.5
  1
5.00
100
AcDbAttributeDefinition
  3

  2
V1
 70
     8
280
     0
  0
ATTDEF
  5
153
330
134
100
AcDbEntity
  8
AM_6
100
AcDbText
 10
7.75
 20
-12.73
 30
0.0
 40
0.5
  1
0.50
100
AcDbAttributeDefinition
  3

  2
W
 70
     8
280
     0
  0
ATTDEF
  5
154
330
134
100
AcDbEntity
  8
AM_6
100
AcDbText
 10
7.75
 20
-13.23
 30
0.0
 40
0.5
  1
0.50
100
AcDbAttributeDefinition
  3

  2
W1
 70
     8
280
     0
  0
ATTDEF
  5
155
330
134
100
AcDbEntity
  8
AM_6
100
AcDbText
 10
7.75
 20
-13.73
 30
0.0
 40
0.5
  1
0.12
100
AcDbAttributeDefinition
  3

  2
X
 70
     8
280
     0
  0
ATTDEF
  5
156
330
134
100
AcDbEntity
  8
AM_6
100
AcDbText
 10
7.75
 20
-14.23
 30
0.0
 40
0.5
  1
0.12
100
AcDbAttributeDefinition
  3

  2
X1
 70
     8
280
     0
  0
ATTDEF
  5
157
330
134
100
AcDbEntity
  8
AM_6
100
AcDbText
 10
7.75
 20
-14.73
 30
0.0
 40
0.5
  1
1565
100
AcDbAttributeDefinition
  3

  2
CAPS
 70
     8
280
     0
  0
ATTDEF
  5
158
330
134
100
AcDbEntity
  8
AM_6
100
AcDbText
 10
7.75
 20
-15.23
 30
0.0
 40
0.5
  1
3146
100
AcDbAttributeDefinition
  3

  2
CAPD
 70
     8
280
     0
  0
ATTDEF
  5
159
330
134
100
AcDbEntity
  8
AM_6
100
AcDbText
 10
7.75
 20
-15.73
 30
0.0
 40
0.5
  1
baldor
100
AcDbAttributeDefinition
  3

  2
COMPANY
 70
     8
280
     0
  0
LINE
  5
15A
330
134
100
AcDbEntity
  8
AM_9
100
AcDbLine
 10
1.012475
 20
0.3499999999999999
 30
0.0
 11
1.012475
 21
0.5599999999999998
 31
0.0
  0
LINE
  5
15B
330
134
100
AcDbEntity
  8
AM_9
100
AcDbLine
 10
-1.070475
 20
0.1896969696969725
 30
0.0
 11
-1.070475
 21
0.5699999999999995
 31
0.0
  0
LINE
  5
15C
330
134
100
AcDbEntity
  8
AM_9
100
AcDbLine
 10
-1.012475
 20
0.3499999999999999
 30
0.0
 11
-1.012475
 21
0.5599999999999999
 31
0.0
  0
LINE
  5
15D
330
134
100
AcDbEntity
  8
AM_9
100
AcDbLine
 10
1.070475
 20
-0.56
 30
0.0
 11
1.070475
 21
-0.35
 31
0.0
  0
LINE
  5
15E
330
134
100
AcDbEntity
  8
AM_9
100
AcDbLine
 10
1.012475
 20
-0.56
 30
0.0
 11
1.012475
 21
-0.35
 31
0.0
  0
LINE
  5
15F
330
134
100
AcDbEntity
  8
AM_9
100
AcDbLine
 10
-1.070475
 20
-0.5600000000000006
 30
0.0
 11
-1.070475
 21
-0.35
 31
0.0
  0
LINE
  5
160
330
134
100
AcDbEntity
  8
AM_9
100
AcDbLine
 10
-1.012475
 20
-0.56
 30
0.0
 11
-1.012475
 21
-0.35
 31
0.0
  0
LINE
  5
161
330
134
100
AcDbEntity
  8
AM_9
100
AcDbLine
 10
-2.356499999999999
 20
-0.35
 30
0.0
 11
-2.356499999999999
 21
-0.1953560851368602
 31
0.0
  0
LINE
  5
162
330
134
100
AcDbEntity
  8
AM_9
100
AcDbLine
 10
-2.472499999999999
 20
-0.35
 30
0.0
 11
-2.472499999999999
 21
0.3499999999999999
 31
0.0
  0
LINE
  5
163
330
134
100
AcDbEntity
  8
AM_9
100
AcDbLine
 10
2.3565
 20
0.1953560851368594
 30
0.0
 11
2.3565
 21
0.3499999999999999
 31
0.0
  0
LINE
  5
164
330
134
100
AcDbEntity
  8
AM_9
100
AcDbLine
 10
2.4725
 20
-0.35
 30
0.0
 11
2.4725
 21
0.3499999999999999
 31
0.0
  0
LINE
  5
165
330
134
100
AcDbEntity
  8
AM_9
100
AcDbLine
 10
-1.528858448600691
 20
-0.35
 30
0.0
 11
-1.528858448600691
 21
0.3499999999999999
 31
0.0
  0
LINE
  5
166
330
134
100
AcDbEntity
  8
AM_9
100
AcDbLine
 10
-2.356499999999999
 20
0.1953560851368605
 30
0.0
 11
-2.356499999999999
 21
0.3499999999999999
 31
0.0
  0
LINE
  5
167
330
134
100
AcDbEntity
  8
AM_9
100
AcDbLine
 10
2.3565
 20
-0.35
 30
0.0
 11
2.3565
 21
-0.1953560851368595
 31
0.0
  0
LINE
  5
168
330
134
100
AcDbEntity
  8
AM_9
100
AcDbLine
 10
1.52885844860069
 20
-0.35
 30
0.0
 11
1.52885844860069
 21
0.3499999999999999
 31
0.0
  0
LINE
  5
169
330
134
100
AcDbEntity
  8
AM_9
100
AcDbLine
 10
-1.378743402441227
 20
-0.35
 30
0.0
 11
-1.378743402441227
 21
0.3499999999999999
 31
0.0
  0
LINE
  5
16A
330
134
100
AcDbEntity
  8
AM_9
100
AcDbLine
 10
1.378743402441228
 20
-0.35
 30
0.0
 11
1.378743402441228
 21
0.3499999999999999
 31
0.0
  0
LINE
  5
16B
330
134
100
AcDbEntity
  8
AM_9
100
AcDbLine
 10
0.7350331998106371
 20
-0.35
 30
0.0
 11
0.7350331998106371
 21
0.3499999999999999
 31
0.0
  0
LINE
  5
16C
330
134
100
AcDbEntity
  8
AM_9
100
AcDbLine
 10
-0.7350331998106376
 20
-0.35
 30
0.0
 11
-0.7350331998106376
 21
0.3499999999999999
 31
0.0
  0
LINE
  5
16D
330
134
100
AcDbEntity
  8
AM_9
100
AcDbLine
 10
-0.9660802054700126
 20
-0.35
 30
0.0
 11
-0.9660802054700126
 21
0.3499999999999999
 31
0.0
  0
LINE
  5
16E
330
134
100
AcDbEntity
  8
AM_9
100
AcDbLine
 10
0.9660802054700129
 20
-0.35
 30
0.0
 11
0.9660802054700129
 21
0.3499999999999999
 31
0.0
  0
LINE
  5
16F
330
134
100
AcDbEntity
  8
AM_9
100
AcDbLine
 10
2.4725
 20
-0.35
 30
0.0
 11
-2.472499999999999
 21
-0.35
 31
0.0
  0
LINE
  5
170
330
134
100
AcDbEntity
  8
AM_9
100
AcDbLine
 10
2.4725
 20
0.3499999999999999
 30
0.0
 11
-2.472499999999999
 21
0.3499999999999999
 31
0.0
  0
LINE
  5
171
330
134
100
AcDbEntity
  8
AM_9
100
AcDbLine
 10
0.962387740531331
 20
-0.2099999999999999
 30
0.0
 11
0.962387740531331
 21
0.487642694063927
 31
0.0
  0
LINE
  5
172
330
134
100
AcDbEntity
  8
AM_9
100
AcDbLine
 10
1.070475
 20
-0.2099999999999999
 30
0.0
 11
1.070475
 21
0.5699999999999973
 31
0.0
  0
LINE
  5
173
330
134
100
AcDbEntity
  8
AM_9
100
AcDbLine
 10
1.070475
 20
-0.2099999999999999
 30
0.0
 11
0.9099617560645065
 21
-0.2099999999999999
 31
0.0
  0
LINE
  5
174
330
134
100
AcDbEntity
  8
AM_9
100
AcDbLine
 10
-0.9099617560645065
 20
-0.2099999999999999
 30
0.0
 11
-1.070475
 21
-0.2099999999999999
 31
0.0
  0
LINE
  5
175
330
134
100
AcDbEntity
  8
AM_9
100
AcDbLine
 10
-0.9623877405313309
 20
-0.2099999999999999
 30
0.0
 11
-0.9623877405313309
 21
0.487642694063927
 31
0.0
  0
LINE
  5
176
330
134
100
AcDbEntity
  8
AM_9
100
AcDbLine
 10
-1.070475
 20
0.1303030303030275
 30
0.0
 11
-1.070475
 21
-0.2099999999999999
 31
0.0
  0
LWPOLYLINE
  5
177
330
134
100
AcDbEntity
  8
AM_9
100
AcDbPolyline
 90
        5
 70
     0
 43
0.0
 10
1.232401796322528
 20
0.0955167045659267
 10
1.226408088104723
 20
0.0417617832203806
 10
1.22512223785245
 20
-0.0123109705119267
 10
1.228554031662546
 20
-0.0662900303250711
 10
1.232401796322528
 20
-0.0955167045659265
  0
LINE
  5
178
330
134
100
AcDbEntity
  8
AM_9
100
AcDbLine
 10
-0.9099617560645065
 20
-0.2099999999999999
 30
0.0
 11
-0.9099617560645065
 21
0.4876426940639271
 31
0.0
  0
LINE
  5
179
330
134
100
AcDbEntity
  8
AM_9
100
AcDbLine
 10
0.9099617560645065
 20
0.4876426940639271
 30
0.0
 11
0.9099617560645065
 21
-0.2099999999999999
 31
0.0
  0
LINE
  5
17A
330
134
100
AcDbEntity
  8
AM_9
100
AcDbLine
 10
1.0236
 20
-0.5599999999999999
 30
0.0
 11
1.0236
 21
-0.2099999999999999
 31
0.0
  0
LINE
  5
17B
330
134
100
AcDbEntity
  8
AM_9
100
AcDbLine
 10
-1.0236
 20
-0.2099999999999999
 30
0.0
 11
-1.0236
 21
-0.5599999999999999
 31
0.0
  0
LINE
  5
17C
330
134
100
AcDbEntity
  8
AM_9
100
AcDbLine
 10
0.6599999999999997
 20
-0.56
 30
0.0
 11
-0.6599999999999997
 21
-0.56
 31
0.0
  0
LINE
  5
17D
330
134
100
AcDbEntity
  8
AM_9
100
AcDbLine
 10
0.7990306627407987
 20
-0.1499999999999996
 30
0.0
 11
0.9404130654263729
 21
-0.1499999999999996
 31
0.0
  0
LINE
  5
17E
330
134
100
AcDbEntity
  8
AM_9
100
AcDbLine
 10
0.9404512558184778
 20
0.1499999999999996
 30
0.0
 11
0.7990306627407987
 21
0.1499999999999996
 31
0.0
  0
LWPOLYLINE
  5
17F
330
134
100
AcDbEntity
  8
AM_9
100
AcDbPolyline
 90
       20
 70
     0
 43
0.0
 10
0.9404424365129638
 20
-0.1499999993878482
 10
0.9523334635265571
 20
-0.1490437454994992
 10
0.9693635093983942
 20
-0.1441182041188443
 10
0.9852906106407862
 20
-0.1351847348446523
 10
0.9997328920511929
 20
-0.1224130800917816
 10
1.012350240341124
 20
-0.1062293506868537
 10
1.02289959638004
 20
-0.0869260783221857
 10
1.031121603691231
 20
-0.0651636621210102
 10
1.036826132887905
 20
-0.0415159070610072
 10
1.039934107061552
 20
-0.0166833667155995
 10
1.040358437467025
 20
0.008493944255473
 10
1.038148889178389
 20
0.0334307470947256
 10
1.033330560120064
 20
0.0573454319479814
 10
1.026023050923404
 20
0.079654393675011
 10
1.016287101296042
 20
0.0997923547766793
 10
1.004371638763576
 20
0.1171330949587951
 10
0.9904272765769616
 20
0.1312072789798397
 10
0.9748449720954258
 20
0.141575175074243
 10
0.958018129223633
 20
0.1478724539826251
 10
0.9404514471921644
 20
0.1499999999978222
  0
LWPOLYLINE
  5
180
330
134
100
AcDbEntity
  8
AM_9
100
AcDbPolyline
 90
       12
 70
     0
 43
0.0
 10
0.9404514471921644
 20
0.1499999999978222
 10
0.9403716149670601
 20
0.1499999569049778
 10
0.9224856225095948
 20
0.1478583610393735
 10
0.9047907256475848
 20
0.1415933582516323
 10
0.8878334508395155
 20
0.1313331440719294
 10
0.8721330423362794
 20
0.1174220937078198
 10
0.8581501435928651
 20
0.100100591258835
 10
0.8464221827105252
 20
0.0799623169765283
 10
0.8373760859840924
 20
0.0574700875701102
 10
0.831336093669406
 20
0.0333395577102061
 10
0.8291290315384109
 20
0.0167759228401741
 10
0.8283856937199114
 20
0.0000000000000001
  0
LINE
  5
181
330
134
100
AcDbEntity
  8
AM_9
100
AcDbLine
 10
1.213003741728766
 20
-0.1076333262219971
 30
0.0
 11
1.213003741728765
 21
0.1076333262219973
 31
0.0
  0
LWPOLYLINE
  5
182
330
134
100
AcDbEntity
  8
AM_9
100
AcDbPolyline
 90
       11
 70
     0
 43
0.0
 10
0.8283856937199114
 20
0.0000000000000001
 10
0.8300616490844769
 20
-0.0250905343245663
 10
0.8349749614918425
 20
-0.0494716589680956
 10
0.8429876930777197
 20
-0.0724334317215937
 10
0.8537649481164423
 20
-0.0933633772642524
 10
0.8670204680549739
 20
-0.1117153003645899
 10
0.8822301293189456
 20
-0.1269273837318495
 10
0.8989570280694226
 20
-0.1385501743004595
 10
0.9166054091556803
 20
-0.1462553875803993
 10
0.9345505731573932
 20
-0.1497538675317087
 10
0.9404424365129638
 20
-0.1499999993878482
  0
ELLIPSE
  5
183
330
134
100
AcDbEntity
  8
AM_9
100
AcDbEllipse
 10
0.7990306627407988
 20
0.0
 30
0.0
 11
-2.755455298081541E-17
 21
-0.1499999999999998
 31
0.0
210
0.0
220
0.0
230
1.0
 40
0.7071067811865462
 41
0.0
 42
6.283185307179586
  0
LINE
  5
184
330
134
100
AcDbEntity
  8
AM_7
100
AcDbLine
 10
0.0
 20
0.7699999999999999
 30
0.0
 11
0.0
 21
-0.847
 31
0.0
  0
LINE
  5
185
330
134
100
AcDbEntity
  8
AM_7
100
AcDbLine
 10
1.611375
 20
-0.0000000000000001
 30
0.0
 11
2.483625
 21
0.0
 31
0.0
  0
LINE
  5
186
330
134
100
AcDbEntity
  8
AM_7
100
AcDbLine
 10
1.845
 20
-0.2336250000000003
 30
0.0
 11
1.845
 21
0.233625
 31
0.0
  0
LINE
  5
187
330
134
100
AcDbEntity
  8
AM_7
100
AcDbLine
 10
-2.483625
 20
0.0000000000000001
 30
0.0
 11
-1.611375
 21
0.0000000000000002
 31
0.0
  0
LINE
  5
188
330
134
100
AcDbEntity
  8
AM_7
100
AcDbLine
 10
-2.25
 20
-0.2336249999999996
 30
0.0
 11
-2.25
 21
0.2336249999999998
 31
0.0
  0
LINE
  5
189
330
134
100
AcDbEntity
  8
AM_7
100
AcDbLine
 10
2.25
 20
-0.2336249999999997
 30
0.0
 11
2.25
 21
0.2336249999999997
 31
0.0
  0
LINE
  5
18A
330
134
100
AcDbEntity
  8
AM_7
100
AcDbLine
 10
-1.845
 20
-0.2336249999999999
 30
0.0
 11
-1.845
 21
0.2336250000000004
 31
0.0
  0
LINE
  5
18B
330
134
100
AcDbEntity
  8
AM_4
100
AcDbLine
 10
-2.475
 20
0.62
 30
0.0
 11
-2.475
 21
0.7
 31
0.0
  0
LINE
  5
18C
330
134
100
AcDbEntity
  8
AM_4
100
AcDbLine
 10
-2.475
 20
-0.7
 30
0.0
 11
-2.475
 21
-0.62
 31
0.0
  0
LINE
  5
18D
330
134
100
AcDbEntity
  8
AM_4
100
AcDbLine
 10
2.475
 20
0.62
 30
0.0
 11
2.475
 21
0.7
 31
0.0
  0
LINE
  5
18E
330
134
100
AcDbEntity
  8
AM_4
100
AcDbLine
 10
2.475
 20
-0.7
 30
0.0
 11
2.475
 21
-0.62
 31
0.0
  0
LINE
  5
18F
330
134
100
AcDbEntity
  8
AM_4
100
AcDbLine
 10
1.998269461836525
 20
-0.7
 30
0.0
 11
1.998269461836525
 21
-0.62
 31
0.0
  0
LINE
  5
190
330
134
100
AcDbEntity
  8
AM_4
100
AcDbLine
 10
1.998269461836525
 20
0.62
 30
0.0
 11
1.998269461836525
 21
0.7
 31
0.0
  0
LINE
  5
191
330
134
100
AcDbEntity
  8
AM_4
100
AcDbLine
 10
-1.998269461836525
 20
0.62
 30
0.0
 11
-1.998269461836525
 21
0.7
 31
0.0
  0
LINE
  5
192
330
134
100
AcDbEntity
  8
AM_4
100
AcDbLine
 10
-1.998269461836525
 20
-0.7
 30
0.0
 11
-1.998269461836525
 21
-0.62
 31
0.0
  0
ARC
  5
193
330
134
100
AcDbEntity
  8
AM_4
100
AcDbCircle
 10
2.499999999999999
 20
0.3699999999999993
 30
0.0
 40
0.2500000000000009
100
AcDbArc
 50
0.0
 51
90.0
  0
LINE
  5
194
330
134
100
AcDbEntity
  8
AM_4
100
AcDbLine
 10
2.75
 20
-0.3699999962747095
 30
0.0
 11
2.75
 21
0.3699999999999999
 31
0.0
  0
ARC
  5
195
330
134
100
AcDbEntity
  8
AM_4
100
AcDbCircle
 10
2.5
 20
-0.37
 30
0.0
 40
0.25
100
AcDbArc
 50
270.0
 51
0.0
  0
ARC
  5
196
330
134
100
AcDbEntity
  8
AM_4
100
AcDbCircle
 10
1.845
 20
-0.0000000000000002
 30
0.0
 40
0.2225000000000001
100
AcDbArc
 50
90.0
 51
270.0
  0
LINE
  5
197
330
134
100
AcDbEntity
  8
AM_4
100
AcDbLine
 10
2.25
 20
-0.2225000000000001
 30
0.0
 11
1.845
 21
-0.2225000000000001
 31
0.0
  0
ARC
  5
198
330
134
100
AcDbEntity
  8
AM_4
100
AcDbCircle
 10
2.25
 20
-0.0000000000000001
 30
0.0
 40
0.2225
100
AcDbArc
 50
270.0
 51
90.0
  0
LINE
  5
199
330
134
100
AcDbEntity
  8
AM_4
100
AcDbLine
 10
2.5
 20
0.6200000000000001
 30
0.0
 11
1.845
 21
0.62
 31
0.0
  0
LINE
  5
19A
330
134
100
AcDbEntity
  8
AM_4
100
AcDbLine
 10
1.845
 20
0.2224999999999999
 30
0.0
 11
2.25
 21
0.2225
 31
0.0
  0
LINE
  5
19B
330
134
100
AcDbEntity
  8
AM_4
100
AcDbLine
 10
1.845
 20
-0.62
 30
0.0
 11
2.5
 21
-0.62
 31
0.0
  0
LINE
  5
19C
330
134
100
AcDbEntity
  8
AM_4
100
AcDbLine
 10
-1.845
 20
-0.2224999999999998
 30
0.0
 11
-2.25
 21
-0.2224999999999999
 31
0.0
  0
ARC
  5
19D
330
134
100
AcDbEntity
  8
AM_4
100
AcDbCircle
 10
-1.845
 20
0.0000000000000002
 30
0.0
 40
0.2225
100
AcDbArc
 50
270.0
 51
90.0
  0
ARC
  5
19E
330
134
100
AcDbEntity
  8
AM_4
100
AcDbCircle
 10
-2.25
 20
0.0000000000000001
 30
0.0
 40
0.2225
100
AcDbArc
 50
90.0
 51
270.0
  0
LINE
  5
19F
330
134
100
AcDbEntity
  8
AM_4
100
AcDbLine
 10
-1.845
 20
0.62
 30
0.0
 11
-2.5
 21
0.62
 31
0.0
  0
LINE
  5
1A0
330
134
100
AcDbEntity
  8
AM_4
100
AcDbLine
 10
-2.25
 20
0.2225000000000001
 30
0.0
 11
-1.845
 21
0.2225000000000002
 31
0.0
  0
LINE
  5
1A1
330
134
100
AcDbEntity
  8
AM_4
100
AcDbLine
 10
-2.75
 20
0.3700000037252901
 30
0.0
 11
-2.75
 21
-0.3699999962747096
 31
0.0
  0
ARC
  5
1A2
330
134
100
AcDbEntity
  8
AM_4
100
AcDbCircle
 10
-2.5
 20
-0.3699999999999996
 30
0.0
 40
0.2500000000000004
100
AcDbArc
 50
180.0
 51
270.0
  0
LINE
  5
1A3
330
134
100
AcDbEntity
  8
AM_4
100
AcDbLine
 10
-2.5
 20
-0.6200000000000001
 30
0.0
 11
-1.845
 21
-0.6199999999999997
 31
0.0
  0
ARC
  5
1A4
330
134
100
AcDbEntity
  8
AM_4
100
AcDbCircle
 10
-2.499999999999999
 20
0.3699999999999991
 30
0.0
 40
0.2500000000000009
100
AcDbArc
 50
90.0
 51
180.0
  0
LINE
  5
1A5
330
134
100
AcDbEntity
  8
AM_4
100
AcDbLine
 10
0.9623877405313309
 20
0.487642694063927
 30
0.0
 11
0.9623877405313309
 21
0.56
 31
0.0
  0
LWPOLYLINE
  5
1A6
330
134
100
AcDbEntity
  8
AM_4
100
AcDbPolyline
 90
        5
 70
     0
 43
0.0
 10
1.060475
 20
0.5599999999999999
 10
1.063017241338475
 20
0.5603285466977838
 10
1.066984591475296
 20
0.5624088723614448
 10
1.069465898627436
 20
0.5656223588690753
 10
1.070078607605824
 20
0.5672123987097583
  0
LINE
  5
1A7
330
134
100
AcDbEntity
  8
AM_4
100
AcDbLine
 10
1.070475
 20
0.5625570776255708
 30
0.0
 11
1.070078607605825
 21
0.5672123987097583
 31
0.0
  0
LINE
  5
1A8
330
134
100
AcDbEntity
  8
AM_4
100
AcDbLine
 10
-0.6336000000000002
 20
0.5599999999999999
 30
0.0
 11
-1.060475
 21
0.5599999999999999
 31
0.0
  0
LWPOLYLINE
  5
1A9
330
134
100
AcDbEntity
  8
AM_4
100
AcDbPolyline
 90
        5
 70
     0
 43
0.0
 10
-1.070078607605824
 20
0.567212398709758
 10
-1.069465898627436
 20
0.565622358869074
 10
-1.066991705037676
 20
0.5624149782167793
 10
-1.063017241338475
 20
0.5603285466977835
 10
-1.060475
 20
0.5599999999999999
  0
LINE
  5
1AA
330
134
100
AcDbEntity
  8
AM_4
100
AcDbLine
 10
-0.962387740531331
 20
0.487642694063927
 30
0.0
 11
-0.962387740531331
 21
0.56
 31
0.0
  0
LWPOLYLINE
  5
1AB
330
134
100
AcDbEntity
  8
AM_4
100
AcDbPolyline
 90
        7
 70
     0
 43
0.0
 10
-1.070475
 20
0.5625570776255708
 10
-1.066401519439762
 20
0.5476464313693016
 10
-1.054212079405744
 20
0.5328492641343368
 10
-1.033999448896791
 20
0.5182781912981086
 10
-1.005917458235796
 20
0.504044107523155
 10
-0.9701798283280582
 20
0.490255342781778
 10
-0.962387740531331
 20
0.4876426940639269
  0
LINE
  5
1AC
330
134
100
AcDbEntity
  8
AM_4
100
AcDbLine
 10
1.892473646768452
 20
-0.7
 30
0.0
 11
1.892473646768453
 21
-0.62
 31
0.0
  0
LWPOLYLINE
  5
1AD
330
134
100
AcDbEntity
  8
AM_4
100
AcDbPolyline
 90
       18
 70
     0
 43
0.0
 10
1.232401796322528
 20
-0.0955167045659265
 10
1.243057746767227
 20
-0.1485446861151628
 10
1.258294841221697
 20
-0.2004421529093289
 10
1.277997116196731
 20
-0.250814133889574
 10
1.30201462548321
 20
-0.2992772678652048
 10
1.330164581333295
 20
-0.3454627211238263
 10
1.362232745585559
 20
-0.3890189944786011
 10
1.397975060146754
 20
-0.4296145983893027
 10
1.437119504421271
 20
-0.4669405757978747
 10
1.47936816555212
 20
-0.5007128534781966
 10
1.524399505717655
 20
-0.5306744040048622
 10
1.571870809228549
 20
-0.5565972018870848
 10
1.621420790801129
 20
-0.5782839589803674
 10
1.67267234515653
 20
-0.5955696259684081
 10
1.725235417019572
 20
-0.6083226484880571
 10
1.778709969674928
 20
-0.6164459683374537
 10
1.832689029488072
 20
-0.6198777621475499
 10
1.845
 20
-0.62
  0
LWPOLYLINE
  5
1AE
330
134
100
AcDbEntity
  8
AM_4
100
AcDbPolyline
 90
       18
 70
     0
 43
0.0
 10
1.845
 20
0.62
 10
1.790963439496452
 20
0.6176407128168822
 10
1.737338129846503
 20
0.6105808068675689
 10
1.684532192036437
 20
0.5988740122992223
 10
1.632947511138086
 20
0.5826094248872632
 10
1.582976677720766
 20
0.561910827962723
 10
1.535
 20
0.536935750346352
 10
1.489382609462352
 20
0.5078742674591751
 10
1.446471681994346
 20
0.4749475547337665
 10
1.406593795664341
 20
0.4384062043356596
 10
1.370052445266234
 20
0.3985283180056547
 10
1.337125732540825
 20
0.355617390537649
 10
1.308064249653648
 20
0.3100000000000004
 10
1.283089172037277
 20
0.2620233222792342
 10
1.262390575112737
 20
0.2120524888619152
 10
1.246125987700778
 20
0.1604678079635636
 10
1.234419193132431
 20
0.1076618701534976
 10
1.232401796322528
 20
0.0955167045659267
  0
LINE
  5
1AF
330
134
100
AcDbEntity
  8
AM_4
100
AcDbLine
 10
1.892473646768453
 20
0.62
 30
0.0
 11
1.892473646768452
 21
0.7
 31
0.0
  0
LINE
  5
1B0
330
134
100
AcDbEntity
  8
AM_4
100
AcDbLine
 10
-1.892473646768453
 20
0.62
 30
0.0
 11
-1.892473646768453
 21
0.7
 31
0.0
  0
LWPOLYLINE
  5
1B1
330
134
100
AcDbEntity
  8
AM_4
100
AcDbPolyline
 90
       37
 70
     0
 43
0.0
 10
-1.845
 20
-0.6199999999999998
 10
-1.790963439496452
 20
-0.617640712816882
 10
-1.737338129846504
 20
-0.6105808068675689
 10
-1.684532192036437
 20
-0.5988740122992222
 10
-1.632947511138086
 20
-0.5826094248872631
 10
-1.582976677720767
 20
-0.561910827962723
 10
-1.535
 20
-0.536935750346352
 10
-1.489382609462352
 20
-0.5078742674591751
 10
-1.446471681994346
 20
-0.4749475547337667
 10
-1.406593795664341
 20
-0.4384062043356599
 10
-1.370052445266234
 20
-0.3985283180056549
 10
-1.337125732540825
 20
-0.3556173905376492
 10
-1.308064249653648
 20
-0.3100000000000007
 10
-1.283089172037277
 20
-0.2620233222792344
 10
-1.262390575112737
 20
-0.2120524888619155
 10
-1.246125987700778
 20
-0.1604678079635639
 10
-1.234419193132431
 20
-0.1076618701534979
 10
-1.227359287183118
 20
-0.0540365605035492
 10
-1.225
 20
-0.0000000000000012
 10
-1.227359287183117
 20
0.0540365605035468
 10
-1.23441919313243
 20
0.1076618701534955
 10
-1.246125987700777
 20
0.1604678079635615
 10
-1.262390575112736
 20
0.2120524888619132
 10
-1.283089172037276
 20
0.2620233222792323
 10
-1.308064249653647
 20
0.3099999999999986
 10
-1.337125732540824
 20
0.3556173905376472
 10
-1.370052445266232
 20
0.398528318005653
 10
-1.406593795664339
 20
0.4384062043356582
 10
-1.446471681994344
 20
0.4749475547337653
 10
-1.48938260946235
 20
0.507874267459174
 10
-1.534999999999998
 20
0.5369357503463511
 10
-1.582976677720764
 20
0.5619108279627223
 10
-1.632947511138083
 20
0.5826094248872626
 10
-1.684532192036435
 20
0.598874012299222
 10
-1.737338129846501
 20
0.6105808068675687
 10
-1.790963439496449
 20
0.6176407128168822
 10
-1.844999999999998
 20
0.6200000000000001
  0
LINE
  5
1B2
330
134
100
AcDbEntity
  8
AM_4
100
AcDbLine
 10
-1.892473646768453
 20
-0.7
 30
0.0
 11
-1.892473646768453
 21
-0.62
 31
0.0
  0
LINE
  5
1B3
330
134
100
AcDbEntity
  8
AM_4
100
AcDbLine
 10
0.9099617560645065
 20
0.4876426940639272
 30
0.0
 11
0.9099617560645065
 21
0.56
 31
0.0
  0
LINE
  5
1B4
330
134
100
AcDbEntity
  8
AM_4
100
AcDbLine
 10
0.6336000000000002
 20
0.5599999999999999
 30
0.0
 11
1.060475
 21
0.5599999999999999
 31
0.0
  0
LINE
  5
1B5
330
134
100
AcDbEntity
  8
AM_4
100
AcDbLine
 10
-0.9099617560645065
 20
0.56
 30
0.0
 11
-0.9099617560645065
 21
0.4876426940639272
 31
0.0
  0
LINE
  5
1B6
330
134
100
AcDbEntity
  8
AM_4
100
AcDbLine
 10
-0.6599999999999997
 20
-0.56
 30
0.0
 11
-1.070475000000018
 21
-0.5600000000000012
 31
0.0
  0
LINE
  5
1B7
330
134
100
AcDbEntity
  8
AM_4
100
AcDbLine
 10
1.070475000000018
 20
-0.5599999999999999
 30
0.0
 11
0.6599999999999997
 21
-0.56
 31
0.0
  0
LINE
  5
1B8
330
134
100
AcDbEntity
  8
AM_4
100
AcDbLine
 10
-1.213003741728765
 20
-0.4753837919606296
 30
0.0
 11
-1.213003741728765
 21
0.4753837919606298
 31
0.0
  0
LINE
  5
1B9
330
134
100
AcDbEntity
  8
AM_4
100
AcDbLine
 10
1.213003741728765
 20
0.1076333262219973
 30
0.0
 11
1.213003741728766
 21
0.4753837919606301
 31
0.0
  0
LINE
  5
1BA
330
134
100
AcDbEntity
  8
AM_4
100
AcDbLine
 10
1.213003741728765
 20
-0.4753837919606297
 30
0.0
 11
1.213003741728766
 21
-0.1076333262219971
 31
0.0
  0
LINE
  5
1BB
330
134
100
AcDbEntity
  8
AM_4
100
AcDbLine
 10
-0.9623877405313309
 20
0.487642694063927
 30
0.0
 11
-0.9099617560645065
 21
0.4876426940639271
 31
0.0
  0
LINE
  5
1BC
330
134
100
AcDbEntity
  8
AM_4
100
AcDbLine
 10
-1.070078607605826
 20
0.567212398709758
 30
0.0
 11
-1.070475
 21
0.5625570776255708
 31
0.0
  0
LWPOLYLINE
  5
1BD
330
134
100
AcDbEntity
  8
AM_4
100
AcDbPolyline
 90
        5
 70
     0
 43
0.0
 10
-1.070475
 20
0.5699999999999994
 10
-1.070436946980917
 20
0.5691284425725229
 10
-1.070323077530122
 20
0.5682635182233302
 10
-1.070134258262891
 20
0.5674118095489743
 10
-1.070078607605824
 20
0.567212398709758
  0
LINE
  5
1BE
330
134
100
AcDbEntity
  8
AM_4
100
AcDbLine
 10
-1.070475
 20
0.5699999999999994
 30
0.0
 11
-1.070475
 21
0.7
 31
0.0
  0
LINE
  5
1BF
330
134
100
AcDbEntity
  8
AM_4
100
AcDbLine
 10
-2.475
 20
0.7
 30
0.0
 11
-1.070475
 21
0.7
 31
0.0
  0
LINE
  5
1C0
330
134
100
AcDbEntity
  8
AM_4
100
AcDbLine
 10
-1.213003741728765
 20
0.4753837919606298
 30
0.0
 11
-1.845
 21
0.7
 31
0.0
  0
LWPOLYLINE
  5
1C1
330
134
100
AcDbEntity
  8
AM_4
100
AcDbPolyline
 90
       28
 70
     0
 43
0.0
 10
1.213003741728766
 20
0.4753837919606299
 10
1.160848299455242
 20
0.4588195835336041
 10
1.099858100683497
 20
0.4430448800750298
 10
1.030497317653072
 20
0.428179736603253
 10
0.9532938278040145
 20
0.4143372858359129
 10
0.8688351963108171
 20
0.4016228771816494
 10
0.7777642043566593
 20
0.3901332749674912
 10
0.6807739571804807
 20
0.3799559220038995
 10
0.5786026091276045
 20
0.3711682740921811
 10
0.4720277458494597
 20
0.363837210539071
 10
0.3618604664072548
 20
0.3580185251648255
 10
0.2489392103183673
 20
0.353756501678561
 10
0.134123376525352
 20
0.3510835766524881
 10
0.0182867828510699
 20
0.3500200926600115
 10
-0.0976889842825703
 20
0.350574143456463
 10
-0.2129212792595986
 20
0.3527415123807367
 10
-0.326533114736078
 20
0.3565057044466257
 10
-0.4376598360433304
 20
0.3618380718796273
 10
-0.5454557017320587
 20
0.3686980321438048
 10
-0.6491003201754484
 20
0.3770333767993906
 10
-0.7478048932448138
 20
0.3867806688405371
 10
-0.8408182195396462
 20
0.397865725489235
 10
-0.9274324114838599
 20
0.410204182771048
 10
-1.00698828277768
 20
0.4237021375758969
 10
-1.078880365203413
 20
0.4382568623174289
 10
-1.142561516604173
 20
0.453757586751978
 10
-1.197547084966068
 20
0.4700863410070039
 10
-1.213003741728766
 20
0.4753837919606299
  0
LINE
  5
1C2
330
134
100
AcDbEntity
  8
AM_4
100
AcDbLine
 10
1.845
 20
0.7
 30
0.0
 11
1.213003741728766
 21
0.4753837919606301
 31
0.0
  0
LINE
  5
1C3
330
134
100
AcDbEntity
  8
AM_4
100
AcDbLine
 10
1.070475
 20
0.7
 30
0.0
 11
2.475
 21
0.7
 31
0.0
  0
LINE
  5
1C4
330
134
100
AcDbEntity
  8
AM_4
100
AcDbLine
 10
1.070475
 20
0.7
 30
0.0
 11
1.070475
 21
0.5699999999999946
 31
0.0
  0
LWPOLYLINE
  5
1C5
330
134
100
AcDbEntity
  8
AM_4
100
AcDbPolyline
 90
        5
 70
     0
 43
0.0
 10
1.070078607605824
 20
0.5672123987097583
 10
1.070285018440411
 20
0.5680600159282101
 10
1.070416769111215
 20
0.5689223975968427
 10
1.070472856916079
 20
0.5697929804704374
 10
1.070475
 20
0.5699999999999892
  0
LWPOLYLINE
  5
1C6
330
134
100
AcDbEntity
  8
AM_4
100
AcDbPolyline
 90
        7
 70
     0
 43
0.0
 10
0.9623877405313312
 20
0.4876426940639271
 10
0.9995798190387715
 20
0.5013328647316714
 10
1.02916449156053
 20
0.5154889886277287
 10
1.050916600875002
 20
0.5300033291015489
 10
1.064670600296022
 20
0.5447654232581276
 10
1.070321813583105
 20
0.5596629226473372
 10
1.070475
 20
0.5625570776255708
  0
LINE
  5
1C7
330
134
100
AcDbEntity
  8
AM_4
100
AcDbLine
 10
0.9099617560645065
 20
0.4876426940639271
 30
0.0
 11
0.962387740531331
 21
0.487642694063927
 31
0.0
  0
LWPOLYLINE
  5
1C8
330
134
100
AcDbEntity
  8
AM_4
100
AcDbPolyline
 90
       27
 70
     0
 43
0.0
 10
-0.9099617560645066
 20
0.4876426940639272
 10
-0.8656448224447509
 20
0.4752529086263497
 10
-0.8147398090355561
 20
0.4635275606305548
 10
-0.7576341337262537
 20
0.4525558870547491
 10
-0.6947624051872967
 20
0.4424213889597223
 10
-0.6266031152358542
 20
0.4332011959953547
 10
-0.5536749972241616
 20
0.4249654793974099
 10
-0.4765330781654891
 20
0.41777691794206
 10
-0.3957644546434375
 20
0.4116902209225521
 10
-0.3119838246524382
 20
0.4067517117784529
 10
-0.2258288093748498
 20
0.4029989755463024
 10
-0.1379551004987556
 20
0.4004605728147913
 10
-0.0490314700082987
 20
0.3991558223614358
 10
0.0402653195749324
 20
0.3990946541250159
 10
0.1292556657633336
 20
0.4002775336327452
 10
0.2172622982885709
 20
0.4026954584573276
 10
0.3036154335372698
 20
0.406330026730865
 10
0.3876578720087389
 20
0.4111535771941838
 10
0.4687499999999986
 20
0.4171293997157184
 10
0.5462746574522697
 20
0.4242120146777798
 10
0.6196418349116724
 20
0.4323475191039068
 10
0.6882931638574279
 20
0.4414739968930647
 10
0.7517061662234529
 20
0.45152199003856
 10
0.8093982307719247
 20
0.4624150272454116
 10
0.8609302860562078
 20
0.4740702059230794
 10
0.9059101420196835
 20
0.4863988231242371
 10
0.9099617560645066
 20
0.4876426940639272
  0
LINE
  5
1C9
330
134
100
AcDbEntity
  8
AM_4
100
AcDbLine
 10
1.070475000000018
 20
-0.5599999999999999
 30
0.0
 11
1.070475000000018
 21
-0.7
 31
0.0
  0
LINE
  5
1CA
330
134
100
AcDbEntity
  8
AM_4
100
AcDbLine
 10
1.070475000000018
 20
-0.7
 30
0.0
 11
2.475
 21
-0.7
 31
0.0
  0
LINE
  5
1CB
330
134
100
AcDbEntity
  8
AM_4
100
AcDbLine
 10
1.213003741728765
 20
-0.4753837919606297
 30
0.0
 11
1.845
 21
-0.7
 31
0.0
  0
LWPOLYLINE
  5
1CC
330
134
100
AcDbEntity
  8
AM_4
100
AcDbPolyline
 90
       28
 70
     0
 43
0.0
 10
-1.213003741728766
 20
-0.4753837919606295
 10
-1.160848299455243
 20
-0.4588195835336038
 10
-1.099858100683498
 20
-0.4430448800750294
 10
-1.030497317653073
 20
-0.4281797366032525
 10
-0.953293827804015
 20
-0.4143372858359125
 10
-0.8688351963108175
 20
-0.401622877181649
 10
-0.7777642043566597
 20
-0.3901332749674908
 10
-0.6807739571804811
 20
-0.3799559220038991
 10
-0.5786026091276049
 20
-0.3711682740921808
 10
-0.4720277458494601
 20
-0.3638372105390706
 10
-0.3618604664072552
 20
-0.3580185251648251
 10
-0.2489392103183677
 20
-0.3537565016785606
 10
-0.1341233765253525
 20
-0.3510835766524877
 10
-0.0182867828510703
 20
-0.3500200926600111
 10
0.0976889842825699
 20
-0.3505741434564625
 10
0.2129212792595982
 20
-0.3527415123807363
 10
0.3265331147360775
 20
-0.3565057044466253
 10
0.4376598360433299
 20
-0.3618380718796268
 10
0.5454557017320583
 20
-0.3686980321438044
 10
0.649100320175448
 20
-0.3770333767993902
 10
0.7478048932448134
 20
-0.3867806688405366
 10
0.8408182195396458
 20
-0.3978657254892347
 10
0.9274324114838596
 20
-0.4102041827710475
 10
1.00698828277768
 20
-0.4237021375758965
 10
1.078880365203413
 20
-0.4382568623174285
 10
1.142561516604172
 20
-0.4537575867519776
 10
1.197547084966068
 20
-0.4700863410070034
 10
1.213003741728766
 20
-0.4753837919606297
  0
LINE
  5
1CD
330
134
100
AcDbEntity
  8
AM_4
100
AcDbLine
 10
-1.845
 20
-0.7
 30
0.0
 11
-1.213003741728765
 21
-0.4753837919606296
 31
0.0
  0
LINE
  5
1CE
330
134
100
AcDbEntity
  8
AM_4
100
AcDbLine
 10
-2.475
 20
-0.7
 30
0.0
 11
-1.070475000000018
 21
-0.7
 31
0.0
  0
LINE
  5
1CF
330
134
100
AcDbEntity
  8
AM_4
100
AcDbLine
 10
-1.070475000000018
 20
-0.7
 30
0.0
 11
-1.070475000000018
 21
-0.5600000000000012
 31
0.0
  0
LWPOLYLINE
  5
1D0
330
134
100
AcDbEntity
  8
AM_4
100
AcDbPolyline
 90
       37
 70
     0
 43
0.0
 10
1.023474943513519
 20
-0.56
 10
1.018185820473954
 20
-0.5457537479820767
 10
1.005147688543174
 20
-0.5316353794488682
 10
0.9844597757778131
 20
-0.5177523437098163
 10
0.9562795296857176
 20
-0.5042102990497012
 10
0.9208214189553465
 20
-0.4911123086052966
 10
0.8783553012195511
 20
-0.4785580559926674
 10
0.829204369276043
 20
-0.4666430866546605
 10
0.7737426913950569
 20
-0.4554580807023935
 10
0.7123923644339438
 20
-0.4450881627848542
 10
0.6456203014252179
 20
-0.4356122542389229
 10
0.5739346780864495
 20
-0.4271024724503441
 10
0.4978810652962096
 20
-0.4196235819968755
 10
0.4180382769702587
 20
-0.4132325017507457
 10
0.3350139649381513
 20
-0.4079778716916674
 10
0.2494399943459018
 20
-0.4038996827272225
 10
0.1619676347806934
 20
-0.4010289723379084
 10
0.0732626037160721
 20
-0.3993875883631701
 10
-0.0159999999999981
 20
-0.3989880227261499
 10
-0.1051408340550041
 20
-0.39983331636261
 10
-0.1934814828770803
 20
-0.4019170360775748
 10
-0.2803496207871483
 20
-0.4052233235058288
 10
-0.3650841288032968
 20
-0.4097270158036523
 10
-0.447040126155428
 20
-0.415393837153255
 10
-0.5255938782173083
 20
-0.422180659622446
 10
-0.6001475435036941
 20
-0.4300358313942395
 10
-0.6701337236050223
 20
-0.4388995698683697
 10
-0.7350197814319106
 20
-0.4487044166429768
 10
-0.7943118949050239
 20
-0.4593757509137777
 10
-0.8475588152392743
 20
-0.4708323573834439
 10
-0.894355301219549
 20
-0.482987044359053
 10
-0.9343452033310476
 20
-0.49574730733352
 10
-0.9672241742721377
 20
-0.5090160330007518
 10
-0.9927419852210927
 20
-0.5226922383465451
 10
-1.010704430228516
 20
-0.5366718391902998
 10
-1.020974804241878
 20
-0.5508484423284813
 10
-1.023474943513519
 20
-0.5599999999999999
  0
ENDBLK
  5
137
330
134
100
AcDbEntity
  8
0
100
AcDbBlockEnd
  0
ENDSEC
  0
SECTION
  2
ENTITIES
  0
INSERT
  5
6F
330
1F
100
AcDbEntity
  8
0
100
AcDbBlockReference
  2
1_123903_4
 10
0.0
 20
0.0
 30
0.0
  0
POINT
  5
1D2
330
1F
100
AcDbEntity
  8
ConnectionPoints
100
AcDbPoint
 10
0.0
 20
0.56
 30
0.0
  0
POINT
  5
1D3
330
1F
100
AcDbEntity
  8
ConnectionPoints
100
AcDbPoint
 10
0.0
 20
-0.78
 30
0.0
  0
POINT
  5
1D4
330
1F
100
AcDbEntity
  8
ConnectionPoints
100
AcDbPoint
 10
0.940452018978108
 20
0.0000000000000001
 30
0.9404520189781085
  0
POINT
  5
1D5
330
1F
100
AcDbEntity
  8
ConnectionPoints
100
AcDbPoint
 10
0.0
 20
-0.78
 30
0.0
  0
ENDSEC
  0
SECTION
  2
OBJECTS
  0
DICTIONARY
  5
C
330
0
100
AcDbDictionary
281
     1
  3
ACAD_DETAILVIEWSTYLE
350
1DD
  3
ACAD_GROUP
350
D
  3
ACAD_LAYOUT
350
1A
  3
ACAD_MATERIAL
350
43
  3
ACAD_MLEADERSTYLE
350
6B
  3
ACAD_MLINESTYLE
350
17
  3
ACAD_PLOTSETTINGS
350
19
  3
ACAD_PLOTSTYLENAME
350
E
  3
ACAD_SCALELIST
350
47
  3
ACAD_SECTIONVIEWSTYLE
350
1DE
  3
ACAD_TABLESTYLE
350
69
  3
ACAD_VISUALSTYLE
350
2A
  3
ACDB_RECOMPOSE_DATA
350
1DA
  3
AcDbVariableDictionary
350
1D6
  0
SUN
  5
6D
330
29
100
AcDbSun
 90
        1
290
     0
 63
     7
421
 16777215
 40
1.0
291
     1
 91
  2455826
 92
 54000000
292
     0
 70
     2
 71
   256
280
     1
  0
DICTIONARY
  5
1DD
102
{ACAD_REACTORS
330
C
102
}
330
C
100
AcDbDictionary
281
     1
  0
DICTIONARY
  5
D
102
{ACAD_REACTORS
330
C
102
}
330
C
100
AcDbDictionary
281
     1
  0
DICTIONARY
  5
1A
102
{ACAD_REACTORS
330
C
102
}
330
C
100
AcDbDictionary
281
     1
  3
Layout1
350
1E
  3
Layout2
350
26
  3
Model
350
22
  0
DICTIONARY
  5
43
102
{ACAD_REACTORS
330
C
102
}
330
C
100
AcDbDictionary
281
     1
  3
ByBlock
350
45
  3
ByLayer
350
44
  3
Global
350
46
  0
DICTIONARY
  5
6B
102
{ACAD_REACTORS
330
C
102
}
330
C
100
AcDbDictionary
281
     1
  3
Standard
350
6C
  0
DICTIONARY
  5
17
102
{ACAD_REACTORS
330
C
102
}
330
C
100
AcDbDictionary
281
     1
  3
Standard
350
18
  0
DICTIONARY
  5
19
102
{ACAD_REACTORS
330
C
102
}
330
C
100
AcDbDictionary
281
     1
  0
ACDBDICTIONARYWDFLT
  5
E
102
{ACAD_REACTORS
330
C
102
}
330
C
100
AcDbDictionary
281
     1
  3
Normal
350
F
100
AcDbDictionaryWithDefault
340
F
  0
DICTIONARY
  5
47
102
{ACAD_REACTORS
330
C
102
}
330
C
100
AcDbDictionary
281
     1
  3
A0
350
48
  3
A1
350
49
  3
A2
350
4A
  3
A3
350
4B
  3
A4
350
4C
  3
A5
350
4D
  3
A6
350
4E
  3
A7
350
4F
  3
A8
350
50
  3
A9
350
51
  3
B0
350
52
  3
B1
350
53
  3
B2
350
54
  3
B3
350
55
  3
B4
350
56
  3
B5
350
57
  3
B6
350
58
  3
B7
350
59
  3
B8
350
5A
  3
B9
350
5B
  3
C0
350
5C
  3
C1
350
5D
  3
C2
350
5E
  3
C3
350
5F
  3
C4
350
60
  3
C5
350
61
  3
C6
350
62
  3
C7
350
63
  3
C8
350
64
  3
C9
350
65
  3
D0
350
66
  3
D1
350
67
  3
D2
350
68
  0
DICTIONARY
  5
1DE
102
{ACAD_REACTORS
330
C
102
}
330
C
100
AcDbDictionary
281
     1
  0
DICTIONARY
  5
69
102
{ACAD_REACTORS
330
C
102
}
330
C
100
AcDbDictionary
281
     1
  3
Standard
350
6A
  0
DICTIONARY
  5
2A
102
{ACAD_REACTORS
330
C
102
}
330
C
100
AcDbDictionary
281
     1
  3
2dWireframe
350
2F
  3
Basic
350
32
  3
Brighten
350
36
  3
ColorChange
350
3A
  3
Conceptual
350
34
  3
Dim
350
35
  3
EdgeColorOff
350
3D
  3
Facepattern
350
39
  3
Flat
350
2B
  3
FlatWithEdges
350
2C
  3
Gouraud
350
2D
  3
GouraudWithEdges
350
2E
  3
Hidden
350
31
  3
JitterOff
350
3B
  3
Linepattern
350
38
  3
OverhangOff
350
3C
  3
Realistic
350
33
  3
Shaded
350
42
  3
Shaded with edges
350
41
  3
Shades of Gray
350
3E
  3
Sketchy
350
3F
  3
Thicken
350
37
  3
Wireframe
350
30
  3
X-Ray
350
40
  0
XRECORD
  5
1DA
102
{ACAD_REACTORS
330
C
102
}
330
C
100
AcDbXrecord
280
     1
 90
        1
330
6A
  0
DICTIONARY
  5
1D6
102
{ACAD_REACTORS
330
C
102
}
330
C
100
AcDbDictionary
281
     1
  3
CANNOSCALE
350
1D7
  3
CMLEADERSTYLE
350
1DC
  3
CTABLESTYLE
350
1DB
  0
LAYOUT
  5
1E
102
{ACAD_REACTORS
330
1A
102
}
330
1A
100
AcDbPlotSettings
  1

  2
none_device
  4

  6

 40
0.0
 41
0.0
 42
0.0
 43
0.0
 44
0.0
 45
0.0
 46
0.0
 47
0.0
 48
0.0
 49
0.0
140
0.0
141
0.0
142
1.0
143
1.0
 70
   688
 72
     0
 73
     0
 74
     5
  7

 75
    16
 76
     0
 77
     2
 78
   300
147
1.0
148
0.0
149
0.0
100
AcDbLayout
  1
Layout1
 70
     1
 71
     1
 10
0.0
 20
0.0
 11
12.0
 21
9.0
 12
0.0
 22
0.0
 32
0.0
 14
1.000000000000000E+20
 24
1.000000000000000E+20
 34
1.000000000000000E+20
 15
-1.000000000000000E+20
 25
-1.000000000000000E+20
 35
-1.000000000000000E+20
146
0.0
 13
0.0
 23
0.0
 33
0.0
 16
1.0
 26
0.0
 36
0.0
 17
0.0
 27
1.0
 37
0.0
 76
     0
330
1B
  0
LAYOUT
  5
26
102
{ACAD_REACTORS
330
1A
102
}
330
1A
100
AcDbPlotSettings
  1

  2
none_device
  4

  6

 40
0.0
 41
0.0
 42
0.0
 43
0.0
 44
0.0
 45
0.0
 46
0.0
 47
0.0
 48
0.0
 49
0.0
140
0.0
141
0.0
142
1.0
143
1.0
 70
   688
 72
     0
 73
     0
 74
     5
  7

 75
    16
 76
     0
 77
     2
 78
   300
147
1.0
148
0.0
149
0.0
100
AcDbLayout
  1
Layout2
 70
     1
 71
     2
 10
0.0
 20
0.0
 11
0.0
 21
0.0
 12
0.0
 22
0.0
 32
0.0
 14
0.0
 24
0.0
 34
0.0
 15
0.0
 25
0.0
 35
0.0
146
0.0
 13
0.0
 23
0.0
 33
0.0
 16
1.0
 26
0.0
 36
0.0
 17
0.0
 27
1.0
 37
0.0
 76
     0
330
23
  0
LAYOUT
  5
22
102
{ACAD_REACTORS
330
1A
102
}
330
1A
100
AcDbPlotSettings
  1

  2
none_device
  4
Letter_(8.50_x_11.00_Inches)
  6

 40
6.35
 41
6.35
 42
6.35000508
 43
6.35000508
 44
215.9
 45
279.4
 46
0.0
 47
0.0
 48
0.0
 49
0.0
140
0.0
141
0.0
142
1.0
143
1.0
 70
  1712
 72
     0
 73
     0
 74
     0
  7

 75
     0
 76
     0
 77
     2
 78
   300
147
1.0
148
0.0
149
0.0
100
AcDbLayout
  1
Model
 70
     1
 71
     0
 10
0.0
 20
0.0
 11
12.0
 21
9.0
 12
0.0
 22
0.0
 32
0.0
 14
1.000000000000000E+20
 24
1.000000000000000E+20
 34
1.000000000000000E+20
 15
-1.000000000000000E+20
 25
-1.000000000000000E+20
 35
-1.000000000000000E+20
146
0.0
 13
0.0
 23
0.0
 33
0.0
 16
1.0
 26
0.0
 36
0.0
 17
0.0
 27
1.0
 37
0.0
 76
     0
330
1F
331
29
  0
MATERIAL
  5
45
102
{ACAD_REACTORS
330
43
102
}
330
43
100
AcDbMaterial
  1
ByBlock
 72
     1
 94
      127
  0
MATERIAL
  5
44
102
{ACAD_REACTORS
330
43
102
}
330
43
100
AcDbMaterial
  1
ByLayer
 72
     1
 94
      127
  0
MATERIAL
  5
46
102
{ACAD_REACTORS
330
43
102
}
330
43
100
AcDbMaterial
  1
Global
 72
     1
 94
      127
  0
MLEADERSTYLE
  5
6C
102
{ACAD_REACTORS
330
6B
102
}
330
6B
100
AcDbMLeaderStyle
179
     2
170
     2
171
     1
172
     0
 90
        2
 40
0.0
 41
0.0
173
     1
 91
-1056964608
340
14
 92
       -2
290
     1
 42
0.09
291
     1
 43
0.36
  3
Standard
341
0
 44
0.18
300

342
11
174
     1
178
     6
175
     1
176
     0
 93
-1056964608
 45
0.18
292
     0
297
     0
 46
0.18
343
0
 94
-1056964608
 47
1.0
 49
1.0
140
1.0
293
     1
141
0.0
294
     1
177
     0
142
1.0
295
     0
296
     0
143
0.125
271
     0
272
     9
273
     9
298
     0
  0
MLINESTYLE
  5
18
102
{ACAD_REACTORS
330
17
102
}
330
17
100
AcDbMlineStyle
  2
Standard
 70
     0
  3

 62
   256
 51
90.0
 52
90.0
 71
     2
 49
0.5
 62
   256
  6
BYLAYER
 49
-0.5
 62
   256
  6
BYLAYER
  0
ACDBPLACEHOLDER
  5
F
102
{ACAD_REACTORS
330
E
102
}
330
E
  0
SCALE
  5
48
102
{ACAD_REACTORS
330
47
102
}
330
47
100
AcDbScale
 70
     0
300
1:1
140
1.0
141
1.0
290
     1
  0
SCALE
  5
49
102
{ACAD_REACTORS
330
47
102
}
330
47
100
AcDbScale
 70
     0
300
1:2
140
1.0
141
2.0
290
     0
  0
SCALE
  5
4A
102
{ACAD_REACTORS
330
47
102
}
330
47
100
AcDbScale
 70
     0
300
1:4
140
1.0
141
4.0
290
     0
  0
SCALE
  5
4B
102
{ACAD_REACTORS
330
47
102
}
330
47
100
AcDbScale
 70
     0
300
1:5
140
1.0
141
5.0
290
     0
  0
SCALE
  5
4C
102
{ACAD_REACTORS
330
47
102
}
330
47
100
AcDbScale
 70
     0
300
1:8
140
1.0
141
8.0
290
     0
  0
SCALE
  5
4D
102
{ACAD_REACTORS
330
47
102
}
330
47
100
AcDbScale
 70
     0
300
1:10
140
1.0
141
10.0
290
     0
  0
SCALE
  5
4E
102
{ACAD_REACTORS
330
47
102
}
330
47
100
AcDbScale
 70
     0
300
1:16
140
1.0
141
16.0
290
     0
  0
SCALE
  5
4F
102
{ACAD_REACTORS
330
47
102
}
330
47
100
AcDbScale
 70
     0
300
1:20
140
1.0
141
20.0
290
     0
  0
SCALE
  5
50
102
{ACAD_REACTORS
330
47
102
}
330
47
100
AcDbScale
 70
     0
300
1:30
140
1.0
141
30.0
290
     0
  0
SCALE
  5
51
102
{ACAD_REACTORS
330
47
102
}
330
47
100
AcDbScale
 70
     0
300
1:40
140
1.0
141
40.0
290
     0
  0
SCALE
  5
52
102
{ACAD_REACTORS
330
47
102
}
330
47
100
AcDbScale
 70
     0
300
1:50
140
1.0
141
50.0
290
     0
  0
SCALE
  5
53
102
{ACAD_REACTORS
330
47
102
}
330
47
100
AcDbScale
 70
     0
300
1:100
140
1.0
141
100.0
290
     0
  0
SCALE
  5
54
102
{ACAD_REACTORS
330
47
102
}
330
47
100
AcDbScale
 70
     0
300
2:1
140
2.0
141
1.0
290
     0
  0
SCALE
  5
55
102
{ACAD_REACTORS
330
47
102
}
330
47
100
AcDbScale
 70
     0
300
4:1
140
4.0
141
1.0
290
     0
  0
SCALE
  5
56
102
{ACAD_REACTORS
330
47
102
}
330
47
100
AcDbScale
 70
     0
300
8:1
140
8.0
141
1.0
290
     0
  0
SCALE
  5
57
102
{ACAD_REACTORS
330
47
102
}
330
47
100
AcDbScale
 70
     0
300
10:1
140
10.0
141
1.0
290
     0
  0
SCALE
  5
58
102
{ACAD_REACTORS
330
47
102
}
330
47
100
AcDbScale
 70
     0
300
100:1
140
100.0
141
1.0
290
     0
  0
SCALE
  5
59
102
{ACAD_REACTORS
330
47
102
}
330
47
100
AcDbScale
 70
     0
300
1/128" = 1'-0"
140
0.0078125
141
12.0
290
     0
  0
SCALE
  5
5A
102
{ACAD_REACTORS
330
47
102
}
330
47
100
AcDbScale
 70
     0
300
1/64" = 1'-0"
140
0.015625
141
12.0
290
     0
  0
SCALE
  5
5B
102
{ACAD_REACTORS
330
47
102
}
330
47
100
AcDbScale
 70
     0
300
1/32" = 1'-0"
140
0.03125
141
12.0
290
     0
  0
SCALE
  5
5C
102
{ACAD_REACTORS
330
47
102
}
330
47
100
AcDbScale
 70
     0
300
1/16" = 1'-0"
140
0.0625
141
12.0
290
     0
  0
SCALE
  5
5D
102
{ACAD_REACTORS
330
47
102
}
330
47
100
AcDbScale
 70
     0
300
3/32" = 1'-0"
140
0.09375
141
12.0
290
     0
  0
SCALE
  5
5E
102
{ACAD_REACTORS
330
47
102
}
330
47
100
AcDbScale
 70
     0
300
1/8" = 1'-0"
140
0.125
141
12.0
290
     0
  0
SCALE
  5
5F
102
{ACAD_REACTORS
330
47
102
}
330
47
100
AcDbScale
 70
     0
300
3/16" = 1'-0"
140
0.1875
141
12.0
290
     0
  0
SCALE
  5
60
102
{ACAD_REACTORS
330
47
102
}
330
47
100
AcDbScale
 70
     0
300
1/4" = 1'-0"
140
0.25
141
12.0
290
     0
  0
SCALE
  5
61
102
{ACAD_REACTORS
330
47
102
}
330
47
100
AcDbScale
 70
     0
300
3/8" = 1'-0"
140
0.375
141
12.0
290
     0
  0
SCALE
  5
62
102
{ACAD_REACTORS
330
47
102
}
330
47
100
AcDbScale
 70
     0
300
1/2" = 1'-0"
140
0.5
141
12.0
290
     0
  0
SCALE
  5
63
102
{ACAD_REACTORS
330
47
102
}
330
47
100
AcDbScale
 70
     0
300
3/4" = 1'-0"
140
0.75
141
12.0
290
     0
  0
SCALE
  5
64
102
{ACAD_REACTORS
330
47
102
}
330
47
100
AcDbScale
 70
     0
300
1" = 1'-0"
140
1.0
141
12.0
290
     0
  0
SCALE
  5
65
102
{ACAD_REACTORS
330
47
102
}
330
47
100
AcDbScale
 70
     0
300
1-1/2" = 1'-0"
140
1.5
141
12.0
290
     0
  0
SCALE
  5
66
102
{ACAD_REACTORS
330
47
102
}
330
47
100
AcDbScale
 70
     0
300
3" = 1'-0"
140
3.0
141
12.0
290
     0
  0
SCALE
  5
67
102
{ACAD_REACTORS
330
47
102
}
330
47
100
AcDbScale
 70
     0
300
6" = 1'-0"
140
6.0
141
12.0
290
     0
  0
SCALE
  5
68
102
{ACAD_REACTORS
330
47
102
}
330
47
100
AcDbScale
 70
     0
300
1'-0" = 1'-0"
140
12.0
141
12.0
290
     0
  0
TABLESTYLE
  5
6A
102
{ACAD_REACTORS
330
69
102
}
102
{ACAD_XDICTIONARY
360
1D8
102
}
330
69
100
AcDbTableStyle
  3
Standard
 70
     0
 71
     0
 40
0.06
 41
0.06
280
     0
281
     0
  7
Standard
140
0.18
170
     2
 62
     0
 63
   257
283
     0
 90
        4
 91
        0
  1

274
    -2
284
     1
 64
     0
275
    -2
285
     1
 65
     0
276
    -2
286
     1
 66
     0
277
    -2
287
     1
 67
     0
278
    -2
288
     1
 68
     0
279
    -2
289
     1
 69
     0
  7
Standard
140
0.25
170
     5
 62
     0
 63
   257
283
     0
 90
        4
 91
        0
  1

274
    -2
284
     1
 64
     0
275
    -2
285
     1
 65
     0
276
    -2
286
     1
 66
     0
277
    -2
287
     1
 67
     0
278
    -2
288
     1
 68
     0
279
    -2
289
     1
 69
     0
  7
Standard
140
0.18
170
     5
 62
     0
 63
   257
283
     0
 90
        4
 91
        0
  1

274
    -2
284
     1
 64
     0
275
    -2
285
     1
 65
     0
276
    -2
286
     1
 66
     0
277
    -2
287
     1
 67
     0
278
    -2
288
     1
 68
     0
279
    -2
289
     1
 69
     0
  0
VISUALSTYLE
  5
2F
102
{ACAD_REACTORS
330
2A
102
}
330
2A
100
AcDbVisualStyle
  2
2dWireframe
 70
     4
177
     3
291
     0
 70
    58
 90
        0
176
     1
 90
        2
176
     1
 90
        0
176
     1
 90
        0
176
     1
 40
0.6
176
     1
 40
30.0
176
     1
 62
     7
420
 16777215
176
     1
 90
        1
176
     1
 90
        4
176
     1
 62
     7
176
     1
 62
   257
176
     1
 90
        1
176
     1
 90
        1
176
     1
 40
1.0
176
     1
 90
        0
176
     1
 62
   257
176
     1
 40
1.0
176
     1
 90
        1
176
     1
 90
        6
176
     1
 90
        2
176
     1
 62
     7
176
     1
 90
        5
176
     1
 90
        0
176
     1
 90
        0
176
     1
290
     0
176
     1
 90
        1
176
     1
 40
0.0
176
     1
 90
        0
176
     1
290
     1
176
     1
290
     1
176
     1
290
     0
176
     1
290
     0
176
     1
290
     0
176
     1
290
     0
176
     1
290
     0
176
     1
290
     0
176
     1
290
     0
176
     1
 90
       50
176
     1
 40
0.0
176
     1
 40
1.0
176
     1
 90
        0
176
     1
 62
    18
420
        0
176
     1
 90
       50
176
     1
 90
        3
176
     1
 62
     5
420
      255
176
     1
290
     0
176
     1
 90
       50
176
     1
 90
       50
176
     1
 90
       50
176
     1
290
     0
176
     1
 90
       50
176
     1
 62
   256
176
     0
 40
1.0
176
     0
 90
        2
176
     1
  1
strokes_ogs.tif
176
     1
290
     0
176
     1
 40
1.0
176
     1
 40
1.0
176
     1
  0
VISUALSTYLE
  5
32
102
{ACAD_REACTORS
330
2A
102
}
330
2A
100
AcDbVisualStyle
  2
Basic
 70
     7
177
     3
291
     1
 70
    58
 90
        1
176
     1
 90
        0
176
     1
 90
        1
176
     1
 90
        0
176
     1
 40
0.6
176
     1
 40
30.0
176
     1
 62
     7
420
 16777215
176
     1
 90
        0
176
     1
 90
        4
176
     1
 62
     7
176
     1
 62
   257
176
     1
 90
        1
176
     1
 90
        1
176
     1
 40
1.0
176
     1
 90
        8
176
     1
 62
     7
176
     1
 40
1.0
176
     1
 90
        1
176
     1
 90
        6
176
     1
 90
        2
176
     1
 62
     7
176
     1
 90
        5
176
     1
 90
        0
176
     1
 90
        0
176
     1
290
     0
176
     1
 90
        1
176
     1
 40
0.0
176
     1
 90
        0
176
     1
290
     0
176
     1
290
     1
176
     1
290
     1
176
     1
290
     0
176
     1
290
     0
176
     1
290
     0
176
     1
290
     0
176
     1
290
     0
176
     1
290
     0
176
     1
 90
       50
176
     1
 40
0.0
176
     1
 40
1.0
176
     1
 90
        0
176
     1
 62
    18
420
        0
176
     1
 90
       50
176
     1
 90
        3
176
     1
 62
     5
420
      255
176
     1
290
     0
176
     1
 90
       50
176
     1
 90
       50
176
     1
 90
       50
176
     1
290
     0
176
     1
 90
       50
176
     1
 62
   256
176
     0
 40
1.0
176
     0
 90
        2
176
     1
  1
strokes_ogs.tif
176
     1
290
     0
176
     1
 40
1.0
176
     1
 40
1.0
176
     1
  0
VISUALSTYLE
  5
36
102
{ACAD_REACTORS
330
2A
102
}
330
2A
100
AcDbVisualStyle
  2
Brighten
 70
    12
177
     3
291
     1
 70
    58
 90
        2
176
     1
 90
        2
176
     1
 90
        0
176
     1
 90
        0
176
     1
 40
0.6
176
     1
 40
30.0
176
     1
 62
     7
420
 16777215
176
     1
 90
        1
176
     1
 90
        4
176
     1
 62
     7
176
     1
 62
   257
176
     1
 90
        1
176
     1
 90
        1
176
     1
 40
1.0
176
     1
 90
        8
176
     1
 62
     7
176
     1
 40
1.0
176
     1
 90
        1
176
     1
 90
        6
176
     1
 90
        2
176
     1
 62
     7
176
     1
 90
        5
176
     1
 90
        0
176
     1
 90
        0
176
     1
290
     0
176
     1
 90
        1
176
     1
 40
50.0
176
     1
 90
        0
176
     1
290
     0
176
     1
290
     1
176
     1
290
     1
176
     1
290
     0
176
     1
290
     0
176
     1
290
     0
176
     1
290
     0
176
     1
290
     0
176
     1
290
     0
176
     1
 90
       50
176
     1
 40
0.0
176
     1
 40
1.0
176
     1
 90
        0
176
     1
 62
    18
420
        0
176
     1
 90
       50
176
     1
 90
        3
176
     1
 62
     5
420
      255
176
     1
290
     0
176
     1
 90
       50
176
     1
 90
       50
176
     1
 90
       50
176
     1
290
     0
176
     1
 90
       50
176
     1
 62
   256
176
     0
 40
1.0
176
     0
 90
        2
176
     1
  1
strokes_ogs.tif
176
     1
290
     0
176
     1
 40
1.0
176
     1
 40
1.0
176
     1
  0
VISUALSTYLE
  5
3A
102
{ACAD_REACTORS
330
2A
102
}
330
2A
100
AcDbVisualStyle
  2
ColorChange
 70
    16
177
     3
291
     1
 70
    58
 90
        2
176
     1
 90
        2
176
     1
 90
        3
176
     1
 90
        0
176
     1
 40
0.6
176
     1
 40
30.0
176
     1
 62
     8
420
  8421504
176
     1
 90
        1
176
     1
 90
        4
176
     1
 62
     7
176
     1
 62
   257
176
     1
 90
        1
176
     1
 90
        1
176
     1
 40
1.0
176
     1
 90
        8
176
     1
 62
     8
420
  8421504
176
     1
 40
1.0
176
     1
 90
        1
176
     1
 90
        6
176
     1
 90
        2
176
     1
 62
     7
176
     1
 90
        5
176
     1
 90
        0
176
     1
 90
        0
176
     1
290
     0
176
     1
 90
        1
176
     1
 40
0.0
176
     1
 90
        0
176
     1
290
     0
176
     1
290
     1
176
     1
290
     1
176
     1
290
     0
176
     1
290
     0
176
     1
290
     0
176
     1
290
     0
176
     1
290
     0
176
     1
290
     0
176
     1
 90
       50
176
     1
 40
0.0
176
     1
 40
1.0
176
     1
 90
        0
176
     1
 62
    18
420
        0
176
     1
 90
       50
176
     1
 90
        3
176
     1
 62
     5
420
      255
176
     1
290
     0
176
     1
 90
       50
176
     1
 90
       50
176
     1
 90
       50
176
     1
290
     0
176
     1
 90
       50
176
     1
 62
   256
176
     0
 40
1.0
176
     0
 90
        2
176
     1
  1
strokes_ogs.tif
176
     1
290
     0
176
     1
 40
1.0
176
     1
 40
1.0
176
     1
  0
VISUALSTYLE
  5
34
102
{ACAD_REACTORS
330
2A
102
}
330
2A
100
AcDbVisualStyle
  2
Conceptual
 70
     9
177
     3
291
     0
 70
    58
 90
        3
176
     1
 90
        2
176
     1
 90
        0
176
     1
 90
        0
176
     1
 40
0.6
176
     1
 40
30.0
176
     1
 62
     7
420
 16777215
176
     1
 90
        2
176
     1
 90
        2
176
     1
 62
     7
176
     1
 62
   257
176
     1
 90
        1
176
     1
 90
        1
176
     1
 40
179.0
176
     1
 90
        8
176
     1
 62
     7
176
     1
 40
1.0
176
     1
 90
        1
176
     1
 90
        6
176
     1
 90
        2
176
     1
 62
     7
176
     1
 90
        3
176
     1
 90
        0
176
     1
 90
        0
176
     1
290
     0
176
     1
 90
        1
176
     1
 40
0.0
176
     1
 90
        0
176
     1
290
     0
176
     1
290
     1
176
     1
290
     1
176
     1
290
     0
176
     1
290
     0
176
     1
290
     0
176
     1
290
     0
176
     1
290
     0
176
     1
290
     0
176
     1
 90
       50
176
     1
 40
0.0
176
     1
 40
1.0
176
     1
 90
        0
176
     1
 62
    18
420
        0
176
     1
 90
       50
176
     1
 90
        3
176
     1
 62
     5
420
      255
176
     1
290
     0
176
     1
 90
       50
176
     1
 90
       50
176
     1
 90
       50
176
     1
290
     0
176
     1
 90
       50
176
     1
 62
   256
176
     0
 40
1.0
176
     0
 90
        2
176
     1
  1
strokes_ogs.tif
176
     1
290
     0
176
     1
 40
1.0
176
     1
 40
1.0
176
     1
  0
VISUALSTYLE
  5
35
102
{ACAD_REACTORS
330
2A
102
}
330
2A
100
AcDbVisualStyle
  2
Dim
 70
    11
177
     3
291
     1
 70
    58
 90
        2
176
     1
 90
        2
176
     1
 90
        0
176
     1
 90
        0
176
     1
 40
0.6
176
     1
 40
30.0
176
     1
 62
     7
420
 16777215
176
     1
 90
        1
176
     1
 90
        4
176
     1
 62
     7
176
     1
 62
   257
176
     1
 90
        1
176
     1
 90
        1
176
     1
 40
1.0
176
     1
 90
        8
176
     1
 62
     7
176
     1
 40
1.0
176
     1
 90
        1
176
     1
 90
        6
176
     1
 90
        2
176
     1
 62
     7
176
     1
 90
        5
176
     1
 90
        0
176
     1
 90
        0
176
     1
290
     0
176
     1
 90
        1
176
     1
 40
-50.0
176
     1
 90
        0
176
     1
290
     0
176
     1
290
     1
176
     1
290
     1
176
     1
290
     0
176
     1
290
     0
176
     1
290
     0
176
     1
290
     0
176
     1
290
     0
176
     1
290
     0
176
     1
 90
       50
176
     1
 40
0.0
176
     1
 40
1.0
176
     1
 90
        0
176
     1
 62
    18
420
        0
176
     1
 90
       50
176
     1
 90
        3
176
     1
 62
     5
420
      255
176
     1
290
     0
176
     1
 90
       50
176
     1
 90
       50
176
     1
 90
       50
176
     1
290
     0
176
     1
 90
       50
176
     1
 62
   256
176
     0
 40
1.0
176
     0
 90
        2
176
     1
  1
strokes_ogs.tif
176
     1
290
     0
176
     1
 40
1.0
176
     1
 40
1.0
176
     1
  0
VISUALSTYLE
  5
3D
102
{ACAD_REACTORS
330
2A
102
}
330
2A
100
AcDbVisualStyle
  2
EdgeColorOff
 70
    22
177
     3
291
     1
 70
    58
 90
        2
176
     0
 90
        2
176
     0
 90
        0
176
     0
 90
        0
176
     0
 40
0.6
176
     0
 40
30.0
176
     0
 62
     7
420
 16777215
176
     0
 90
        1
176
     0
 90
        4
176
     0
 62
     7
176
     0
 62
   257
176
     0
 90
        1
176
     0
 90
        1
176
     0
 40
1.0
176
     0
 90
        8
176
     2
 62
     7
176
     0
 40
1.0
176
     0
 90
        1
176
     0
 90
        6
176
     0
 90
        2
176
     0
 62
     7
176
     0
 90
        5
176
     0
 90
        0
176
     0
 90
        0
176
     0
290
     0
176
     0
 90
        1
176
     0
 40
0.0
176
     0
 90
        0
176
     0
290
     0
176
     0
290
     1
176
     0
290
     1
176
     0
290
     0
176
     0
290
     0
176
     0
290
     0
176
     0
290
     0
176
     0
290
     0
176
     0
290
     0
176
     0
 90
       50
176
     0
 40
0.0
176
     0
 40
1.0
176
     0
 90
        0
176
     0
 62
    18
420
        0
176
     0
 90
       50
176
     0
 90
        3
176
     0
 62
     5
420
      255
176
     0
290
     0
176
     0
 90
       50
176
     0
 90
       50
176
     0
 90
       50
176
     0
290
     0
176
     0
 90
       50
176
     0
 62
   256
176
     0
 40
1.0
176
     0
 90
        2
176
     0
  1
strokes_ogs.tif
176
     0
290
     0
176
     0
 40
1.0
176
     0
 40
1.0
176
     0
  0
VISUALSTYLE
  5
39
102
{ACAD_REACTORS
330
2A
102
}
330
2A
100
AcDbVisualStyle
  2
Facepattern
 70
    15
177
     3
291
     1
 70
    58
 90
        2
176
     1
 90
        2
176
     1
 90
        0
176
     1
 90
        0
176
     1
 40
0.6
176
     1
 40
30.0
176
     1
 62
     7
420
 16777215
176
     1
 90
        1
176
     1
 90
        4
176
     1
 62
     7
176
     1
 62
   257
176
     1
 90
        1
176
     1
 90
        1
176
     1
 40
1.0
176
     1
 90
        8
176
     1
 62
     7
176
     1
 40
1.0
176
     1
 90
        1
176
     1
 90
        6
176
     1
 90
        2
176
     1
 62
     7
176
     1
 90
        5
176
     1
 90
        0
176
     1
 90
        0
176
     1
290
     0
176
     1
 90
        1
176
     1
 40
0.0
176
     1
 90
        0
176
     1
290
     0
176
     1
290
     1
176
     1
290
     1
176
     1
290
     0
176
     1
290
     0
176
     1
290
     0
176
     1
290
     0
176
     1
290
     0
176
     1
290
     0
176
     1
 90
       50
176
     1
 40
0.0
176
     1
 40
1.0
176
     1
 90
        0
176
     1
 62
    18
420
        0
176
     1
 90
       50
176
     1
 90
        3
176
     1
 62
     5
420
      255
176
     1
290
     0
176
     1
 90
       50
176
     1
 90
       50
176
     1
 90
       50
176
     1
290
     0
176
     1
 90
       50
176
     1
 62
   256
176
     0
 40
1.0
176
     0
 90
        2
176
     1
  1
strokes_ogs.tif
176
     1
290
     0
176
     1
 40
1.0
176
     1
 40
1.0
176
     1
  0
VISUALSTYLE
  5
2B
102
{ACAD_REACTORS
330
2A
102
}
330
2A
100
AcDbVisualStyle
  2
Flat
 70
     0
177
     3
291
     1
 70
    58
 90
        2
176
     1
 90
        1
176
     1
 90
        1
176
     1
 90
        2
176
     1
 40
0.6
176
     1
 40
30.0
176
     1
 62
     7
420
 16777215
176
     1
 90
        0
176
     1
 90
        0
176
     1
 62
     7
176
     1
 62
   257
176
     1
 90
        1
176
     1
 90
        1
176
     1
 40
1.0
176
     1
 90
        8
176
     1
 62
     7
176
     1
 40
1.0
176
     1
 90
        1
176
     1
 90
        6
176
     1
 90
        2
176
     1
 62
     7
176
     1
 90
        5
176
     1
 90
        0
176
     1
 90
        0
176
     1
290
     0
176
     1
 90
       13
176
     1
 40
0.0
176
     1
 90
        0
176
     1
290
     0
176
     1
290
     1
176
     1
290
     1
176
     1
290
     0
176
     1
290
     0
176
     1
290
     0
176
     1
290
     0
176
     1
290
     0
176
     1
290
     0
176
     1
 90
       50
176
     1
 40
0.0
176
     1
 40
1.0
176
     1
 90
        0
176
     1
 62
    18
420
        0
176
     1
 90
       50
176
     1
 90
        3
176
     1
 62
     5
420
      255
176
     1
290
     0
176
     1
 90
       50
176
     1
 90
       50
176
     1
 90
       50
176
     1
290
     0
176
     1
 90
       50
176
     1
 62
   256
176
     0
 40
1.0
176
     0
 90
        2
176
     1
  1
strokes_ogs.tif
176
     1
290
     0
176
     1
 40
1.0
176
     1
 40
1.0
176
     1
  0
VISUALSTYLE
  5
2C
102
{ACAD_REACTORS
330
2A
102
}
330
2A
100
AcDbVisualStyle
  2
FlatWithEdges
 70
     1
177
     3
291
     1
 70
    58
 90
        2
176
     1
 90
        1
176
     1
 90
        1
176
     1
 90
        2
176
     1
 40
0.6
176
     1
 40
30.0
176
     1
 62
     7
420
 16777215
176
     1
 90
        1
176
     1
 90
        0
176
     1
 62
     7
176
     1
 62
   257
176
     1
 90
        1
176
     1
 90
        1
176
     1
 40
1.0
176
     1
 90
        0
176
     1
 62
   257
176
     1
 40
1.0
176
     1
 90
        1
176
     1
 90
        6
176
     1
 90
        2
176
     1
 62
     7
176
     1
 90
        5
176
     1
 90
        0
176
     1
 90
        0
176
     1
290
     0
176
     1
 90
       13
176
     1
 40
0.0
176
     1
 90
        0
176
     1
290
     0
176
     1
290
     1
176
     1
290
     1
176
     1
290
     0
176
     1
290
     0
176
     1
290
     0
176
     1
290
     0
176
     1
290
     0
176
     1
290
     0
176
     1
 90
       50
176
     1
 40
0.0
176
     1
 40
1.0
176
     1
 90
        0
176
     1
 62
    18
420
        0
176
     1
 90
       50
176
     1
 90
        3
176
     1
 62
     5
420
      255
176
     1
290
     0
176
     1
 90
       50
176
     1
 90
       50
176
     1
 90
       50
176
     1
290
     0
176
     1
 90
       50
176
     1
 62
   256
176
     0
 40
1.0
176
     0
 90
        2
176
     1
  1
strokes_ogs.tif
176
     1
290
     0
176
     1
 40
1.0
176
     1
 40
1.0
176
     1
  0
VISUALSTYLE
  5
2D
102
{ACAD_REACTORS
330
2A
102
}
330
2A
100
AcDbVisualStyle
  2
Gouraud
 70
     2
177
     3
291
     1
 70
    58
 90
        2
176
     1
 90
        2
176
     1
 90
        1
176
     1
 90
        2
176
     1
 40
0.6
176
     1
 40
30.0
176
     1
 62
     7
420
 16777215
176
     1
 90
        0
176
     1
 90
        0
176
     1
 62
     7
176
     1
 62
   257
176
     1
 90
        1
176
     1
 90
        1
176
     1
 40
1.0
176
     1
 90
        0
176
     1
 62
     7
176
     1
 40
1.0
176
     1
 90
        1
176
     1
 90
        6
176
     1
 90
        2
176
     1
 62
     7
176
     1
 90
        5
176
     1
 90
        0
176
     1
 90
        0
176
     1
290
     0
176
     1
 90
       13
176
     1
 40
0.0
176
     1
 90
        0
176
     1
290
     0
176
     1
290
     1
176
     1
290
     1
176
     1
290
     0
176
     1
290
     0
176
     1
290
     0
176
     1
290
     0
176
     1
290
     0
176
     1
290
     0
176
     1
 90
       50
176
     1
 40
0.0
176
     1
 40
1.0
176
     1
 90
        0
176
     1
 62
    18
420
        0
176
     1
 90
       50
176
     1
 90
        3
176
     1
 62
     5
420
      255
176
     1
290
     0
176
     1
 90
       50
176
     1
 90
       50
176
     1
 90
       50
176
     1
290
     0
176
     1
 90
       50
176
     1
 62
   256
176
     0
 40
1.0
176
     0
 90
        2
176
     1
  1
strokes_ogs.tif
176
     1
290
     0
176
     1
 40
1.0
176
     1
 40
1.0
176
     1
  0
VISUALSTYLE
  5
2E
102
{ACAD_REACTORS
330
2A
102
}
330
2A
100
AcDbVisualStyle
  2
GouraudWithEdges
 70
     3
177
     3
291
     1
 70
    58
 90
        2
176
     1
 90
        2
176
     1
 90
        1
176
     1
 90
        2
176
     1
 40
0.6
176
     1
 40
30.0
176
     1
 62
     7
420
 16777215
176
     1
 90
        1
176
     1
 90
        0
176
     1
 62
     7
176
     1
 62
   257
176
     1
 90
        1
176
     1
 90
        1
176
     1
 40
1.0
176
     1
 90
        0
176
     1
 62
   257
176
     1
 40
1.0
176
     1
 90
        1
176
     1
 90
        6
176
     1
 90
        2
176
     1
 62
     7
176
     1
 90
        5
176
     1
 90
        0
176
     1
 90
        0
176
     1
290
     0
176
     1
 90
       13
176
     1
 40
0.0
176
     1
 90
        0
176
     1
290
     0
176
     1
290
     1
176
     1
290
     1
176
     1
290
     0
176
     1
290
     0
176
     1
290
     0
176
     1
290
     0
176
     1
290
     0
176
     1
290
     0
176
     1
 90
       50
176
     1
 40
0.0
176
     1
 40
1.0
176
     1
 90
        0
176
     1
 62
    18
420
        0
176
     1
 90
       50
176
     1
 90
        3
176
     1
 62
     5
420
      255
176
     1
290
     0
176
     1
 90
       50
176
     1
 90
       50
176
     1
 90
       50
176
     1
290
     0
176
     1
 90
       50
176
     1
 62
   256
176
     0
 40
1.0
176
     0
 90
        2
176
     1
  1
strokes_ogs.tif
176
     1
290
     0
176
     1
 40
1.0
176
     1
 40
1.0
176
     1
  0
VISUALSTYLE
  5
31
102
{ACAD_REACTORS
330
2A
102
}
330
2A
100
AcDbVisualStyle
  2
Hidden
 70
     6
177
     3
291
     0
 70
    58
 90
        1
176
     1
 90
        2
176
     1
 90
        2
176
     1
 90
        0
176
     1
 40
0.6
176
     1
 40
30.0
176
     1
 62
     7
420
 16777215
176
     1
 90
        2
176
     1
 90
        2
176
     1
 62
     7
176
     1
 62
   257
176
     1
 90
        2
176
     1
 90
        1
176
     1
 40
40.0
176
     1
 90
        0
176
     1
 62
   257
176
     1
 40
1.0
176
     1
 90
        1
176
     1
 90
        6
176
     1
 90
        2
176
     1
 62
     7
176
     1
 90
        3
176
     1
 90
        0
176
     1
 90
        0
176
     1
290
     0
176
     1
 90
        1
176
     1
 40
0.0
176
     1
 90
        0
176
     1
290
     0
176
     1
290
     1
176
     1
290
     1
176
     1
290
     0
176
     1
290
     0
176
     1
290
     0
176
     1
290
     0
176
     1
290
     0
176
     1
290
     0
176
     1
 90
       50
176
     1
 40
0.0
176
     1
 40
1.0
176
     1
 90
        0
176
     1
 62
    18
420
        0
176
     1
 90
       50
176
     1
 90
        3
176
     1
 62
     5
420
      255
176
     1
290
     0
176
     1
 90
       50
176
     1
 90
       50
176
     1
 90
       50
176
     1
290
     0
176
     1
 90
       50
176
     1
 62
   256
176
     0
 40
1.0
176
     0
 90
        2
176
     1
  1
strokes_ogs.tif
176
     1
290
     0
176
     1
 40
1.0
176
     1
 40
1.0
176
     1
  0
VISUALSTYLE
  5
3B
102
{ACAD_REACTORS
330
2A
102
}
330
2A
100
AcDbVisualStyle
  2
JitterOff
 70
    20
177
     3
291
     1
 70
    58
 90
        2
176
     0
 90
        2
176
     0
 90
        0
176
     0
 90
        0
176
     0
 40
0.6
176
     0
 40
30.0
176
     0
 62
     7
420
 16777215
176
     0
 90
        1
176
     0
 90
        4
176
     0
 62
     7
176
     0
 62
   257
176
     0
 90
        1
176
     0
 90
        1
176
     0
 40
1.0
176
     0
 90
       10
176
     2
 62
     7
176
     0
 40
1.0
176
     0
 90
        1
176
     0
 90
        6
176
     0
 90
        2
176
     0
 62
     7
176
     0
 90
        5
176
     0
 90
        0
176
     0
 90
        0
176
     0
290
     0
176
     0
 90
        1
176
     0
 40
0.0
176
     0
 90
        0
176
     0
290
     0
176
     0
290
     1
176
     0
290
     1
176
     0
290
     0
176
     0
290
     0
176
     0
290
     0
176
     0
290
     0
176
     0
290
     0
176
     0
290
     0
176
     0
 90
       50
176
     0
 40
0.0
176
     0
 40
1.0
176
     0
 90
        0
176
     0
 62
    18
420
        0
176
     0
 90
       50
176
     0
 90
        3
176
     0
 62
     5
420
      255
176
     0
290
     0
176
     0
 90
       50
176
     0
 90
       50
176
     0
 90
       50
176
     0
290
     0
176
     0
 90
       50
176
     0
 62
   256
176
     0
 40
1.0
176
     0
 90
        2
176
     0
  1
strokes_ogs.tif
176
     0
290
     0
176
     0
 40
1.0
176
     0
 40
1.0
176
     0
  0
VISUALSTYLE
  5
38
102
{ACAD_REACTORS
330
2A
102
}
330
2A
100
AcDbVisualStyle
  2
Linepattern
 70
    14
177
     3
291
     1
 70
    58
 90
        2
176
     1
 90
        2
176
     1
 90
        0
176
     1
 90
        0
176
     1
 40
0.6
176
     1
 40
30.0
176
     1
 62
     7
420
 16777215
176
     1
 90
        1
176
     1
 90
        4
176
     1
 62
     7
176
     1
 62
   257
176
     1
 90
        7
176
     1
 90
        7
176
     1
 40
1.0
176
     1
 90
        8
176
     1
 62
     7
176
     1
 40
1.0
176
     1
 90
        1
176
     1
 90
        6
176
     1
 90
        2
176
     1
 62
     7
176
     1
 90
        5
176
     1
 90
        0
176
     1
 90
        0
176
     1
290
     0
176
     1
 90
        1
176
     1
 40
0.0
176
     1
 90
        0
176
     1
290
     0
176
     1
290
     1
176
     1
290
     1
176
     1
290
     0
176
     1
290
     0
176
     1
290
     0
176
     1
290
     0
176
     1
290
     0
176
     1
290
     0
176
     1
 90
       50
176
     1
 40
0.0
176
     1
 40
1.0
176
     1
 90
        0
176
     1
 62
    18
420
        0
176
     1
 90
       50
176
     1
 90
        3
176
     1
 62
     5
420
      255
176
     1
290
     0
176
     1
 90
       50
176
     1
 90
       50
176
     1
 90
       50
176
     1
290
     0
176
     1
 90
       50
176
     1
 62
   256
176
     0
 40
1.0
176
     0
 90
        2
176
     1
  1
strokes_ogs.tif
176
     1
290
     0
176
     1
 40
1.0
176
     1
 40
1.0
176
     1
  0
VISUALSTYLE
  5
3C
102
{ACAD_REACTORS
330
2A
102
}
330
2A
100
AcDbVisualStyle
  2
OverhangOff
 70
    21
177
     3
291
     1
 70
    58
 90
        2
176
     0
 90
        2
176
     0
 90
        0
176
     0
 90
        0
176
     0
 40
0.6
176
     0
 40
30.0
176
     0
 62
     7
420
 16777215
176
     0
 90
        1
176
     0
 90
        4
176
     0
 62
     7
176
     0
 62
   257
176
     0
 90
        1
176
     0
 90
        1
176
     0
 40
1.0
176
     0
 90
        9
176
     2
 62
     7
176
     0
 40
1.0
176
     0
 90
        1
176
     0
 90
        6
176
     0
 90
        2
176
     0
 62
     7
176
     0
 90
        5
176
     0
 90
        0
176
     0
 90
        0
176
     0
290
     0
176
     0
 90
        1
176
     0
 40
0.0
176
     0
 90
        0
176
     0
290
     0
176
     0
290
     1
176
     0
290
     1
176
     0
290
     0
176
     0
290
     0
176
     0
290
     0
176
     0
290
     0
176
     0
290
     0
176
     0
290
     0
176
     0
 90
       50
176
     0
 40
0.0
176
     0
 40
1.0
176
     0
 90
        0
176
     0
 62
    18
420
        0
176
     0
 90
       50
176
     0
 90
        3
176
     0
 62
     5
420
      255
176
     0
290
     0
176
     0
 90
       50
176
     0
 90
       50
176
     0
 90
       50
176
     0
290
     0
176
     0
 90
       50
176
     0
 62
   256
176
     0
 40
1.0
176
     0
 90
        2
176
     0
  1
strokes_ogs.tif
176
     0
290
     0
176
     0
 40
1.0
176
     0
 40
1.0
176
     0
  0
VISUALSTYLE
  5
33
102
{ACAD_REACTORS
330
2A
102
}
330
2A
100
AcDbVisualStyle
  2
Realistic
 70
     8
177
     3
291
     0
 70
    58
 90
        2
176
     1
 90
        3
176
     1
 90
        0
176
     1
 90
        2
176
     1
 40
0.6
176
     1
 40
30.0
176
     1
 62
     7
420
 16777215
176
     1
 90
        0
176
     1
 90
        0
176
     1
 62
     7
176
     1
 62
   257
176
     1
 90
        1
176
     1
 90
        1
176
     1
 40
1.0
176
     1
 90
        8
176
     1
 62
   257
176
     1
 40
1.0
176
     1
 90
        1
176
     1
 90
        6
176
     1
 90
        2
176
     1
 62
     7
176
     1
 90
        3
176
     1
 90
        0
176
     1
 90
        0
176
     1
290
     0
176
     1
 90
       13
176
     1
 40
0.0
176
     1
 90
        0
176
     1
290
     0
176
     1
290
     1
176
     1
290
     1
176
     1
290
     0
176
     1
290
     0
176
     1
290
     0
176
     1
290
     0
176
     1
290
     0
176
     1
290
     0
176
     1
 90
       50
176
     1
 40
0.0
176
     1
 40
1.0
176
     1
 90
        0
176
     1
 62
    18
420
        0
176
     1
 90
       50
176
     1
 90
        3
176
     1
 62
     5
420
      255
176
     1
290
     0
176
     1
 90
       50
176
     1
 90
       50
176
     1
 90
       50
176
     1
290
     0
176
     1
 90
       50
176
     1
 62
   256
176
     0
 40
1.0
176
     0
 90
        2
176
     1
  1
strokes_ogs.tif
176
     1
290
     0
176
     1
 40
1.0
176
     1
 40
1.0
176
     1
  0
VISUALSTYLE
  5
42
102
{ACAD_REACTORS
330
2A
102
}
330
2A
100
AcDbVisualStyle
  2
Shaded
 70
    27
177
     3
291
     0
 70
    58
 90
        2
176
     1
 90
        2
176
     1
 90
        1
176
     1
 90
        2
176
     1
 40
0.6
176
     1
 40
30.0
176
     1
 62
     7
420
 16777215
176
     1
 90
        0
176
     1
 90
        4
176
     1
 62
     7
176
     1
 62
   257
176
     1
 90
        1
176
     1
 90
        1
176
     1
 40
1.0
176
     1
 90
        8
176
     1
 62
   257
176
     1
 40
1.0
176
     1
 90
        1
176
     1
 90
        6
176
     1
 90
        2
176
     1
 62
     8
420
  7895160
176
     1
 90
        3
176
     1
 90
        0
176
     1
 90
        0
176
     1
290
     0
176
     1
 90
        5
176
     1
 40
0.0
176
     1
 90
        0
176
     1
290
     0
176
     1
290
     1
176
     1
290
     1
176
     1
290
     0
176
     1
290
     0
176
     1
290
     0
176
     1
290
     0
176
     1
290
     0
176
     1
290
     0
176
     1
 90
       50
176
     1
 40
0.0
176
     1
 40
1.0
176
     1
 90
        0
176
     1
 62
    18
420
        0
176
     1
 90
       50
176
     1
 90
        3
176
     1
 62
     5
420
      255
176
     1
290
     0
176
     1
 90
       50
176
     1
 90
       50
176
     1
 90
       50
176
     1
290
     0
176
     1
 90
       50
176
     1
 62
   256
176
     0
 40
1.0
176
     0
 90
        2
176
     1
  1
strokes_ogs.tif
176
     1
290
     0
176
     1
 40
1.0
176
     1
 40
1.0
176
     1
  0
VISUALSTYLE
  5
41
102
{ACAD_REACTORS
330
2A
102
}
330
2A
100
AcDbVisualStyle
  2
Shaded with edges
 70
    26
177
     3
291
     0
 70
    58
 90
        2
176
     1
 90
        2
176
     1
 90
        1
176
     1
 90
        2
176
     1
 40
0.6
176
     1
 40
30.0
176
     1
 62
     7
420
 16777215
176
     1
 90
        1
176
     1
 90
       10
176
     1
 62
     7
176
     1
 62
   257
176
     1
 90
        2
176
     1
 90
        1
176
     1
 40
1.0
176
     1
 90
        8
176
     1
 62
   257
176
     1
 40
1.0
176
     1
 90
        1
176
     1
 90
        6
176
     1
 90
        2
176
     1
 62
     7
176
     1
 90
        3
176
     1
 90
        0
176
     1
 90
        0
176
     1
290
     0
176
     1
 90
        5
176
     1
 40
0.0
176
     1
 90
        0
176
     1
290
     0
176
     1
290
     1
176
     1
290
     1
176
     1
290
     0
176
     1
290
     0
176
     1
290
     0
176
     1
290
     0
176
     1
290
     0
176
     1
290
     0
176
     1
 90
       50
176
     1
 40
0.0
176
     1
 40
1.0
176
     1
 90
        0
176
     1
 62
    18
420
        0
176
     1
 90
       50
176
     1
 90
        3
176
     1
 62
     5
420
      255
176
     1
290
     0
176
     1
 90
       50
176
     1
 90
       50
176
     1
 90
       50
176
     1
290
     0
176
     1
 90
       50
176
     1
 62
   256
176
     0
 40
1.0
176
     0
 90
        2
176
     1
  1
strokes_ogs.tif
176
     1
290
     0
176
     1
 40
1.0
176
     1
 40
1.0
176
     1
  0
VISUALSTYLE
  5
3E
102
{ACAD_REACTORS
330
2A
102
}
330
2A
100
AcDbVisualStyle
  2
Shades of Gray
 70
    23
177
     3
291
     0
 70
    58
 90
        2
176
     1
 90
        2
176
     1
 90
        3
176
     1
 90
        0
176
     1
 40
0.6
176
     1
 40
30.0
176
     1
 62
     7
420
 16777215
176
     1
 90
        2
176
     1
 90
        2
176
     1
 62
     7
176
     1
 62
     7
176
     1
 90
        1
176
     1
 90
        1
176
     1
 40
40.0
176
     1
 90
        8
176
     1
 62
     7
176
     1
 40
1.0
176
     1
 90
        1
176
     1
 90
        6
176
     1
 90
        2
176
     1
 62
     7
176
     1
 90
        3
176
     1
 90
        0
176
     1
 90
        0
176
     1
290
     0
176
     1
 90
        1
176
     1
 40
0.0
176
     1
 90
        0
176
     1
290
     0
176
     1
290
     1
176
     1
290
     1
176
     1
290
     0
176
     1
290
     0
176
     1
290
     0
176
     1
290
     0
176
     1
290
     0
176
     1
290
     0
176
     1
 90
       50
176
     1
 40
0.0
176
     1
 40
1.0
176
     1
 90
        0
176
     1
 62
    18
420
        0
176
     1
 90
       50
176
     1
 90
        3
176
     1
 62
     5
420
      255
176
     1
290
     0
176
     1
 90
       50
176
     1
 90
       50
176
     1
 90
       50
176
     1
290
     0
176
     1
 90
       50
176
     1
 62
   256
176
     0
 40
1.0
176
     0
 90
        2
176
     1
  1
strokes_ogs.tif
176
     1
290
     0
176
     1
 40
1.0
176
     1
 40
1.0
176
     1
  0
VISUALSTYLE
  5
3F
102
{ACAD_REACTORS
330
2A
102
}
330
2A
100
AcDbVisualStyle
  2
Sketchy
 70
    24
177
     3
291
     0
 70
    58
 90
        1
176
     1
 90
        2
176
     1
 90
        2
176
     1
 90
        0
176
     1
 40
0.6
176
     1
 40
30.0
176
     1
 62
     7
420
 16777215
176
     1
 90
        2
176
     1
 90
        2
176
     1
 62
     7
176
     1
 62
     7
176
     1
 90
        1
176
     1
 90
        1
176
     1
 40
40.0
176
     1
 90
       11
176
     1
 62
     7
176
     1
 40
1.0
176
     1
 90
        1
176
     1
 90
        6
176
     1
 90
        2
176
     1
 62
     7
176
     1
 90
        6
176
     1
 90
        0
176
     1
 90
        0
176
     1
290
     0
176
     1
 90
        1
176
     1
 40
0.0
176
     1
 90
        0
176
     1
290
     0
176
     1
290
     1
176
     1
290
     1
176
     1
290
     0
176
     1
290
     0
176
     1
290
     0
176
     1
290
     0
176
     1
290
     0
176
     1
290
     0
176
     1
 90
       50
176
     1
 40
0.0
176
     1
 40
1.0
176
     1
 90
        0
176
     1
 62
    18
420
        0
176
     1
 90
       50
176
     1
 90
        3
176
     1
 62
     5
420
      255
176
     1
290
     0
176
     1
 90
       50
176
     1
 90
       50
176
     1
 90
       50
176
     1
290
     0
176
     1
 90
       50
176
     1
 62
   256
176
     0
 40
1.0
176
     0
 90
        2
176
     1
  1
strokes_ogs.tif
176
     1
290
     0
176
     1
 40
1.0
176
     1
 40
1.0
176
     1
  0
VISUALSTYLE
  5
37
102
{ACAD_REACTORS
330
2A
102
}
330
2A
100
AcDbVisualStyle
  2
Thicken
 70
    13
177
     3
291
     1
 70
    58
 90
        2
176
     1
 90
        2
176
     1
 90
        0
176
     1
 90
        0
176
     1
 40
0.6
176
     1
 40
30.0
176
     1
 62
     7
420
 16777215
176
     1
 90
        1
176
     1
 90
        4
176
     1
 62
     7
176
     1
 62
   257
176
     1
 90
        1
176
     1
 90
        1
176
     1
 40
1.0
176
     1
 90
       12
176
     1
 62
     7
176
     1
 40
1.0
176
     1
 90
        1
176
     1
 90
        6
176
     1
 90
        2
176
     1
 62
     7
176
     1
 90
        5
176
     1
 90
        0
176
     1
 90
        0
176
     1
290
     0
176
     1
 90
        1
176
     1
 40
0.0
176
     1
 90
        0
176
     1
290
     0
176
     1
290
     1
176
     1
290
     1
176
     1
290
     0
176
     1
290
     0
176
     1
290
     0
176
     1
290
     0
176
     1
290
     0
176
     1
290
     0
176
     1
 90
       50
176
     1
 40
0.0
176
     1
 40
1.0
176
     1
 90
        0
176
     1
 62
    18
420
        0
176
     1
 90
       50
176
     1
 90
        3
176
     1
 62
     5
420
      255
176
     1
290
     0
176
     1
 90
       50
176
     1
 90
       50
176
     1
 90
       50
176
     1
290
     0
176
     1
 90
       50
176
     1
 62
   256
176
     0
 40
1.0
176
     0
 90
        2
176
     1
  1
strokes_ogs.tif
176
     1
290
     0
176
     1
 40
1.0
176
     1
 40
1.0
176
     1
  0
VISUALSTYLE
  5
30
102
{ACAD_REACTORS
330
2A
102
}
330
2A
100
AcDbVisualStyle
  2
Wireframe
 70
     5
177
     3
291
     0
 70
    58
 90
        0
176
     1
 90
        2
176
     1
 90
        0
176
     1
 90
        0
176
     1
 40
0.6
176
     1
 40
30.0
176
     1
 62
     7
420
 16777215
176
     1
 90
        1
176
     1
 90
        4
176
     1
 62
     7
176
     1
 62
   257
176
     1
 90
        1
176
     1
 90
        1
176
     1
 40
1.0
176
     1
 90
        0
176
     1
 62
   257
176
     1
 40
1.0
176
     1
 90
        1
176
     1
 90
        6
176
     1
 90
        2
176
     1
 62
     7
176
     1
 90
        3
176
     1
 90
        0
176
     1
 90
        0
176
     1
290
     0
176
     1
 90
        1
176
     1
 40
0.0
176
     1
 90
        0
176
     1
290
     0
176
     1
290
     1
176
     1
290
     1
176
     1
290
     0
176
     1
290
     0
176
     1
290
     0
176
     1
290
     0
176
     1
290
     0
176
     1
290
     0
176
     1
 90
       50
176
     1
 40
0.0
176
     1
 40
1.0
176
     1
 90
        0
176
     1
 62
    18
420
        0
176
     1
 90
       50
176
     1
 90
        3
176
     1
 62
     5
420
      255
176
     1
290
     0
176
     1
 90
       50
176
     1
 90
       50
176
     1
 90
       50
176
     1
290
     0
176
     1
 90
       50
176
     1
 62
   256
176
     0
 40
1.0
176
     0
 90
        2
176
     1
  1
strokes_ogs.tif
176
     1
290
     0
176
     1
 40
1.0
176
     1
 40
1.0
176
     1
  0
VISUALSTYLE
  5
40
102
{ACAD_REACTORS
330
2A
102
}
330
2A
100
AcDbVisualStyle
  2
X-Ray
 70
    25
177
     3
291
     0
 70
    58
 90
        2
176
     1
 90
        2
176
     1
 90
        1
176
     1
 90
        1
176
     1
 40
0.5
176
     1
 40
30.0
176
     1
 62
     7
420
 16777215
176
     1
 90
        1
176
     1
 90
        0
176
     1
 62
     7
176
     1
 62
   257
176
     1
 90
        1
176
     1
 90
        1
176
     1
 40
1.0
176
     1
 90
        8
176
     1
 62
     7
176
     1
 40
1.0
176
     1
 90
        1
176
     1
 90
        6
176
     1
 90
        2
176
     1
 62
     7
176
     1
 90
        3
176
     1
 90
        0
176
     1
 90
        0
176
     1
290
     0
176
     1
 90
       13
176
     1
 40
0.0
176
     1
 90
        0
176
     1
290
     0
176
     1
290
     1
176
     1
290
     1
176
     1
290
     0
176
     1
290
     0
176
     1
290
     0
176
     1
290
     0
176
     1
290
     0
176
     1
290
     0
176
     1
 90
       50
176
     1
 40
0.0
176
     1
 40
1.0
176
     1
 90
        0
176
     1
 62
    18
420
        0
176
     1
 90
       50
176
     1
 90
        3
176
     1
 62
     5
420
      255
176
     1
290
     0
176
     1
 90
       50
176
     1
 90
       50
176
     1
 90
       50
176
     1
290
     0
176
     1
 90
       50
176
     1
 62
   256
176
     0
 40
1.0
176
     0
 90
        2
176
     1
  1
strokes_ogs.tif
176
     1
290
     0
176
     1
 40
1.0
176
     1
 40
1.0
176
     1
  0
DICTIONARYVAR
  5
1D7
102
{ACAD_REACTORS
330
1D6
102
}
330
1D6
100
DictionaryVariables
280
     0
  1
1:1
  0
DICTIONARYVAR
  5
1DC
102
{ACAD_REACTORS
330
1D6
102
}
330
1D6
100
DictionaryVariables
280
     0
  1
Standard
  0
DICTIONARYVAR
  5
1DB
102
{ACAD_REACTORS
330
1D6
102
}
330
1D6
100
DictionaryVariables
280
     0
  1
Standard
  0
DICTIONARY
  5
1D8
330
6A
100
AcDbDictionary
280
     1
281
     1
  3
ACAD_ROUNDTRIP_2008_TABLESTYLE_CELLSTYLEMAP
360
1D9
  0
CELLSTYLEMAP
  5
1D9
102
{ACAD_REACTORS
330
1D8
102
}
330
1D8
100
AcDbCellStyleMap
 90
        3
300
CELLSTYLE
  1
TABLEFORMAT_BEGIN
 90
        5
170
     1
 91
        0
 92
    32768
 62
   257
 93
        1
300
CONTENTFORMAT
  1
CONTENTFORMAT_BEGIN
 90
        0
 91
        0
 92
        4
 93
        0
300

 40
0.0
140
1.0
 94
        5
 62
     0
340
11
144
0.25
309
CONTENTFORMAT_END
171
     1
301
MARGIN
  1
CELLMARGIN_BEGIN
 40
0.06
 40
0.06
 40
0.06
 40
0.06
 40
0.06
 40
0.06
309
CELLMARGIN_END
 94
        6
 95
        1
302
GRIDFORMAT
  1
GRIDFORMAT_BEGIN
 90
        0
 91
        1
 62
     0
 92
       -2
340
14
 93
        0
 40
0.045
309
GRIDFORMAT_END
 95
        2
302
GRIDFORMAT
  1
GRIDFORMAT_BEGIN
 90
        0
 91
        1
 62
     0
 92
       -2
340
14
 93
        0
 40
0.045
309
GRIDFORMAT_END
 95
        4
302
GRIDFORMAT
  1
GRIDFORMAT_BEGIN
 90
        0
 91
        1
 62
     0
 92
       -2
340
14
 93
        0
 40
0.045
309
GRIDFORMAT_END
 95
        8
302
GRIDFORMAT
  1
GRIDFORMAT_BEGIN
 90
        0
 91
        1
 62
     0
 92
       -2
340
14
 93
        0
 40
0.045
309
GRIDFORMAT_END
 95
       16
302
GRIDFORMAT
  1
GRIDFORMAT_BEGIN
 90
        0
 91
        1
 62
     0
 92
       -2
340
14
 93
        0
 40
0.045
309
GRIDFORMAT_END
 95
       32
302
GRIDFORMAT
  1
GRIDFORMAT_BEGIN
 90
        0
 91
        1
 62
     0
 92
       -2
340
14
 93
        0
 40
0.045
309
GRIDFORMAT_END
309
TABLEFORMAT_END
  1
CELLSTYLE_BEGIN
 90
        1
 91
        1
300
_TITLE
309
CELLSTYLE_END
300
CELLSTYLE
  1
TABLEFORMAT_BEGIN
 90
        5
170
     1
 91
        0
 92
        0
 62
   257
 93
        1
300
CONTENTFORMAT
  1
CONTENTFORMAT_BEGIN
 90
        0
 91
        0
 92
        4
 93
        0
300

 40
0.0
140
1.0
 94
        5
 62
     0
340
11
144
0.18
309
CONTENTFORMAT_END
171
     1
301
MARGIN
  1
CELLMARGIN_BEGIN
 40
0.06
 40
0.06
 40
0.06
 40
0.06
 40
0.06
 40
0.06
309
CELLMARGIN_END
 94
        6
 95
        1
302
GRIDFORMAT
  1
GRIDFORMAT_BEGIN
 90
        0
 91
        1
 62
     0
 92
       -2
340
14
 93
        0
 40
0.045
309
GRIDFORMAT_END
 95
        2
302
GRIDFORMAT
  1
GRIDFORMAT_BEGIN
 90
        0
 91
        1
 62
     0
 92
       -2
340
14
 93
        0
 40
0.045
309
GRIDFORMAT_END
 95
        4
302
GRIDFORMAT
  1
GRIDFORMAT_BEGIN
 90
        0
 91
        1
 62
     0
 92
       -2
340
14
 93
        0
 40
0.045
309
GRIDFORMAT_END
 95
        8
302
GRIDFORMAT
  1
GRIDFORMAT_BEGIN
 90
        0
 91
        1
 62
     0
 92
       -2
340
14
 93
        0
 40
0.045
309
GRIDFORMAT_END
 95
       16
302
GRIDFORMAT
  1
GRIDFORMAT_BEGIN
 90
        0
 91
        1
 62
     0
 92
       -2
340
14
 93
        0
 40
0.045
309
GRIDFORMAT_END
 95
       32
302
GRIDFORMAT
  1
GRIDFORMAT_BEGIN
 90
        0
 91
        1
 62
     0
 92
       -2
340
14
 93
        0
 40
0.045
309
GRIDFORMAT_END
309
TABLEFORMAT_END
  1
CELLSTYLE_BEGIN
 90
        2
 91
        1
300
_HEADER
309
CELLSTYLE_END
300
CELLSTYLE
  1
TABLEFORMAT_BEGIN
 90
        5
170
     1
 91
        0
 92
        0
 62
   257
 93
        1
300
CONTENTFORMAT
  1
CONTENTFORMAT_BEGIN
 90
        0
 91
        0
 92
        4
 93
        0
300

 40
0.0
140
1.0
 94
        2
 62
     0
340
11
144
0.18
309
CONTENTFORMAT_END
171
     1
301
MARGIN
  1
CELLMARGIN_BEGIN
 40
0.06
 40
0.06
 40
0.06
 40
0.06
 40
0.06
 40
0.06
309
CELLMARGIN_END
 94
        6
 95
        1
302
GRIDFORMAT
  1
GRIDFORMAT_BEGIN
 90
        0
 91
        1
 62
     0
 92
       -2
340
14
 93
        0
 40
0.045
309
GRIDFORMAT_END
 95
        2
302
GRIDFORMAT
  1
GRIDFORMAT_BEGIN
 90
        0
 91
        1
 62
     0
 92
       -2
340
14
 93
        0
 40
0.045
309
GRIDFORMAT_END
 95
        4
302
GRIDFORMAT
  1
GRIDFORMAT_BEGIN
 90
        0
 91
        1
 62
     0
 92
       -2
340
14
 93
        0
 40
0.045
309
GRIDFORMAT_END
 95
        8
302
GRIDFORMAT
  1
GRIDFORMAT_BEGIN
 90
        0
 91
        1
 62
     0
 92
       -2
340
14
 93
        0
 40
0.045
309
GRIDFORMAT_END
 95
       16
302
GRIDFORMAT
  1
GRIDFORMAT_BEGIN
 90
        0
 91
        1
 62
     0
 92
       -2
340
14
 93
        0
 40
0.045
309
GRIDFORMAT_END
 95
       32
302
GRIDFORMAT
  1
GRIDFORMAT_BEGIN
 90
        0
 91
        1
 62
     0
 92
       -2
340
14
 93
        0
 40
0.045
309
GRIDFORMAT_END
309
TABLEFORMAT_END
  1
CELLSTYLE_BEGIN
 90
        3
 91
        2
300
_DATA
309
CELLSTYLE_END
  0
ENDSEC
  0
EOF