0
SECTION
  2
HEADER
  9
$ACADVER
  1
AC1027
  9
$ACADMAINTVER
 70
     8
  9
$DWGCODEPAGE
  3
ANSI_1252
  9
$REQUIREDVERSIONS
160
                 0
  9
$COMMENTS
  1
File was created by Cadenas
  9
$CUSTOMPROPERTYTAG
  1
NN
  9
$CUSTOMPROPERTY
  1
Set Screw Low Backing Height Two-Bolt Pillow Block Inch Bore
  9
$CUSTOMPROPERTYTAG
  1
NT
  9
$CUSTOMPROPERTY
  1
SC Pillow Block Bearings -(Normal Duty) -Low Backing Height
  9
$CUSTOMPROPERTYTAG
  1
NB
  9
$CUSTOMPROPERTY
  1
123859
  9
$CUSTOMPROPERTYTAG
  1
NBSYN
  9
$CUSTOMPROPERTY
  1
$PN.
  9
$CUSTOMPROPERTYTAG
  1
LINA
  9
$CUSTOMPROPERTY
  1
123859
  9
$CUSTOMPROPERTYTAG
  1
SERIES
  9
$CUSTOMPROPERTY
  1
211
  9
$CUSTOMPROPERTYTAG
  1
SS
  9
$CUSTOMPROPERTY
  1
2-1/4
  9
$CUSTOMPROPERTYTAG
  1
PN
  9
$CUSTOMPROPERTY
  1
123859
  9
$CUSTOMPROPERTYTAG
  1
DESCRIPTION
  9
$CUSTOMPROPERTY
  1
P2B-SCB-204
  9
$CUSTOMPROPERTYTAG
  1
WEIGHT
  9
$CUSTOMPROPERTY
  1
8.8
  9
$CUSTOMPROPERTYTAG
  1
A
  9
$CUSTOMPROPERTY
  1
2.22
  9
$CUSTOMPROPERTYTAG
  1
B
  9
$CUSTOMPROPERTY
  1
8.88
  9
$CUSTOMPROPERTYTAG
  1
C
  9
$CUSTOMPROPERTY
  1
2.30
  9
$CUSTOMPROPERTYTAG
  1
DMIN
  9
$CUSTOMPROPERTY
  1
6.38
  9
$CUSTOMPROPERTYTAG
  1
DMAX
  9
$CUSTOMPROPERTY
  1
7.44
  9
$CUSTOMPROPERTYTAG
  1
F
  9
$CUSTOMPROPERTY
  1
5/8
  9
$CUSTOMPROPERTYTAG
  1
G
  9
$CUSTOMPROPERTY
  1
1.21
  9
$CUSTOMPROPERTYTAG
  1
H
  9
$CUSTOMPROPERTY
  1
0.81
  9
$CUSTOMPROPERTYTAG
  1
J
  9
$CUSTOMPROPERTY
  1
4.90
  9
$CUSTOMPROPERTYTAG
  1
L
  9
$CUSTOMPROPERTY
  1
2.71
  9
$CUSTOMPROPERTYTAG
  1
M
  9
$CUSTOMPROPERTY
  1
2.44
  9
$CUSTOMPROPERTYTAG
  1
R
  9
$CUSTOMPROPERTY
  1
0.87
  9
$CUSTOMPROPERTYTAG
  1
S
  9
$CUSTOMPROPERTY
  1
1.35
  9
$CUSTOMPROPERTYTAG
  1
U
  9
$CUSTOMPROPERTY
  1
3.94
  9
$CUSTOMPROPERTYTAG
  1
V
  9
$CUSTOMPROPERTY
  1
7.88
  9
$CUSTOMPROPERTYTAG
  1
W
  9
$CUSTOMPROPERTY
  1
0.81
  9
$CUSTOMPROPERTYTAG
  1
X
  9
$CUSTOMPROPERTY
  1
0.12
  9
$CUSTOMPROPERTYTAG
  1
COMPANY
  9
$CUSTOMPROPERTY
  1
baldor
  9
$INSBASE
 10
0.0
 20
0.0
 30
0.0
  9
$EXTMIN
 10
1.000000000000000E+20
 20
1.000000000000000E+20
 30
1.000000000000000E+20
  9
$EXTMAX
 10
-1.000000000000000E+20
 20
-1.000000000000000E+20
 30
-1.000000000000000E+20
  9
$LIMMIN
 10
0.0
 20
0.0
  9
$LIMMAX
 10
12.0
 20
9.0
  9
$ORTHOMODE
 70
     0
  9
$REGENMODE
 70
     1
  9
$FILLMODE
 70
     1
  9
$QTEXTMODE
 70
     0
  9
$MIRRTEXT
 70
     1
  9
$LTSCALE
 40
1.0
  9
$ATTMODE
 70
     1
  9
$TEXTSIZE
 40
0.2
  9
$TRACEWID
 40
0.05
  9
$TEXTSTYLE
  7
Standard
  9
$CLAYER
  8
0
  9
$CELTYPE
  6
ByLayer
  9
$CECOLOR
 62
   256
  9
$CELTSCALE
 40
1.0
  9
$DISPSILH
 70
     0
  9
$DIMSCALE
 40
1.0
  9
$DIMASZ
 40
0.18
  9
$DIMEXO
 40
0.0625
  9
$DIMDLI
 40
0.38
  9
$DIMRND
 40
0.0
  9
$DIMDLE
 40
0.0
  9
$DIMEXE
 40
0.18
  9
$DIMTP
 40
0.0
  9
$DIMTM
 40
0.0
  9
$DIMTXT
 40
0.18
  9
$DIMCEN
 40
0.09
  9
$DIMTSZ
 40
0.0
  9
$DIMTOL
 70
     0
  9
$DIMLIM
 70
     0
  9
$DIMTIH
 70
     1
  9
$DIMTOH
 70
     1
  9
$DIMSE1
 70
     0
  9
$DIMSE2
 70
     0
  9
$DIMTAD
 70
     0
  9
$DIMZIN
 70
     0
  9
$DIMBLK
  1

  9
$DIMASO
 70
     1
  9
$DIMSHO
 70
     1
  9
$DIMPOST
  1

  9
$DIMAPOST
  1

  9
$DIMALT
 70
     0
  9
$DIMALTD
 70
     2
  9
$DIMALTF
 40
25.4
  9
$DIMLFAC
 40
1.0
  9
$DIMTOFL
 70
     0
  9
$DIMTVP
 40
0.0
  9
$DIMTIX
 70
     0
  9
$DIMSOXD
 70
     0
  9
$DIMSAH
 70
     0
  9
$DIMBLK1
  1

  9
$DIMBLK2
  1

  9
$DIMSTYLE
  2
Standard
  9
$DIMCLRD
 70
     0
  9
$DIMCLRE
 70
     0
  9
$DIMCLRT
 70
     0
  9
$DIMTFAC
 40
1.0
  9
$DIMGAP
 40
0.09
  9
$DIMJUST
 70
     0
  9
$DIMSD1
 70
     0
  9
$DIMSD2
 70
     0
  9
$DIMTOLJ
 70
     1
  9
$DIMTZIN
 70
     0
  9
$DIMALTZ
 70
     0
  9
$DIMALTTZ
 70
     0
  9
$DIMUPT
 70
     0
  9
$DIMDEC
 70
     4
  9
$DIMTDEC
 70
     4
  9
$DIMALTU
 70
     2
  9
$DIMALTTD
 70
     2
  9
$DIMTXSTY
  7
Standard
  9
$DIMAUNIT
 70
     0
  9
$DIMADEC
 70
     0
  9
$DIMALTRND
 40
0.0
  9
$DIMAZIN
 70
     0
  9
$DIMDSEP
 70
    46
  9
$DIMATFIT
 70
     3
  9
$DIMFRAC
 70
     0
  9
$DIMLDRBLK
  1

  9
$DIMLUNIT
 70
     2
  9
$DIMLWD
 70
    -2
  9
$DIMLWE
 70
    -2
  9
$DIMTMOVE
 70
     0
  9
$DIMFXL
 40
1.0
  9
$DIMFXLON
 70
     0
  9
$DIMJOGANG
 40
0.7853981633974483
  9
$DIMTFILL
 70
     0
  9
$DIMTFILLCLR
 70
     0
  9
$DIMARCSYM
 70
     0
  9
$DIMLTYPE
  6

  9
$DIMLTEX1
  6

  9
$DIMLTEX2
  6

  9
$DIMTXTDIRECTION
 70
     0
  9
$LUNITS
 70
     2
  9
$LUPREC
 70
     4
  9
$SKETCHINC
 40
0.1
  9
$FILLETRAD
 40
0.5
  9
$AUNITS
 70
     0
  9
$AUPREC
 70
     0
  9
$MENU
  1
.
  9
$ELEVATION
 40
0.0
  9
$PELEVATION
 40
0.0
  9
$THICKNESS
 40
0.0
  9
$LIMCHECK
 70
     0
  9
$CHAMFERA
 40
0.0
  9
$CHAMFERB
 40
0.0
  9
$CHAMFERC
 40
0.0
  9
$CHAMFERD
 40
0.0
  9
$SKPOLY
 70
     0
  9
$TDCREATE
 40
2458168.978860486
  9
$TDUCREATE
 40
2458168.937193819
  9
$TDUPDATE
 40
2458168.978860486
  9
$TDUUPDATE
 40
2458168.937193819
  9
$TDINDWG
 40
0.0000000116
  9
$TDUSRTIMER
 40
0.0000000116
  9
$USRTIMER
 70
     1
  9
$ANGBASE
 50
0.0
  9
$ANGDIR
 70
     0
  9
$PDMODE
 70
     0
  9
$PDSIZE
 40
0.0
  9
$PLINEWID
 40
0.0
  9
$SPLFRAME
 70
     0
  9
$SPLINETYPE
 70
     6
  9
$SPLINESEGS
 70
     8
  9
$HANDSEED
  5
1B9
  9
$SURFTAB1
 70
     6
  9
$SURFTAB2
 70
     6
  9
$SURFTYPE
 70
     6
  9
$SURFU
 70
     6
  9
$SURFV
 70
     6
  9
$UCSBASE
  2

  9
$UCSNAME
  2

  9
$UCSORG
 10
0.0
 20
0.0
 30
0.0
  9
$UCSXDIR
 10
1.0
 20
0.0
 30
0.0
  9
$UCSYDIR
 10
0.0
 20
1.0
 30
0.0
  9
$UCSORTHOREF
  2

  9
$UCSORTHOVIEW
 70
     0
  9
$UCSORGTOP
 10
0.0
 20
0.0
 30
0.0
  9
$UCSORGBOTTOM
 10
0.0
 20
0.0
 30
0.0
  9
$UCSORGLEFT
 10
0.0
 20
0.0
 30
0.0
  9
$UCSORGRIGHT
 10
0.0
 20
0.0
 30
0.0
  9
$UCSORGFRONT
 10
0.0
 20
0.0
 30
0.0
  9
$UCSORGBACK
 10
0.0
 20
0.0
 30
0.0
  9
$PUCSBASE
  2

  9
$PUCSNAME
  2

  9
$PUCSORG
 10
0.0
 20
0.0
 30
0.0
  9
$PUCSXDIR
 10
1.0
 20
0.0
 30
0.0
  9
$PUCSYDIR
 10
0.0
 20
1.0
 30
0.0
  9
$PUCSORTHOREF
  2

  9
$PUCSORTHOVIEW
 70
     0
  9
$PUCSORGTOP
 10
0.0
 20
0.0
 30
0.0
  9
$PUCSORGBOTTOM
 10
0.0
 20
0.0
 30
0.0
  9
$PUCSORGLEFT
 10
0.0
 20
0.0
 30
0.0
  9
$PUCSORGRIGHT
 10
0.0
 20
0.0
 30
0.0
  9
$PUCSORGFRONT
 10
0.0
 20
0.0
 30
0.0
  9
$PUCSORGBACK
 10
0.0
 20
0.0
 30
0.0
  9
$USERI1
 70
     0
  9
$USERI2
 70
     0
  9
$USERI3
 70
     0
  9
$USERI4
 70
     0
  9
$USERI5
 70
     0
  9
$USERR1
 40
0.0
  9
$USERR2
 40
0.0
  9
$USERR3
 40
0.0
  9
$USERR4
 40
0.0
  9
$USERR5
 40
0.0
  9
$WORLDVIEW
 70
     1
  9
$SHADEDGE
 70
     3
  9
$SHADEDIF
 70
    70
  9
$TILEMODE
 70
     1
  9
$MAXACTVP
 70
    64
  9
$PINSBASE
 10
0.0
 20
0.0
 30
0.0
  9
$PLIMCHECK
 70
     0
  9
$PEXTMIN
 10
1.000000000000000E+20
 20
1.000000000000000E+20
 30
1.000000000000000E+20
  9
$PEXTMAX
 10
-1.000000000000000E+20
 20
-1.000000000000000E+20
 30
-1.000000000000000E+20
  9
$PLIMMIN
 10
0.0
 20
0.0
  9
$PLIMMAX
 10
12.0
 20
9.0
  9
$UNITMODE
 70
     0
  9
$VISRETAIN
 70
     1
  9
$PLINEGEN
 70
     0
  9
$PSLTSCALE
 70
     1
  9
$TREEDEPTH
 70
  3020
  9
$CMLSTYLE
  2
Standard
  9
$CMLJUST
 70
     0
  9
$CMLSCALE
 40
1.0
  9
$PROXYGRAPHICS
 70
     1
  9
$MEASUREMENT
 70
     0
  9
$CELWEIGHT
370
    -1
  9
$ENDCAPS
280
     0
  9
$JOINSTYLE
280
     0
  9
$LWDISPLAY
290
     0
  9
$INSUNITS
 70
     1
  9
$HYPERLINKBASE
  1

  9
$STYLESHEET
  1

  9
$XEDIT
290
     1
  9
$CEPSNTYPE
380
     0
  9
$PSTYLEMODE
290
     1
  9
$FINGERPRINTGUID
  2
{55372D0C-51BA-461A-A12B-EA1CCB19458B}
  9
$VERSIONGUID
  2
{FAEB1C32-E019-11D5-929B-00C0DF256EC4}
  9
$EXTNAMES
290
     1
  9
$PSVPSCALE
 40
0.0
  9
$OLESTARTUP
290
     0
  9
$SORTENTS
280
   127
  9
$INDEXCTL
280
     0
  9
$HIDETEXT
280
     1
  9
$XCLIPFRAME
280
     2
  9
$HALOGAP
280
     0
  9
$OBSCOLOR
 70
   257
  9
$OBSLTYPE
280
     0
  9
$INTERSECTIONDISPLAY
280
     0
  9
$INTERSECTIONCOLOR
 70
   257
  9
$DIMASSOC
280
     2
  9
$PROJECTNAME
  1

  9
$CAMERADISPLAY
290
     0
  9
$LENSLENGTH
 40
50.0
  9
$CAMERAHEIGHT
 40
0.0
  9
$STEPSPERSEC
 40
2.0
  9
$STEPSIZE
 40
6.0
  9
$3DDWFPREC
 40
2.0
  9
$PSOLWIDTH
 40
0.25
  9
$PSOLHEIGHT
 40
4.0
  9
$LOFTANG1
 40
1.570796326794897
  9
$LOFTANG2
 40
1.570796326794897
  9
$LOFTMAG1
 40
0.0
  9
$LOFTMAG2
 40
0.0
  9
$LOFTPARAM
 70
     7
  9
$LOFTNORMALS
280
     1
  9
$LATITUDE
 40
37.795
  9
$LONGITUDE
 40
-122.394
  9
$NORTHDIRECTION
 40
0.0
  9
$TIMEZONE
 70
 -8000
  9
$LIGHTGLYPHDISPLAY
280
     1
  9
$TILEMODELIGHTSYNCH
280
     1
  9
$CMATERIAL
347
44
  9
$SOLIDHIST
280
     0
  9
$SHOWHIST
280
     1
  9
$DWFFRAME
280
     2
  9
$DGNFRAME
280
     2
  9
$REALWORLDSCALE
290
     1
  9
$INTERFERECOLOR
 62
   256
  9
$CSHADOW
280
     0
  9
$SHADOWPLANELOCATION
 40
0.0
  0
ENDSEC
  0
SECTION
  2
CLASSES
  0
CLASS
  1
ACDBDICTIONARYWDFLT
  2
AcDbDictionaryWithDefault
  3
ObjectDBX Classes
 90
        0
 91
        4
280
     0
281
     0
  0
CLASS
  1
VISUALSTYLE
  2
AcDbVisualStyle
  3
ObjectDBX Classes
 90
     4095
 91
        4
280
     0
281
     0
  0
CLASS
  1
MATERIAL
  2
AcDbMaterial
  3
ObjectDBX Classes
 90
     1153
 91
        4
280
     0
281
     0
  0
CLASS
  1
SCALE
  2
AcDbScale
  3
ObjectDBX Classes
 90
     1153
 91
        4
280
     0
281
     0
  0
CLASS
  1
TABLESTYLE
  2
AcDbTableStyle
  3
ObjectDBX Classes
 90
     4095
 91
        4
280
     0
281
     0
  0
CLASS
  1
MLEADERSTYLE
  2
AcDbMLeaderStyle
  3
ACDB_MLEADERSTYLE_CLASS
 90
     4095
 91
        4
280
     0
281
     0
  0
CLASS
  1
SUN
  2
AcDbSun
  3
SCENEOE
 90
     1153
 91
        4
280
     0
281
     0
  0
CLASS
  1
DICTIONARYVAR
  2
AcDbDictionaryVar
  3
ObjectDBX Classes
 90
        0
 91
        4
280
     0
281
     0
  0
CLASS
  1
CELLSTYLEMAP
  2
AcDbCellStyleMap
  3
ObjectDBX Classes
 90
     1152
 91
        4
280
     0
281
     0
  0
ENDSEC
  0
SECTION
  2
TABLES
  0
TABLE
  2
VPORT
  5
8
330
0
100
AcDbSymbolTable
 70
     1
  0
VPORT
  5
29
330
8
100
AcDbSymbolTableRecord
100
AcDbViewportTableRecord
  2
*Active
 70
     0
 10
0.0
 20
0.0
 11
1.0
 21
1.0
 12
-0.097999999999999
 22
0.0099999999999998
 13
0.0
 23
0.0
 14
0.5
 24
0.5
 15
0.5
 25
0.5
 16
0.0
 26
0.0
 36
1.0
 17
0.0
 27
0.0
 37
0.0
 40
4.998000000000002
 41
0.5563265306122445
 42
50.0
 43
0.0
 44
0.0
 50
0.0
 51
0.0
 71
     0
 72
   100
 73
     1
 74
     3
 75
     0
 76
     0
 77
     0
 78
     0
281
     0
 65
     1
110
0.0
120
0.0
130
0.0
111
1.0
121
0.0
131
0.0
112
0.0
122
1.0
132
0.0
 79
     0
146
0.0
348
2F
 60
     3
 61
     5
292
     1
282
     1
141
0.0
142
0.0
 63
   250
361
6D
  0
ENDTAB
  0
TABLE
  2
LTYPE
  5
5
330
0
100
AcDbSymbolTable
 70
     3
  0
LTYPE
  5
14
330
5
100
AcDbSymbolTableRecord
100
AcDbLinetypeTableRecord
  2
ByBlock
 70
     0
  3

 72
    65
 73
     0
 40
0.0
  0
LTYPE
  5
15
330
5
100
AcDbSymbolTableRecord
100
AcDbLinetypeTableRecord
  2
ByLayer
 70
     0
  3

 72
    65
 73
     0
 40
0.0
  0
LTYPE
  5
16
330
5
100
AcDbSymbolTableRecord
100
AcDbLinetypeTableRecord
  2
Continuous
 70
     0
  3
Solid line
 72
    65
 73
     0
 40
0.0
  0
LTYPE
  5
9B
330
5
100
AcDbSymbolTableRecord
100
AcDbLinetypeTableRecord
  2
Dashed
 70
     0
  3

 72
    65
 73
     2
 40
2.0
 49
1.0
 74
     0
 49
-1.0
 74
     0
  0
LTYPE
  5
139
330
5
100
AcDbSymbolTableRecord
100
AcDbLinetypeTableRecord
  2
Center
 70
     0
  3

 72
    65
 73
     4
 40
1.5
 49
0.45
 74
     0
 49
-0.5
 74
     0
 49
0.05
 74
     0
 49
-0.5
 74
     0
  0
ENDTAB
  0
TABLE
  2
LAYER
  5
2
330
0
100
AcDbSymbolTable
 70
     7
  0
LAYER
  5
10
330
2
100
AcDbSymbolTableRecord
100
AcDbLayerTableRecord
  2
0
 70
     0
 62
     7
  6
Continuous
370
    -3
390
F
347
46
348
0
  0
LAYER
  5
72
330
2
100
AcDbSymbolTableRecord
100
AcDbLayerTableRecord
  2
AM_6
 70
     0
 62
    -2
  6
Continuous
370
    35
390
F
347
46
348
0
  0
LAYER
  5
9C
330
2
100
AcDbSymbolTableRecord
100
AcDbLayerTableRecord
  2
AM_9
 70
     0
 62
     6
  6
Dashed
370
    25
390
F
347
46
348
0
  0
LAYER
  5
C1
330
2
100
AcDbSymbolTableRecord
100
AcDbLayerTableRecord
  2
AM_4
 70
     0
 62
     7
  6
Continuous
370
    50
390
F
347
46
348
0
  0
LAYER
  5
136
330
2
100
AcDbSymbolTableRecord
100
AcDbLayerTableRecord
  2
AM_5
 70
     0
 62
     3
  6
Continuous
370
    25
390
F
347
46
348
0
  0
LAYER
  5
13A
330
2
100
AcDbSymbolTableRecord
100
AcDbLayerTableRecord
  2
AM_7
 70
     0
 62
     7
  6
Center
370
    25
390
F
347
46
348
0
  0
LAYER
  5
1AB
330
2
100
AcDbSymbolTableRecord
100
AcDbLayerTableRecord
  2
ConnectionPoints
 70
     0
 62
     7
  6
Continuous
370
    50
390
F
347
46
348
0
  0
ENDTAB
  0
TABLE
  2
STYLE
  5
3
330
0
100
AcDbSymbolTable
 70
     1
  0
STYLE
  5
11
330
3
100
AcDbSymbolTableRecord
100
AcDbTextStyleTableRecord
  2
Standard
 70
     0
 40
0.0
 41
1.0
 50
0.0
 71
     0
 42
0.2
  3
txt
  4

  0
ENDTAB
  0
TABLE
  2
VIEW
  5
6
330
0
100
AcDbSymbolTable
 70
     0
  0
ENDTAB
  0
TABLE
  2
UCS
  5
7
330
0
100
AcDbSymbolTable
 70
     0
  0
ENDTAB
  0
TABLE
  2
APPID
  5
9
330
0
100
AcDbSymbolTable
 70
     1
  0
APPID
  5
12
330
9
100
AcDbSymbolTableRecord
100
AcDbRegAppTableRecord
  2
ACAD
 70
     0
  0
ENDTAB
  0
TABLE
  2
DIMSTYLE
  5
A
330
0
100
AcDbSymbolTable
 70
     1
100
AcDbDimStyleTable
  0
DIMSTYLE
105
27
330
A
100
AcDbSymbolTableRecord
100
AcDbDimStyleTableRecord
  2
Standard
 70
     0
178
     0
340
11
  0
ENDTAB
  0
TABLE
  2
BLOCK_RECORD
  5
1
330
0
100
AcDbSymbolTable
 70
     5
  0
BLOCK_RECORD
  5
1F
330
1
100
AcDbSymbolTableRecord
100
AcDbBlockTableRecord
  2
*Model_Space
340
22
 70
     0
280
     1
281
     0
  0
BLOCK_RECORD
  5
1B
330
1
100
AcDbSymbolTableRecord
100
AcDbBlockTableRecord
  2
*Paper_Space
340
1E
 70
     0
280
     1
281
     0
  0
BLOCK_RECORD
  5
23
330
1
100
AcDbSymbolTableRecord
100
AcDbBlockTableRecord
  2
*Paper_Space0
340
26
 70
     0
280
     1
281
     0
  0
BLOCK_RECORD
  5
6E
330
1
100
AcDbSymbolTableRecord
100
AcDbBlockTableRecord
  2
1_123859_2
340
0
102
{BLKREFS
331
6F
102
}
 70
     0
280
     1
281
     0
  0
BLOCK_RECORD
  5
8F
330
1
100
AcDbSymbolTableRecord
100
AcDbBlockTableRecord
  2
2_405015E_Inch_0_in_123859_2
340
0
102
{BLKREFS
331
90
102
}
 70
     0
280
     1
281
     0
  0
BLOCK_RECORD
  5
E5
330
1
100
AcDbSymbolTableRecord
100
AcDbBlockTableRecord
  2
3_053825_0_in_123859_2
340
0
102
{BLKREFS
331
E6
102
}
 70
     0
280
     1
281
     0
  0
BLOCK_RECORD
  5
14E
330
1
100
AcDbSymbolTableRecord
100
AcDbBlockTableRecord
  2
4_123859H_0_in_123859_2
340
0
102
{BLKREFS
331
14F
102
}
 70
     0
280
     1
281
     0
  0
ENDTAB
  0
ENDSEC
  0
SECTION
  2
BLOCKS
  0
BLOCK
  5
20
330
1F
100
AcDbEntity
  8
0
100
AcDbBlockBegin
  2
*Model_Space
 70
     0
 10
0.0
 20
0.0
 30
0.0
  3
*Model_Space
  1

  0
ENDBLK
  5
21
330
1F
100
AcDbEntity
  8
0
100
AcDbBlockEnd
  0
BLOCK
  5
1C
330
1B
100
AcDbEntity
 67
     1
  8
0
100
AcDbBlockBegin
  2
*Paper_Space
 70
     0
 10
0.0
 20
0.0
 30
0.0
  3
*Paper_Space
  1

  0
ENDBLK
  5
1D
330
1B
100
AcDbEntity
 67
     1
  8
0
100
AcDbBlockEnd
  0
BLOCK
  5
24
330
23
100
AcDbEntity
  8
0
100
AcDbBlockBegin
  2
*Paper_Space0
 70
     0
 10
0.0
 20
0.0
 30
0.0
  3
*Paper_Space0
  1

  0
ENDBLK
  5
25
330
23
100
AcDbEntity
  8
0
100
AcDbBlockEnd
  0
BLOCK
  5
70
330
6E
100
AcDbEntity
  8
0
100
AcDbBlockBegin
  2
1_123859_2
 70
     2
 10
0.0
 20
0.0
 30
0.0
  3
1_123859_2
  1

  0
ATTDEF
  5
73
330
6E
100
AcDbEntity
  8
AM_6
100
AcDbText
 10
6.265
 20
2.460000000000001
 30
0.0
 40
0.5
  1
Set Screw Low Backing Height Two-Bolt Pillow Block Inch Bore
100
AcDbAttributeDefinition
  3

  2
NN
 70
     8
280
     0
  0
ATTDEF
  5
74
330
6E
100
AcDbEntity
  8
AM_6
100
AcDbText
 10
6.265
 20
1.960000000000001
 30
0.0
 40
0.5
  1
SC Pillow Block Bearings -(Normal Duty) -Low Backing Height
100
AcDbAttributeDefinition
  3

  2
NT
 70
     8
280
     0
  0
ATTDEF
  5
75
330
6E
100
AcDbEntity
  8
AM_6
100
AcDbText
 10
6.265
 20
1.460000000000001
 30
0.0
 40
0.5
  1
123859
100
AcDbAttributeDefinition
  3

  2
NB
 70
     8
280
     0
  0
ATTDEF
  5
76
330
6E
100
AcDbEntity
  8
AM_6
100
AcDbText
 10
6.265
 20
0.9600000000000009
 30
0.0
 40
0.5
  1
$PN.
100
AcDbAttributeDefinition
  3

  2
NBSYN
 70
     8
280
     0
  0
ATTDEF
  5
77
330
6E
100
AcDbEntity
  8
AM_6
100
AcDbText
 10
6.265
 20
0.4600000000000009
 30
0.0
 40
0.5
  1
123859
100
AcDbAttributeDefinition
  3

  2
LINA
 70
     8
280
     0
  0
ATTDEF
  5
78
330
6E
100
AcDbEntity
  8
AM_6
100
AcDbText
 10
6.265
 20
-0.0399999999999991
 30
0.0
 40
0.5
  1
211
100
AcDbAttributeDefinition
  3

  2
SERIES
 70
     8
280
     0
  0
ATTDEF
  5
79
330
6E
100
AcDbEntity
  8
AM_6
100
AcDbText
 10
6.265
 20
-0.5399999999999991
 30
0.0
 40
0.5
  1
2-1/4
100
AcDbAttributeDefinition
  3

  2
SS
 70
     8
280
     0
  0
ATTDEF
  5
7A
330
6E
100
AcDbEntity
  8
AM_6
100
AcDbText
 10
6.265
 20
-1.039999999999999
 30
0.0
 40
0.5
  1
123859
100
AcDbAttributeDefinition
  3

  2
PN
 70
     8
280
     0
  0
ATTDEF
  5
7B
330
6E
100
AcDbEntity
  8
AM_6
100
AcDbText
 10
6.265
 20
-1.539999999999999
 30
0.0
 40
0.5
  1
P2B-SCB-204
100
AcDbAttributeDefinition
  3

  2
DESCRIPTION
 70
     8
280
     0
  0
ATTDEF
  5
7C
330
6E
100
AcDbEntity
  8
AM_6
100
AcDbText
 10
6.265
 20
-2.039999999999999
 30
0.0
 40
0.5
  1
8.8
100
AcDbAttributeDefinition
  3

  2
WEIGHT
 70
     8
280
     0
  0
ATTDEF
  5
7D
330
6E
100
AcDbEntity
  8
AM_6
100
AcDbText
 10
6.265
 20
-2.539999999999999
 30
0.0
 40
0.5
  1
2.22
100
AcDbAttributeDefinition
  3

  2
A
 70
     8
280
     0
  0
ATTDEF
  5
7E
330
6E
100
AcDbEntity
  8
AM_6
100
AcDbText
 10
6.265
 20
-3.039999999999999
 30
0.0
 40
0.5
  1
8.88
100
AcDbAttributeDefinition
  3

  2
B
 70
     8
280
     0
  0
ATTDEF
  5
7F
330
6E
100
AcDbEntity
  8
AM_6
100
AcDbText
 10
6.265
 20
-3.539999999999999
 30
0.0
 40
0.5
  1
2.30
100
AcDbAttributeDefinition
  3

  2
C
 70
     8
280
     0
  0
ATTDEF
  5
80
330
6E
100
AcDbEntity
  8
AM_6
100
AcDbText
 10
6.265
 20
-4.039999999999999
 30
0.0
 40
0.5
  1
6.38
100
AcDbAttributeDefinition
  3

  2
DMIN
 70
     8
280
     0
  0
ATTDEF
  5
81
330
6E
100
AcDbEntity
  8
AM_6
100
AcDbText
 10
6.265
 20
-4.539999999999999
 30
0.0
 40
0.5
  1
7.44
100
AcDbAttributeDefinition
  3

  2
DMAX
 70
     8
280
     0
  0
ATTDEF
  5
82
330
6E
100
AcDbEntity
  8
AM_6
100
AcDbText
 10
6.265
 20
-5.039999999999999
 30
0.0
 40
0.5
  1
5/8
100
AcDbAttributeDefinition
  3

  2
F
 70
     8
280
     0
  0
ATTDEF
  5
83
330
6E
100
AcDbEntity
  8
AM_6
100
AcDbText
 10
6.265
 20
-5.539999999999999
 30
0.0
 40
0.5
  1
1.21
100
AcDbAttributeDefinition
  3

  2
G
 70
     8
280
     0
  0
ATTDEF
  5
84
330
6E
100
AcDbEntity
  8
AM_6
100
AcDbText
 10
6.265
 20
-6.039999999999999
 30
0.0
 40
0.5
  1
0.81
100
AcDbAttributeDefinition
  3

  2
H
 70
     8
280
     0
  0
ATTDEF
  5
85
330
6E
100
AcDbEntity
  8
AM_6
100
AcDbText
 10
6.265
 20
-6.539999999999999
 30
0.0
 40
0.5
  1
4.90
100
AcDbAttributeDefinition
  3

  2
J
 70
     8
280
     0
  0
ATTDEF
  5
86
330
6E
100
AcDbEntity
  8
AM_6
100
AcDbText
 10
6.265
 20
-7.039999999999999
 30
0.0
 40
0.5
  1
2.71
100
AcDbAttributeDefinition
  3

  2
L
 70
     8
280
     0
  0
ATTDEF
  5
87
330
6E
100
AcDbEntity
  8
AM_6
100
AcDbText
 10
6.265
 20
-7.539999999999999
 30
0.0
 40
0.5
  1
2.44
100
AcDbAttributeDefinition
  3

  2
M
 70
     8
280
     0
  0
ATTDEF
  5
88
330
6E
100
AcDbEntity
  8
AM_6
100
AcDbText
 10
6.265
 20
-8.04
 30
0.0
 40
0.5
  1
0.87
100
AcDbAttributeDefinition
  3

  2
R
 70
     8
280
     0
  0
ATTDEF
  5
89
330
6E
100
AcDbEntity
  8
AM_6
100
AcDbText
 10
6.265
 20
-8.54
 30
0.0
 40
0.5
  1
1.35
100
AcDbAttributeDefinition
  3

  2
S
 70
     8
280
     0
  0
ATTDEF
  5
8A
330
6E
100
AcDbEntity
  8
AM_6
100
AcDbText
 10
6.265
 20
-9.04
 30
0.0
 40
0.5
  1
3.94
100
AcDbAttributeDefinition
  3

  2
U
 70
     8
280
     0
  0
ATTDEF
  5
8B
330
6E
100
AcDbEntity
  8
AM_6
100
AcDbText
 10
6.265
 20
-9.54
 30
0.0
 40
0.5
  1
7.88
100
AcDbAttributeDefinition
  3

  2
V
 70
     8
280
     0
  0
ATTDEF
  5
8C
330
6E
100
AcDbEntity
  8
AM_6
100
AcDbText
 10
6.265
 20
-10.04
 30
0.0
 40
0.5
  1
0.81
100
AcDbAttributeDefinition
  3

  2
W
 70
     8
280
     0
  0
ATTDEF
  5
8D
330
6E
100
AcDbEntity
  8
AM_6
100
AcDbText
 10
6.265
 20
-10.54
 30
0.0
 40
0.5
  1
0.12
100
AcDbAttributeDefinition
  3

  2
X
 70
     8
280
     0
  0
ATTDEF
  5
8E
330
6E
100
AcDbEntity
  8
AM_6
100
AcDbText
 10
6.265
 20
-11.04
 30
0.0
 40
0.5
  1
baldor
100
AcDbAttributeDefinition
  3

  2
COMPANY
 70
     8
280
     0
  0
INSERT
  5
90
330
6E
100
AcDbEntity
  8
0
100
AcDbBlockReference
  2
2_405015E_Inch_0_in_123859_2
 10
0.0
 20
0.0
 30
0.0
  0
INSERT
  5
E6
330
6E
100
AcDbEntity
  8
0
100
AcDbBlockReference
  2
3_053825_0_in_123859_2
 10
0.0
 20
0.0
 30
0.0
  0
INSERT
  5
14F
330
6E
100
AcDbEntity
  8
0
100
AcDbBlockReference
  2
4_123859H_0_in_123859_2
 10
0.0
 20
0.0
 30
0.0
  0
ENDBLK
  5
71
330
6E
100
AcDbEntity
  8
0
100
AcDbBlockEnd
  0
BLOCK
  5
91
330
8F
100
AcDbEntity
  8
0
100
AcDbBlockBegin
  2
2_405015E_Inch_0_in_123859_2
 70
     2
 10
0.0
 20
0.0
 30
0.0
  3
2_405015E_Inch_0_in_123859_2
  1

  0
ATTDEF
  5
93
330
8F
100
AcDbEntity
  8
AM_6
100
AcDbText
 10
5.21875
 20
2.077251965398827
 30
0.0
 40
0.5
  1
405015E -Inch
100
AcDbAttributeDefinition
  3

  2
NN
 70
     8
280
     0
  0
ATTDEF
  5
94
330
8F
100
AcDbEntity
  8
AM_6
100
AcDbText
 10
5.21875
 20
1.577251965398827
 30
0.0
 40
0.5
  1
Grease Fitting
100
AcDbAttributeDefinition
  3

  2
NT
 70
     8
280
     0
  0
ATTDEF
  5
95
330
8F
100
AcDbEntity
  8
AM_6
100
AcDbText
 10
5.21875
 20
1.077251965398827
 30
0.0
 40
0.5
  1
405015E-Inch
100
AcDbAttributeDefinition
  3

  2
NB
 70
     8
280
     0
  0
ATTDEF
  5
96
330
8F
100
AcDbEntity
  8
AM_6
100
AcDbText
 10
5.21875
 20
0.5772519653988271
 30
0.0
 40
0.5
  1
$MN.-Inch
100
AcDbAttributeDefinition
  3

  2
NBSYN
 70
     8
280
     0
  0
ATTDEF
  5
97
330
8F
100
AcDbEntity
  8
AM_6
100
AcDbText
 10
5.21875
 20
0.0772519653988271
 30
0.0
 40
0.5
  1
405015E
100
AcDbAttributeDefinition
  3

  2
LINA
 70
     8
280
     0
  0
ATTDEF
  5
98
330
8F
100
AcDbEntity
  8
AM_6
100
AcDbText
 10
5.21875
 20
-0.4227480346011729
 30
0.0
 40
0.5
  1
405015E
100
AcDbAttributeDefinition
  3

  2
MN
 70
     8
280
     0
  0
ATTDEF
  5
99
330
8F
100
AcDbEntity
  8
AM_6
100
AcDbText
 10
5.21875
 20
-0.9227480346011729
 30
0.0
 40
0.5
  1
1/8 x 27PTF
100
AcDbAttributeDefinition
  3

  2
T
 70
     8
280
     0
  0
ATTDEF
  5
9A
330
8F
100
AcDbEntity
  8
AM_6
100
AcDbText
 10
5.21875
 20
-1.422748034601173
 30
0.0
 40
0.5
  1
baldor
100
AcDbAttributeDefinition
  3

  2
COMPANY
 70
     8
280
     0
  0
LWPOLYLINE
  5
9D
330
8F
100
AcDbEntity
  8
AM_9
100
AcDbPolyline
 90
        3
 70
     0
 43
0.0
 10
-0.1093749999999999
 20
1.873439152027363
 10
-0.0546874999999999
 20
1.897457606195165
 10
0.0000000000000001
 20
1.924503070031409
  0
LWPOLYLINE
  5
9E
330
8F
100
AcDbEntity
  8
AM_9
100
AcDbPolyline
 90
        3
 70
     0
 43
0.0
 10
0.0000000000000001
 20
1.924503070031409
 10
0.0544416102741497
 20
1.897572941437546
 10
0.1093750000000001
 20
1.873439152027363
  0
ELLIPSE
  5
9F
330
8F
100
AcDbEntity
  8
AM_9
100
AcDbEllipse
 10
0.0000000000000001
 20
1.552099384704472
 30
0.0
 11
-0.161902872472269
 21
1.982738345459263E-17
 31
0.0
210
0.0
220
0.0
230
1.0
 40
0.7071067811865478
 41
0.0
 42
6.283185307179586
  0
LWPOLYLINE
  5
A0
330
8F
100
AcDbEntity
  8
AM_9
100
AcDbPolyline
 90
        3
 70
     0
 43
0.0
 10
0.0000000000000001
 20
1.982390225680941
 10
-0.0544416102741495
 20
1.964868965625761
 10
-0.1093749999999999
 20
1.944149830146017
  0
LWPOLYLINE
  5
A1
330
8F
100
AcDbEntity
  8
AM_9
100
AcDbPolyline
 90
        3
 70
     0
 43
0.0
 10
0.109375
 20
1.944149830146017
 10
0.0546875
 20
1.9647835327477
 10
0.0000000000000001
 20
1.982390225680941
  0
LWPOLYLINE
  5
A2
330
8F
100
AcDbEntity
  8
AM_9
100
AcDbPolyline
 90
        3
 70
     0
 43
0.0
 10
0.1093750000000001
 20
1.873439152027363
 10
0.1640625000000001
 20
1.85280544942568
 10
0.2187500000000001
 20
1.835198756492439
  0
LINE
  5
A3
330
8F
100
AcDbEntity
  8
AM_9
100
AcDbLine
 10
0.0000000000000001
 20
1.982390225680941
 30
0.0
 11
0.0000000000000001
 21
1.924503070031409
 31
0.0
  0
LWPOLYLINE
  5
A4
330
8F
100
AcDbEntity
  8
AM_9
100
AcDbPolyline
 90
        3
 70
     0
 43
0.0
 10
-0.2187499999999999
 20
1.835198756492439
 10
-0.1643083897258503
 20
1.852720016547619
 10
-0.1093749999999999
 20
1.873439152027363
  0
ELLIPSE
  5
A5
330
8F
100
AcDbEntity
  8
AM_9
100
AcDbEllipse
 10
0.0000000000000005
 20
1.739482681718908
 30
0.0
 11
0.2187500000000004
 21
3.259629011154181E-9
 31
0.0
210
0.0
220
0.0
230
1.0
 40
0.7071067811865458
 41
2.094395089222307
 42
3.141592638688632
  0
LINE
  5
A6
330
8F
100
AcDbEntity
  8
AM_9
100
AcDbLine
 10
0.1329278323437528
 20
1.934215334674073
 30
0.0
 11
0.109375
 21
1.944149830146017
 31
0.0
  0
LINE
  5
A7
330
8F
100
AcDbEntity
  8
AM_9
100
AcDbLine
 10
-0.1093749999999999
 20
1.944149830146017
 30
0.0
 11
-0.1333449183251187
 21
1.934033703771715
 31
0.0
  0
ELLIPSE
  5
A8
330
8F
100
AcDbEntity
  8
AM_9
100
AcDbEllipse
 10
-0.0000000000000002
 20
1.739482681718908
 30
0.0
 11
0.20575189722307
 21
0.0
 31
0.0
210
0.0
220
0.0
230
1.0
 40
0.7071067811865493
 41
4.71238898038469
 42
9.456034611736145
  0
LINE
  5
A9
330
8F
100
AcDbEntity
  8
AM_9
100
AcDbLine
 10
0.1985206121313389
 20
1.573671546152899
 30
0.0
 11
0.2056511353459339
 21
1.734930000510399
 31
0.0
  0
LINE
  5
AA
330
8F
100
AcDbEntity
  8
AM_9
100
AcDbLine
 10
-0.2056511353459337
 20
1.734930000510399
 30
0.0
 11
-0.1985206121313387
 21
1.573671546152899
 31
0.0
  0
ELLIPSE
  5
AB
330
8F
100
AcDbEntity
  8
AM_9
100
AcDbEllipse
 10
0.0000000000000003
 20
1.739482681718908
 30
0.0
 11
0.2057518972230698
 21
0.0
 31
0.0
210
0.0
220
0.0
230
1.0
 40
0.7071067811865488
 41
3.172849304556559
 42
4.71238898038469
  0
ELLIPSE
  5
AC
330
8F
100
AcDbEntity
  8
AM_9
100
AcDbEllipse
 10
0.0000000000000007
 20
1.739482681718907
 30
0.0
 11
0.2187500000000006
 21
0.0
 31
0.0
210
0.0
220
0.0
230
1.0
 40
0.7071067811865472
 41
3.141592653589793
 42
5.235987755982985
  0
ELLIPSE
  5
AD
330
8F
100
AcDbEntity
  8
AM_9
100
AcDbEllipse
 10
-0.0000000000000004
 20
1.739482681718908
 30
0.0
 11
0.2187500000000005
 21
0.0
 31
0.0
210
0.0
220
0.0
230
1.0
 40
0.7071067811865475
 41
5.235987755982991
 42
8.37758040957278
  0
ELLIPSE
  5
AE
330
8F
100
AcDbEntity
  8
AM_9
100
AcDbEllipse
 10
0.0000000000000101
 20
1.810193359837578
 30
0.0
 11
0.2187500000000173
 21
0.0
 31
0.0
210
0.0
220
0.0
230
1.0
 40
0.7071067811864525
 41
-4.18879020478636
 42
-4.057286255304458
  0
ELLIPSE
  5
AF
330
8F
100
AcDbEntity
  8
AM_9
100
AcDbEllipse
 10
-0.0000000000000148
 20
1.810193359837572
 30
0.0
 11
0.2187500000000273
 21
0.0
 31
0.0
210
0.0
220
0.0
230
1.0
 40
0.707106781186452
 41
0.9156936017146711
 42
2.094395102393108
  0
LINE
  5
B0
330
8F
100
AcDbEntity
  8
AM_9
100
AcDbLine
 10
-0.0948683298050513
 20
1.916259377015544
 30
0.0
 11
-0.1073548910028989
 21
1.897645510586479
 31
0.0
  0
LINE
  5
B1
330
8F
100
AcDbEntity
  8
AM_9
100
AcDbLine
 10
0.1073548910028991
 20
1.897645510586479
 30
0.0
 11
0.0948683298050515
 21
1.916259377015544
 31
0.0
  0
ELLIPSE
  5
B2
330
8F
100
AcDbEntity
  8
AM_9
100
AcDbEllipse
 10
0.0000000000000001
 20
1.88443957186215
 30
0.0
 11
0.105
 21
0.0
 31
0.0
210
0.0
220
0.0
230
1.0
 40
0.7071067811865476
 41
0.4429110440736359
 42
3.141592653589793
  0
ELLIPSE
  5
B3
330
8F
100
AcDbEntity
  8
AM_9
100
AcDbEllipse
 10
0.0000000000001625
 20
1.861637585486495
 30
0.0
 11
0.118820090735074
 21
0.0
 31
0.0
210
0.0
220
0.0
230
1.0
 40
0.7071067811865482
 41
-3.584503697663373
 42
-3.517813279690751
  0
ELLIPSE
  5
B4
330
8F
100
AcDbEntity
  8
AM_9
100
AcDbEllipse
 10
0.0000000000000001
 20
1.810193359837563
 30
0.0
 11
0.2137499999999998
 21
0.0
 31
0.0
210
0.0
220
0.0
230
1.0
 40
0.707106781186545
 41
0.9036552188403366
 42
2.237937434749457
  0
LINE
  5
B5
330
8F
100
AcDbEntity
  8
AM_9
100
AcDbLine
 10
0.1050000000000001
 20
1.885758562744688
 30
0.0
 11
0.1050000000000001
 21
1.905652775297746
 31
0.0
  0
LINE
  5
B6
330
8F
100
AcDbEntity
  8
AM_9
100
AcDbLine
 10
-0.1049999999999999
 20
1.905652775297746
 30
0.0
 11
-0.1049999999999999
 21
1.885758562744688
 31
0.0
  0
ELLIPSE
  5
B7
330
8F
100
AcDbEntity
  8
AM_9
100
AcDbEllipse
 10
0.0000000000000001
 20
1.905652775297746
 30
0.0
 11
0.105
 21
0.0
 31
0.0
210
0.0
220
0.0
230
1.0
 40
0.7071067811865476
 41
0.0
 42
3.665191429188094
  0
ELLIPSE
  5
B8
330
8F
100
AcDbEntity
  8
AM_9
100
AcDbEllipse
 10
0.0000000000000027
 20
1.884439571862148
 30
0.0
 11
0.1049999999999974
 21
1.564621925353966E-9
 31
0.0
210
0.0
220
0.0
230
1.0
 40
0.7071067811865541
 41
0.0000017304280906
 42
0.4429110249355576
  0
ELLIPSE
  5
B9
330
8F
100
AcDbEntity
  8
AM_9
100
AcDbEllipse
 10
0.0000000000000014
 20
1.823146282244944
 30
0.0
 11
0.1725340532830131
 21
0.0
 31
0.0
210
0.0
220
0.0
230
1.0
 40
0.7071067811865417
 41
0.7772913431420321
 42
1.407862057867268
  0
LINE
  5
BA
330
8F
100
AcDbEntity
  8
AM_9
100
AcDbLine
 10
-0.0192743186691526
 20
1.944543298806222
 30
0.0
 11
-0.0279874918769163
 21
1.943530458615231
 31
0.0
  0
LINE
  5
BB
330
8F
100
AcDbEntity
  8
AM_9
100
AcDbLine
 10
0.0279874918769165
 20
1.943530458615231
 30
0.0
 11
0.0192743186691529
 21
1.944543298806222
 31
0.0
  0
ELLIPSE
  5
BC
330
8F
100
AcDbEntity
  8
AM_9
100
AcDbEllipse
 10
0.0000000000000001
 20
1.861637585486544
 30
0.0
 11
0.1188200907348976
 21
1.770557325108315E-9
 31
0.0
210
0.0
220
0.0
230
1.0
 40
0.7071067811865475
 41
0.3762206064498326
 42
2.698681590378042
  0
ELLIPSE
  5
BD
330
8F
100
AcDbEntity
  8
AM_9
100
AcDbEllipse
 10
0.0000000000000001
 20
1.823146282244955
 30
0.0
 11
0.1725340532830076
 21
0.0
 31
0.0
210
0.0
220
0.0
230
1.0
 40
0.7071067811864986
 41
1.407862057867256
 42
2.3643013104478
  0
ELLIPSE
  5
BE
330
8F
100
AcDbEntity
  8
AM_9
100
AcDbEllipse
 10
-0.0000000000000018
 20
1.905652775297743
 30
0.0
 11
0.1050000000000019
 21
0.0
 31
0.0
210
0.0
220
0.0
230
1.0
 40
0.7071067811865388
 41
5.759586531581323
 42
6.283185307179586
  0
ELLIPSE
  5
BF
330
8F
100
AcDbEntity
  8
AM_9
100
AcDbEllipse
 10
0.0000000000000001
 20
1.948079182168939
 30
0.0
 11
0.135
 21
0.0
 31
0.0
210
0.0
220
0.0
230
1.0
 40
0.7071067811865483
 41
0.4159140521025479
 42
2.725678601487245
  0
ELLIPSE
  5
C0
330
8F
100
AcDbEntity
  8
AM_9
100
AcDbEllipse
 10
-0.0000000000000002
 20
1.578060636445927
 30
0.0
 11
0.1986176267812158
 21
0.0
 31
0.0
210
0.0
220
0.0
230
1.0
 40
0.7071067811865476
 41
0.0
 42
6.283185307179586
  0
LWPOLYLINE
  5
C2
330
8F
100
AcDbEntity
  8
AM_4
100
AcDbPolyline
 90
        3
 70
     0
 43
0.0
 10
0.2187500000000001
 20
1.893085912141971
 10
0.1643083897258505
 20
1.920016040735833
 10
0.1329278323437528
 20
1.934215334674073
  0
LWPOLYLINE
  5
C3
330
8F
100
AcDbEntity
  8
AM_4
100
AcDbPolyline
 90
        3
 70
     0
 43
0.0
 10
-0.1333449183251187
 20
1.934033703771715
 10
-0.1640624999999999
 20
1.920131375978215
 10
-0.2187499999999999
 20
1.893085912141971
  0
ELLIPSE
  5
C4
330
8F
100
AcDbEntity
  8
AM_4
100
AcDbEllipse
 10
0.0000000000000004
 20
1.810193359837562
 30
0.0
 11
0.2187500000000003
 21
0.0
 31
0.0
210
0.0
220
0.0
230
1.0
 40
0.7071067811865472
 41
2.225899051875097
 42
3.141592653589793
  0
ELLIPSE
  5
C5
330
8F
100
AcDbEntity
  8
AM_4
100
AcDbEllipse
 10
0.0000000000000007
 20
1.810193359837562
 30
0.0
 11
0.2187500000000005
 21
0.0
 31
0.0
210
0.0
220
0.0
230
1.0
 40
0.7071067811865465
 41
3.141592653589793
 42
5.235987755982984
  0
ELLIPSE
  5
C6
330
8F
100
AcDbEntity
  8
AM_4
100
AcDbEllipse
 10
-0.0000000000000002
 20
1.810193359837562
 30
0.0
 11
0.2187500000000002
 21
0.0
 31
0.0
210
0.0
220
0.0
230
1.0
 40
0.7071067811865465
 41
5.235987755982988
 42
7.198878908894282
  0
ELLIPSE
  5
C7
330
8F
100
AcDbEntity
  8
AM_4
100
AcDbEllipse
 10
0.0000000000000001
 20
1.861637585486544
 30
0.0
 11
0.1188200907348975
 21
1.770557325108312E-9
 31
0.0
210
0.0
220
0.0
230
1.0
 40
0.7071067811865447
 41
2.765372007837784
 42
4.712388969847977
  0
ELLIPSE
  5
C8
330
8F
100
AcDbEntity
  8
AM_4
100
AcDbEllipse
 10
0.0000000000000002
 20
1.810193359837562
 30
0.0
 11
0.2137500000000001
 21
0.0
 31
0.0
210
0.0
220
0.0
230
1.0
 40
0.7071067811865472
 41
2.237937434749456
 42
4.71238898038469
  0
ELLIPSE
  5
C9
330
8F
100
AcDbEntity
  8
AM_4
100
AcDbEllipse
 10
0.0000000000000002
 20
1.810193359837562
 30
0.0
 11
0.21375
 21
0.0
 31
0.0
210
0.0
220
0.0
230
1.0
 40
0.7071067811865467
 41
4.71238898038469
 42
7.186840526019923
  0
ELLIPSE
  5
CA
330
8F
100
AcDbEntity
  8
AM_4
100
AcDbEllipse
 10
0.0000000000000002
 20
1.88443957186215
 30
0.0
 11
0.1049999999999998
 21
0.0
 31
0.0
210
0.0
220
0.0
230
1.0
 40
0.7071067811865465
 41
4.71238898038469
 42
6.283185307179586
  0
LINE
  5
CB
330
8F
100
AcDbEntity
  8
AM_4
100
AcDbLine
 10
0.1050000000000001
 20
1.88443957186215
 30
0.0
 11
0.1050000000000001
 21
1.885758562744688
 31
0.0
  0
LINE
  5
CC
330
8F
100
AcDbEntity
  8
AM_4
100
AcDbLine
 10
-0.1049999999999999
 20
1.885758562744688
 30
0.0
 11
-0.1049999999999999
 21
1.88443957186215
 31
0.0
  0
ELLIPSE
  5
CD
330
8F
100
AcDbEntity
  8
AM_4
100
AcDbEllipse
 10
0.0
 20
1.88443957186215
 30
0.0
 11
0.1049999999999998
 21
1.564621925354001E-9
 31
0.0
210
0.0
220
0.0
230
1.0
 40
0.7071067811865465
 41
3.141592638688632
 42
4.712388969847977
  0
ELLIPSE
  5
CE
330
8F
100
AcDbEntity
  8
AM_4
100
AcDbEllipse
 10
0.0000000000000001
 20
1.861637585486544
 30
0.0
 11
0.1188200907348975
 21
1.770557325108312E-9
 31
0.0
210
0.0
220
0.0
230
1.0
 40
0.7071067811865447
 41
4.712388969847977
 42
6.659405913629421
  0
ELLIPSE
  5
CF
330
8F
100
AcDbEntity
  8
AM_4
100
AcDbEllipse
 10
-0.0000000000000001
 20
1.823146282244942
 30
0.0
 11
0.1725340532830156
 21
0.0
 31
0.0
210
0.0
220
0.0
230
1.0
 40
0.7071067811865467
 41
4.71238898038469
 42
7.060476650321625
  0
ELLIPSE
  5
D0
330
8F
100
AcDbEntity
  8
AM_4
100
AcDbEllipse
 10
0.0000000000000003
 20
1.823146282244942
 30
0.0
 11
0.1725340532830156
 21
0.0
 31
0.0
210
0.0
220
0.0
230
1.0
 40
0.7071067811865468
 41
2.364301310447755
 42
4.71238898038469
  0
LWPOLYLINE
  5
D1
330
8F
100
AcDbEntity
  8
AM_4
100
AcDbPolyline
 90
        3
 70
     0
 43
0.0
 10
-0.2187499999999999
 20
1.714477285064031
 10
-0.1643083897258503
 20
1.69695602500885
 10
-0.1093749999999999
 20
1.676236889529107
  0
LINE
  5
D2
330
8F
100
AcDbEntity
  8
AM_4
100
AcDbLine
 10
-0.2187499999999999
 20
1.893085912141971
 30
0.0
 11
-0.2187499999999999
 21
1.656590129414499
 31
0.0
  0
LWPOLYLINE
  5
D3
330
8F
100
AcDbEntity
  8
AM_4
100
AcDbPolyline
 90
        3
 70
     0
 43
0.0
 10
-0.1093749999999999
 20
1.605526211410452
 10
-0.1640624999999999
 20
1.629544665578254
 10
-0.2187499999999999
 20
1.656590129414499
  0
LWPOLYLINE
  5
D4
330
8F
100
AcDbEntity
  8
AM_4
100
AcDbPolyline
 90
        3
 70
     0
 43
0.0
 10
0.0000000000000001
 20
1.567285815875529
 10
-0.0544416102741495
 20
1.584807075930709
 10
-0.1093749999999999
 20
1.605526211410452
  0
LINE
  5
D5
330
8F
100
AcDbEntity
  8
AM_4
100
AcDbLine
 10
0.2187500000000001
 20
1.893085912141971
 30
0.0
 11
0.2187500000000001
 21
1.656590129414499
 31
0.0
  0
LWPOLYLINE
  5
D6
330
8F
100
AcDbEntity
  8
AM_4
100
AcDbPolyline
 90
        3
 70
     0
 43
0.0
 10
0.109375
 20
1.676236889529107
 10
0.1640625000000001
 20
1.69687059213079
 10
0.2187500000000001
 20
1.714477285064031
  0
LINE
  5
D7
330
8F
100
AcDbEntity
  8
AM_4
100
AcDbLine
 10
0.0000000000000001
 20
1.625172971525061
 30
0.0
 11
0.0000000000000001
 21
1.567285815875529
 31
0.0
  0
LWPOLYLINE
  5
D8
330
8F
100
AcDbEntity
  8
AM_4
100
AcDbPolyline
 90
        3
 70
     0
 43
0.0
 10
0.1093750000000001
 20
1.605526211410452
 10
0.0546875000000001
 20
1.58489250880877
 10
0.0000000000000001
 20
1.567285815875529
  0
LWPOLYLINE
  5
D9
330
8F
100
AcDbEntity
  8
AM_4
100
AcDbPolyline
 90
        3
 70
     0
 43
0.0
 10
0.2187500000000001
 20
1.656590129414499
 10
0.1643083897258505
 20
1.629660000820636
 10
0.1093750000000001
 20
1.605526211410452
  0
LWPOLYLINE
  5
DA
330
8F
100
AcDbEntity
  8
AM_4
100
AcDbPolyline
 90
        3
 70
     0
 43
0.0
 10
-0.1093749999999999
 20
1.676236889529107
 10
-0.0546874999999999
 20
1.652218435361305
 10
0.0000000000000001
 20
1.625172971525061
  0
LWPOLYLINE
  5
DB
330
8F
100
AcDbEntity
  8
AM_4
100
AcDbPolyline
 90
        3
 70
     0
 43
0.0
 10
0.0000000000000001
 20
1.625172971525061
 10
0.0544416102741497
 20
1.652103100118923
 10
0.109375
 20
1.676236889529107
  0
ELLIPSE
  5
DC
330
8F
100
AcDbEntity
  8
AM_4
100
AcDbEllipse
 10
-0.0000000000000004
 20
1.905652775297747
 30
0.0
 11
0.1050000000000011
 21
0.0
 31
0.0
210
0.0
220
0.0
230
1.0
 40
0.7071067811865507
 41
4.71238898038469
 42
5.759586531581278
  0
LINE
  5
DD
330
8F
100
AcDbEntity
  8
AM_4
100
AcDbLine
 10
0.0909326673973662
 20
1.868529669285452
 30
0.0
 11
0.1169134295108994
 21
1.900349474438847
 31
0.0
  0
LINE
  5
DE
330
8F
100
AcDbEntity
  8
AM_4
100
AcDbLine
 10
-0.1169134295108991
 20
1.900349474438847
 30
0.0
 11
-0.090932667397366
 21
1.868529669285452
 31
0.0
  0
ELLIPSE
  5
DF
330
8F
100
AcDbEntity
  8
AM_4
100
AcDbEllipse
 10
0.0000000000000002
 20
1.948079182168939
 30
0.0
 11
0.1349999999999999
 21
0.0
 31
0.0
210
0.0
220
0.0
230
1.0
 40
0.7071067811865471
 41
5.759586531581287
 42
6.699099359282133
  0
ELLIPSE
  5
E0
330
8F
100
AcDbEntity
  8
AM_4
100
AcDbEllipse
 10
0.0000000000000008
 20
1.94807918216894
 30
0.0
 11
0.1350000000000013
 21
0.0
 31
0.0
210
0.0
220
0.0
230
1.0
 40
0.707106781186546
 41
2.725678601487256
 42
5.759586531581276
  0
ELLIPSE
  5
E1
330
8F
100
AcDbEntity
  8
AM_4
100
AcDbEllipse
 10
0.0000000000000006
 20
1.905652775297747
 30
0.0
 11
0.1050000000000009
 21
0.0
 31
0.0
210
0.0
220
0.0
230
1.0
 40
0.7071067811865496
 41
3.665191429188098
 42
4.71238898038469
  0
LINE
  5
E2
330
8F
100
AcDbEntity
  8
AM_4
100
AcDbLine
 10
-0.0939243440009286
 20
2.033981742027637
 30
0.0
 11
-0.1234908992236334
 21
1.986647289517747
 31
0.0
  0
LINE
  5
E3
330
8F
100
AcDbEntity
  8
AM_4
100
AcDbLine
 10
0.1234908992236336
 20
1.986647289517747
 30
0.0
 11
0.0939243440009288
 21
2.033981742027637
 31
0.0
  0
ELLIPSE
  5
E4
330
8F
100
AcDbEntity
  8
AM_4
100
AcDbEllipse
 10
0.0000000000000002
 20
2.004647724663863
 30
0.0
 11
0.1026779019331874
 21
0.0
 31
0.0
210
0.0
220
0.0
230
1.0
 40
0.707106781186547
 41
0.0
 42
6.283185307179586
  0
ENDBLK
  5
92
330
8F
100
AcDbEntity
  8
0
100
AcDbBlockEnd
  0
BLOCK
  5
E7
330
E5
100
AcDbEntity
  8
0
100
AcDbBlockBegin
  2
3_053825_0_in_123859_2
 70
     2
 10
0.0
 20
0.0
 30
0.0
  3
3_053825_0_in_123859_2
  1

  0
ATTDEF
  5
E9
330
E5
100
AcDbEntity
  8
AM_6
100
AcDbText
 10
5.87
 20
1.968059542428236
 30
0.0
 40
0.5
  1
Set Screw Insert Inch Bore - Corrosion Resistant
100
AcDbAttributeDefinition
  3

  2
NN
 70
     8
280
     0
  0
ATTDEF
  5
EA
330
E5
100
AcDbEntity
  8
AM_6
100
AcDbText
 10
5.87
 20
1.468059542428236
 30
0.0
 40
0.5
  1
SC Normal Duty Bearing Inserts
100
AcDbAttributeDefinition
  3

  2
NT
 70
     8
280
     0
  0
ATTDEF
  5
EB
330
E5
100
AcDbEntity
  8
AM_6
100
AcDbText
 10
5.87
 20
0.9680595424282357
 30
0.0
 40
0.5
  1
053825
100
AcDbAttributeDefinition
  3

  2
NB
 70
     8
280
     0
  0
ATTDEF
  5
EC
330
E5
100
AcDbEntity
  8
AM_6
100
AcDbText
 10
5.87
 20
0.4680595424282357
 30
0.0
 40
0.5
  1
$PN.
100
AcDbAttributeDefinition
  3

  2
NBSYN
 70
     8
280
     0
  0
ATTDEF
  5
ED
330
E5
100
AcDbEntity
  8
AM_6
100
AcDbText
 10
5.87
 20
-0.0319404575717643
 30
0.0
 40
0.5
  1
053825
100
AcDbAttributeDefinition
  3

  2
LINA
 70
     8
280
     0
  0
ATTDEF
  5
EE
330
E5
100
AcDbEntity
  8
AM_6
100
AcDbText
 10
5.87
 20
-0.5319404575717643
 30
0.0
 40
0.5
  1
211
100
AcDbAttributeDefinition
  3

  2
SERIES
 70
     8
280
     0
  0
ATTDEF
  5
EF
330
E5
100
AcDbEntity
  8
AM_6
100
AcDbText
 10
5.87
 20
-1.031940457571764
 30
0.0
 40
0.5
  1
2-1/4
100
AcDbAttributeDefinition
  3

  2
SS
 70
     8
280
     0
  0
ATTDEF
  5
F0
330
E5
100
AcDbEntity
  8
AM_6
100
AcDbText
 10
5.87
 20
-1.531940457571764
 30
0.0
 40
0.5
  1
053825
100
AcDbAttributeDefinition
  3

  2
PN
 70
     8
280
     0
  0
ATTDEF
  5
F1
330
E5
100
AcDbEntity
  8
AM_6
100
AcDbText
 10
5.87
 20
-2.031940457571764
 30
0.0
 40
0.5
  1
INS-SC-204-CR
100
AcDbAttributeDefinition
  3

  2
DESCRIPTION
 70
     8
280
     0
  0
ATTDEF
  5
F2
330
E5
100
AcDbEntity
  8
AM_6
100
AcDbText
 10
5.87
 20
-2.531940457571764
 30
0.0
 40
0.5
  1
2.22
100
AcDbAttributeDefinition
  3

  2
A
 70
     8
280
     0
  0
ATTDEF
  5
F3
330
E5
100
AcDbEntity
  8
AM_6
100
AcDbText
 10
5.87
 20
-3.031940457571764
 30
0.0
 40
0.5
  1
0.94
100
AcDbAttributeDefinition
  3

  2
C
 70
     8
280
     0
  0
ATTDEF
  5
F4
330
E5
100
AcDbEntity
  8
AM_6
100
AcDbText
 10
5.87
 20
-3.531940457571764
 30
0.0
 40
0.5
  1
3.9370
100
AcDbAttributeDefinition
  3

  2
D
 70
     8
280
     0
  0
ATTDEF
  5
F5
330
E5
100
AcDbEntity
  8
AM_6
100
AcDbText
 10
5.87
 20
-4.031940457571764
 30
0.0
 40
0.5
  1
0.25
100
AcDbAttributeDefinition
  3

  2
J
 70
     8
280
     0
  0
ATTDEF
  5
F6
330
E5
100
AcDbEntity
  8
AM_6
100
AcDbText
 10
5.87
 20
-4.531940457571764
 30
0.0
 40
0.5
  1
2.71
100
AcDbAttributeDefinition
  3

  2
L
 70
     8
280
     0
  0
ATTDEF
  5
F7
330
E5
100
AcDbEntity
  8
AM_6
100
AcDbText
 10
5.87
 20
-5.031940457571764
 30
0.0
 40
0.5
  1
3/8 - 24
100
AcDbAttributeDefinition
  3

  2
N
 70
     8
280
     0
  0
ATTDEF
  5
F8
330
E5
100
AcDbEntity
  8
AM_6
100
AcDbText
 10
5.87
 20
-5.531940457571764
 30
0.0
 40
0.5
  1
0.87
100
AcDbAttributeDefinition
  3

  2
W
 70
     8
280
     0
  0
ATTDEF
  5
F9
330
E5
100
AcDbEntity
  8
AM_6
100
AcDbText
 10
5.87
 20
-6.031940457571764
 30
0.0
 40
0.5
  1
1.35
100
AcDbAttributeDefinition
  3

  2
Y
 70
     8
280
     0
  0
ATTDEF
  5
FA
330
E5
100
AcDbEntity
  8
AM_6
100
AcDbText
 10
5.87
 20
-6.531940457571764
 30
0.0
 40
0.5
  1
baldor
100
AcDbAttributeDefinition
  3

  2
COMPANY
 70
     8
280
     0
  0
ARC
  5
FB
330
E5
100
AcDbEntity
  8
AM_9
100
AcDbCircle
 10
0.2499999999999889
 20
0.0000000000000009
 30
0.0
 40
0.1250000000000109
100
AcDbArc
 50
351.6356310720614
 51
0.0
  0
ARC
  5
FC
330
E5
100
AcDbEntity
  8
AM_9
100
AcDbCircle
 10
0.2499999999999991
 20
0.0000000000000012
 30
0.0
 40
0.1250000000000015
100
AcDbArc
 50
296.1578830804575
 51
309.4232310877038
  0
ARC
  5
FD
330
E5
100
AcDbEntity
  8
AM_9
100
AcDbCircle
 10
0.2499999999999974
 20
0.0000000000002081
 30
0.0
 40
0.1249999999997917
100
AcDbArc
 50
90.0
 51
91.58955803412839
  0
CIRCLE
  5
FE
330
E5
100
AcDbEntity
  8
AM_9
100
AcDbCircle
 10
0.2499999999999999
 20
-0.0000000000000001
 30
0.0
 40
0.0395454545454537
  0
LINE
  5
FF
330
E5
100
AcDbEntity
  8
AM_9
100
AcDbLine
 10
-1.026829579220689
 20
1.120564959331178
 30
0.0
 11
-0.7931704207793109
 21
1.120564959331178
 31
0.0
  0
LINE
  5
100
330
E5
100
AcDbEntity
  8
AM_9
100
AcDbLine
 10
-0.75635
 20
1.125
 30
0.0
 11
-0.75635
 21
1.330664511453266
 31
0.0
  0
LINE
  5
101
330
E5
100
AcDbEntity
  8
AM_9
100
AcDbLine
 10
-1.06365
 20
1.330664511453266
 30
0.0
 11
-1.06365
 21
1.125
 31
0.0
  0
LINE
  5
102
330
E5
100
AcDbEntity
  8
AM_9
100
AcDbLine
 10
-1.06365
 20
1.330664511453266
 30
0.0
 11
-0.75635
 21
1.330664511453266
 31
0.0
  0
LINE
  5
103
330
E5
100
AcDbEntity
  8
AM_9
100
AcDbLine
 10
-0.75635
 20
1.330664511453266
 30
0.0
 11
-0.7320145114532658
 21
1.355
 31
0.0
  0
LINE
  5
104
330
E5
100
AcDbEntity
  8
AM_9
100
AcDbLine
 10
-1.087985488546734
 20
1.355
 30
0.0
 11
-1.06365
 21
1.330664511453266
 31
0.0
  0
LWPOLYLINE
  5
105
330
E5
100
AcDbEntity
  8
AM_9
100
AcDbPolyline
 90
       12
 70
     0
 43
0.0
 10
-1.026829579220689
 20
1.120564959331178
 10
-1.008971618680378
 20
1.118569013413242
 10
-0.9878694846918243
 20
1.116626392407565
 10
-0.964807817062761
 20
1.115032797217373
 10
-0.939866834644993
 20
1.113922510112425
 10
-0.9159632303202495
 20
1.11347802990887
 10
-0.8918764128352066
 20
1.113626935260029
 10
-0.8694139490450741
 20
1.114321446755196
 10
-0.8480535041342961
 20
1.115464295786339
 10
-0.8279131984982934
 20
1.116979340615651
 10
-0.8099028850224559
 20
1.118684343278839
 10
-0.7931704207793109
 20
1.120564959331178
  0
LWPOLYLINE
  5
106
330
E5
100
AcDbEntity
  8
AM_9
100
AcDbPolyline
 90
        6
 70
     0
 43
0.0
 10
-0.7931704207793109
 20
1.120564959331178
 10
-0.7783034138421498
 20
1.122212398927062
 10
-0.7667734107354915
 20
1.123623839802424
 10
-0.7595495302571076
 20
1.124567481899533
 10
-0.7564358313979497
 20
1.124988280551597
 10
-0.7563500000003099
 20
1.124999999999958
  0
LWPOLYLINE
  5
107
330
E5
100
AcDbEntity
  8
AM_9
100
AcDbPolyline
 90
       13
 70
     0
 43
0.0
 10
-1.026829579220689
 20
0.3831256398452831
 10
-1.012810661006627
 20
0.3674731547065032
 10
-0.9920848959165718
 20
0.3505337095485394
 10
-0.9684895670130227
 20
0.3373558268132789
 10
-0.9446538182304862
 20
0.3291663214820813
 10
-0.919671771834666
 20
0.3251970943135776
 10
-0.8962122318530032
 20
0.3255550640510273
 10
-0.8731530471636523
 20
0.3297105433704173
 10
-0.8515514025472324
 20
0.3373512596666414
 10
-0.8314894283030067
 20
0.3481463364120078
 10
-0.8169924542188927
 20
0.3586995072997507
 10
-0.8039117074514707
 20
0.3707664513299753
 10
-0.7931704207793109
 20
0.3831256398452831
  0
LWPOLYLINE
  5
108
330
E5
100
AcDbEntity
  8
AM_9
100
AcDbPolyline
 90
       13
 70
     0
 43
0.0
 10
-0.7931704207793111
 20
0.5640167907148769
 10
-0.8061360034853093
 20
0.577373304593882
 10
-0.820973923285625
 20
0.5890995158663959
 10
-0.8432135949935474
 20
0.601732464654816
 10
-0.8677730924294534
 20
0.6106653045126192
 10
-0.8917715467297913
 20
0.6152229116786576
 10
-0.916349329887807
 20
0.6161406924312094
 10
-0.9392772739761471
 20
0.6135908381305287
 10
-0.9613894132636371
 20
0.6078804018443451
 10
-0.9821990815763117
 20
0.599112444272863
 10
-1.001130547201831
 20
0.5876219920385533
 10
-1.014800017563589
 20
0.5765221793395083
 10
-1.026829579220689
 20
0.5640167907148769
  0
LINE
  5
109
330
E5
100
AcDbEntity
  8
AM_9
100
AcDbLine
 10
-1.2958
 20
-1.125
 30
0.0
 11
-0.3449999999999996
 21
-1.125
 31
0.0
  0
LINE
  5
10A
330
E5
100
AcDbEntity
  8
AM_9
100
AcDbLine
 10
-0.3449999999999998
 20
1.125
 30
0.0
 11
-0.75635
 21
1.125
 31
0.0
  0
LINE
  5
10B
330
E5
100
AcDbEntity
  8
AM_9
100
AcDbLine
 10
0.8158000000000001
 20
1.125
 30
0.0
 11
0.7626833740831295
 21
1.125
 31
0.0
  0
LINE
  5
10C
330
E5
100
AcDbEntity
  8
AM_9
100
AcDbLine
 10
-1.06365
 20
1.125
 30
0.0
 11
-1.2958
 21
1.125
 31
0.0
  0
LWPOLYLINE
  5
10D
330
E5
100
AcDbEntity
  8
AM_9
100
AcDbPolyline
 90
        6
 70
     0
 43
0.0
 10
-1.06364999999969
 20
1.124999999999958
 10
-1.062318890773581
 20
1.124818972984762
 10
-1.056713290221374
 20
1.124073603919059
 10
-1.047238916216249
 20
1.122876305576091
 10
-1.03362876831787
 20
1.12129422983256
 10
-1.026829579220701
 20
1.120564959331178
  0
LINE
  5
10E
330
E5
100
AcDbEntity
  8
AM_9
100
AcDbLine
 10
0.8158000000000001
 20
-1.125
 30
0.0
 11
0.87
 21
-1.1792
 31
0.0
  0
LINE
  5
10F
330
E5
100
AcDbEntity
  8
AM_9
100
AcDbLine
 10
0.87
 20
1.1792
 30
0.0
 11
0.8158000000000001
 21
1.125
 31
0.0
  0
LINE
  5
110
330
E5
100
AcDbEntity
  8
AM_9
100
AcDbLine
 10
-1.2958
 20
1.125
 30
0.0
 11
-1.35
 21
1.1792
 31
0.0
  0
LINE
  5
111
330
E5
100
AcDbEntity
  8
AM_9
100
AcDbLine
 10
-1.35
 20
-1.1792
 30
0.0
 11
-1.2958
 21
-1.125
 31
0.0
  0
ELLIPSE
  5
112
330
E5
100
AcDbEntity
  8
AM_9
100
AcDbEllipse
 10
-0.91
 20
0.4735712152800794
 30
0.0
 11
0.1536499999999996
 21
0.0
 31
0.0
210
0.0
220
0.0
230
1.0
 40
0.9063077870366485
 41
3.848519116489591
 42
5.576258844279789
  0
LWPOLYLINE
  5
113
330
E5
100
AcDbEntity
  8
AM_9
100
AcDbPolyline
 90
        4
 70
     0
 43
0.0
 10
-1.055654437733049
 20
0.5193318628206353
 10
-1.060450469742892
 20
0.5035328559093916
 10
-1.06356416860205
 20
0.4800945170874265
 10
-1.063649999098573
 20
0.4754606286041929
  0
ELLIPSE
  5
114
330
E5
100
AcDbEntity
  8
AM_9
100
AcDbEllipse
 10
-0.9100000000000015
 20
0.4735712152800767
 30
0.0
 11
0.1536500000000021
 21
0.0
 31
0.0
210
0.0
220
0.0
230
1.0
 40
0.9063077870366579
 41
0.7069264628998084
 42
1.075982204313555
  0
LWPOLYLINE
  5
115
330
E5
100
AcDbEntity
  8
AM_9
100
AcDbPolyline
 90
        6
 70
     0
 43
0.0
 10
-0.7931704207793109
 20
0.3831256398452831
 10
-0.7783034138421498
 20
0.4025354294910629
 10
-0.7667734107354915
 20
0.4244479276347996
 10
-0.7595495302571076
 20
0.4469926529116014
 10
-0.7564358313979497
 20
0.4707866661233226
 10
-0.7563500009014267
 20
0.4754304602083198
  0
LINE
  5
116
330
E5
100
AcDbEntity
  8
AM_9
100
AcDbLine
 10
-0.75635
 20
0.4754261251008027
 30
0.0
 11
-0.7563499999999999
 21
0.5623631227904162
 31
0.0
  0
LINE
  5
117
330
E5
100
AcDbEntity
  8
AM_9
100
AcDbLine
 10
-1.06365
 20
0.5623631227904162
 30
0.0
 11
-1.06365
 21
0.4754261251008027
 31
0.0
  0
ELLIPSE
  5
118
330
E5
100
AcDbEntity
  8
AM_9
100
AcDbEllipse
 10
-0.9100000000000004
 20
0.5623631227904166
 30
0.0
 11
0.1536500000000005
 21
0.0
 31
0.0
210
0.0
220
0.0
230
1.0
 40
0.90630778703665
 41
5.041721125910559
 42
7.271185408340082
  0
LWPOLYLINE
  5
119
330
E5
100
AcDbEntity
  8
AM_9
100
AcDbPolyline
 90
        6
 70
     0
 43
0.0
 10
-1.063649999098573
 20
0.4754606286041929
 10
-1.062318890773581
 20
0.4570787237436728
 10
-1.056713290221374
 20
0.4336849489831313
 10
-1.047238916216249
 20
0.4119287726194166
 10
-1.03362876831787
 20
0.3911903168628713
 10
-1.026829579220701
 20
0.3831256398452756
  0
LWPOLYLINE
  5
11A
330
E5
100
AcDbEntity
  8
AM_9
100
AcDbPolyline
 90
        4
 70
     0
 43
0.0
 10
-0.7644088762091935
 20
0.5194988821060854
 10
-0.7727610837837507
 20
0.5371672922053558
 10
-0.7863712316821302
 20
0.5565685197605547
 10
-0.7931704207792991
 20
0.5640167907148844
  0
LWPOLYLINE
  5
11B
330
E5
100
AcDbEntity
  8
AM_9
100
AcDbPolyline
 90
        4
 70
     0
 43
0.0
 10
-0.7563500009014267
 20
0.4754304602083198
 10
-0.7576811092264194
 20
0.4936593545278852
 10
-0.7632867097786258
 20
0.5164231161306212
 10
-0.7644088762091935
 20
0.5194988821060854
  0
LINE
  5
11C
330
E5
100
AcDbEntity
  8
AM_9
100
AcDbLine
 10
0.8158
 20
-1.355
 30
0.0
 11
0.87
 21
-1.3008
 31
0.0
  0
LINE
  5
11D
330
E5
100
AcDbEntity
  8
AM_9
100
AcDbLine
 10
0.8700000000000001
 20
0.3616521739130443
 30
0.0
 11
0.87
 21
-1.3008
 31
0.0
  0
LWPOLYLINE
  5
11E
330
E5
100
AcDbEntity
  8
AM_9
100
AcDbPolyline
 90
        9
 70
     0
 43
0.0
 10
-0.822180137000611
 20
0.7013849371669048
 10
-0.8206799165035521
 20
0.7006683123332224
 10
-0.7945870471054576
 20
0.6856566974008576
 10
-0.7725670577361434
 20
0.6672753324789792
 10
-0.7546347636893239
 20
0.6456230028253694
 10
-0.7421612744531811
 20
0.6225871005274654
 10
-0.7344877524395705
 20
0.5977225609443579
 10
-0.7323400771310531
 20
0.5817472858722418
 10
-0.7322087074203397
 20
0.5655558938744311
  0
LWPOLYLINE
  5
11F
330
E5
100
AcDbEntity
  8
AM_9
100
AcDbPolyline
 90
        9
 70
     0
 43
0.0
 10
-0.7322087074203397
 20
0.5655558938744311
 10
-0.7357665942825198
 20
0.5415603086005142
 10
-0.7436133120642127
 20
0.5182353518341649
 10
-0.755556721339714
 20
0.4961855149244982
 10
-0.7711195332322931
 20
0.4760321577255235
 10
-0.7908118617092506
 20
0.4575230313699211
 10
-0.8133592314034417
 20
0.4420671835022879
 10
-0.8397280319925737
 20
0.4294455959166975
 10
-0.8612782853047513
 20
0.4225191612698095
  0
LINE
  5
120
330
E5
100
AcDbEntity
  8
AM_9
100
AcDbLine
 10
-1.111338630806846
 20
-1.355
 30
0.0
 11
-0.4699999999999999
 21
-1.355
 31
0.0
  0
LINE
  5
121
330
E5
100
AcDbEntity
  8
AM_9
100
AcDbLine
 10
-0.4699999999999999
 20
1.355
 30
0.0
 11
-0.730348410757946
 21
1.355
 31
0.0
  0
LINE
  5
122
330
E5
100
AcDbEntity
  8
AM_9
100
AcDbLine
 10
0.47
 20
-1.355
 30
0.0
 11
0.8158
 21
-1.355
 31
0.0
  0
LINE
  5
123
330
E5
100
AcDbEntity
  8
AM_9
100
AcDbLine
 10
0.7303484107579465
 20
1.355
 30
0.0
 11
0.47
 21
1.355
 31
0.0
  0
LINE
  5
124
330
E5
100
AcDbEntity
  8
AM_9
100
AcDbLine
 10
0.8158000000000001
 20
0.7471791304347845
 30
0.0
 11
0.8158
 21
-1.355
 31
0.0
  0
LINE
  5
125
330
E5
100
AcDbEntity
  8
AM_9
100
AcDbLine
 10
-0.3000000000000001
 20
-1.885166666666667
 30
0.0
 11
-0.2
 21
-1.885166666666667
 31
0.0
  0
LINE
  5
126
330
E5
100
AcDbEntity
  8
AM_9
100
AcDbLine
 10
-0.2
 20
1.885166666666667
 30
0.0
 11
-0.3000000000000001
 21
1.885166666666667
 31
0.0
  0
LINE
  5
127
330
E5
100
AcDbEntity
  8
AM_9
100
AcDbLine
 10
0.47
 20
1.87196213904021
 30
0.0
 11
0.47
 21
-1.87196213904021
 31
0.0
  0
ARC
  5
128
330
E5
100
AcDbEntity
  8
AM_9
100
AcDbCircle
 10
0.4199999999999994
 20
-1.87196213904021
 30
0.0
 40
0.0500000000000004
100
AcDbArc
 50
282.6456679286597
 51
0.0
  0
ARC
  5
129
330
E5
100
AcDbEntity
  8
AM_9
100
AcDbCircle
 10
0.4199999999999994
 20
1.87196213904021
 30
0.0
 40
0.0500000000000005
100
AcDbArc
 50
0.0
 51
77.35433207134024
  0
LINE
  5
12A
330
E5
100
AcDbEntity
  8
AM_9
100
AcDbLine
 10
-0.4699999999999999
 20
1.87196213904021
 30
0.0
 11
-0.4699999999999999
 21
-1.87196213904021
 31
0.0
  0
ARC
  5
12B
330
E5
100
AcDbEntity
  8
AM_9
100
AcDbCircle
 10
-0.4199999999999999
 20
-1.87196213904021
 30
0.0
 40
0.0500000000000001
100
AcDbArc
 50
180.0
 51
257.3543320713407
  0
ARC
  5
12C
330
E5
100
AcDbEntity
  8
AM_9
100
AcDbCircle
 10
-0.4199999999999999
 20
1.87196213904021
 30
0.0
 40
0.0500000000000001
100
AcDbArc
 50
102.6456679286593
 51
180.0
  0
ARC
  5
12D
330
E5
100
AcDbEntity
  8
AM_9
100
AcDbCircle
 10
-0.0000000000001265
 20
0.0000000000006761
 30
0.0
 40
1.968499999999312
100
AcDbArc
 50
98.76605344787454
 51
102.6456679286599
  0
ARC
  5
12E
330
E5
100
AcDbEntity
  8
AM_9
100
AcDbCircle
 10
0.0000000001260294
 20
0.0000000006669854
 30
0.0
 40
1.96850000067801
100
AcDbArc
 50
257.3543320720091
 51
261.2339465514563
  0
LINE
  5
12F
330
E5
100
AcDbEntity
  8
AM_9
100
AcDbLine
 10
-0.4309460516028147
 20
1.920749268022233
 30
0.0
 11
-0.4309460516028147
 21
-1.920749268021837
 31
0.0
  0
LINE
  5
130
330
E5
100
AcDbEntity
  8
AM_9
100
AcDbLine
 10
-0.2999999999999999
 20
1.945505654065287
 30
0.0
 11
-0.2999999999999999
 21
-1.945505654064891
 31
0.0
  0
LWPOLYLINE
  5
131
330
E5
100
AcDbEntity
  8
AM_9
100
AcDbPolyline
 90
       38
 70
     0
 43
0.0
 10
0.3201714222496193
 20
-0.1034455001412127
 10
0.3364969103928435
 20
-0.0902228676348488
 10
0.350412554178783
 20
-0.0744467525369169
 10
0.3614798433092146
 20
-0.0565156892705996
 10
0.3694083972493009
 20
-0.0369680222131658
 10
0.3738983978694561
 20
-0.0164614193622376
 10
0.3749184835087131
 20
0.0045135881384255
 10
0.3724084817044591
 20
0.025259126993816
 10
0.3665054400569547
 20
0.045293293511681
 10
0.3573328366986058
 20
0.0640436252230972
 10
0.345203632464806
 20
0.0810016565602587
 10
0.3303435384518336
 20
0.0957437804928379
 10
0.3132691600556142
 20
0.1078054422831103
 10
0.2942808429975953
 20
0.1168809229229202
 10
0.2740634954429264
 20
0.1226619263955536
 10
0.2530225492154161
 20
0.1249510136481205
 10
0.2318964233627781
 20
0.1236820945526886
 10
0.2112221871358106
 20
0.1188196259203879
 10
0.1916447205454739
 20
0.1105425771356184
 10
0.1737842551651347
 20
0.0990602133618656
 10
0.158089010546481
 20
0.0847193603474148
 10
0.1451310087652113
 20
0.0680017836501963
 10
0.1351443968427606
 20
0.0493273800580038
 10
0.1285125487595913
 20
0.0293696463213426
 10
0.1252943893562514
 20
0.0085738365957012
 10
0.1256240866006303
 20
-0.0123478834925635
 10
0.1294130268112787
 20
-0.0329208428990304
 10
0.1365859409174085
 20
-0.0525276557582961
 10
0.1468890735381332
 20
-0.0706621316135844
 10
0.1601197770065855
 20
-0.0868532761529684
 10
0.1758263230387784
 20
-0.1006144405443492
 10
0.1937280254415564
 20
-0.111603828490172
 10
0.2131867162979623
 20
-0.1194561934060906
 10
0.2338322354474823
 20
-0.1239375479661105
 10
0.2549288925659022
 20
-0.1249027862702583
 10
0.2759833441550885
 20
-0.1222567535005007
 10
0.2963043676803401
 20
-0.1161073018105402
 10
0.3201714222496191
 20
-0.1034455001412127
  0
ARC
  5
132
330
E5
100
AcDbEntity
  8
AM_9
100
AcDbCircle
 10
0.0000000000000018
 20
0.0000000000000306
 30
0.0
 40
1.968499999999969
100
AcDbArc
 50
77.35433207134064
 51
95.83132474664201
  0
ARC
  5
133
330
E5
100
AcDbEntity
  8
AM_9
100
AcDbCircle
 10
-0.0000000000001284
 20
0.0000000000021849
 30
0.0
 40
1.968500000002132
100
AcDbArc
 50
264.1686752533682
 51
282.6456679286491
  0
LINE
  5
134
330
E5
100
AcDbEntity
  8
AM_9
100
AcDbLine
 10
-0.1999999999999998
 20
1.958313624014294
 30
0.0
 11
-0.1999999999999998
 21
-1.958313624014266
 31
0.0
  0
LINE
  5
135
330
E5
100
AcDbEntity
  8
AM_9
100
AcDbLine
 10
0.4309460516028146
 20
1.920749268022233
 30
0.0
 11
0.4309460516028146
 21
-1.920749268022204
 31
0.0
  0
LINE
  5
137
330
E5
100
AcDbEntity
  8
AM_5
100
AcDbLine
 10
-0.7225
 20
1.125
 30
0.0
 11
-0.7225
 21
1.355
 31
0.0
  0
LINE
  5
138
330
E5
100
AcDbEntity
  8
AM_5
100
AcDbLine
 10
-1.0975
 20
1.125
 30
0.0
 11
-1.0975
 21
1.355
 31
0.0
  0
LINE
  5
13B
330
E5
100
AcDbEntity
  8
AM_7
100
AcDbLine
 10
0.2499999999999999
 20
-0.0415227272727265
 30
0.0
 11
0.2499999999999999
 21
0.0415227272727262
 31
0.0
  0
LINE
  5
13C
330
E5
100
AcDbEntity
  8
AM_7
100
AcDbLine
 10
-0.91
 20
1.37840448905937
 30
0.0
 11
-0.91
 21
1.072824981725073
 31
0.0
  0
LWPOLYLINE
  5
13D
330
E5
100
AcDbEntity
  8
AM_4
100
AcDbPolyline
 90
        4
 70
     0
 43
0.0
 10
-1.026829579220689
 20
0.5640167907148768
 10
-1.04169658615785
 20
0.5459994771857684
 10
-1.053226589264508
 20
0.5252799804206222
 10
-1.055654437733049
 20
0.5193318628206353
  0
ELLIPSE
  5
13E
330
E5
100
AcDbEntity
  8
AM_4
100
AcDbEllipse
 10
-0.9099999999999999
 20
0.4735712152800799
 30
0.0
 11
0.1536499999999998
 21
0.0
 31
0.0
210
0.0
220
0.0
230
1.0
 40
0.90630778703665
 41
1.075982204313557
 42
2.434666190689992
  0
ELLIPSE
  5
13F
330
E5
100
AcDbEntity
  8
AM_4
100
AcDbEllipse
 10
-0.9099999999999998
 20
0.5623631227904161
 30
0.0
 11
0.1536499999999998
 21
0.0
 31
0.0
210
0.0
220
0.0
230
1.0
 40
0.9063077870366504
 41
1.570796326794897
 42
5.041721125910558
  0
ELLIPSE
  5
140
330
E5
100
AcDbEntity
  8
AM_4
100
AcDbEllipse
 10
-0.9100000000000003
 20
0.5623631227904154
 30
0.0
 11
0.1536500000000017
 21
0.0
 31
0.0
210
0.0
220
0.0
230
1.0
 40
0.906307787036645
 41
0.9880001011605035
 42
1.570796326794897
  0
LINE
  5
141
330
E5
100
AcDbEntity
  8
AM_4
100
AcDbLine
 10
-1.35
 20
-1.3008
 30
0.0
 11
-1.2958
 21
-1.355
 31
0.0
  0
LINE
  5
142
330
E5
100
AcDbEntity
  8
AM_4
100
AcDbLine
 10
-1.2958
 20
1.355
 30
0.0
 11
-1.35
 21
1.3008
 31
0.0
  0
LINE
  5
143
330
E5
100
AcDbEntity
  8
AM_4
100
AcDbLine
 10
-1.35
 20
1.3008
 30
0.0
 11
-1.35
 21
-1.3008
 31
0.0
  0
LINE
  5
144
330
E5
100
AcDbEntity
  8
AM_4
100
AcDbLine
 10
0.87
 20
1.3008
 30
0.0
 11
0.8158
 21
1.355
 31
0.0
  0
LINE
  5
145
330
E5
100
AcDbEntity
  8
AM_4
100
AcDbLine
 10
0.87
 20
1.3008
 30
0.0
 11
0.8700000000000001
 21
0.3616521739130443
 31
0.0
  0
LWPOLYLINE
  5
146
330
E5
100
AcDbEntity
  8
AM_4
100
AcDbPolyline
 90
       25
 70
     0
 43
0.0
 10
-0.8612782853047513
 20
0.4225191612698095
 10
-0.8678890365293384
 20
0.4209422765149126
 10
-0.8984534081314649
 20
0.4167255326194007
 10
-0.9293320797250931
 20
0.4173233844767353
 10
-0.9602425799078393
 20
0.4229348789504128
 10
-0.9897176765224652
 20
0.4333833178679866
 10
-1.016659449073926
 20
0.4483353733114606
 10
-1.040450567157776
 20
0.4673773134529001
 10
-1.059556534747054
 20
0.4891390439470263
 10
-1.074237882140288
 20
0.5135412115712661
 10
-1.083371139264379
 20
0.5381958618903673
 10
-1.087677721955298
 20
0.563717914725362
 10
-1.087057560297007
 20
0.5879116427859351
 10
-1.08197114468029
 20
0.6114523679261996
 10
-1.072689034532066
 20
0.6334209767781318
 10
-1.059566978952548
 20
0.6536062103538759
 10
-1.04233767893417
 20
0.672152017477042
 10
-1.021980782288795
 20
0.6879830909246456
 10
-0.9976038975939889
 20
0.7014714638956894
 10
-0.9710425651732926
 20
0.7114159010205482
 10
-0.9414787822310191
 20
0.7178575228474752
 10
-0.9110748972661319
 20
0.7201299521275039
 10
-0.8798059632018094
 20
0.7180384927188609
 10
-0.8493876244566955
 20
0.7115424238641311
 10
-0.822180137000611
 20
0.7013849371669048
  0
LINE
  5
147
330
E5
100
AcDbEntity
  8
AM_4
100
AcDbLine
 10
-1.2958
 20
-1.355
 30
0.0
 11
-1.111338630806846
 21
-1.355
 31
0.0
  0
LINE
  5
148
330
E5
100
AcDbEntity
  8
AM_4
100
AcDbLine
 10
-0.730348410757946
 20
1.355
 30
0.0
 11
-0.7320145114532658
 21
1.355
 31
0.0
  0
LINE
  5
149
330
E5
100
AcDbEntity
  8
AM_4
100
AcDbLine
 10
-1.087985488546734
 20
1.355
 30
0.0
 11
-1.2958
 21
1.355
 31
0.0
  0
LINE
  5
14A
330
E5
100
AcDbEntity
  8
AM_4
100
AcDbLine
 10
-1.2958
 20
1.355
 30
0.0
 11
-1.2958
 21
-1.355
 31
0.0
  0
LWPOLYLINE
  5
14B
330
E5
100
AcDbEntity
  8
AM_4
100
AcDbPolyline
 90
       20
 70
     0
 43
0.0
 10
-0.7320145114533192
 20
1.354999999999994
 10
-0.734170770712292
 20
1.354751126105419
 10
-0.740540218085845
 20
1.354033230988285
 10
-0.7512313269029866
 20
1.352886386613656
 10
-0.7656569525262824
 20
1.351454939145429
 10
-0.7839036150472526
 20
1.349836264175794
 10
-0.8057355900410966
 20
1.348183004680847
 10
-0.8307192664223878
 20
1.346672427252871
 10
-0.8584860964787399
 20
1.345473933384973
 10
-0.8883661741160418
 20
1.344751740776472
 10
-0.9190867171314822
 20
1.344624306302284
 10
-0.9504175526209847
 20
1.345136953291461
 10
-0.9800330034684768
 20
1.346216976361465
 10
-1.008462642955488
 20
1.347795841170927
 10
-1.032768919688438
 20
1.349564292865007
 10
-1.054117649432366
 20
1.351433633823538
 10
-1.069742187618708
 20
1.352987793876371
 10
-1.081103927830102
 20
1.354216069190701
 10
-1.086777081260852
 20
1.354860162804475
 10
-1.087985488546538
 20
1.354999999999977
  0
LINE
  5
14C
330
E5
100
AcDbEntity
  8
AM_4
100
AcDbLine
 10
0.8158
 20
1.355
 30
0.0
 11
0.7303484107579465
 21
1.355
 31
0.0
  0
LINE
  5
14D
330
E5
100
AcDbEntity
  8
AM_4
100
AcDbLine
 10
0.8158
 20
1.355
 30
0.0
 11
0.8158000000000001
 21
0.7471791304347845
 31
0.0
  0
ENDBLK
  5
E8
330
E5
100
AcDbEntity
  8
0
100
AcDbBlockEnd
  0
BLOCK
  5
150
330
14E
100
AcDbEntity
  8
0
100
AcDbBlockBegin
  2
4_123859H_0_in_123859_2
 70
     2
 10
0.0
 20
0.0
 30
0.0
  3
4_123859H_0_in_123859_2
  1

  0
ATTDEF
  5
152
330
14E
100
AcDbEntity
  8
AM_6
100
AcDbText
 10
6.265
 20
2.460000000000001
 30
0.0
 40
0.5
  1
P2B-SCB -I-Housing
100
AcDbAttributeDefinition
  3

  2
NN
 70
     8
280
     0
  0
ATTDEF
  5
153
330
14E
100
AcDbEntity
  8
AM_6
100
AcDbText
 10
6.265
 20
1.960000000000001
 30
0.0
 40
0.5
  1
SC Pillow Block Bearings -(Normal Duty) -Low Backing Height
100
AcDbAttributeDefinition
  3

  2
NT
 70
     8
280
     0
  0
ATTDEF
  5
154
330
14E
100
AcDbEntity
  8
AM_6
100
AcDbText
 10
6.265
 20
1.460000000000001
 30
0.0
 40
0.5
  1
123859H
100
AcDbAttributeDefinition
  3

  2
NB
 70
     8
280
     0
  0
ATTDEF
  5
155
330
14E
100
AcDbEntity
  8
AM_6
100
AcDbText
 10
6.265
 20
0.9600000000000009
 30
0.0
 40
0.5
  1
$PN.H
100
AcDbAttributeDefinition
  3

  2
NBSYN
 70
     8
280
     0
  0
ATTDEF
  5
156
330
14E
100
AcDbEntity
  8
AM_6
100
AcDbText
 10
6.265
 20
0.4600000000000009
 30
0.0
 40
0.5
  1
123859
100
AcDbAttributeDefinition
  3

  2
LINA
 70
     8
280
     0
  0
ATTDEF
  5
157
330
14E
100
AcDbEntity
  8
AM_6
100
AcDbText
 10
6.265
 20
-0.0399999999999991
 30
0.0
 40
0.5
  1
211
100
AcDbAttributeDefinition
  3

  2
SERIES
 70
     8
280
     0
  0
ATTDEF
  5
158
330
14E
100
AcDbEntity
  8
AM_6
100
AcDbText
 10
6.265
 20
-0.5399999999999991
 30
0.0
 40
0.5
  1
2-1/4
100
AcDbAttributeDefinition
  3

  2
SS
 70
     8
280
     0
  0
ATTDEF
  5
159
330
14E
100
AcDbEntity
  8
AM_6
100
AcDbText
 10
6.265
 20
-1.039999999999999
 30
0.0
 40
0.5
  1
2
100
AcDbAttributeDefinition
  3

  2
HELP
 70
     8
280
     0
  0
ATTDEF
  5
15A
330
14E
100
AcDbEntity
  8
AM_6
100
AcDbText
 10
6.265
 20
-1.539999999999999
 30
0.0
 40
0.5
  1
123859
100
AcDbAttributeDefinition
  3

  2
PN
 70
     8
280
     0
  0
ATTDEF
  5
15B
330
14E
100
AcDbEntity
  8
AM_6
100
AcDbText
 10
6.265
 20
-2.039999999999999
 30
0.0
 40
0.5
  1
P2B-SCB-204
100
AcDbAttributeDefinition
  3

  2
DESCRIPTION
 70
     8
280
     0
  0
ATTDEF
  5
15C
330
14E
100
AcDbEntity
  8
AM_6
100
AcDbText
 10
6.265
 20
-2.539999999999999
 30
0.0
 40
0.5
  1
2.22
100
AcDbAttributeDefinition
  3

  2
A
 70
     8
280
     0
  0
ATTDEF
  5
15D
330
14E
100
AcDbEntity
  8
AM_6
100
AcDbText
 10
6.265
 20
-3.039999999999999
 30
0.0
 40
0.5
  1
8.88
100
AcDbAttributeDefinition
  3

  2
B
 70
     8
280
     0
  0
ATTDEF
  5
15E
330
14E
100
AcDbEntity
  8
AM_6
100
AcDbText
 10
6.265
 20
-3.539999999999999
 30
0.0
 40
0.5
  1
2.30
100
AcDbAttributeDefinition
  3

  2
C
 70
     8
280
     0
  0
ATTDEF
  5
15F
330
14E
100
AcDbEntity
  8
AM_6
100
AcDbText
 10
6.265
 20
-4.039999999999999
 30
0.0
 40
0.5
  1
6.38
100
AcDbAttributeDefinition
  3

  2
DMIN
 70
     8
280
     0
  0
ATTDEF
  5
160
330
14E
100
AcDbEntity
  8
AM_6
100
AcDbText
 10
6.265
 20
-4.539999999999999
 30
0.0
 40
0.5
  1
7.44
100
AcDbAttributeDefinition
  3

  2
DMAX
 70
     8
280
     0
  0
ATTDEF
  5
161
330
14E
100
AcDbEntity
  8
AM_6
100
AcDbText
 10
6.265
 20
-5.039999999999999
 30
0.0
 40
0.5
  1
5/8
100
AcDbAttributeDefinition
  3

  2
F
 70
     8
280
     0
  0
ATTDEF
  5
162
330
14E
100
AcDbEntity
  8
AM_6
100
AcDbText
 10
6.265
 20
-5.539999999999999
 30
0.0
 40
0.5
  1
1.21
100
AcDbAttributeDefinition
  3

  2
G
 70
     8
280
     0
  0
ATTDEF
  5
163
330
14E
100
AcDbEntity
  8
AM_6
100
AcDbText
 10
6.265
 20
-6.039999999999999
 30
0.0
 40
0.5
  1
0.81
100
AcDbAttributeDefinition
  3

  2
H
 70
     8
280
     0
  0
ATTDEF
  5
164
330
14E
100
AcDbEntity
  8
AM_6
100
AcDbText
 10
6.265
 20
-6.539999999999999
 30
0.0
 40
0.5
  1
4.90
100
AcDbAttributeDefinition
  3

  2
J
 70
     8
280
     0
  0
ATTDEF
  5
165
330
14E
100
AcDbEntity
  8
AM_6
100
AcDbText
 10
6.265
 20
-7.039999999999999
 30
0.0
 40
0.5
  1
2.71
100
AcDbAttributeDefinition
  3

  2
L
 70
     8
280
     0
  0
ATTDEF
  5
166
330
14E
100
AcDbEntity
  8
AM_6
100
AcDbText
 10
6.265
 20
-7.539999999999999
 30
0.0
 40
0.5
  1
2.44
100
AcDbAttributeDefinition
  3

  2
M
 70
     8
280
     0
  0
ATTDEF
  5
167
330
14E
100
AcDbEntity
  8
AM_6
100
AcDbText
 10
6.265
 20
-8.04
 30
0.0
 40
0.5
  1
0.87
100
AcDbAttributeDefinition
  3

  2
R
 70
     8
280
     0
  0
ATTDEF
  5
168
330
14E
100
AcDbEntity
  8
AM_6
100
AcDbText
 10
6.265
 20
-8.54
 30
0.0
 40
0.5
  1
1.35
100
AcDbAttributeDefinition
  3

  2
S
 70
     8
280
     0
  0
ATTDEF
  5
169
330
14E
100
AcDbEntity
  8
AM_6
100
AcDbText
 10
6.265
 20
-9.04
 30
0.0
 40
0.5
  1
3.94
100
AcDbAttributeDefinition
  3

  2
U
 70
     8
280
     0
  0
ATTDEF
  5
16A
330
14E
100
AcDbEntity
  8
AM_6
100
AcDbText
 10
6.265
 20
-9.54
 30
0.0
 40
0.5
  1
3.940
100
AcDbAttributeDefinition
  3

  2
U1
 70
     8
280
     0
  0
ATTDEF
  5
16B
330
14E
100
AcDbEntity
  8
AM_6
100
AcDbText
 10
6.265
 20
-10.04
 30
0.0
 40
0.5
  1
7.88
100
AcDbAttributeDefinition
  3

  2
V
 70
     8
280
     0
  0
ATTDEF
  5
16C
330
14E
100
AcDbEntity
  8
AM_6
100
AcDbText
 10
6.265
 20
-10.54
 30
0.0
 40
0.5
  1
7.880
100
AcDbAttributeDefinition
  3

  2
V1
 70
     8
280
     0
  0
ATTDEF
  5
16D
330
14E
100
AcDbEntity
  8
AM_6
100
AcDbText
 10
6.265
 20
-11.04
 30
0.0
 40
0.5
  1
0.81
100
AcDbAttributeDefinition
  3

  2
W
 70
     8
280
     0
  0
ATTDEF
  5
16E
330
14E
100
AcDbEntity
  8
AM_6
100
AcDbText
 10
6.265
 20
-11.54
 30
0.0
 40
0.5
  1
0.810
100
AcDbAttributeDefinition
  3

  2
W1
 70
     8
280
     0
  0
ATTDEF
  5
16F
330
14E
100
AcDbEntity
  8
AM_6
100
AcDbText
 10
6.265
 20
-12.04
 30
0.0
 40
0.5
  1
0.12
100
AcDbAttributeDefinition
  3

  2
X
 70
     8
280
     0
  0
ATTDEF
  5
170
330
14E
100
AcDbEntity
  8
AM_6
100
AcDbText
 10
6.265
 20
-12.54
 30
0.0
 40
0.5
  1
0.120
100
AcDbAttributeDefinition
  3

  2
X1
 70
     8
280
     0
  0
ATTDEF
  5
171
330
14E
100
AcDbEntity
  8
AM_6
100
AcDbText
 10
6.265
 20
-13.04
 30
0.0
 40
0.5
  1
baldor
100
AcDbAttributeDefinition
  3

  2
COMPANY
 70
     8
280
     0
  0
LINE
  5
172
330
14E
100
AcDbEntity
  8
AM_9
100
AcDbLine
 10
-0.5749999999999998
 20
-1.902312252620965
 30
0.0
 11
0.5750000000000001
 21
-1.902312252620965
 31
0.0
  0
LINE
  5
173
330
14E
100
AcDbEntity
  8
AM_9
100
AcDbLine
 10
-0.5749999999999998
 20
-1.954847570587769
 30
0.0
 11
0.5750000000000001
 21
-1.954847570587769
 31
0.0
  0
LINE
  5
174
330
14E
100
AcDbEntity
  8
AM_9
100
AcDbLine
 10
0.5750000000000001
 20
-1.888512212268038
 30
0.0
 11
-0.5749999999999998
 21
-1.888512212268038
 31
0.0
  0
LINE
  5
175
330
14E
100
AcDbEntity
  8
AM_9
100
AcDbLine
 10
-0.3449999999999998
 20
1.125000000000002
 30
0.0
 11
0.7626833740831296
 21
1.125000000000002
 31
0.0
  0
LINE
  5
176
330
14E
100
AcDbEntity
  8
AM_9
100
AcDbLine
 10
-0.3449999999999998
 20
-1.125
 30
0.0
 11
0.92
 21
-1.125
 31
0.0
  0
ELLIPSE
  5
177
330
14E
100
AcDbEntity
  8
AM_9
100
AcDbEllipse
 10
0.000000000000007
 20
1.598061325481589
 30
0.0
 11
0.1500000000000065
 21
0.0
 31
0.0
210
0.0
220
0.0
230
1.0
 40
0.7071067811865568
 41
2.917846073719831
 42
3.141592653589793
  0
ELLIPSE
  5
178
330
14E
100
AcDbEntity
  8
AM_9
100
AcDbEllipse
 10
0.000000000000003
 20
1.598061325481599
 30
0.0
 11
0.1500000000000027
 21
0.0
 31
0.0
210
0.0
220
0.0
230
1.0
 40
0.7071067811865407
 41
2.418085039144124
 42
2.917846073719913
  0
ELLIPSE
  5
179
330
14E
100
AcDbEntity
  8
AM_9
100
AcDbEllipse
 10
0.0000000000000001
 20
1.598061325481597
 30
0.0
 11
0.1499999999999999
 21
0.0
 31
0.0
210
0.0
220
0.0
230
1.0
 40
0.7071067811865511
 41
1.570796326794897
 42
2.418085039144109
  0
LINE
  5
17A
330
14E
100
AcDbEntity
  8
AM_9
100
AcDbLine
 10
0.1499999999999998
 20
1.598061325481598
 30
0.0
 11
0.1499999999999998
 21
1.739478586615792
 31
0.0
  0
LINE
  5
17B
330
14E
100
AcDbEntity
  8
AM_9
100
AcDbLine
 10
-0.1499999999999996
 20
1.739461967137561
 30
0.0
 11
-0.1499999999999996
 21
1.598061325481598
 31
0.0
  0
LWPOLYLINE
  5
17C
330
14E
100
AcDbEntity
  8
AM_9
100
AcDbPolyline
 90
       20
 70
     0
 43
0.0
 10
-0.1499999993173876
 20
1.739492800572218
 10
-0.14900666120475
 20
1.727253630325686
 10
-0.1439967863679214
 20
1.709560263917634
 10
-0.1349439802328195
 20
1.692551187897541
 10
-0.1220411053989031
 20
1.676739066386919
 10
-0.1057092644080652
 20
1.66260278444408
 10
-0.0863310033706388
 20
1.650594454185633
 10
-0.0645164826036561
 20
1.641091270202796
 10
-0.0408519253289308
 20
1.634441905064893
 10
-0.016031680377426
 20
1.630824469553379
 10
0.0092080846468203
 20
1.630404204187345
 10
0.0341879639978538
 20
1.633139887799016
 10
0.0581719479671945
 20
1.638980551880841
 10
0.0805193880368773
 20
1.64769004840406
 10
0.1005965225286787
 20
1.659039517378929
 10
0.1178425534988661
 20
1.672619920200457
 10
0.1317432187395812
 20
1.688051891727024
 10
0.1419278804288563
 20
1.704818496699786
 10
0.1480483673246133
 20
1.722411433652326
 10
0.1499999998204503
 20
1.73948787137564
  0
LWPOLYLINE
  5
17D
330
14E
100
AcDbEntity
  8
AM_9
100
AcDbPolyline
 90
       11
 70
     0
 43
0.0
 10
0.1499999998204503
 20
1.73948787137564
 10
0.1499953878062271
 20
1.740314239093538
 10
0.1476607564054619
 20
1.757980026365825
 10
0.1411771430402388
 20
1.774953443010173
 10
0.1306729495373761
 20
1.79076079644697
 10
0.1165001610958111
 20
1.805011205808586
 10
0.0989803050241453
 20
1.817338349140447
 10
0.0786713717419408
 20
1.827444190689155
 10
0.0560946127291172
 20
1.835058636240299
 10
0.0319313644083501
 20
1.84002766400989
 10
0.0000000000000001
 20
1.842311967497233
  0
ELLIPSE
  5
17E
330
14E
100
AcDbEntity
  8
AM_9
100
AcDbEllipse
 10
0.0000000000000001
 20
1.598061325481598
 30
0.0
 11
0.1499999999999997
 21
0.0
 31
0.0
210
0.0
220
0.0
230
1.0
 40
0.7071067811865476
 41
3.141592653589793
 42
6.283185307179586
  0
ELLIPSE
  5
17F
330
14E
100
AcDbEntity
  8
AM_9
100
AcDbEllipse
 10
0.0000000000000003
 20
1.598061325481599
 30
0.0
 11
0.1499999999999991
 21
0.0
 31
0.0
210
0.0
220
0.0
230
1.0
 40
0.7071067811865475
 41
0.7231754240958184
 42
1.570796326794897
  0
ELLIPSE
  5
180
330
14E
100
AcDbEntity
  8
AM_9
100
AcDbEllipse
 10
0.0000000000000016
 20
1.598061325481595
 30
0.0
 11
0.1499999999999979
 21
0.0
 31
0.0
210
0.0
220
0.0
230
1.0
 40
0.7071067811865588
 41
0.0
 42
0.7231754240958398
  0
LINE
  5
181
330
14E
100
AcDbEntity
  8
AM_9
100
AcDbLine
 10
-0.9199999999999999
 20
-1.9685
 30
0.0
 11
0.9199999999999999
 21
-1.9685
 31
0.0
  0
LINE
  5
182
330
14E
100
AcDbEntity
  8
AM_9
100
AcDbLine
 10
0.6440984107579465
 20
1.9685
 30
0.0
 11
-0.6440984107579463
 21
1.9685
 31
0.0
  0
LINE
  5
183
330
14E
100
AcDbEntity
  8
AM_9
100
AcDbLine
 10
0.5750000000000001
 20
-2.41975
 30
0.0
 11
0.929999999999998
 21
-2.41975
 31
0.0
  0
LINE
  5
184
330
14E
100
AcDbEntity
  8
AM_9
100
AcDbLine
 10
-0.9199999999999997
 20
-2.33875
 30
0.0
 11
0.92
 21
-2.33875
 31
0.0
  0
LINE
  5
185
330
14E
100
AcDbEntity
  8
AM_9
100
AcDbLine
 10
-0.3449999999999998
 20
-1.125
 30
0.0
 11
-0.3449999999999998
 21
1.125000000000002
 31
0.0
  0
LINE
  5
186
330
14E
100
AcDbEntity
  8
AM_9
100
AcDbLine
 10
-0.9199999999999997
 20
-2.41975
 30
0.0
 11
-0.5749999999999998
 21
-2.41975
 31
0.0
  0
LINE
  5
187
330
14E
100
AcDbEntity
  8
AM_9
100
AcDbLine
 10
0.9299999999999959
 20
-0.0651304347825497
 30
0.0
 11
0.9299999999999973
 21
-1.63
 31
0.0
  0
LINE
  5
188
330
14E
100
AcDbEntity
  8
AM_9
100
AcDbLine
 10
0.9199999999999999
 20
-0.2037645700312017
 30
0.0
 11
0.92
 21
-2.380762822620764
 31
0.0
  0
LWPOLYLINE
  5
189
330
14E
100
AcDbEntity
  8
AM_9
100
AcDbPolyline
 90
        4
 70
     0
 43
0.0
 10
0.9199999999999999
 20
-0.2037645700312017
 10
0.9201750112527474
 20
-0.1838512669152533
 10
0.9232697331160741
 20
-0.1040687791319382
 10
0.9269995651101905
 20
-0.0437882109577025
  0
LWPOLYLINE
  5
18A
330
14E
100
AcDbEntity
  8
AM_9
100
AcDbPolyline
 90
        5
 70
     0
 43
0.0
 10
0.929999999999998
 20
-2.41975
 10
0.9298816061854751
 20
-2.419413040121374
 10
0.9257618772731062
 20
-2.407429423318475
 10
0.9221637806067013
 20
-2.395270449956856
 10
0.9199999999999999
 20
-2.380762822620764
  0
LINE
  5
18B
330
14E
100
AcDbEntity
  8
AM_9
100
AcDbLine
 10
-0.9199999999999997
 20
0.0060000000000004
 30
0.0
 11
-0.9199999999999997
 21
-2.41975
 31
0.0
  0
LWPOLYLINE
  5
18C
330
14E
100
AcDbEntity
  8
AM_9
100
AcDbPolyline
 90
       11
 70
     0
 43
0.0
 10
0.0000000000000001
 20
1.842311967497233
 10
-0.0251541045433777
 20
1.840891468310332
 10
-0.0495985322307031
 20
1.836700042844532
 10
-0.0726236500124806
 20
1.829799647671402
 10
-0.0936045508065237
 20
1.820387093020403
 10
-0.111936282140661
 20
1.808638904609345
 10
-0.1271153931730802
 20
1.794881209466807
 10
-0.1386720870430991
 20
1.779419607270649
 10
-0.1463163124960343
 20
1.762687483504816
 10
-0.1497704812379057
 20
1.745139898024614
 10
-0.1499999993173876
 20
1.739492800572218
  0
LINE
  5
18D
330
14E
100
AcDbEntity
  8
AM_9
100
AcDbLine
 10
-0.5749999999999998
 20
-2.142399919294146
 30
0.0
 11
0.5750000000000001
 21
-2.142399919294146
 31
0.0
  0
LINE
  5
18E
330
14E
100
AcDbEntity
  8
AM_9
100
AcDbLine
 10
0.5750000000000002
 20
-2.44
 30
0.0
 11
0.5750000000000001
 21
-1.888512212268038
 31
0.0
  0
LINE
  5
18F
330
14E
100
AcDbEntity
  8
AM_9
100
AcDbLine
 10
-0.5749999999999996
 20
-2.44
 30
0.0
 11
-0.5749999999999998
 21
-1.888512212268038
 31
0.0
  0
LINE
  5
190
330
14E
100
AcDbEntity
  8
AM_9
100
AcDbLine
 10
-0.5749999999999997
 20
-2.17
 30
0.0
 11
0.5750000000000002
 21
-2.17
 31
0.0
  0
LINE
  5
191
330
14E
100
AcDbEntity
  8
AM_9
100
AcDbLine
 10
-0.5749999999999996
 20
-2.332
 30
0.0
 11
0.5750000000000002
 21
-2.332
 31
0.0
  0
LWPOLYLINE
  5
192
330
14E
100
AcDbEntity
  8
AM_9
100
AcDbPolyline
 90
       15
 70
     0
 43
0.0
 10
0.2896825849097596
 20
-2.17
 10
0.2785056322302861
 20
-2.170898277048427
 10
0.2664171462905437
 20
-2.17344663168711
 10
0.2530363331262916
 20
-2.177618694066366
 10
0.2389360072727094
 20
-2.183129648374076
 10
0.2213276089374741
 20
-2.191185693689376
 10
0.2030169309873738
 20
-2.200587031943939
 10
0.1836151652015734
 20
-2.21139167445369
 10
0.1637294818106854
 20
-2.223148874508334
 10
0.1358265271506637
 20
-2.240506584639984
 10
0.1073828207175271
 20
-2.258954395442372
 10
0.0777435233614501
 20
-2.278732579135335
 10
0.0478289570406
 20
-2.299075933902684
 10
0.0006021993137216
 20
-2.331584320968269
 10
0.0000000000000006
 20
-2.331999999999999
  0
LWPOLYLINE
  5
193
330
14E
100
AcDbEntity
  8
AM_9
100
AcDbPolyline
 90
       12
 70
     0
 43
0.0
 10
0.0000000000000003
 20
-2.332
 10
-0.0006021993137214
 20
-2.331584320968271
 10
-0.0478289570405991
 20
-2.299075933902685
 10
-0.0870940223652876
 20
-2.272431263390005
 10
-0.1259171703859444
 20
-2.246847016125596
 10
-0.1637294818106847
 20
-2.223148874508334
 10
-0.1897789791245614
 20
-2.207870378406389
 10
-0.2149942640846738
 20
-2.194325828305226
 10
-0.2389360072727088
 20
-2.183129648374076
 10
-0.2572267718940283
 20
-2.176190666520004
 10
-0.2742860758535737
 20
-2.17163648344066
 10
-0.289682584909759
 20
-2.17
  0
LINE
  5
194
330
14E
100
AcDbEntity
  8
AM_9
100
AcDbLine
 10
-0.3399999999999996
 20
-1.63
 30
0.0
 11
-0.3399999999999996
 21
-2.17
 31
0.0
  0
LINE
  5
195
330
14E
100
AcDbEntity
  8
AM_9
100
AcDbLine
 10
0.3400000000000002
 20
-1.63
 30
0.0
 11
0.3400000000000002
 21
-2.17
 31
0.0
  0
LINE
  5
196
330
14E
100
AcDbEntity
  8
AM_7
100
AcDbLine
 10
1.265
 20
0.0
 30
0.0
 11
-1.461
 21
0.0
 31
0.0
  0
LINE
  5
197
330
14E
100
AcDbEntity
  8
AM_4
100
AcDbLine
 10
1.15
 20
-1.629999999999999
 30
0.0
 11
0.5750000000000001
 21
2.460000000000001
 31
0.0
  0
LINE
  5
198
330
14E
100
AcDbEntity
  8
AM_4
100
AcDbLine
 10
0.5750000000000002
 20
2.460000000000001
 30
0.0
 11
-0.575
 21
2.460000000000001
 31
0.0
  0
LINE
  5
199
330
14E
100
AcDbEntity
  8
AM_4
100
AcDbLine
 10
-0.575
 20
2.460000000000001
 30
0.0
 11
-1.15
 21
-1.629999999999999
 31
0.0
  0
LWPOLYLINE
  5
19A
330
14E
100
AcDbEntity
  8
AM_4
100
AcDbPolyline
 90
       21
 70
     0
 43
0.0
 10
0.3232218316907798
 20
0.8237669719192049
 10
0.2949268122108601
 20
0.8513035950062096
 10
0.2646368738649734
 20
0.8767798274759648
 10
0.2315395407644369
 20
0.9004289520194183
 10
0.1964060253213792
 20
0.9212755230678684
 10
0.16693803453313
 20
0.9356760654842212
 10
0.1363522750635403
 20
0.9478782264578246
 10
0.10390493329347
 20
0.9579355513952795
 10
0.0706309026058301
 20
0.9653248762191725
 10
0.0376286646518881
 20
0.969819282812347
 10
0.0043222680387976
 20
0.9715732604300664
 10
-0.0301702094424512
 20
0.9704525974342937
 10
-0.0644009030708887
 20
0.9663871329087622
 10
-0.0944637973528729
 20
0.9603285563117409
 10
-0.1239099504781968
 20
0.9520783020287383
 10
-0.1532857460123828
 20
0.941457343113099
 10
-0.1817123284412597
 20
0.9287934404268954
 10
-0.2201184734171344
 20
0.9076623624560546
 10
-0.2562293098031008
 20
0.8831823543851249
 10
-0.2910064891048035
 20
0.8548218432711846
 10
-0.323221831690784
 20
0.8237669719192147
  0
LINE
  5
19B
330
14E
100
AcDbEntity
  8
AM_4
100
AcDbLine
 10
-0.8050327606715052
 20
0.8237669719192049
 30
0.0
 11
-0.3232218316907792
 21
0.8237669719192049
 31
0.0
  0
LWPOLYLINE
  5
19C
330
14E
100
AcDbEntity
  8
AM_4
100
AcDbPolyline
 90
       15
 70
     0
 43
0.0
 10
-0.3232218316907773
 20
0.823766971919206
 10
-0.3979938639507971
 20
0.7351610706545972
 10
-0.469736922590886
 20
0.6285548655190064
 10
-0.5379049996151494
 20
0.5047596941041023
 10
-0.6019792947964225
 20
0.3647177124139194
 10
-0.6614721640592586
 20
0.2094947244887818
 10
-0.7159308307457911
 20
0.0402720709930004
 10
-0.7649408315194931
 20
-0.1416623615008874
 10
-0.8081291706814294
 20
-0.3349239421065904
 10
-0.8451671588927454
 20
-0.5380418335011665
 10
-0.8757729146990042
 20
-0.7494701858851667
 10
-0.8997135098182597
 20
-0.967599901833019
 10
-0.9168067418659275
 20
-1.190770882496037
 10
-0.9269225210249497
 20
-1.417284661957052
 10
-0.9300000000000002
 20
-1.629999999999999
  0
LINE
  5
19D
330
14E
100
AcDbEntity
  8
AM_4
100
AcDbLine
 10
0.3232218316907798
 20
0.8237669719192046
 30
0.0
 11
0.8050327606715056
 21
0.8237669719192051
 31
0.0
  0
LWPOLYLINE
  5
19E
330
14E
100
AcDbEntity
  8
AM_4
100
AcDbPolyline
 90
       15
 70
     0
 43
0.0
 10
0.9300000000000007
 20
-1.63
 10
0.9264610692253239
 20
-1.401922037754545
 10
0.915871210301354
 20
-1.175579886519017
 10
0.898311018448834
 20
-0.9526961467334457
 10
0.8739141373308954
 20
-0.7349670982384809
 10
0.8428662419440849
 20
-0.5240497905615633
 10
0.8054036255195285
 20
-0.3215494317694669
 10
0.7618114011887628
 20
-0.1290071718656595
 10
0.7124213321006502
 20
0.0521116262917966
 10
0.6576093065034898
 20
0.2204285392864024
 10
0.5977924770084823
 20
0.3746625737777378
 10
0.5334260858064737
 20
0.5136399156342678
 10
0.4650000000000009
 20
0.6363028633676507
 10
0.3930349834188513
 20
0.7417178778797228
 10
0.323221831690778
 20
0.8237669719192054
  0
LINE
  5
19F
330
14E
100
AcDbEntity
  8
AM_4
100
AcDbLine
 10
0.9300000000000002
 20
-1.765248068882484
 30
0.0
 11
1.15
 21
-1.765248068882484
 31
0.0
  0
LINE
  5
1A0
330
14E
100
AcDbEntity
  8
AM_4
100
AcDbLine
 10
-1.15
 20
-1.765248068882484
 30
0.0
 11
-0.9299999999999999
 21
-1.765248068882484
 31
0.0
  0
LINE
  5
1A1
330
14E
100
AcDbEntity
  8
AM_4
100
AcDbLine
 10
0.9300000000000003
 20
-1.873
 30
0.0
 11
1.15
 21
-1.873
 31
0.0
  0
LINE
  5
1A2
330
14E
100
AcDbEntity
  8
AM_4
100
AcDbLine
 10
1.15
 20
-2.44
 30
0.0
 11
1.15
 21
-1.629999999999999
 31
0.0
  0
LINE
  5
1A3
330
14E
100
AcDbEntity
  8
AM_4
100
AcDbLine
 10
-1.15
 20
-2.44
 30
0.0
 11
1.15
 21
-2.44
 31
0.0
  0
LINE
  5
1A4
330
14E
100
AcDbEntity
  8
AM_4
100
AcDbLine
 10
-1.15
 20
-1.873
 30
0.0
 11
-0.9299999999999998
 21
-1.873
 31
0.0
  0
LINE
  5
1A5
330
14E
100
AcDbEntity
  8
AM_4
100
AcDbLine
 10
-1.15
 20
-2.44
 30
0.0
 11
-1.15
 21
-1.629999999999999
 31
0.0
  0
LINE
  5
1A6
330
14E
100
AcDbEntity
  8
AM_4
100
AcDbLine
 10
0.9300000000000003
 20
-1.63
 30
0.0
 11
0.9300000000000003
 21
-2.44
 31
0.0
  0
LINE
  5
1A7
330
14E
100
AcDbEntity
  8
AM_4
100
AcDbLine
 10
0.5250000000000002
 20
-1.63
 30
0.0
 11
0.5250000000000002
 21
-2.44
 31
0.0
  0
LINE
  5
1A8
330
14E
100
AcDbEntity
  8
AM_4
100
AcDbLine
 10
-0.9299999999999998
 20
-1.63
 30
0.0
 11
0.9300000000000003
 21
-1.63
 31
0.0
  0
LINE
  5
1A9
330
14E
100
AcDbEntity
  8
AM_4
100
AcDbLine
 10
-0.525000000000001
 20
-1.63
 30
0.0
 11
-0.525000000000001
 21
-2.44
 31
0.0
  0
LINE
  5
1AA
330
14E
100
AcDbEntity
  8
AM_4
100
AcDbLine
 10
-0.9299999999999998
 20
-1.63
 30
0.0
 11
-0.9299999999999998
 21
-2.44
 31
0.0
  0
ENDBLK
  5
151
330
14E
100
AcDbEntity
  8
0
100
AcDbBlockEnd
  0
ENDSEC
  0
SECTION
  2
ENTITIES
  0
INSERT
  5
6F
330
1F
100
AcDbEntity
  8
0
100
AcDbBlockReference
  2
1_123859_2
 10
0.0
 20
0.0
 30
0.0
  0
POINT
  5
1AC
330
1F
100
AcDbEntity
  8
ConnectionPoints
100
AcDbPoint
 10
0.87
 20
0.0
 30
-0.0000000000000001
  0
POINT
  5
1AD
330
1F
100
AcDbEntity
  8
ConnectionPoints
100
AcDbPoint
 10
-1.35
 20
0.0
 30
0.0000000000000001
  0
POINT
  5
1AE
330
1F
100
AcDbEntity
  8
ConnectionPoints
100
AcDbPoint
 10
0.0000000000000001
 20
1.739482681718908
 30
1.739482681718907
  0
POINT
  5
1AF
330
1F
100
AcDbEntity
  8
ConnectionPoints
100
AcDbPoint
 10
-1.35
 20
0.0
 30
0.0000000000000001
  0
ENDSEC
  0
SECTION
  2
OBJECTS
  0
DICTIONARY
  5
C
330
0
100
AcDbDictionary
281
     1
  3
ACAD_DETAILVIEWSTYLE
350
1B7
  3
ACAD_GROUP
350
D
  3
ACAD_LAYOUT
350
1A
  3
ACAD_MATERIAL
350
43
  3
ACAD_MLEADERSTYLE
350
6B
  3
ACAD_MLINESTYLE
350
17
  3
ACAD_PLOTSETTINGS
350
19
  3
ACAD_PLOTSTYLENAME
350
E
  3
ACAD_SCALELIST
350
47
  3
ACAD_SECTIONVIEWSTYLE
350
1B8
  3
ACAD_TABLESTYLE
350
69
  3
ACAD_VISUALSTYLE
350
2A
  3
ACDB_RECOMPOSE_DATA
350
1B4
  3
AcDbVariableDictionary
350
1B0
  0
SUN
  5
6D
330
29
100
AcDbSun
 90
        1
290
     0
 63
     7
421
 16777215
 40
1.0
291
     1
 91
  2455826
 92
 54000000
292
     0
 70
     2
 71
   256
280
     1
  0
DICTIONARY
  5
1B7
102
{ACAD_REACTORS
330
C
102
}
330
C
100
AcDbDictionary
281
     1
  0
DICTIONARY
  5
D
102
{ACAD_REACTORS
330
C
102
}
330
C
100
AcDbDictionary
281
     1
  0
DICTIONARY
  5
1A
102
{ACAD_REACTORS
330
C
102
}
330
C
100
AcDbDictionary
281
     1
  3
Layout1
350
1E
  3
Layout2
350
26
  3
Model
350
22
  0
DICTIONARY
  5
43
102
{ACAD_REACTORS
330
C
102
}
330
C
100
AcDbDictionary
281
     1
  3
ByBlock
350
45
  3
ByLayer
350
44
  3
Global
350
46
  0
DICTIONARY
  5
6B
102
{ACAD_REACTORS
330
C
102
}
330
C
100
AcDbDictionary
281
     1
  3
Standard
350
6C
  0
DICTIONARY
  5
17
102
{ACAD_REACTORS
330
C
102
}
330
C
100
AcDbDictionary
281
     1
  3
Standard
350
18
  0
DICTIONARY
  5
19
102
{ACAD_REACTORS
330
C
102
}
330
C
100
AcDbDictionary
281
     1
  0
ACDBDICTIONARYWDFLT
  5
E
102
{ACAD_REACTORS
330
C
102
}
330
C
100
AcDbDictionary
281
     1
  3
Normal
350
F
100
AcDbDictionaryWithDefault
340
F
  0
DICTIONARY
  5
47
102
{ACAD_REACTORS
330
C
102
}
330
C
100
AcDbDictionary
281
     1
  3
A0
350
48
  3
A1
350
49
  3
A2
350
4A
  3
A3
350
4B
  3
A4
350
4C
  3
A5
350
4D
  3
A6
350
4E
  3
A7
350
4F
  3
A8
350
50
  3
A9
350
51
  3
B0
350
52
  3
B1
350
53
  3
B2
350
54
  3
B3
350
55
  3
B4
350
56
  3
B5
350
57
  3
B6
350
58
  3
B7
350
59
  3
B8
350
5A
  3
B9
350
5B
  3
C0
350
5C
  3
C1
350
5D
  3
C2
350
5E
  3
C3
350
5F
  3
C4
350
60
  3
C5
350
61
  3
C6
350
62
  3
C7
350
63
  3
C8
350
64
  3
C9
350
65
  3
D0
350
66
  3
D1
350
67
  3
D2
350
68
  0
DICTIONARY
  5
1B8
102
{ACAD_REACTORS
330
C
102
}
330
C
100
AcDbDictionary
281
     1
  0
DICTIONARY
  5
69
102
{ACAD_REACTORS
330
C
102
}
330
C
100
AcDbDictionary
281
     1
  3
Standard
350
6A
  0
DICTIONARY
  5
2A
102
{ACAD_REACTORS
330
C
102
}
330
C
100
AcDbDictionary
281
     1
  3
2dWireframe
350
2F
  3
Basic
350
32
  3
Brighten
350
36
  3
ColorChange
350
3A
  3
Conceptual
350
34
  3
Dim
350
35
  3
EdgeColorOff
350
3D
  3
Facepattern
350
39
  3
Flat
350
2B
  3
FlatWithEdges
350
2C
  3
Gouraud
350
2D
  3
GouraudWithEdges
350
2E
  3
Hidden
350
31
  3
JitterOff
350
3B
  3
Linepattern
350
38
  3
OverhangOff
350
3C
  3
Realistic
350
33
  3
Shaded
350
42
  3
Shaded with edges
350
41
  3
Shades of Gray
350
3E
  3
Sketchy
350
3F
  3
Thicken
350
37
  3
Wireframe
350
30
  3
X-Ray
350
40
  0
XRECORD
  5
1B4
102
{ACAD_REACTORS
330
C
102
}
330
C
100
AcDbXrecord
280
     1
 90
        1
330
6A
  0
DICTIONARY
  5
1B0
102
{ACAD_REACTORS
330
C
102
}
330
C
100
AcDbDictionary
281
     1
  3
CANNOSCALE
350
1B1
  3
CMLEADERSTYLE
350
1B6
  3
CTABLESTYLE
350
1B5
  0
LAYOUT
  5
1E
102
{ACAD_REACTORS
330
1A
102
}
330
1A
100
AcDbPlotSettings
  1

  2
none_device
  4

  6

 40
0.0
 41
0.0
 42
0.0
 43
0.0
 44
0.0
 45
0.0
 46
0.0
 47
0.0
 48
0.0
 49
0.0
140
0.0
141
0.0
142
1.0
143
1.0
 70
   688
 72
     0
 73
     0
 74
     5
  7

 75
    16
 76
     0
 77
     2
 78
   300
147
1.0
148
0.0
149
0.0
100
AcDbLayout
  1
Layout1
 70
     1
 71
     1
 10
0.0
 20
0.0
 11
12.0
 21
9.0
 12
0.0
 22
0.0
 32
0.0
 14
1.000000000000000E+20
 24
1.000000000000000E+20
 34
1.000000000000000E+20
 15
-1.000000000000000E+20
 25
-1.000000000000000E+20
 35
-1.000000000000000E+20
146
0.0
 13
0.0
 23
0.0
 33
0.0
 16
1.0
 26
0.0
 36
0.0
 17
0.0
 27
1.0
 37
0.0
 76
     0
330
1B
  0
LAYOUT
  5
26
102
{ACAD_REACTORS
330
1A
102
}
330
1A
100
AcDbPlotSettings
  1

  2
none_device
  4

  6

 40
0.0
 41
0.0
 42
0.0
 43
0.0
 44
0.0
 45
0.0
 46
0.0
 47
0.0
 48
0.0
 49
0.0
140
0.0
141
0.0
142
1.0
143
1.0
 70
   688
 72
     0
 73
     0
 74
     5
  7

 75
    16
 76
     0
 77
     2
 78
   300
147
1.0
148
0.0
149
0.0
100
AcDbLayout
  1
Layout2
 70
     1
 71
     2
 10
0.0
 20
0.0
 11
0.0
 21
0.0
 12
0.0
 22
0.0
 32
0.0
 14
0.0
 24
0.0
 34
0.0
 15
0.0
 25
0.0
 35
0.0
146
0.0
 13
0.0
 23
0.0
 33
0.0
 16
1.0
 26
0.0
 36
0.0
 17
0.0
 27
1.0
 37
0.0
 76
     0
330
23
  0
LAYOUT
  5
22
102
{ACAD_REACTORS
330
1A
102
}
330
1A
100
AcDbPlotSettings
  1

  2
none_device
  4
Letter_(8.50_x_11.00_Inches)
  6

 40
6.35
 41
6.35
 42
6.35000508
 43
6.35000508
 44
215.9
 45
279.4
 46
0.0
 47
0.0
 48
0.0
 49
0.0
140
0.0
141
0.0
142
1.0
143
1.0
 70
  1712
 72
     0
 73
     0
 74
     0
  7

 75
     0
 76
     0
 77
     2
 78
   300
147
1.0
148
0.0
149
0.0
100
AcDbLayout
  1
Model
 70
     1
 71
     0
 10
0.0
 20
0.0
 11
12.0
 21
9.0
 12
0.0
 22
0.0
 32
0.0
 14
1.000000000000000E+20
 24
1.000000000000000E+20
 34
1.000000000000000E+20
 15
-1.000000000000000E+20
 25
-1.000000000000000E+20
 35
-1.000000000000000E+20
146
0.0
 13
0.0
 23
0.0
 33
0.0
 16
1.0
 26
0.0
 36
0.0
 17
0.0
 27
1.0
 37
0.0
 76
     0
330
1F
331
29
  0
MATERIAL
  5
45
102
{ACAD_REACTORS
330
43
102
}
330
43
100
AcDbMaterial
  1
ByBlock
 72
     1
 94
      127
  0
MATERIAL
  5
44
102
{ACAD_REACTORS
330
43
102
}
330
43
100
AcDbMaterial
  1
ByLayer
 72
     1
 94
      127
  0
MATERIAL
  5
46
102
{ACAD_REACTORS
330
43
102
}
330
43
100
AcDbMaterial
  1
Global
 72
     1
 94
      127
  0
MLEADERSTYLE
  5
6C
102
{ACAD_REACTORS
330
6B
102
}
330
6B
100
AcDbMLeaderStyle
179
     2
170
     2
171
     1
172
     0
 90
        2
 40
0.0
 41
0.0
173
     1
 91
-1056964608
340
14
 92
       -2
290
     1
 42
0.09
291
     1
 43
0.36
  3
Standard
341
0
 44
0.18
300

342
11
174
     1
178
     6
175
     1
176
     0
 93
-1056964608
 45
0.18
292
     0
297
     0
 46
0.18
343
0
 94
-1056964608
 47
1.0
 49
1.0
140
1.0
293
     1
141
0.0
294
     1
177
     0
142
1.0
295
     0
296
     0
143
0.125
271
     0
272
     9
273
     9
298
     0
  0
MLINESTYLE
  5
18
102
{ACAD_REACTORS
330
17
102
}
330
17
100
AcDbMlineStyle
  2
Standard
 70
     0
  3

 62
   256
 51
90.0
 52
90.0
 71
     2
 49
0.5
 62
   256
  6
BYLAYER
 49
-0.5
 62
   256
  6
BYLAYER
  0
ACDBPLACEHOLDER
  5
F
102
{ACAD_REACTORS
330
E
102
}
330
E
  0
SCALE
  5
48
102
{ACAD_REACTORS
330
47
102
}
330
47
100
AcDbScale
 70
     0
300
1:1
140
1.0
141
1.0
290
     1
  0
SCALE
  5
49
102
{ACAD_REACTORS
330
47
102
}
330
47
100
AcDbScale
 70
     0
300
1:2
140
1.0
141
2.0
290
     0
  0
SCALE
  5
4A
102
{ACAD_REACTORS
330
47
102
}
330
47
100
AcDbScale
 70
     0
300
1:4
140
1.0
141
4.0
290
     0
  0
SCALE
  5
4B
102
{ACAD_REACTORS
330
47
102
}
330
47
100
AcDbScale
 70
     0
300
1:5
140
1.0
141
5.0
290
     0
  0
SCALE
  5
4C
102
{ACAD_REACTORS
330
47
102
}
330
47
100
AcDbScale
 70
     0
300
1:8
140
1.0
141
8.0
290
     0
  0
SCALE
  5
4D
102
{ACAD_REACTORS
330
47
102
}
330
47
100
AcDbScale
 70
     0
300
1:10
140
1.0
141
10.0
290
     0
  0
SCALE
  5
4E
102
{ACAD_REACTORS
330
47
102
}
330
47
100
AcDbScale
 70
     0
300
1:16
140
1.0
141
16.0
290
     0
  0
SCALE
  5
4F
102
{ACAD_REACTORS
330
47
102
}
330
47
100
AcDbScale
 70
     0
300
1:20
140
1.0
141
20.0
290
     0
  0
SCALE
  5
50
102
{ACAD_REACTORS
330
47
102
}
330
47
100
AcDbScale
 70
     0
300
1:30
140
1.0
141
30.0
290
     0
  0
SCALE
  5
51
102
{ACAD_REACTORS
330
47
102
}
330
47
100
AcDbScale
 70
     0
300
1:40
140
1.0
141
40.0
290
     0
  0
SCALE
  5
52
102
{ACAD_REACTORS
330
47
102
}
330
47
100
AcDbScale
 70
     0
300
1:50
140
1.0
141
50.0
290
     0
  0
SCALE
  5
53
102
{ACAD_REACTORS
330
47
102
}
330
47
100
AcDbScale
 70
     0
300
1:100
140
1.0
141
100.0
290
     0
  0
SCALE
  5
54
102
{ACAD_REACTORS
330
47
102
}
330
47
100
AcDbScale
 70
     0
300
2:1
140
2.0
141
1.0
290
     0
  0
SCALE
  5
55
102
{ACAD_REACTORS
330
47
102
}
330
47
100
AcDbScale
 70
     0
300
4:1
140
4.0
141
1.0
290
     0
  0
SCALE
  5
56
102
{ACAD_REACTORS
330
47
102
}
330
47
100
AcDbScale
 70
     0
300
8:1
140
8.0
141
1.0
290
     0
  0
SCALE
  5
57
102
{ACAD_REACTORS
330
47
102
}
330
47
100
AcDbScale
 70
     0
300
10:1
140
10.0
141
1.0
290
     0
  0
SCALE
  5
58
102
{ACAD_REACTORS
330
47
102
}
330
47
100
AcDbScale
 70
     0
300
100:1
140
100.0
141
1.0
290
     0
  0
SCALE
  5
59
102
{ACAD_REACTORS
330
47
102
}
330
47
100
AcDbScale
 70
     0
300
1/128" = 1'-0"
140
0.0078125
141
12.0
290
     0
  0
SCALE
  5
5A
102
{ACAD_REACTORS
330
47
102
}
330
47
100
AcDbScale
 70
     0
300
1/64" = 1'-0"
140
0.015625
141
12.0
290
     0
  0
SCALE
  5
5B
102
{ACAD_REACTORS
330
47
102
}
330
47
100
AcDbScale
 70
     0
300
1/32" = 1'-0"
140
0.03125
141
12.0
290
     0
  0
SCALE
  5
5C
102
{ACAD_REACTORS
330
47
102
}
330
47
100
AcDbScale
 70
     0
300
1/16" = 1'-0"
140
0.0625
141
12.0
290
     0
  0
SCALE
  5
5D
102
{ACAD_REACTORS
330
47
102
}
330
47
100
AcDbScale
 70
     0
300
3/32" = 1'-0"
140
0.09375
141
12.0
290
     0
  0
SCALE
  5
5E
102
{ACAD_REACTORS
330
47
102
}
330
47
100
AcDbScale
 70
     0
300
1/8" = 1'-0"
140
0.125
141
12.0
290
     0
  0
SCALE
  5
5F
102
{ACAD_REACTORS
330
47
102
}
330
47
100
AcDbScale
 70
     0
300
3/16" = 1'-0"
140
0.1875
141
12.0
290
     0
  0
SCALE
  5
60
102
{ACAD_REACTORS
330
47
102
}
330
47
100
AcDbScale
 70
     0
300
1/4" = 1'-0"
140
0.25
141
12.0
290
     0
  0
SCALE
  5
61
102
{ACAD_REACTORS
330
47
102
}
330
47
100
AcDbScale
 70
     0
300
3/8" = 1'-0"
140
0.375
141
12.0
290
     0
  0
SCALE
  5
62
102
{ACAD_REACTORS
330
47
102
}
330
47
100
AcDbScale
 70
     0
300
1/2" = 1'-0"
140
0.5
141
12.0
290
     0
  0
SCALE
  5
63
102
{ACAD_REACTORS
330
47
102
}
330
47
100
AcDbScale
 70
     0
300
3/4" = 1'-0"
140
0.75
141
12.0
290
     0
  0
SCALE
  5
64
102
{ACAD_REACTORS
330
47
102
}
330
47
100
AcDbScale
 70
     0
300
1" = 1'-0"
140
1.0
141
12.0
290
     0
  0
SCALE
  5
65
102
{ACAD_REACTORS
330
47
102
}
330
47
100
AcDbScale
 70
     0
300
1-1/2" = 1'-0"
140
1.5
141
12.0
290
     0
  0
SCALE
  5
66
102
{ACAD_REACTORS
330
47
102
}
330
47
100
AcDbScale
 70
     0
300
3" = 1'-0"
140
3.0
141
12.0
290
     0
  0
SCALE
  5
67
102
{ACAD_REACTORS
330
47
102
}
330
47
100
AcDbScale
 70
     0
300
6" = 1'-0"
140
6.0
141
12.0
290
     0
  0
SCALE
  5
68
102
{ACAD_REACTORS
330
47
102
}
330
47
100
AcDbScale
 70
     0
300
1'-0" = 1'-0"
140
12.0
141
12.0
290
     0
  0
TABLESTYLE
  5
6A
102
{ACAD_REACTORS
330
69
102
}
102
{ACAD_XDICTIONARY
360
1B2
102
}
330
69
100
AcDbTableStyle
  3
Standard
 70
     0
 71
     0
 40
0.06
 41
0.06
280
     0
281
     0
  7
Standard
140
0.18
170
     2
 62
     0
 63
   257
283
     0
 90
        4
 91
        0
  1

274
    -2
284
     1
 64
     0
275
    -2
285
     1
 65
     0
276
    -2
286
     1
 66
     0
277
    -2
287
     1
 67
     0
278
    -2
288
     1
 68
     0
279
    -2
289
     1
 69
     0
  7
Standard
140
0.25
170
     5
 62
     0
 63
   257
283
     0
 90
        4
 91
        0
  1

274
    -2
284
     1
 64
     0
275
    -2
285
     1
 65
     0
276
    -2
286
     1
 66
     0
277
    -2
287
     1
 67
     0
278
    -2
288
     1
 68
     0
279
    -2
289
     1
 69
     0
  7
Standard
140
0.18
170
     5
 62
     0
 63
   257
283
     0
 90
        4
 91
        0
  1

274
    -2
284
     1
 64
     0
275
    -2
285
     1
 65
     0
276
    -2
286
     1
 66
     0
277
    -2
287
     1
 67
     0
278
    -2
288
     1
 68
     0
279
    -2
289
     1
 69
     0
  0
VISUALSTYLE
  5
2F
102
{ACAD_REACTORS
330
2A
102
}
330
2A
100
AcDbVisualStyle
  2
2dWireframe
 70
     4
177
     3
291
     0
 70
    58
 90
        0
176
     1
 90
        2
176
     1
 90
        0
176
     1
 90
        0
176
     1
 40
0.6
176
     1
 40
30.0
176
     1
 62
     7
420
 16777215
176
     1
 90
        1
176
     1
 90
        4
176
     1
 62
     7
176
     1
 62
   257
176
     1
 90
        1
176
     1
 90
        1
176
     1
 40
1.0
176
     1
 90
        0
176
     1
 62
   257
176
     1
 40
1.0
176
     1
 90
        1
176
     1
 90
        6
176
     1
 90
        2
176
     1
 62
     7
176
     1
 90
        5
176
     1
 90
        0
176
     1
 90
        0
176
     1
290
     0
176
     1
 90
        1
176
     1
 40
0.0
176
     1
 90
        0
176
     1
290
     1
176
     1
290
     1
176
     1
290
     0
176
     1
290
     0
176
     1
290
     0
176
     1
290
     0
176
     1
290
     0
176
     1
290
     0
176
     1
290
     0
176
     1
 90
       50
176
     1
 40
0.0
176
     1
 40
1.0
176
     1
 90
        0
176
     1
 62
    18
420
        0
176
     1
 90
       50
176
     1
 90
        3
176
     1
 62
     5
420
      255
176
     1
290
     0
176
     1
 90
       50
176
     1
 90
       50
176
     1
 90
       50
176
     1
290
     0
176
     1
 90
       50
176
     1
 62
   256
176
     0
 40
1.0
176
     0
 90
        2
176
     1
  1
strokes_ogs.tif
176
     1
290
     0
176
     1
 40
1.0
176
     1
 40
1.0
176
     1
  0
VISUALSTYLE
  5
32
102
{ACAD_REACTORS
330
2A
102
}
330
2A
100
AcDbVisualStyle
  2
Basic
 70
     7
177
     3
291
     1
 70
    58
 90
        1
176
     1
 90
        0
176
     1
 90
        1
176
     1
 90
        0
176
     1
 40
0.6
176
     1
 40
30.0
176
     1
 62
     7
420
 16777215
176
     1
 90
        0
176
     1
 90
        4
176
     1
 62
     7
176
     1
 62
   257
176
     1
 90
        1
176
     1
 90
        1
176
     1
 40
1.0
176
     1
 90
        8
176
     1
 62
     7
176
     1
 40
1.0
176
     1
 90
        1
176
     1
 90
        6
176
     1
 90
        2
176
     1
 62
     7
176
     1
 90
        5
176
     1
 90
        0
176
     1
 90
        0
176
     1
290
     0
176
     1
 90
        1
176
     1
 40
0.0
176
     1
 90
        0
176
     1
290
     0
176
     1
290
     1
176
     1
290
     1
176
     1
290
     0
176
     1
290
     0
176
     1
290
     0
176
     1
290
     0
176
     1
290
     0
176
     1
290
     0
176
     1
 90
       50
176
     1
 40
0.0
176
     1
 40
1.0
176
     1
 90
        0
176
     1
 62
    18
420
        0
176
     1
 90
       50
176
     1
 90
        3
176
     1
 62
     5
420
      255
176
     1
290
     0
176
     1
 90
       50
176
     1
 90
       50
176
     1
 90
       50
176
     1
290
     0
176
     1
 90
       50
176
     1
 62
   256
176
     0
 40
1.0
176
     0
 90
        2
176
     1
  1
strokes_ogs.tif
176
     1
290
     0
176
     1
 40
1.0
176
     1
 40
1.0
176
     1
  0
VISUALSTYLE
  5
36
102
{ACAD_REACTORS
330
2A
102
}
330
2A
100
AcDbVisualStyle
  2
Brighten
 70
    12
177
     3
291
     1
 70
    58
 90
        2
176
     1
 90
        2
176
     1
 90
        0
176
     1
 90
        0
176
     1
 40
0.6
176
     1
 40
30.0
176
     1
 62
     7
420
 16777215
176
     1
 90
        1
176
     1
 90
        4
176
     1
 62
     7
176
     1
 62
   257
176
     1
 90
        1
176
     1
 90
        1
176
     1
 40
1.0
176
     1
 90
        8
176
     1
 62
     7
176
     1
 40
1.0
176
     1
 90
        1
176
     1
 90
        6
176
     1
 90
        2
176
     1
 62
     7
176
     1
 90
        5
176
     1
 90
        0
176
     1
 90
        0
176
     1
290
     0
176
     1
 90
        1
176
     1
 40
50.0
176
     1
 90
        0
176
     1
290
     0
176
     1
290
     1
176
     1
290
     1
176
     1
290
     0
176
     1
290
     0
176
     1
290
     0
176
     1
290
     0
176
     1
290
     0
176
     1
290
     0
176
     1
 90
       50
176
     1
 40
0.0
176
     1
 40
1.0
176
     1
 90
        0
176
     1
 62
    18
420
        0
176
     1
 90
       50
176
     1
 90
        3
176
     1
 62
     5
420
      255
176
     1
290
     0
176
     1
 90
       50
176
     1
 90
       50
176
     1
 90
       50
176
     1
290
     0
176
     1
 90
       50
176
     1
 62
   256
176
     0
 40
1.0
176
     0
 90
        2
176
     1
  1
strokes_ogs.tif
176
     1
290
     0
176
     1
 40
1.0
176
     1
 40
1.0
176
     1
  0
VISUALSTYLE
  5
3A
102
{ACAD_REACTORS
330
2A
102
}
330
2A
100
AcDbVisualStyle
  2
ColorChange
 70
    16
177
     3
291
     1
 70
    58
 90
        2
176
     1
 90
        2
176
     1
 90
        3
176
     1
 90
        0
176
     1
 40
0.6
176
     1
 40
30.0
176
     1
 62
     8
420
  8421504
176
     1
 90
        1
176
     1
 90
        4
176
     1
 62
     7
176
     1
 62
   257
176
     1
 90
        1
176
     1
 90
        1
176
     1
 40
1.0
176
     1
 90
        8
176
     1
 62
     8
420
  8421504
176
     1
 40
1.0
176
     1
 90
        1
176
     1
 90
        6
176
     1
 90
        2
176
     1
 62
     7
176
     1
 90
        5
176
     1
 90
        0
176
     1
 90
        0
176
     1
290
     0
176
     1
 90
        1
176
     1
 40
0.0
176
     1
 90
        0
176
     1
290
     0
176
     1
290
     1
176
     1
290
     1
176
     1
290
     0
176
     1
290
     0
176
     1
290
     0
176
     1
290
     0
176
     1
290
     0
176
     1
290
     0
176
     1
 90
       50
176
     1
 40
0.0
176
     1
 40
1.0
176
     1
 90
        0
176
     1
 62
    18
420
        0
176
     1
 90
       50
176
     1
 90
        3
176
     1
 62
     5
420
      255
176
     1
290
     0
176
     1
 90
       50
176
     1
 90
       50
176
     1
 90
       50
176
     1
290
     0
176
     1
 90
       50
176
     1
 62
   256
176
     0
 40
1.0
176
     0
 90
        2
176
     1
  1
strokes_ogs.tif
176
     1
290
     0
176
     1
 40
1.0
176
     1
 40
1.0
176
     1
  0
VISUALSTYLE
  5
34
102
{ACAD_REACTORS
330
2A
102
}
330
2A
100
AcDbVisualStyle
  2
Conceptual
 70
     9
177
     3
291
     0
 70
    58
 90
        3
176
     1
 90
        2
176
     1
 90
        0
176
     1
 90
        0
176
     1
 40
0.6
176
     1
 40
30.0
176
     1
 62
     7
420
 16777215
176
     1
 90
        2
176
     1
 90
        2
176
     1
 62
     7
176
     1
 62
   257
176
     1
 90
        1
176
     1
 90
        1
176
     1
 40
179.0
176
     1
 90
        8
176
     1
 62
     7
176
     1
 40
1.0
176
     1
 90
        1
176
     1
 90
        6
176
     1
 90
        2
176
     1
 62
     7
176
     1
 90
        3
176
     1
 90
        0
176
     1
 90
        0
176
     1
290
     0
176
     1
 90
        1
176
     1
 40
0.0
176
     1
 90
        0
176
     1
290
     0
176
     1
290
     1
176
     1
290
     1
176
     1
290
     0
176
     1
290
     0
176
     1
290
     0
176
     1
290
     0
176
     1
290
     0
176
     1
290
     0
176
     1
 90
       50
176
     1
 40
0.0
176
     1
 40
1.0
176
     1
 90
        0
176
     1
 62
    18
420
        0
176
     1
 90
       50
176
     1
 90
        3
176
     1
 62
     5
420
      255
176
     1
290
     0
176
     1
 90
       50
176
     1
 90
       50
176
     1
 90
       50
176
     1
290
     0
176
     1
 90
       50
176
     1
 62
   256
176
     0
 40
1.0
176
     0
 90
        2
176
     1
  1
strokes_ogs.tif
176
     1
290
     0
176
     1
 40
1.0
176
     1
 40
1.0
176
     1
  0
VISUALSTYLE
  5
35
102
{ACAD_REACTORS
330
2A
102
}
330
2A
100
AcDbVisualStyle
  2
Dim
 70
    11
177
     3
291
     1
 70
    58
 90
        2
176
     1
 90
        2
176
     1
 90
        0
176
     1
 90
        0
176
     1
 40
0.6
176
     1
 40
30.0
176
     1
 62
     7
420
 16777215
176
     1
 90
        1
176
     1
 90
        4
176
     1
 62
     7
176
     1
 62
   257
176
     1
 90
        1
176
     1
 90
        1
176
     1
 40
1.0
176
     1
 90
        8
176
     1
 62
     7
176
     1
 40
1.0
176
     1
 90
        1
176
     1
 90
        6
176
     1
 90
        2
176
     1
 62
     7
176
     1
 90
        5
176
     1
 90
        0
176
     1
 90
        0
176
     1
290
     0
176
     1
 90
        1
176
     1
 40
-50.0
176
     1
 90
        0
176
     1
290
     0
176
     1
290
     1
176
     1
290
     1
176
     1
290
     0
176
     1
290
     0
176
     1
290
     0
176
     1
290
     0
176
     1
290
     0
176
     1
290
     0
176
     1
 90
       50
176
     1
 40
0.0
176
     1
 40
1.0
176
     1
 90
        0
176
     1
 62
    18
420
        0
176
     1
 90
       50
176
     1
 90
        3
176
     1
 62
     5
420
      255
176
     1
290
     0
176
     1
 90
       50
176
     1
 90
       50
176
     1
 90
       50
176
     1
290
     0
176
     1
 90
       50
176
     1
 62
   256
176
     0
 40
1.0
176
     0
 90
        2
176
     1
  1
strokes_ogs.tif
176
     1
290
     0
176
     1
 40
1.0
176
     1
 40
1.0
176
     1
  0
VISUALSTYLE
  5
3D
102
{ACAD_REACTORS
330
2A
102
}
330
2A
100
AcDbVisualStyle
  2
EdgeColorOff
 70
    22
177
     3
291
     1
 70
    58
 90
        2
176
     0
 90
        2
176
     0
 90
        0
176
     0
 90
        0
176
     0
 40
0.6
176
     0
 40
30.0
176
     0
 62
     7
420
 16777215
176
     0
 90
        1
176
     0
 90
        4
176
     0
 62
     7
176
     0
 62
   257
176
     0
 90
        1
176
     0
 90
        1
176
     0
 40
1.0
176
     0
 90
        8
176
     2
 62
     7
176
     0
 40
1.0
176
     0
 90
        1
176
     0
 90
        6
176
     0
 90
        2
176
     0
 62
     7
176
     0
 90
        5
176
     0
 90
        0
176
     0
 90
        0
176
     0
290
     0
176
     0
 90
        1
176
     0
 40
0.0
176
     0
 90
        0
176
     0
290
     0
176
     0
290
     1
176
     0
290
     1
176
     0
290
     0
176
     0
290
     0
176
     0
290
     0
176
     0
290
     0
176
     0
290
     0
176
     0
290
     0
176
     0
 90
       50
176
     0
 40
0.0
176
     0
 40
1.0
176
     0
 90
        0
176
     0
 62
    18
420
        0
176
     0
 90
       50
176
     0
 90
        3
176
     0
 62
     5
420
      255
176
     0
290
     0
176
     0
 90
       50
176
     0
 90
       50
176
     0
 90
       50
176
     0
290
     0
176
     0
 90
       50
176
     0
 62
   256
176
     0
 40
1.0
176
     0
 90
        2
176
     0
  1
strokes_ogs.tif
176
     0
290
     0
176
     0
 40
1.0
176
     0
 40
1.0
176
     0
  0
VISUALSTYLE
  5
39
102
{ACAD_REACTORS
330
2A
102
}
330
2A
100
AcDbVisualStyle
  2
Facepattern
 70
    15
177
     3
291
     1
 70
    58
 90
        2
176
     1
 90
        2
176
     1
 90
        0
176
     1
 90
        0
176
     1
 40
0.6
176
     1
 40
30.0
176
     1
 62
     7
420
 16777215
176
     1
 90
        1
176
     1
 90
        4
176
     1
 62
     7
176
     1
 62
   257
176
     1
 90
        1
176
     1
 90
        1
176
     1
 40
1.0
176
     1
 90
        8
176
     1
 62
     7
176
     1
 40
1.0
176
     1
 90
        1
176
     1
 90
        6
176
     1
 90
        2
176
     1
 62
     7
176
     1
 90
        5
176
     1
 90
        0
176
     1
 90
        0
176
     1
290
     0
176
     1
 90
        1
176
     1
 40
0.0
176
     1
 90
        0
176
     1
290
     0
176
     1
290
     1
176
     1
290
     1
176
     1
290
     0
176
     1
290
     0
176
     1
290
     0
176
     1
290
     0
176
     1
290
     0
176
     1
290
     0
176
     1
 90
       50
176
     1
 40
0.0
176
     1
 40
1.0
176
     1
 90
        0
176
     1
 62
    18
420
        0
176
     1
 90
       50
176
     1
 90
        3
176
     1
 62
     5
420
      255
176
     1
290
     0
176
     1
 90
       50
176
     1
 90
       50
176
     1
 90
       50
176
     1
290
     0
176
     1
 90
       50
176
     1
 62
   256
176
     0
 40
1.0
176
     0
 90
        2
176
     1
  1
strokes_ogs.tif
176
     1
290
     0
176
     1
 40
1.0
176
     1
 40
1.0
176
     1
  0
VISUALSTYLE
  5
2B
102
{ACAD_REACTORS
330
2A
102
}
330
2A
100
AcDbVisualStyle
  2
Flat
 70
     0
177
     3
291
     1
 70
    58
 90
        2
176
     1
 90
        1
176
     1
 90
        1
176
     1
 90
        2
176
     1
 40
0.6
176
     1
 40
30.0
176
     1
 62
     7
420
 16777215
176
     1
 90
        0
176
     1
 90
        0
176
     1
 62
     7
176
     1
 62
   257
176
     1
 90
        1
176
     1
 90
        1
176
     1
 40
1.0
176
     1
 90
        8
176
     1
 62
     7
176
     1
 40
1.0
176
     1
 90
        1
176
     1
 90
        6
176
     1
 90
        2
176
     1
 62
     7
176
     1
 90
        5
176
     1
 90
        0
176
     1
 90
        0
176
     1
290
     0
176
     1
 90
       13
176
     1
 40
0.0
176
     1
 90
        0
176
     1
290
     0
176
     1
290
     1
176
     1
290
     1
176
     1
290
     0
176
     1
290
     0
176
     1
290
     0
176
     1
290
     0
176
     1
290
     0
176
     1
290
     0
176
     1
 90
       50
176
     1
 40
0.0
176
     1
 40
1.0
176
     1
 90
        0
176
     1
 62
    18
420
        0
176
     1
 90
       50
176
     1
 90
        3
176
     1
 62
     5
420
      255
176
     1
290
     0
176
     1
 90
       50
176
     1
 90
       50
176
     1
 90
       50
176
     1
290
     0
176
     1
 90
       50
176
     1
 62
   256
176
     0
 40
1.0
176
     0
 90
        2
176
     1
  1
strokes_ogs.tif
176
     1
290
     0
176
     1
 40
1.0
176
     1
 40
1.0
176
     1
  0
VISUALSTYLE
  5
2C
102
{ACAD_REACTORS
330
2A
102
}
330
2A
100
AcDbVisualStyle
  2
FlatWithEdges
 70
     1
177
     3
291
     1
 70
    58
 90
        2
176
     1
 90
        1
176
     1
 90
        1
176
     1
 90
        2
176
     1
 40
0.6
176
     1
 40
30.0
176
     1
 62
     7
420
 16777215
176
     1
 90
        1
176
     1
 90
        0
176
     1
 62
     7
176
     1
 62
   257
176
     1
 90
        1
176
     1
 90
        1
176
     1
 40
1.0
176
     1
 90
        0
176
     1
 62
   257
176
     1
 40
1.0
176
     1
 90
        1
176
     1
 90
        6
176
     1
 90
        2
176
     1
 62
     7
176
     1
 90
        5
176
     1
 90
        0
176
     1
 90
        0
176
     1
290
     0
176
     1
 90
       13
176
     1
 40
0.0
176
     1
 90
        0
176
     1
290
     0
176
     1
290
     1
176
     1
290
     1
176
     1
290
     0
176
     1
290
     0
176
     1
290
     0
176
     1
290
     0
176
     1
290
     0
176
     1
290
     0
176
     1
 90
       50
176
     1
 40
0.0
176
     1
 40
1.0
176
     1
 90
        0
176
     1
 62
    18
420
        0
176
     1
 90
       50
176
     1
 90
        3
176
     1
 62
     5
420
      255
176
     1
290
     0
176
     1
 90
       50
176
     1
 90
       50
176
     1
 90
       50
176
     1
290
     0
176
     1
 90
       50
176
     1
 62
   256
176
     0
 40
1.0
176
     0
 90
        2
176
     1
  1
strokes_ogs.tif
176
     1
290
     0
176
     1
 40
1.0
176
     1
 40
1.0
176
     1
  0
VISUALSTYLE
  5
2D
102
{ACAD_REACTORS
330
2A
102
}
330
2A
100
AcDbVisualStyle
  2
Gouraud
 70
     2
177
     3
291
     1
 70
    58
 90
        2
176
     1
 90
        2
176
     1
 90
        1
176
     1
 90
        2
176
     1
 40
0.6
176
     1
 40
30.0
176
     1
 62
     7
420
 16777215
176
     1
 90
        0
176
     1
 90
        0
176
     1
 62
     7
176
     1
 62
   257
176
     1
 90
        1
176
     1
 90
        1
176
     1
 40
1.0
176
     1
 90
        0
176
     1
 62
     7
176
     1
 40
1.0
176
     1
 90
        1
176
     1
 90
        6
176
     1
 90
        2
176
     1
 62
     7
176
     1
 90
        5
176
     1
 90
        0
176
     1
 90
        0
176
     1
290
     0
176
     1
 90
       13
176
     1
 40
0.0
176
     1
 90
        0
176
     1
290
     0
176
     1
290
     1
176
     1
290
     1
176
     1
290
     0
176
     1
290
     0
176
     1
290
     0
176
     1
290
     0
176
     1
290
     0
176
     1
290
     0
176
     1
 90
       50
176
     1
 40
0.0
176
     1
 40
1.0
176
     1
 90
        0
176
     1
 62
    18
420
        0
176
     1
 90
       50
176
     1
 90
        3
176
     1
 62
     5
420
      255
176
     1
290
     0
176
     1
 90
       50
176
     1
 90
       50
176
     1
 90
       50
176
     1
290
     0
176
     1
 90
       50
176
     1
 62
   256
176
     0
 40
1.0
176
     0
 90
        2
176
     1
  1
strokes_ogs.tif
176
     1
290
     0
176
     1
 40
1.0
176
     1
 40
1.0
176
     1
  0
VISUALSTYLE
  5
2E
102
{ACAD_REACTORS
330
2A
102
}
330
2A
100
AcDbVisualStyle
  2
GouraudWithEdges
 70
     3
177
     3
291
     1
 70
    58
 90
        2
176
     1
 90
        2
176
     1
 90
        1
176
     1
 90
        2
176
     1
 40
0.6
176
     1
 40
30.0
176
     1
 62
     7
420
 16777215
176
     1
 90
        1
176
     1
 90
        0
176
     1
 62
     7
176
     1
 62
   257
176
     1
 90
        1
176
     1
 90
        1
176
     1
 40
1.0
176
     1
 90
        0
176
     1
 62
   257
176
     1
 40
1.0
176
     1
 90
        1
176
     1
 90
        6
176
     1
 90
        2
176
     1
 62
     7
176
     1
 90
        5
176
     1
 90
        0
176
     1
 90
        0
176
     1
290
     0
176
     1
 90
       13
176
     1
 40
0.0
176
     1
 90
        0
176
     1
290
     0
176
     1
290
     1
176
     1
290
     1
176
     1
290
     0
176
     1
290
     0
176
     1
290
     0
176
     1
290
     0
176
     1
290
     0
176
     1
290
     0
176
     1
 90
       50
176
     1
 40
0.0
176
     1
 40
1.0
176
     1
 90
        0
176
     1
 62
    18
420
        0
176
     1
 90
       50
176
     1
 90
        3
176
     1
 62
     5
420
      255
176
     1
290
     0
176
     1
 90
       50
176
     1
 90
       50
176
     1
 90
       50
176
     1
290
     0
176
     1
 90
       50
176
     1
 62
   256
176
     0
 40
1.0
176
     0
 90
        2
176
     1
  1
strokes_ogs.tif
176
     1
290
     0
176
     1
 40
1.0
176
     1
 40
1.0
176
     1
  0
VISUALSTYLE
  5
31
102
{ACAD_REACTORS
330
2A
102
}
330
2A
100
AcDbVisualStyle
  2
Hidden
 70
     6
177
     3
291
     0
 70
    58
 90
        1
176
     1
 90
        2
176
     1
 90
        2
176
     1
 90
        0
176
     1
 40
0.6
176
     1
 40
30.0
176
     1
 62
     7
420
 16777215
176
     1
 90
        2
176
     1
 90
        2
176
     1
 62
     7
176
     1
 62
   257
176
     1
 90
        2
176
     1
 90
        1
176
     1
 40
40.0
176
     1
 90
        0
176
     1
 62
   257
176
     1
 40
1.0
176
     1
 90
        1
176
     1
 90
        6
176
     1
 90
        2
176
     1
 62
     7
176
     1
 90
        3
176
     1
 90
        0
176
     1
 90
        0
176
     1
290
     0
176
     1
 90
        1
176
     1
 40
0.0
176
     1
 90
        0
176
     1
290
     0
176
     1
290
     1
176
     1
290
     1
176
     1
290
     0
176
     1
290
     0
176
     1
290
     0
176
     1
290
     0
176
     1
290
     0
176
     1
290
     0
176
     1
 90
       50
176
     1
 40
0.0
176
     1
 40
1.0
176
     1
 90
        0
176
     1
 62
    18
420
        0
176
     1
 90
       50
176
     1
 90
        3
176
     1
 62
     5
420
      255
176
     1
290
     0
176
     1
 90
       50
176
     1
 90
       50
176
     1
 90
       50
176
     1
290
     0
176
     1
 90
       50
176
     1
 62
   256
176
     0
 40
1.0
176
     0
 90
        2
176
     1
  1
strokes_ogs.tif
176
     1
290
     0
176
     1
 40
1.0
176
     1
 40
1.0
176
     1
  0
VISUALSTYLE
  5
3B
102
{ACAD_REACTORS
330
2A
102
}
330
2A
100
AcDbVisualStyle
  2
JitterOff
 70
    20
177
     3
291
     1
 70
    58
 90
        2
176
     0
 90
        2
176
     0
 90
        0
176
     0
 90
        0
176
     0
 40
0.6
176
     0
 40
30.0
176
     0
 62
     7
420
 16777215
176
     0
 90
        1
176
     0
 90
        4
176
     0
 62
     7
176
     0
 62
   257
176
     0
 90
        1
176
     0
 90
        1
176
     0
 40
1.0
176
     0
 90
       10
176
     2
 62
     7
176
     0
 40
1.0
176
     0
 90
        1
176
     0
 90
        6
176
     0
 90
        2
176
     0
 62
     7
176
     0
 90
        5
176
     0
 90
        0
176
     0
 90
        0
176
     0
290
     0
176
     0
 90
        1
176
     0
 40
0.0
176
     0
 90
        0
176
     0
290
     0
176
     0
290
     1
176
     0
290
     1
176
     0
290
     0
176
     0
290
     0
176
     0
290
     0
176
     0
290
     0
176
     0
290
     0
176
     0
290
     0
176
     0
 90
       50
176
     0
 40
0.0
176
     0
 40
1.0
176
     0
 90
        0
176
     0
 62
    18
420
        0
176
     0
 90
       50
176
     0
 90
        3
176
     0
 62
     5
420
      255
176
     0
290
     0
176
     0
 90
       50
176
     0
 90
       50
176
     0
 90
       50
176
     0
290
     0
176
     0
 90
       50
176
     0
 62
   256
176
     0
 40
1.0
176
     0
 90
        2
176
     0
  1
strokes_ogs.tif
176
     0
290
     0
176
     0
 40
1.0
176
     0
 40
1.0
176
     0
  0
VISUALSTYLE
  5
38
102
{ACAD_REACTORS
330
2A
102
}
330
2A
100
AcDbVisualStyle
  2
Linepattern
 70
    14
177
     3
291
     1
 70
    58
 90
        2
176
     1
 90
        2
176
     1
 90
        0
176
     1
 90
        0
176
     1
 40
0.6
176
     1
 40
30.0
176
     1
 62
     7
420
 16777215
176
     1
 90
        1
176
     1
 90
        4
176
     1
 62
     7
176
     1
 62
   257
176
     1
 90
        7
176
     1
 90
        7
176
     1
 40
1.0
176
     1
 90
        8
176
     1
 62
     7
176
     1
 40
1.0
176
     1
 90
        1
176
     1
 90
        6
176
     1
 90
        2
176
     1
 62
     7
176
     1
 90
        5
176
     1
 90
        0
176
     1
 90
        0
176
     1
290
     0
176
     1
 90
        1
176
     1
 40
0.0
176
     1
 90
        0
176
     1
290
     0
176
     1
290
     1
176
     1
290
     1
176
     1
290
     0
176
     1
290
     0
176
     1
290
     0
176
     1
290
     0
176
     1
290
     0
176
     1
290
     0
176
     1
 90
       50
176
     1
 40
0.0
176
     1
 40
1.0
176
     1
 90
        0
176
     1
 62
    18
420
        0
176
     1
 90
       50
176
     1
 90
        3
176
     1
 62
     5
420
      255
176
     1
290
     0
176
     1
 90
       50
176
     1
 90
       50
176
     1
 90
       50
176
     1
290
     0
176
     1
 90
       50
176
     1
 62
   256
176
     0
 40
1.0
176
     0
 90
        2
176
     1
  1
strokes_ogs.tif
176
     1
290
     0
176
     1
 40
1.0
176
     1
 40
1.0
176
     1
  0
VISUALSTYLE
  5
3C
102
{ACAD_REACTORS
330
2A
102
}
330
2A
100
AcDbVisualStyle
  2
OverhangOff
 70
    21
177
     3
291
     1
 70
    58
 90
        2
176
     0
 90
        2
176
     0
 90
        0
176
     0
 90
        0
176
     0
 40
0.6
176
     0
 40
30.0
176
     0
 62
     7
420
 16777215
176
     0
 90
        1
176
     0
 90
        4
176
     0
 62
     7
176
     0
 62
   257
176
     0
 90
        1
176
     0
 90
        1
176
     0
 40
1.0
176
     0
 90
        9
176
     2
 62
     7
176
     0
 40
1.0
176
     0
 90
        1
176
     0
 90
        6
176
     0
 90
        2
176
     0
 62
     7
176
     0
 90
        5
176
     0
 90
        0
176
     0
 90
        0
176
     0
290
     0
176
     0
 90
        1
176
     0
 40
0.0
176
     0
 90
        0
176
     0
290
     0
176
     0
290
     1
176
     0
290
     1
176
     0
290
     0
176
     0
290
     0
176
     0
290
     0
176
     0
290
     0
176
     0
290
     0
176
     0
290
     0
176
     0
 90
       50
176
     0
 40
0.0
176
     0
 40
1.0
176
     0
 90
        0
176
     0
 62
    18
420
        0
176
     0
 90
       50
176
     0
 90
        3
176
     0
 62
     5
420
      255
176
     0
290
     0
176
     0
 90
       50
176
     0
 90
       50
176
     0
 90
       50
176
     0
290
     0
176
     0
 90
       50
176
     0
 62
   256
176
     0
 40
1.0
176
     0
 90
        2
176
     0
  1
strokes_ogs.tif
176
     0
290
     0
176
     0
 40
1.0
176
     0
 40
1.0
176
     0
  0
VISUALSTYLE
  5
33
102
{ACAD_REACTORS
330
2A
102
}
330
2A
100
AcDbVisualStyle
  2
Realistic
 70
     8
177
     3
291
     0
 70
    58
 90
        2
176
     1
 90
        3
176
     1
 90
        0
176
     1
 90
        2
176
     1
 40
0.6
176
     1
 40
30.0
176
     1
 62
     7
420
 16777215
176
     1
 90
        0
176
     1
 90
        0
176
     1
 62
     7
176
     1
 62
   257
176
     1
 90
        1
176
     1
 90
        1
176
     1
 40
1.0
176
     1
 90
        8
176
     1
 62
   257
176
     1
 40
1.0
176
     1
 90
        1
176
     1
 90
        6
176
     1
 90
        2
176
     1
 62
     7
176
     1
 90
        3
176
     1
 90
        0
176
     1
 90
        0
176
     1
290
     0
176
     1
 90
       13
176
     1
 40
0.0
176
     1
 90
        0
176
     1
290
     0
176
     1
290
     1
176
     1
290
     1
176
     1
290
     0
176
     1
290
     0
176
     1
290
     0
176
     1
290
     0
176
     1
290
     0
176
     1
290
     0
176
     1
 90
       50
176
     1
 40
0.0
176
     1
 40
1.0
176
     1
 90
        0
176
     1
 62
    18
420
        0
176
     1
 90
       50
176
     1
 90
        3
176
     1
 62
     5
420
      255
176
     1
290
     0
176
     1
 90
       50
176
     1
 90
       50
176
     1
 90
       50
176
     1
290
     0
176
     1
 90
       50
176
     1
 62
   256
176
     0
 40
1.0
176
     0
 90
        2
176
     1
  1
strokes_ogs.tif
176
     1
290
     0
176
     1
 40
1.0
176
     1
 40
1.0
176
     1
  0
VISUALSTYLE
  5
42
102
{ACAD_REACTORS
330
2A
102
}
330
2A
100
AcDbVisualStyle
  2
Shaded
 70
    27
177
     3
291
     0
 70
    58
 90
        2
176
     1
 90
        2
176
     1
 90
        1
176
     1
 90
        2
176
     1
 40
0.6
176
     1
 40
30.0
176
     1
 62
     7
420
 16777215
176
     1
 90
        0
176
     1
 90
        4
176
     1
 62
     7
176
     1
 62
   257
176
     1
 90
        1
176
     1
 90
        1
176
     1
 40
1.0
176
     1
 90
        8
176
     1
 62
   257
176
     1
 40
1.0
176
     1
 90
        1
176
     1
 90
        6
176
     1
 90
        2
176
     1
 62
     8
420
  7895160
176
     1
 90
        3
176
     1
 90
        0
176
     1
 90
        0
176
     1
290
     0
176
     1
 90
        5
176
     1
 40
0.0
176
     1
 90
        0
176
     1
290
     0
176
     1
290
     1
176
     1
290
     1
176
     1
290
     0
176
     1
290
     0
176
     1
290
     0
176
     1
290
     0
176
     1
290
     0
176
     1
290
     0
176
     1
 90
       50
176
     1
 40
0.0
176
     1
 40
1.0
176
     1
 90
        0
176
     1
 62
    18
420
        0
176
     1
 90
       50
176
     1
 90
        3
176
     1
 62
     5
420
      255
176
     1
290
     0
176
     1
 90
       50
176
     1
 90
       50
176
     1
 90
       50
176
     1
290
     0
176
     1
 90
       50
176
     1
 62
   256
176
     0
 40
1.0
176
     0
 90
        2
176
     1
  1
strokes_ogs.tif
176
     1
290
     0
176
     1
 40
1.0
176
     1
 40
1.0
176
     1
  0
VISUALSTYLE
  5
41
102
{ACAD_REACTORS
330
2A
102
}
330
2A
100
AcDbVisualStyle
  2
Shaded with edges
 70
    26
177
     3
291
     0
 70
    58
 90
        2
176
     1
 90
        2
176
     1
 90
        1
176
     1
 90
        2
176
     1
 40
0.6
176
     1
 40
30.0
176
     1
 62
     7
420
 16777215
176
     1
 90
        1
176
     1
 90
       10
176
     1
 62
     7
176
     1
 62
   257
176
     1
 90
        2
176
     1
 90
        1
176
     1
 40
1.0
176
     1
 90
        8
176
     1
 62
   257
176
     1
 40
1.0
176
     1
 90
        1
176
     1
 90
        6
176
     1
 90
        2
176
     1
 62
     7
176
     1
 90
        3
176
     1
 90
        0
176
     1
 90
        0
176
     1
290
     0
176
     1
 90
        5
176
     1
 40
0.0
176
     1
 90
        0
176
     1
290
     0
176
     1
290
     1
176
     1
290
     1
176
     1
290
     0
176
     1
290
     0
176
     1
290
     0
176
     1
290
     0
176
     1
290
     0
176
     1
290
     0
176
     1
 90
       50
176
     1
 40
0.0
176
     1
 40
1.0
176
     1
 90
        0
176
     1
 62
    18
420
        0
176
     1
 90
       50
176
     1
 90
        3
176
     1
 62
     5
420
      255
176
     1
290
     0
176
     1
 90
       50
176
     1
 90
       50
176
     1
 90
       50
176
     1
290
     0
176
     1
 90
       50
176
     1
 62
   256
176
     0
 40
1.0
176
     0
 90
        2
176
     1
  1
strokes_ogs.tif
176
     1
290
     0
176
     1
 40
1.0
176
     1
 40
1.0
176
     1
  0
VISUALSTYLE
  5
3E
102
{ACAD_REACTORS
330
2A
102
}
330
2A
100
AcDbVisualStyle
  2
Shades of Gray
 70
    23
177
     3
291
     0
 70
    58
 90
        2
176
     1
 90
        2
176
     1
 90
        3
176
     1
 90
        0
176
     1
 40
0.6
176
     1
 40
30.0
176
     1
 62
     7
420
 16777215
176
     1
 90
        2
176
     1
 90
        2
176
     1
 62
     7
176
     1
 62
     7
176
     1
 90
        1
176
     1
 90
        1
176
     1
 40
40.0
176
     1
 90
        8
176
     1
 62
     7
176
     1
 40
1.0
176
     1
 90
        1
176
     1
 90
        6
176
     1
 90
        2
176
     1
 62
     7
176
     1
 90
        3
176
     1
 90
        0
176
     1
 90
        0
176
     1
290
     0
176
     1
 90
        1
176
     1
 40
0.0
176
     1
 90
        0
176
     1
290
     0
176
     1
290
     1
176
     1
290
     1
176
     1
290
     0
176
     1
290
     0
176
     1
290
     0
176
     1
290
     0
176
     1
290
     0
176
     1
290
     0
176
     1
 90
       50
176
     1
 40
0.0
176
     1
 40
1.0
176
     1
 90
        0
176
     1
 62
    18
420
        0
176
     1
 90
       50
176
     1
 90
        3
176
     1
 62
     5
420
      255
176
     1
290
     0
176
     1
 90
       50
176
     1
 90
       50
176
     1
 90
       50
176
     1
290
     0
176
     1
 90
       50
176
     1
 62
   256
176
     0
 40
1.0
176
     0
 90
        2
176
     1
  1
strokes_ogs.tif
176
     1
290
     0
176
     1
 40
1.0
176
     1
 40
1.0
176
     1
  0
VISUALSTYLE
  5
3F
102
{ACAD_REACTORS
330
2A
102
}
330
2A
100
AcDbVisualStyle
  2
Sketchy
 70
    24
177
     3
291
     0
 70
    58
 90
        1
176
     1
 90
        2
176
     1
 90
        2
176
     1
 90
        0
176
     1
 40
0.6
176
     1
 40
30.0
176
     1
 62
     7
420
 16777215
176
     1
 90
        2
176
     1
 90
        2
176
     1
 62
     7
176
     1
 62
     7
176
     1
 90
        1
176
     1
 90
        1
176
     1
 40
40.0
176
     1
 90
       11
176
     1
 62
     7
176
     1
 40
1.0
176
     1
 90
        1
176
     1
 90
        6
176
     1
 90
        2
176
     1
 62
     7
176
     1
 90
        6
176
     1
 90
        0
176
     1
 90
        0
176
     1
290
     0
176
     1
 90
        1
176
     1
 40
0.0
176
     1
 90
        0
176
     1
290
     0
176
     1
290
     1
176
     1
290
     1
176
     1
290
     0
176
     1
290
     0
176
     1
290
     0
176
     1
290
     0
176
     1
290
     0
176
     1
290
     0
176
     1
 90
       50
176
     1
 40
0.0
176
     1
 40
1.0
176
     1
 90
        0
176
     1
 62
    18
420
        0
176
     1
 90
       50
176
     1
 90
        3
176
     1
 62
     5
420
      255
176
     1
290
     0
176
     1
 90
       50
176
     1
 90
       50
176
     1
 90
       50
176
     1
290
     0
176
     1
 90
       50
176
     1
 62
   256
176
     0
 40
1.0
176
     0
 90
        2
176
     1
  1
strokes_ogs.tif
176
     1
290
     0
176
     1
 40
1.0
176
     1
 40
1.0
176
     1
  0
VISUALSTYLE
  5
37
102
{ACAD_REACTORS
330
2A
102
}
330
2A
100
AcDbVisualStyle
  2
Thicken
 70
    13
177
     3
291
     1
 70
    58
 90
        2
176
     1
 90
        2
176
     1
 90
        0
176
     1
 90
        0
176
     1
 40
0.6
176
     1
 40
30.0
176
     1
 62
     7
420
 16777215
176
     1
 90
        1
176
     1
 90
        4
176
     1
 62
     7
176
     1
 62
   257
176
     1
 90
        1
176
     1
 90
        1
176
     1
 40
1.0
176
     1
 90
       12
176
     1
 62
     7
176
     1
 40
1.0
176
     1
 90
        1
176
     1
 90
        6
176
     1
 90
        2
176
     1
 62
     7
176
     1
 90
        5
176
     1
 90
        0
176
     1
 90
        0
176
     1
290
     0
176
     1
 90
        1
176
     1
 40
0.0
176
     1
 90
        0
176
     1
290
     0
176
     1
290
     1
176
     1
290
     1
176
     1
290
     0
176
     1
290
     0
176
     1
290
     0
176
     1
290
     0
176
     1
290
     0
176
     1
290
     0
176
     1
 90
       50
176
     1
 40
0.0
176
     1
 40
1.0
176
     1
 90
        0
176
     1
 62
    18
420
        0
176
     1
 90
       50
176
     1
 90
        3
176
     1
 62
     5
420
      255
176
     1
290
     0
176
     1
 90
       50
176
     1
 90
       50
176
     1
 90
       50
176
     1
290
     0
176
     1
 90
       50
176
     1
 62
   256
176
     0
 40
1.0
176
     0
 90
        2
176
     1
  1
strokes_ogs.tif
176
     1
290
     0
176
     1
 40
1.0
176
     1
 40
1.0
176
     1
  0
VISUALSTYLE
  5
30
102
{ACAD_REACTORS
330
2A
102
}
330
2A
100
AcDbVisualStyle
  2
Wireframe
 70
     5
177
     3
291
     0
 70
    58
 90
        0
176
     1
 90
        2
176
     1
 90
        0
176
     1
 90
        0
176
     1
 40
0.6
176
     1
 40
30.0
176
     1
 62
     7
420
 16777215
176
     1
 90
        1
176
     1
 90
        4
176
     1
 62
     7
176
     1
 62
   257
176
     1
 90
        1
176
     1
 90
        1
176
     1
 40
1.0
176
     1
 90
        0
176
     1
 62
   257
176
     1
 40
1.0
176
     1
 90
        1
176
     1
 90
        6
176
     1
 90
        2
176
     1
 62
     7
176
     1
 90
        3
176
     1
 90
        0
176
     1
 90
        0
176
     1
290
     0
176
     1
 90
        1
176
     1
 40
0.0
176
     1
 90
        0
176
     1
290
     0
176
     1
290
     1
176
     1
290
     1
176
     1
290
     0
176
     1
290
     0
176
     1
290
     0
176
     1
290
     0
176
     1
290
     0
176
     1
290
     0
176
     1
 90
       50
176
     1
 40
0.0
176
     1
 40
1.0
176
     1
 90
        0
176
     1
 62
    18
420
        0
176
     1
 90
       50
176
     1
 90
        3
176
     1
 62
     5
420
      255
176
     1
290
     0
176
     1
 90
       50
176
     1
 90
       50
176
     1
 90
       50
176
     1
290
     0
176
     1
 90
       50
176
     1
 62
   256
176
     0
 40
1.0
176
     0
 90
        2
176
     1
  1
strokes_ogs.tif
176
     1
290
     0
176
     1
 40
1.0
176
     1
 40
1.0
176
     1
  0
VISUALSTYLE
  5
40
102
{ACAD_REACTORS
330
2A
102
}
330
2A
100
AcDbVisualStyle
  2
X-Ray
 70
    25
177
     3
291
     0
 70
    58
 90
        2
176
     1
 90
        2
176
     1
 90
        1
176
     1
 90
        1
176
     1
 40
0.5
176
     1
 40
30.0
176
     1
 62
     7
420
 16777215
176
     1
 90
        1
176
     1
 90
        0
176
     1
 62
     7
176
     1
 62
   257
176
     1
 90
        1
176
     1
 90
        1
176
     1
 40
1.0
176
     1
 90
        8
176
     1
 62
     7
176
     1
 40
1.0
176
     1
 90
        1
176
     1
 90
        6
176
     1
 90
        2
176
     1
 62
     7
176
     1
 90
        3
176
     1
 90
        0
176
     1
 90
        0
176
     1
290
     0
176
     1
 90
       13
176
     1
 40
0.0
176
     1
 90
        0
176
     1
290
     0
176
     1
290
     1
176
     1
290
     1
176
     1
290
     0
176
     1
290
     0
176
     1
290
     0
176
     1
290
     0
176
     1
290
     0
176
     1
290
     0
176
     1
 90
       50
176
     1
 40
0.0
176
     1
 40
1.0
176
     1
 90
        0
176
     1
 62
    18
420
        0
176
     1
 90
       50
176
     1
 90
        3
176
     1
 62
     5
420
      255
176
     1
290
     0
176
     1
 90
       50
176
     1
 90
       50
176
     1
 90
       50
176
     1
290
     0
176
     1
 90
       50
176
     1
 62
   256
176
     0
 40
1.0
176
     0
 90
        2
176
     1
  1
strokes_ogs.tif
176
     1
290
     0
176
     1
 40
1.0
176
     1
 40
1.0
176
     1
  0
DICTIONARYVAR
  5
1B1
102
{ACAD_REACTORS
330
1B0
102
}
330
1B0
100
DictionaryVariables
280
     0
  1
1:1
  0
DICTIONARYVAR
  5
1B6
102
{ACAD_REACTORS
330
1B0
102
}
330
1B0
100
DictionaryVariables
280
     0
  1
Standard
  0
DICTIONARYVAR
  5
1B5
102
{ACAD_REACTORS
330
1B0
102
}
330
1B0
100
DictionaryVariables
280
     0
  1
Standard
  0
DICTIONARY
  5
1B2
330
6A
100
AcDbDictionary
280
     1
281
     1
  3
ACAD_ROUNDTRIP_2008_TABLESTYLE_CELLSTYLEMAP
360
1B3
  0
CELLSTYLEMAP
  5
1B3
102
{ACAD_REACTORS
330
1B2
102
}
330
1B2
100
AcDbCellStyleMap
 90
        3
300
CELLSTYLE
  1
TABLEFORMAT_BEGIN
 90
        5
170
     1
 91
        0
 92
    32768
 62
   257
 93
        1
300
CONTENTFORMAT
  1
CONTENTFORMAT_BEGIN
 90
        0
 91
        0
 92
        4
 93
        0
300

 40
0.0
140
1.0
 94
        5
 62
     0
340
11
144
0.25
309
CONTENTFORMAT_END
171
     1
301
MARGIN
  1
CELLMARGIN_BEGIN
 40
0.06
 40
0.06
 40
0.06
 40
0.06
 40
0.06
 40
0.06
309
CELLMARGIN_END
 94
        6
 95
        1
302
GRIDFORMAT
  1
GRIDFORMAT_BEGIN
 90
        0
 91
        1
 62
     0
 92
       -2
340
14
 93
        0
 40
0.045
309
GRIDFORMAT_END
 95
        2
302
GRIDFORMAT
  1
GRIDFORMAT_BEGIN
 90
        0
 91
        1
 62
     0
 92
       -2
340
14
 93
        0
 40
0.045
309
GRIDFORMAT_END
 95
        4
302
GRIDFORMAT
  1
GRIDFORMAT_BEGIN
 90
        0
 91
        1
 62
     0
 92
       -2
340
14
 93
        0
 40
0.045
309
GRIDFORMAT_END
 95
        8
302
GRIDFORMAT
  1
GRIDFORMAT_BEGIN
 90
        0
 91
        1
 62
     0
 92
       -2
340
14
 93
        0
 40
0.045
309
GRIDFORMAT_END
 95
       16
302
GRIDFORMAT
  1
GRIDFORMAT_BEGIN
 90
        0
 91
        1
 62
     0
 92
       -2
340
14
 93
        0
 40
0.045
309
GRIDFORMAT_END
 95
       32
302
GRIDFORMAT
  1
GRIDFORMAT_BEGIN
 90
        0
 91
        1
 62
     0
 92
       -2
340
14
 93
        0
 40
0.045
309
GRIDFORMAT_END
309
TABLEFORMAT_END
  1
CELLSTYLE_BEGIN
 90
        1
 91
        1
300
_TITLE
309
CELLSTYLE_END
300
CELLSTYLE
  1
TABLEFORMAT_BEGIN
 90
        5
170
     1
 91
        0
 92
        0
 62
   257
 93
        1
300
CONTENTFORMAT
  1
CONTENTFORMAT_BEGIN
 90
        0
 91
        0
 92
        4
 93
        0
300

 40
0.0
140
1.0
 94
        5
 62
     0
340
11
144
0.18
309
CONTENTFORMAT_END
171
     1
301
MARGIN
  1
CELLMARGIN_BEGIN
 40
0.06
 40
0.06
 40
0.06
 40
0.06
 40
0.06
 40
0.06
309
CELLMARGIN_END
 94
        6
 95
        1
302
GRIDFORMAT
  1
GRIDFORMAT_BEGIN
 90
        0
 91
        1
 62
     0
 92
       -2
340
14
 93
        0
 40
0.045
309
GRIDFORMAT_END
 95
        2
302
GRIDFORMAT
  1
GRIDFORMAT_BEGIN
 90
        0
 91
        1
 62
     0
 92
       -2
340
14
 93
        0
 40
0.045
309
GRIDFORMAT_END
 95
        4
302
GRIDFORMAT
  1
GRIDFORMAT_BEGIN
 90
        0
 91
        1
 62
     0
 92
       -2
340
14
 93
        0
 40
0.045
309
GRIDFORMAT_END
 95
        8
302
GRIDFORMAT
  1
GRIDFORMAT_BEGIN
 90
        0
 91
        1
 62
     0
 92
       -2
340
14
 93
        0
 40
0.045
309
GRIDFORMAT_END
 95
       16
302
GRIDFORMAT
  1
GRIDFORMAT_BEGIN
 90
        0
 91
        1
 62
     0
 92
       -2
340
14
 93
        0
 40
0.045
309
GRIDFORMAT_END
 95
       32
302
GRIDFORMAT
  1
GRIDFORMAT_BEGIN
 90
        0
 91
        1
 62
     0
 92
       -2
340
14
 93
        0
 40
0.045
309
GRIDFORMAT_END
309
TABLEFORMAT_END
  1
CELLSTYLE_BEGIN
 90
        2
 91
        1
300
_HEADER
309
CELLSTYLE_END
300
CELLSTYLE
  1
TABLEFORMAT_BEGIN
 90
        5
170
     1
 91
        0
 92
        0
 62
   257
 93
        1
300
CONTENTFORMAT
  1
CONTENTFORMAT_BEGIN
 90
        0
 91
        0
 92
        4
 93
        0
300

 40
0.0
140
1.0
 94
        2
 62
     0
340
11
144
0.18
309
CONTENTFORMAT_END
171
     1
301
MARGIN
  1
CELLMARGIN_BEGIN
 40
0.06
 40
0.06
 40
0.06
 40
0.06
 40
0.06
 40
0.06
309
CELLMARGIN_END
 94
        6
 95
        1
302
GRIDFORMAT
  1
GRIDFORMAT_BEGIN
 90
        0
 91
        1
 62
     0
 92
       -2
340
14
 93
        0
 40
0.045
309
GRIDFORMAT_END
 95
        2
302
GRIDFORMAT
  1
GRIDFORMAT_BEGIN
 90
        0
 91
        1
 62
     0
 92
       -2
340
14
 93
        0
 40
0.045
309
GRIDFORMAT_END
 95
        4
302
GRIDFORMAT
  1
GRIDFORMAT_BEGIN
 90
        0
 91
        1
 62
     0
 92
       -2
340
14
 93
        0
 40
0.045
309
GRIDFORMAT_END
 95
        8
302
GRIDFORMAT
  1
GRIDFORMAT_BEGIN
 90
        0
 91
        1
 62
     0
 92
       -2
340
14
 93
        0
 40
0.045
309
GRIDFORMAT_END
 95
       16
302
GRIDFORMAT
  1
GRIDFORMAT_BEGIN
 90
        0
 91
        1
 62
     0
 92
       -2
340
14
 93
        0
 40
0.045
309
GRIDFORMAT_END
 95
       32
302
GRIDFORMAT
  1
GRIDFORMAT_BEGIN
 90
        0
 91
        1
 62
     0
 92
       -2
340
14
 93
        0
 40
0.045
309
GRIDFORMAT_END
309
TABLEFORMAT_END
  1
CELLSTYLE_BEGIN
 90
        3
 91
        2
300
_DATA
309
CELLSTYLE_END
  0
ENDSEC
  0
EOF