0
SECTION
  2
HEADER
  9
$ACADVER
  1
AC1027
  9
$ACADMAINTVER
 70
     8
  9
$DWGCODEPAGE
  3
ANSI_1252
  9
$REQUIREDVERSIONS
160
                 0
  9
$COMMENTS
  1
File was created by Cadenas
  9
$CUSTOMPROPERTYTAG
  1
NN
  9
$CUSTOMPROPERTY
  1
Set Screw Intermediate Duty Two-Bolt Flange Inch Bore
  9
$CUSTOMPROPERTYTAG
  1
NT
  9
$CUSTOMPROPERTY
  1

  9
$CUSTOMPROPERTYTAG
  1
NB
  9
$CUSTOMPROPERTY
  1
123694
  9
$CUSTOMPROPERTYTAG
  1
NBSYN
  9
$CUSTOMPROPERTY
  1
$PN.
  9
$CUSTOMPROPERTYTAG
  1
LINA
  9
$CUSTOMPROPERTY
  1
123694
  9
$CUSTOMPROPERTYTAG
  1
RS
  9
$CUSTOMPROPERTY
  1
211
  9
$CUSTOMPROPERTYTAG
  1
SS
  9
$CUSTOMPROPERTY
  1
2
  9
$CUSTOMPROPERTYTAG
  1
PN
  9
$CUSTOMPROPERTY
  1
123694
  9
$CUSTOMPROPERTYTAG
  1
DESCRIPTION
  9
$CUSTOMPROPERTY
  1
F2B-VSC-200L
  9
$CUSTOMPROPERTYTAG
  1
LF
  9
$CUSTOMPROPERTY
  1
RE-LUBE
  9
$CUSTOMPROPERTYTAG
  1
WEIGHT
  9
$CUSTOMPROPERTY
  1
6.7
  9
$CUSTOMPROPERTYTAG
  1
A
  9
$CUSTOMPROPERTY
  1
2.22
  9
$CUSTOMPROPERTYTAG
  1
B
  9
$CUSTOMPROPERTY
  1
8.63
  9
$CUSTOMPROPERTYTAG
  1
C
  9
$CUSTOMPROPERTY
  1
2.28
  9
$CUSTOMPROPERTYTAG
  1
D
  9
$CUSTOMPROPERTY
  1
7.25
  9
$CUSTOMPROPERTYTAG
  1
F
  9
$CUSTOMPROPERTY
  1
5/8
  9
$CUSTOMPROPERTYTAG
  1
H
  9
$CUSTOMPROPERTY
  1
0.67
  9
$CUSTOMPROPERTYTAG
  1
J
  9
$CUSTOMPROPERTY
  1
0.68
  9
$CUSTOMPROPERTYTAG
  1
L
  9
$CUSTOMPROPERTY
  1
2.71
  9
$CUSTOMPROPERTYTAG
  1
M
  9
$CUSTOMPROPERTY
  1
5.25
  9
$CUSTOMPROPERTYTAG
  1
N
  9
$CUSTOMPROPERTY
  1
2.27
  9
$CUSTOMPROPERTYTAG
  1
COMPANY
  9
$CUSTOMPROPERTY
  1
baldor
  9
$INSBASE
 10
0.0
 20
0.0
 30
0.0
  9
$EXTMIN
 10
1.000000000000000E+20
 20
1.000000000000000E+20
 30
1.000000000000000E+20
  9
$EXTMAX
 10
-1.000000000000000E+20
 20
-1.000000000000000E+20
 30
-1.000000000000000E+20
  9
$LIMMIN
 10
0.0
 20
0.0
  9
$LIMMAX
 10
12.0
 20
9.0
  9
$ORTHOMODE
 70
     0
  9
$REGENMODE
 70
     1
  9
$FILLMODE
 70
     1
  9
$QTEXTMODE
 70
     0
  9
$MIRRTEXT
 70
     1
  9
$LTSCALE
 40
1.0
  9
$ATTMODE
 70
     1
  9
$TEXTSIZE
 40
0.2
  9
$TRACEWID
 40
0.05
  9
$TEXTSTYLE
  7
Standard
  9
$CLAYER
  8
0
  9
$CELTYPE
  6
ByLayer
  9
$CECOLOR
 62
   256
  9
$CELTSCALE
 40
1.0
  9
$DISPSILH
 70
     0
  9
$DIMSCALE
 40
1.0
  9
$DIMASZ
 40
0.18
  9
$DIMEXO
 40
0.0625
  9
$DIMDLI
 40
0.38
  9
$DIMRND
 40
0.0
  9
$DIMDLE
 40
0.0
  9
$DIMEXE
 40
0.18
  9
$DIMTP
 40
0.0
  9
$DIMTM
 40
0.0
  9
$DIMTXT
 40
0.18
  9
$DIMCEN
 40
0.09
  9
$DIMTSZ
 40
0.0
  9
$DIMTOL
 70
     0
  9
$DIMLIM
 70
     0
  9
$DIMTIH
 70
     1
  9
$DIMTOH
 70
     1
  9
$DIMSE1
 70
     0
  9
$DIMSE2
 70
     0
  9
$DIMTAD
 70
     0
  9
$DIMZIN
 70
     0
  9
$DIMBLK
  1

  9
$DIMASO
 70
     1
  9
$DIMSHO
 70
     1
  9
$DIMPOST
  1

  9
$DIMAPOST
  1

  9
$DIMALT
 70
     0
  9
$DIMALTD
 70
     2
  9
$DIMALTF
 40
25.4
  9
$DIMLFAC
 40
1.0
  9
$DIMTOFL
 70
     0
  9
$DIMTVP
 40
0.0
  9
$DIMTIX
 70
     0
  9
$DIMSOXD
 70
     0
  9
$DIMSAH
 70
     0
  9
$DIMBLK1
  1

  9
$DIMBLK2
  1

  9
$DIMSTYLE
  2
Standard
  9
$DIMCLRD
 70
     0
  9
$DIMCLRE
 70
     0
  9
$DIMCLRT
 70
     0
  9
$DIMTFAC
 40
1.0
  9
$DIMGAP
 40
0.09
  9
$DIMJUST
 70
     0
  9
$DIMSD1
 70
     0
  9
$DIMSD2
 70
     0
  9
$DIMTOLJ
 70
     1
  9
$DIMTZIN
 70
     0
  9
$DIMALTZ
 70
     0
  9
$DIMALTTZ
 70
     0
  9
$DIMUPT
 70
     0
  9
$DIMDEC
 70
     4
  9
$DIMTDEC
 70
     4
  9
$DIMALTU
 70
     2
  9
$DIMALTTD
 70
     2
  9
$DIMTXSTY
  7
Standard
  9
$DIMAUNIT
 70
     0
  9
$DIMADEC
 70
     0
  9
$DIMALTRND
 40
0.0
  9
$DIMAZIN
 70
     0
  9
$DIMDSEP
 70
    46
  9
$DIMATFIT
 70
     3
  9
$DIMFRAC
 70
     0
  9
$DIMLDRBLK
  1

  9
$DIMLUNIT
 70
     2
  9
$DIMLWD
 70
    -2
  9
$DIMLWE
 70
    -2
  9
$DIMTMOVE
 70
     0
  9
$DIMFXL
 40
1.0
  9
$DIMFXLON
 70
     0
  9
$DIMJOGANG
 40
0.7853981633974483
  9
$DIMTFILL
 70
     0
  9
$DIMTFILLCLR
 70
     0
  9
$DIMARCSYM
 70
     0
  9
$DIMLTYPE
  6

  9
$DIMLTEX1
  6

  9
$DIMLTEX2
  6

  9
$DIMTXTDIRECTION
 70
     0
  9
$LUNITS
 70
     2
  9
$LUPREC
 70
     4
  9
$SKETCHINC
 40
0.1
  9
$FILLETRAD
 40
0.5
  9
$AUNITS
 70
     0
  9
$AUPREC
 70
     0
  9
$MENU
  1
.
  9
$ELEVATION
 40
0.0
  9
$PELEVATION
 40
0.0
  9
$THICKNESS
 40
0.0
  9
$LIMCHECK
 70
     0
  9
$CHAMFERA
 40
0.0
  9
$CHAMFERB
 40
0.0
  9
$CHAMFERC
 40
0.0
  9
$CHAMFERD
 40
0.0
  9
$SKPOLY
 70
     0
  9
$TDCREATE
 40
2458168.998738391
  9
$TDUCREATE
 40
2458168.957071724
  9
$TDUPDATE
 40
2458168.998738576
  9
$TDUUPDATE
 40
2458168.95707191
  9
$TDINDWG
 40
0.0000000116
  9
$TDUSRTIMER
 40
0.0000000116
  9
$USRTIMER
 70
     1
  9
$ANGBASE
 50
0.0
  9
$ANGDIR
 70
     0
  9
$PDMODE
 70
     0
  9
$PDSIZE
 40
0.0
  9
$PLINEWID
 40
0.0
  9
$SPLFRAME
 70
     0
  9
$SPLINETYPE
 70
     6
  9
$SPLINESEGS
 70
     8
  9
$HANDSEED
  5
19F
  9
$SURFTAB1
 70
     6
  9
$SURFTAB2
 70
     6
  9
$SURFTYPE
 70
     6
  9
$SURFU
 70
     6
  9
$SURFV
 70
     6
  9
$UCSBASE
  2

  9
$UCSNAME
  2

  9
$UCSORG
 10
0.0
 20
0.0
 30
0.0
  9
$UCSXDIR
 10
1.0
 20
0.0
 30
0.0
  9
$UCSYDIR
 10
0.0
 20
1.0
 30
0.0
  9
$UCSORTHOREF
  2

  9
$UCSORTHOVIEW
 70
     0
  9
$UCSORGTOP
 10
0.0
 20
0.0
 30
0.0
  9
$UCSORGBOTTOM
 10
0.0
 20
0.0
 30
0.0
  9
$UCSORGLEFT
 10
0.0
 20
0.0
 30
0.0
  9
$UCSORGRIGHT
 10
0.0
 20
0.0
 30
0.0
  9
$UCSORGFRONT
 10
0.0
 20
0.0
 30
0.0
  9
$UCSORGBACK
 10
0.0
 20
0.0
 30
0.0
  9
$PUCSBASE
  2

  9
$PUCSNAME
  2

  9
$PUCSORG
 10
0.0
 20
0.0
 30
0.0
  9
$PUCSXDIR
 10
1.0
 20
0.0
 30
0.0
  9
$PUCSYDIR
 10
0.0
 20
1.0
 30
0.0
  9
$PUCSORTHOREF
  2

  9
$PUCSORTHOVIEW
 70
     0
  9
$PUCSORGTOP
 10
0.0
 20
0.0
 30
0.0
  9
$PUCSORGBOTTOM
 10
0.0
 20
0.0
 30
0.0
  9
$PUCSORGLEFT
 10
0.0
 20
0.0
 30
0.0
  9
$PUCSORGRIGHT
 10
0.0
 20
0.0
 30
0.0
  9
$PUCSORGFRONT
 10
0.0
 20
0.0
 30
0.0
  9
$PUCSORGBACK
 10
0.0
 20
0.0
 30
0.0
  9
$USERI1
 70
     0
  9
$USERI2
 70
     0
  9
$USERI3
 70
     0
  9
$USERI4
 70
     0
  9
$USERI5
 70
     0
  9
$USERR1
 40
0.0
  9
$USERR2
 40
0.0
  9
$USERR3
 40
0.0
  9
$USERR4
 40
0.0
  9
$USERR5
 40
0.0
  9
$WORLDVIEW
 70
     1
  9
$SHADEDGE
 70
     3
  9
$SHADEDIF
 70
    70
  9
$TILEMODE
 70
     1
  9
$MAXACTVP
 70
    64
  9
$PINSBASE
 10
0.0
 20
0.0
 30
0.0
  9
$PLIMCHECK
 70
     0
  9
$PEXTMIN
 10
1.000000000000000E+20
 20
1.000000000000000E+20
 30
1.000000000000000E+20
  9
$PEXTMAX
 10
-1.000000000000000E+20
 20
-1.000000000000000E+20
 30
-1.000000000000000E+20
  9
$PLIMMIN
 10
0.0
 20
0.0
  9
$PLIMMAX
 10
12.0
 20
9.0
  9
$UNITMODE
 70
     0
  9
$VISRETAIN
 70
     1
  9
$PLINEGEN
 70
     0
  9
$PSLTSCALE
 70
     1
  9
$TREEDEPTH
 70
  3020
  9
$CMLSTYLE
  2
Standard
  9
$CMLJUST
 70
     0
  9
$CMLSCALE
 40
1.0
  9
$PROXYGRAPHICS
 70
     1
  9
$MEASUREMENT
 70
     0
  9
$CELWEIGHT
370
    -1
  9
$ENDCAPS
280
     0
  9
$JOINSTYLE
280
     0
  9
$LWDISPLAY
290
     0
  9
$INSUNITS
 70
     1
  9
$HYPERLINKBASE
  1

  9
$STYLESHEET
  1

  9
$XEDIT
290
     1
  9
$CEPSNTYPE
380
     0
  9
$PSTYLEMODE
290
     1
  9
$FINGERPRINTGUID
  2
{744C1D3B-77B3-445A-816A-607645DCF6DD}
  9
$VERSIONGUID
  2
{FAEB1C32-E019-11D5-929B-00C0DF256EC4}
  9
$EXTNAMES
290
     1
  9
$PSVPSCALE
 40
0.0
  9
$OLESTARTUP
290
     0
  9
$SORTENTS
280
   127
  9
$INDEXCTL
280
     0
  9
$HIDETEXT
280
     1
  9
$XCLIPFRAME
280
     2
  9
$HALOGAP
280
     0
  9
$OBSCOLOR
 70
   257
  9
$OBSLTYPE
280
     0
  9
$INTERSECTIONDISPLAY
280
     0
  9
$INTERSECTIONCOLOR
 70
   257
  9
$DIMASSOC
280
     2
  9
$PROJECTNAME
  1

  9
$CAMERADISPLAY
290
     0
  9
$LENSLENGTH
 40
50.0
  9
$CAMERAHEIGHT
 40
0.0
  9
$STEPSPERSEC
 40
2.0
  9
$STEPSIZE
 40
6.0
  9
$3DDWFPREC
 40
2.0
  9
$PSOLWIDTH
 40
0.25
  9
$PSOLHEIGHT
 40
4.0
  9
$LOFTANG1
 40
1.570796326794897
  9
$LOFTANG2
 40
1.570796326794897
  9
$LOFTMAG1
 40
0.0
  9
$LOFTMAG2
 40
0.0
  9
$LOFTPARAM
 70
     7
  9
$LOFTNORMALS
280
     1
  9
$LATITUDE
 40
37.795
  9
$LONGITUDE
 40
-122.394
  9
$NORTHDIRECTION
 40
0.0
  9
$TIMEZONE
 70
 -8000
  9
$LIGHTGLYPHDISPLAY
280
     1
  9
$TILEMODELIGHTSYNCH
280
     1
  9
$CMATERIAL
347
44
  9
$SOLIDHIST
280
     0
  9
$SHOWHIST
280
     1
  9
$DWFFRAME
280
     2
  9
$DGNFRAME
280
     2
  9
$REALWORLDSCALE
290
     1
  9
$INTERFERECOLOR
 62
   256
  9
$CSHADOW
280
     0
  9
$SHADOWPLANELOCATION
 40
0.0
  0
ENDSEC
  0
SECTION
  2
CLASSES
  0
CLASS
  1
ACDBDICTIONARYWDFLT
  2
AcDbDictionaryWithDefault
  3
ObjectDBX Classes
 90
        0
 91
        4
280
     0
281
     0
  0
CLASS
  1
VISUALSTYLE
  2
AcDbVisualStyle
  3
ObjectDBX Classes
 90
     4095
 91
        4
280
     0
281
     0
  0
CLASS
  1
MATERIAL
  2
AcDbMaterial
  3
ObjectDBX Classes
 90
     1153
 91
        4
280
     0
281
     0
  0
CLASS
  1
SCALE
  2
AcDbScale
  3
ObjectDBX Classes
 90
     1153
 91
        4
280
     0
281
     0
  0
CLASS
  1
TABLESTYLE
  2
AcDbTableStyle
  3
ObjectDBX Classes
 90
     4095
 91
        4
280
     0
281
     0
  0
CLASS
  1
MLEADERSTYLE
  2
AcDbMLeaderStyle
  3
ACDB_MLEADERSTYLE_CLASS
 90
     4095
 91
        4
280
     0
281
     0
  0
CLASS
  1
SUN
  2
AcDbSun
  3
SCENEOE
 90
     1153
 91
        4
280
     0
281
     0
  0
CLASS
  1
DICTIONARYVAR
  2
AcDbDictionaryVar
  3
ObjectDBX Classes
 90
        0
 91
        4
280
     0
281
     0
  0
CLASS
  1
CELLSTYLEMAP
  2
AcDbCellStyleMap
  3
ObjectDBX Classes
 90
     1152
 91
        4
280
     0
281
     0
  0
ENDSEC
  0
SECTION
  2
TABLES
  0
TABLE
  2
VPORT
  5
8
330
0
100
AcDbSymbolTable
 70
     1
  0
VPORT
  5
29
330
8
100
AcDbSymbolTableRecord
100
AcDbViewportTableRecord
  2
*Active
 70
     0
 10
0.0
 20
0.0
 11
1.0
 21
1.0
 12
-0.0000000000000018
 22
-1.1555
 13
0.0
 23
0.0
 14
0.5
 24
0.5
 15
0.5
 25
0.5
 16
0.0
 26
0.0
 36
1.0
 17
0.0
 27
0.0
 37
0.0
 40
2.52042
 41
2.124645892351276
 42
50.0
 43
0.0
 44
0.0
 50
0.0
 51
0.0
 71
     0
 72
   100
 73
     1
 74
     3
 75
     0
 76
     0
 77
     0
 78
     0
281
     0
 65
     1
110
0.0
120
0.0
130
0.0
111
1.0
121
0.0
131
0.0
112
0.0
122
1.0
132
0.0
 79
     0
146
0.0
348
2F
 60
     3
 61
     5
292
     1
282
     1
141
0.0
142
0.0
 63
   250
361
6D
  0
ENDTAB
  0
TABLE
  2
LTYPE
  5
5
330
0
100
AcDbSymbolTable
 70
     3
  0
LTYPE
  5
14
330
5
100
AcDbSymbolTableRecord
100
AcDbLinetypeTableRecord
  2
ByBlock
 70
     0
  3

 72
    65
 73
     0
 40
0.0
  0
LTYPE
  5
15
330
5
100
AcDbSymbolTableRecord
100
AcDbLinetypeTableRecord
  2
ByLayer
 70
     0
  3

 72
    65
 73
     0
 40
0.0
  0
LTYPE
  5
16
330
5
100
AcDbSymbolTableRecord
100
AcDbLinetypeTableRecord
  2
Continuous
 70
     0
  3
Solid line
 72
    65
 73
     0
 40
0.0
  0
LTYPE
  5
9B
330
5
100
AcDbSymbolTableRecord
100
AcDbLinetypeTableRecord
  2
Dashed
 70
     0
  3

 72
    65
 73
     2
 40
2.0
 49
1.0
 74
     0
 49
-1.0
 74
     0
  0
LTYPE
  5
12D
330
5
100
AcDbSymbolTableRecord
100
AcDbLinetypeTableRecord
  2
Center
 70
     0
  3

 72
    65
 73
     4
 40
1.5
 49
0.45
 74
     0
 49
-0.5
 74
     0
 49
0.05
 74
     0
 49
-0.5
 74
     0
  0
ENDTAB
  0
TABLE
  2
LAYER
  5
2
330
0
100
AcDbSymbolTable
 70
     7
  0
LAYER
  5
10
330
2
100
AcDbSymbolTableRecord
100
AcDbLayerTableRecord
  2
0
 70
     0
 62
     7
  6
Continuous
370
    -3
390
F
347
46
348
0
  0
LAYER
  5
72
330
2
100
AcDbSymbolTableRecord
100
AcDbLayerTableRecord
  2
AM_6
 70
     0
 62
    -2
  6
Continuous
370
    35
390
F
347
46
348
0
  0
LAYER
  5
9C
330
2
100
AcDbSymbolTableRecord
100
AcDbLayerTableRecord
  2
AM_9
 70
     0
 62
     6
  6
Dashed
370
    25
390
F
347
46
348
0
  0
LAYER
  5
C8
330
2
100
AcDbSymbolTableRecord
100
AcDbLayerTableRecord
  2
AM_4
 70
     0
 62
     7
  6
Continuous
370
    50
390
F
347
46
348
0
  0
LAYER
  5
12E
330
2
100
AcDbSymbolTableRecord
100
AcDbLayerTableRecord
  2
AM_7
 70
     0
 62
     7
  6
Center
370
    25
390
F
347
46
348
0
  0
LAYER
  5
13D
330
2
100
AcDbSymbolTableRecord
100
AcDbLayerTableRecord
  2
AM_5
 70
     0
 62
     3
  6
Continuous
370
    25
390
F
347
46
348
0
  0
LAYER
  5
192
330
2
100
AcDbSymbolTableRecord
100
AcDbLayerTableRecord
  2
ConnectionPoints
 70
     0
 62
     7
  6
Continuous
370
    50
390
F
347
46
348
0
  0
ENDTAB
  0
TABLE
  2
STYLE
  5
3
330
0
100
AcDbSymbolTable
 70
     1
  0
STYLE
  5
11
330
3
100
AcDbSymbolTableRecord
100
AcDbTextStyleTableRecord
  2
Standard
 70
     0
 40
0.0
 41
1.0
 50
0.0
 71
     0
 42
0.2
  3
txt
  4

  0
ENDTAB
  0
TABLE
  2
VIEW
  5
6
330
0
100
AcDbSymbolTable
 70
     0
  0
ENDTAB
  0
TABLE
  2
UCS
  5
7
330
0
100
AcDbSymbolTable
 70
     0
  0
ENDTAB
  0
TABLE
  2
APPID
  5
9
330
0
100
AcDbSymbolTable
 70
     1
  0
APPID
  5
12
330
9
100
AcDbSymbolTableRecord
100
AcDbRegAppTableRecord
  2
ACAD
 70
     0
  0
ENDTAB
  0
TABLE
  2
DIMSTYLE
  5
A
330
0
100
AcDbSymbolTable
 70
     1
100
AcDbDimStyleTable
  0
DIMSTYLE
105
27
330
A
100
AcDbSymbolTableRecord
100
AcDbDimStyleTableRecord
  2
Standard
 70
     0
178
     0
340
11
  0
ENDTAB
  0
TABLE
  2
BLOCK_RECORD
  5
1
330
0
100
AcDbSymbolTable
 70
     5
  0
BLOCK_RECORD
  5
1F
330
1
100
AcDbSymbolTableRecord
100
AcDbBlockTableRecord
  2
*Model_Space
340
22
 70
     0
280
     1
281
     0
  0
BLOCK_RECORD
  5
1B
330
1
100
AcDbSymbolTableRecord
100
AcDbBlockTableRecord
  2
*Paper_Space
340
1E
 70
     0
280
     1
281
     0
  0
BLOCK_RECORD
  5
23
330
1
100
AcDbSymbolTableRecord
100
AcDbBlockTableRecord
  2
*Paper_Space0
340
26
 70
     0
280
     1
281
     0
  0
BLOCK_RECORD
  5
6E
330
1
100
AcDbSymbolTableRecord
100
AcDbBlockTableRecord
  2
1_123694_4
340
0
102
{BLKREFS
331
6F
102
}
 70
     0
280
     1
281
     0
  0
BLOCK_RECORD
  5
89
330
1
100
AcDbSymbolTableRecord
100
AcDbBlockTableRecord
  2
2_405020c_Inch_0_in_123694_4
340
0
102
{BLKREFS
331
8A
102
}
 70
     0
280
     1
281
     0
  0
BLOCK_RECORD
  5
E8
330
1
100
AcDbSymbolTableRecord
100
AcDbBlockTableRecord
  2
3_389935_0_in_123694_4
340
0
102
{BLKREFS
331
E9
102
}
 70
     0
280
     1
281
     0
  0
BLOCK_RECORD
  5
13F
330
1
100
AcDbSymbolTableRecord
100
AcDbBlockTableRecord
  2
4_123694vsc_0_in_123694_4
340
0
102
{BLKREFS
331
140
102
}
 70
     0
280
     1
281
     0
  0
ENDTAB
  0
ENDSEC
  0
SECTION
  2
BLOCKS
  0
BLOCK
  5
20
330
1F
100
AcDbEntity
  8
0
100
AcDbBlockBegin
  2
*Model_Space
 70
     0
 10
0.0
 20
0.0
 30
0.0
  3
*Model_Space
  1

  0
ENDBLK
  5
21
330
1F
100
AcDbEntity
  8
0
100
AcDbBlockEnd
  0
BLOCK
  5
1C
330
1B
100
AcDbEntity
 67
     1
  8
0
100
AcDbBlockBegin
  2
*Paper_Space
 70
     0
 10
0.0
 20
0.0
 30
0.0
  3
*Paper_Space
  1

  0
ENDBLK
  5
1D
330
1B
100
AcDbEntity
 67
     1
  8
0
100
AcDbBlockEnd
  0
BLOCK
  5
24
330
23
100
AcDbEntity
  8
0
100
AcDbBlockBegin
  2
*Paper_Space0
 70
     0
 10
0.0
 20
0.0
 30
0.0
  3
*Paper_Space0
  1

  0
ENDBLK
  5
25
330
23
100
AcDbEntity
  8
0
100
AcDbBlockEnd
  0
BLOCK
  5
70
330
6E
100
AcDbEntity
  8
0
100
AcDbBlockBegin
  2
1_123694_4
 70
     2
 10
0.0
 20
0.0
 30
0.0
  3
1_123694_4
  1

  0
ATTDEF
  5
73
330
6E
100
AcDbEntity
  8
AM_6
100
AcDbText
 10
7.625
 20
0.08
 30
0.0
 40
0.5
  1
Set Screw Intermediate Duty Two-Bolt Flange Inch Bore
100
AcDbAttributeDefinition
  3

  2
NN
 70
     8
280
     0
  0
ATTDEF
  5
74
330
6E
100
AcDbEntity
  8
AM_6
100
AcDbText
 10
7.625
 20
-0.42
 30
0.0
 40
0.5
  1

100
AcDbAttributeDefinition
  3

  2
NT
 70
     8
280
     0
  0
ATTDEF
  5
75
330
6E
100
AcDbEntity
  8
AM_6
100
AcDbText
 10
7.625
 20
-0.92
 30
0.0
 40
0.5
  1
123694
100
AcDbAttributeDefinition
  3

  2
NB
 70
     8
280
     0
  0
ATTDEF
  5
76
330
6E
100
AcDbEntity
  8
AM_6
100
AcDbText
 10
7.625
 20
-1.42
 30
0.0
 40
0.5
  1
$PN.
100
AcDbAttributeDefinition
  3

  2
NBSYN
 70
     8
280
     0
  0
ATTDEF
  5
77
330
6E
100
AcDbEntity
  8
AM_6
100
AcDbText
 10
7.625
 20
-1.92
 30
0.0
 40
0.5
  1
123694
100
AcDbAttributeDefinition
  3

  2
LINA
 70
     8
280
     0
  0
ATTDEF
  5
78
330
6E
100
AcDbEntity
  8
AM_6
100
AcDbText
 10
7.625
 20
-2.42
 30
0.0
 40
0.5
  1
211
100
AcDbAttributeDefinition
  3

  2
RS
 70
     8
280
     0
  0
ATTDEF
  5
79
330
6E
100
AcDbEntity
  8
AM_6
100
AcDbText
 10
7.625
 20
-2.92
 30
0.0
 40
0.5
  1
2
100
AcDbAttributeDefinition
  3

  2
SS
 70
     8
280
     0
  0
ATTDEF
  5
7A
330
6E
100
AcDbEntity
  8
AM_6
100
AcDbText
 10
7.625
 20
-3.42
 30
0.0
 40
0.5
  1
123694
100
AcDbAttributeDefinition
  3

  2
PN
 70
     8
280
     0
  0
ATTDEF
  5
7B
330
6E
100
AcDbEntity
  8
AM_6
100
AcDbText
 10
7.625
 20
-3.92
 30
0.0
 40
0.5
  1
F2B-VSC-200L
100
AcDbAttributeDefinition
  3

  2
DESCRIPTION
 70
     8
280
     0
  0
ATTDEF
  5
7C
330
6E
100
AcDbEntity
  8
AM_6
100
AcDbText
 10
7.625
 20
-4.42
 30
0.0
 40
0.5
  1
RE-LUBE
100
AcDbAttributeDefinition
  3

  2
LF
 70
     8
280
     0
  0
ATTDEF
  5
7D
330
6E
100
AcDbEntity
  8
AM_6
100
AcDbText
 10
7.625
 20
-4.92
 30
0.0
 40
0.5
  1
6.7
100
AcDbAttributeDefinition
  3

  2
WEIGHT
 70
     8
280
     0
  0
ATTDEF
  5
7E
330
6E
100
AcDbEntity
  8
AM_6
100
AcDbText
 10
7.625
 20
-5.42
 30
0.0
 40
0.5
  1
2.22
100
AcDbAttributeDefinition
  3

  2
A
 70
     8
280
     0
  0
ATTDEF
  5
7F
330
6E
100
AcDbEntity
  8
AM_6
100
AcDbText
 10
7.625
 20
-5.92
 30
0.0
 40
0.5
  1
8.63
100
AcDbAttributeDefinition
  3

  2
B
 70
     8
280
     0
  0
ATTDEF
  5
80
330
6E
100
AcDbEntity
  8
AM_6
100
AcDbText
 10
7.625
 20
-6.42
 30
0.0
 40
0.5
  1
2.28
100
AcDbAttributeDefinition
  3

  2
C
 70
     8
280
     0
  0
ATTDEF
  5
81
330
6E
100
AcDbEntity
  8
AM_6
100
AcDbText
 10
7.625
 20
-6.92
 30
0.0
 40
0.5
  1
7.25
100
AcDbAttributeDefinition
  3

  2
D
 70
     8
280
     0
  0
ATTDEF
  5
82
330
6E
100
AcDbEntity
  8
AM_6
100
AcDbText
 10
7.625
 20
-7.42
 30
0.0
 40
0.5
  1
5/8
100
AcDbAttributeDefinition
  3

  2
F
 70
     8
280
     0
  0
ATTDEF
  5
83
330
6E
100
AcDbEntity
  8
AM_6
100
AcDbText
 10
7.625
 20
-7.92
 30
0.0
 40
0.5
  1
0.67
100
AcDbAttributeDefinition
  3

  2
H
 70
     8
280
     0
  0
ATTDEF
  5
84
330
6E
100
AcDbEntity
  8
AM_6
100
AcDbText
 10
7.625
 20
-8.42
 30
0.0
 40
0.5
  1
0.68
100
AcDbAttributeDefinition
  3

  2
J
 70
     8
280
     0
  0
ATTDEF
  5
85
330
6E
100
AcDbEntity
  8
AM_6
100
AcDbText
 10
7.625
 20
-8.92
 30
0.0
 40
0.5
  1
2.71
100
AcDbAttributeDefinition
  3

  2
L
 70
     8
280
     0
  0
ATTDEF
  5
86
330
6E
100
AcDbEntity
  8
AM_6
100
AcDbText
 10
7.625
 20
-9.42
 30
0.0
 40
0.5
  1
5.25
100
AcDbAttributeDefinition
  3

  2
M
 70
     8
280
     0
  0
ATTDEF
  5
87
330
6E
100
AcDbEntity
  8
AM_6
100
AcDbText
 10
7.625
 20
-9.92
 30
0.0
 40
0.5
  1
2.27
100
AcDbAttributeDefinition
  3

  2
N
 70
     8
280
     0
  0
ATTDEF
  5
88
330
6E
100
AcDbEntity
  8
AM_6
100
AcDbText
 10
7.625
 20
-10.42
 30
0.0
 40
0.5
  1
baldor
100
AcDbAttributeDefinition
  3

  2
COMPANY
 70
     8
280
     0
  0
INSERT
  5
8A
330
6E
100
AcDbEntity
  8
0
100
AcDbBlockReference
  2
2_405020c_Inch_0_in_123694_4
 10
0.0
 20
0.0
 30
0.0
  0
INSERT
  5
E9
330
6E
100
AcDbEntity
  8
0
100
AcDbBlockReference
  2
3_389935_0_in_123694_4
 10
0.0
 20
0.0
 30
0.0
  0
INSERT
  5
140
330
6E
100
AcDbEntity
  8
0
100
AcDbBlockReference
  2
4_123694vsc_0_in_123694_4
 10
0.0
 20
0.0
 30
0.0
  0
ENDBLK
  5
71
330
6E
100
AcDbEntity
  8
0
100
AcDbBlockEnd
  0
BLOCK
  5
8B
330
89
100
AcDbEntity
  8
0
100
AcDbBlockBegin
  2
2_405020c_Inch_0_in_123694_4
 70
     2
 10
0.0
 20
0.0
 30
0.0
  3
2_405020c_Inch_0_in_123694_4
  1

  0
ATTDEF
  5
8D
330
89
100
AcDbEntity
  8
AM_6
100
AcDbText
 10
7.268945064404086
 20
-0.8175913692769581
 30
0.0
 40
0.5
  1
405020C -Inch
100
AcDbAttributeDefinition
  3

  2
NN
 70
     8
280
     0
  0
ATTDEF
  5
8E
330
89
100
AcDbEntity
  8
AM_6
100
AcDbText
 10
7.268945064404086
 20
-1.317591369276958
 30
0.0
 40
0.5
  1
Grease fitting
100
AcDbAttributeDefinition
  3

  2
NT
 70
     8
280
     0
  0
ATTDEF
  5
8F
330
89
100
AcDbEntity
  8
AM_6
100
AcDbText
 10
7.268945064404086
 20
-1.817591369276958
 30
0.0
 40
0.5
  1
405020c-Inch
100
AcDbAttributeDefinition
  3

  2
NB
 70
     8
280
     0
  0
ATTDEF
  5
90
330
89
100
AcDbEntity
  8
AM_6
100
AcDbText
 10
7.268945064404086
 20
-2.317591369276958
 30
0.0
 40
0.5
  1
$MN.-Inch
100
AcDbAttributeDefinition
  3

  2
NBSYN
 70
     8
280
     0
  0
ATTDEF
  5
91
330
89
100
AcDbEntity
  8
AM_6
100
AcDbText
 10
7.268945064404086
 20
-2.817591369276958
 30
0.0
 40
0.5
  1
405020c
100
AcDbAttributeDefinition
  3

  2
LINA
 70
     8
280
     0
  0
ATTDEF
  5
92
330
89
100
AcDbEntity
  8
AM_6
100
AcDbText
 10
7.268945064404086
 20
-3.317591369276958
 30
0.0
 40
0.5
  1
405020c
100
AcDbAttributeDefinition
  3

  2
MN
 70
     8
280
     0
  0
ATTDEF
  5
93
330
89
100
AcDbEntity
  8
AM_6
100
AcDbText
 10
7.268945064404086
 20
-3.817591369276958
 30
0.0
 40
0.5
  1
0.230
100
AcDbAttributeDefinition
  3

  2
NDR
 70
     8
280
     0
  0
ATTDEF
  5
94
330
89
100
AcDbEntity
  8
AM_6
100
AcDbText
 10
7.268945064404086
 20
-4.317591369276958
 30
0.0
 40
0.5
  1
0.210
100
AcDbAttributeDefinition
  3

  2
KDR
 70
     8
280
     0
  0
ATTDEF
  5
95
330
89
100
AcDbEntity
  8
AM_6
100
AcDbText
 10
7.268945064404086
 20
-4.817591369276958
 30
0.0
 40
0.5
  1
0.157
100
AcDbAttributeDefinition
  3

  2
BZE
 70
     8
280
     0
  0
ATTDEF
  5
96
330
89
100
AcDbEntity
  8
AM_6
100
AcDbText
 10
7.268945064404086
 20
-5.317591369276958
 30
0.0
 40
0.5
  1
9/32
100
AcDbAttributeDefinition
  3

  2
WAF
 70
     8
280
     0
  0
ATTDEF
  5
97
330
89
100
AcDbEntity
  8
AM_6
100
AcDbText
 10
7.268945064404086
 20
-5.817591369276958
 30
0.0
 40
0.5
  1
0.2813
100
AcDbAttributeDefinition
  3

  2
WAF1
 70
     8
280
     0
  0
ATTDEF
  5
98
330
89
100
AcDbEntity
  8
AM_6
100
AcDbText
 10
7.268945064404086
 20
-6.317591369276958
 30
0.0
 40
0.5
  1
0.545
100
AcDbAttributeDefinition
  3

  2
BL
 70
     8
280
     0
  0
ATTDEF
  5
99
330
89
100
AcDbEntity
  8
AM_6
100
AcDbText
 10
7.268945064404086
 20
-6.817591369276958
 30
0.0
 40
0.5
  1
0.200
100
AcDbAttributeDefinition
  3

  2
TL
 70
     8
280
     0
  0
ATTDEF
  5
9A
330
89
100
AcDbEntity
  8
AM_6
100
AcDbText
 10
7.268945064404086
 20
-7.317591369276958
 30
0.0
 40
0.5
  1
baldor
100
AcDbAttributeDefinition
  3

  2
COMPANY
 70
     8
280
     0
  0
ELLIPSE
  5
9D
330
89
100
AcDbEntity
  8
AM_9
100
AcDbEllipse
 10
1.819112798219581
 20
-0.9799999999999998
 30
0.0
 11
-1.838598171376523E-17
 21
-0.1000886227036577
 31
0.0
210
0.0
220
0.0
230
1.0
 40
0.7071067811865474
 41
0.0
 42
6.283185307179586
  0
LINE
  5
9E
330
89
100
AcDbEntity
  8
AM_9
100
AcDbLine
 10
2.103006596029237
 20
-0.8987956846384789
 30
0.0
 11
2.064111302511423
 21
-0.8987956846384789
 31
0.0
  0
LINE
  5
9F
330
89
100
AcDbEntity
  8
AM_9
100
AcDbLine
 10
2.103006596029237
 20
-1.061204315361521
 30
0.0
 11
2.064111302511423
 21
-1.061204315361521
 31
0.0
  0
LWPOLYLINE
  5
A0
330
89
100
AcDbEntity
  8
AM_9
100
AcDbPolyline
 90
        4
 70
     0
 43
0.0
 10
2.059988723230779
 20
-0.9799999999999998
 10
2.06063449316586
 20
-1.011150875921951
 10
2.062486081854836
 20
-1.042301751843903
 10
2.064111302511423
 20
-1.061204315361521
  0
LWPOLYLINE
  5
A1
330
89
100
AcDbEntity
  8
AM_9
100
AcDbPolyline
 90
        3
 70
     0
 43
0.0
 10
2.064111302511423
 20
-0.8987956846384789
 10
2.061086485688644
 20
-0.9392152840852543
 10
2.059988723230779
 20
-0.9799999999999998
  0
LWPOLYLINE
  5
A2
330
89
100
AcDbEntity
  8
AM_9
100
AcDbPolyline
 90
        3
 70
     0
 43
0.0
 10
2.010261438843834
 20
-0.8581935269577187
 10
2.03621323031222
 20
-0.8784946057980987
 10
2.064111302511423
 20
-0.8987956846384789
  0
LWPOLYLINE
  5
A3
330
89
100
AcDbEntity
  8
AM_9
100
AcDbPolyline
 90
        3
 70
     0
 43
0.0
 10
2.064111302511423
 20
-1.061204315361521
 10
2.036334637125574
 20
-1.081414115084908
 10
2.010261438843834
 20
-1.101806473042281
  0
LWPOLYLINE
  5
A4
330
89
100
AcDbEntity
  8
AM_9
100
AcDbPolyline
 90
        3
 70
     0
 43
0.0
 10
2.069365453404433
 20
-1.091819974333027
 10
2.081177383841496
 20
-1.081505394201901
 10
2.103006596029237
 20
-1.061204315361521
  0
LWPOLYLINE
  5
A5
330
89
100
AcDbEntity
  8
AM_9
100
AcDbPolyline
 90
        4
 70
     0
 43
0.0
 10
2.103006596029237
 20
-1.061204315361521
 10
2.104631816685824
 20
-1.042301751843903
 10
2.10647963286685
 20
-1.01124282562082
 10
2.107129175309882
 20
-0.9799999999999998
  0
LWPOLYLINE
  5
A6
330
89
100
AcDbEntity
  8
AM_9
100
AcDbPolyline
 90
        3
 70
     0
 43
0.0
 10
2.103006596029237
 20
-0.8987956846384789
 10
2.081279564288945
 20
-0.8785858849150913
 10
2.069366603375419
 20
-0.8681810073183179
  0
LWPOLYLINE
  5
A7
330
89
100
AcDbEntity
  8
AM_9
100
AcDbPolyline
 90
        3
 70
     0
 43
0.0
 10
2.107105124400906
 20
-0.9740230468275917
 10
2.106041026034968
 20
-0.9393978423192394
 10
2.103006596029237
 20
-0.8987956846384789
  0
LINE
  5
A8
330
89
100
AcDbEntity
  8
AM_9
100
AcDbLine
 10
2.107129175309882
 20
-0.9799999999999998
 30
0.0
 11
2.107105124400906
 21
-0.9740230468275917
 31
0.0
  0
LWPOLYLINE
  5
A9
330
89
100
AcDbEntity
  8
AM_9
100
AcDbPolyline
 90
        3
 70
     0
 43
0.0
 10
2.010261438843834
 20
-1.101806473042281
 10
1.986485945925276
 20
-1.122107551882661
 10
1.964656733737535
 20
-1.142408630723041
  0
LWPOLYLINE
  5
AA
330
89
100
AcDbEntity
  8
AM_9
100
AcDbPolyline
 90
        3
 70
     0
 43
0.0
 10
1.964656733737535
 20
-0.8175913692769581
 10
1.986383765477827
 20
-0.8378011690003457
 10
2.010261438843834
 20
-0.8581935269577187
  0
LINE
  5
AB
330
89
100
AcDbEntity
  8
AM_9
100
AcDbLine
 10
1.823975540681866
 20
-1.090362326844218
 30
0.0
 11
1.957963166540075
 21
-1.096286989091894
 31
0.0
  0
LINE
  5
AC
330
89
100
AcDbEntity
  8
AM_9
100
AcDbLine
 10
1.957963166540075
 20
-0.8637130109081055
 30
0.0
 11
1.823975540681866
 21
-0.8696376731557812
 31
0.0
  0
LWPOLYLINE
  5
AD
330
89
100
AcDbEntity
  8
AM_9
100
AcDbPolyline
 90
        3
 70
     0
 43
0.0
 10
1.910806870069947
 20
-1.101806473042281
 10
1.887031377151388
 20
-1.081505394201901
 10
1.865202164963647
 20
-1.061204315361521
  0
LWPOLYLINE
  5
AE
330
89
100
AcDbEntity
  8
AM_9
100
AcDbPolyline
 90
        3
 70
     0
 43
0.0
 10
1.964656733737535
 20
-1.142408630723041
 10
1.936880068351687
 20
-1.122198830999654
 10
1.910806870069947
 20
-1.101806473042281
  0
LINE
  5
AF
330
89
100
AcDbEntity
  8
AM_9
100
AcDbLine
 10
1.983072294572092
 20
-1.142408630723041
 30
0.0
 11
1.964656733737535
 21
-1.142408630723041
 31
0.0
  0
LINE
  5
B0
330
89
100
AcDbEntity
  8
AM_9
100
AcDbLine
 10
1.983072294572092
 20
-0.8175913692769581
 30
0.0
 11
1.964656733737535
 21
-0.8175913692769581
 31
0.0
  0
LWPOLYLINE
  5
B1
330
89
100
AcDbEntity
  8
AM_9
100
AcDbPolyline
 90
        3
 70
     0
 43
0.0
 10
1.910806870069947
 20
-0.8581935269577184
 10
1.936758661538332
 20
-0.8378924481173382
 10
1.964656733737535
 20
-0.8175913692769581
  0
LWPOLYLINE
  5
B2
330
89
100
AcDbEntity
  8
AM_9
100
AcDbPolyline
 90
        3
 70
     0
 43
0.0
 10
1.865202164963647
 20
-0.8987956846384789
 10
1.886929196703939
 20
-0.8785858849150913
 10
1.910806870069947
 20
-0.8581935269577184
  0
LINE
  5
B3
330
89
100
AcDbEntity
  8
AM_9
100
AcDbLine
 10
1.883617725798204
 20
-0.8987956846384789
 30
0.0
 11
1.865202164963647
 21
-0.8987956846384789
 31
0.0
  0
LWPOLYLINE
  5
B4
330
89
100
AcDbEntity
  8
AM_9
100
AcDbPolyline
 90
        3
 70
     0
 43
0.0
 10
1.861079585683002
 20
-0.9799999999999998
 10
1.862167734957916
 20
-0.9393978423192394
 10
1.865202164963647
 20
-0.8987956846384789
  0
LWPOLYLINE
  5
B5
330
89
100
AcDbEntity
  8
AM_9
100
AcDbPolyline
 90
        4
 70
     0
 43
0.0
 10
1.865202164963647
 20
-1.061204315361521
 10
1.86357694430706
 20
-1.042301751843903
 10
1.861729128126034
 20
-1.01124282562082
 10
1.861079585683002
 20
-0.9799999999999998
  0
LINE
  5
B6
330
89
100
AcDbEntity
  8
AM_9
100
AcDbLine
 10
1.883617725798204
 20
-1.061204315361521
 30
0.0
 11
1.865202164963647
 21
-1.061204315361521
 31
0.0
  0
ELLIPSE
  5
B7
330
89
100
AcDbEntity
  8
AM_9
100
AcDbEllipse
 10
2.007674606535991
 20
-0.9799999999999982
 30
0.0
 11
8.612328615003914E-18
 21
0.1406500000000025
 31
0.0
210
0.0
220
0.0
230
1.0
 40
0.7071067811865523
 41
3.798906696793628
 42
5.62587126397574
  0
ELLIPSE
  5
B8
330
89
100
AcDbEntity
  8
AM_9
100
AcDbEllipse
 10
2.029821579421519
 20
-0.9800000000000049
 30
0.0
 11
6.694498085253156E-18
 21
0.1093294505797774
 31
0.0
210
0.0
220
0.0
230
1.0
 40
0.7071067811865689
 41
5.453180775033487
 42
5.928986666165826
  0
ELLIPSE
  5
B9
330
89
100
AcDbEntity
  8
AM_9
100
AcDbEllipse
 10
2.029821579421523
 20
-0.9800000000000011
 30
0.0
 11
6.694498085252701E-18
 21
0.1093294505797699
 31
0.0
210
0.0
220
0.0
230
1.0
 40
0.7071067811865601
 41
3.49579129460353
 42
4.046680705062632
  0
ELLIPSE
  5
BA
330
89
100
AcDbEntity
  8
AM_9
100
AcDbEllipse
 10
2.029821579421449
 20
-0.9799999999997027
 30
0.0
 11
6.694498085296556E-18
 21
0.1093294505804862
 31
0.0
210
0.0
220
0.0
230
1.0
 40
0.7071067811833699
 41
4.264149197389798
 42
5.269351554589476
  0
LWPOLYLINE
  5
BB
330
89
100
AcDbEntity
  8
AM_9
100
AcDbPolyline
 90
        4
 70
     0
 43
0.0
 10
2.046676149450168
 20
-1.073224814525455
 10
2.043326110467114
 20
-1.071810738054189
 10
2.038421543793045
 20
-1.068923892237496
 10
2.03701273280712
 20
-1.067915108054733
  0
LWPOLYLINE
  5
BC
330
89
100
AcDbEntity
  8
AM_9
100
AcDbPolyline
 90
        4
 70
     0
 43
0.0
 10
2.054821579421525
 20
-1.074684789639099
 10
2.053045257024332
 20
-1.07461424507042
 10
2.048103073673457
 20
-1.073686852768585
 10
2.046676149450168
 20
-1.073224814525455
  0
LWPOLYLINE
  5
BD
330
89
100
AcDbEntity
  8
AM_9
100
AcDbPolyline
 90
       13
 70
     0
 43
0.0
 10
2.048035834135743
 20
-0.8863330056909157
 10
2.049837326000253
 20
-0.8858672285300686
 10
2.054559084395115
 20
-0.8853167523211095
 10
2.060215401514244
 20
-0.8859609606303087
 10
2.064976459114134
 20
-0.8875685540828632
 10
2.069839937294867
 20
-0.8901650054368003
 10
2.074842706496779
 20
-0.8938343701854049
 10
2.080394215773936
 20
-0.8991625651558778
 10
2.085771990172332
 20
-0.9057678206128232
 10
2.090837146774887
 20
-0.9136142554932812
 10
2.095441793700854
 20
-0.922626237649643
 10
2.099436451500857
 20
-0.9326716807179755
 10
2.100793989514664
 20
-0.9368139551661214
  0
LINE
  5
BE
330
89
100
AcDbEntity
  8
AM_9
100
AcDbLine
 10
2.037214594253101
 20
-0.8919353668328094
 30
0.0
 11
2.040145995249069
 21
-0.8899508884643713
 31
0.0
  0
LWPOLYLINE
  5
BF
330
89
100
AcDbEntity
  8
AM_9
100
AcDbPolyline
 90
       12
 70
     0
 43
0.0
 10
2.101112790980523
 20
-1.02213917180404
 10
2.099633073598472
 20
-1.026756938224434
 10
2.095681540289997
 20
-1.036840225145311
 10
2.091136711414934
 20
-1.045861374533023
 10
2.086163834383535
 20
-1.053687049149145
 10
2.080945799023919
 20
-1.06022979676951
 10
2.075678045888009
 20
-1.065451386010465
 10
2.070532092397319
 20
-1.069388212416266
 10
2.065625042349556
 20
-1.072140219224505
 10
2.060960696875079
 20
-1.073850060836193
 10
2.056316429247477
 20
-1.074634816474769
 10
2.054821579421525
 20
-1.074684789639099
  0
ELLIPSE
  5
C0
330
89
100
AcDbEntity
  8
AM_9
100
AcDbEllipse
 10
2.069763391358032
 20
-0.9799999999999979
 30
0.0
 11
6.084620899749751E-18
 21
0.09936940028726815
 31
0.0
210
0.0
220
0.0
230
1.0
 40
0.7071067811865474
 41
2.656480407116017
 42
3.141592653589793
  0
ELLIPSE
  5
C1
330
89
100
AcDbEntity
  8
AM_9
100
AcDbEllipse
 10
2.118094720062663
 20
-0.9799999999995664
 30
0.0
 11
8.036249332277246E-18
 21
0.1312419113473762
 31
0.0
210
0.0
220
0.0
230
1.0
 40
0.7071067811865464
 41
2.654432897910743
 42
6.768297553656385
  0
ELLIPSE
  5
C2
330
89
100
AcDbEntity
  8
AM_9
100
AcDbEllipse
 10
2.193715540198448
 20
-0.9800000000024855
 30
0.0
 11
6.357083427961672E-18
 21
0.1038190510502738
 31
0.0
210
0.0
220
0.0
230
1.0
 40
0.7071067812007054
 41
3.57997442857739
 42
3.602897224827506
  0
ELLIPSE
  5
C3
330
89
100
AcDbEntity
  8
AM_9
100
AcDbEllipse
 10
2.193715540201068
 20
-0.9799999999999452
 30
0.0
 11
6.357083428127194E-18
 21
0.103819051052977
 31
0.0
210
0.0
220
0.0
230
1.0
 40
0.7071067811862122
 41
-0.5627486962132906
 42
-0.45388606080137
  0
ELLIPSE
  5
C4
330
89
100
AcDbEntity
  8
AM_9
100
AcDbEllipse
 10
2.146850963527785
 20
-0.9799999999999998
 30
0.0
 11
8.079715312105969E-18
 21
0.1319517646676802
 31
0.0
210
0.0
220
0.0
230
1.0
 40
0.707106781186551
 41
3.5799744285438
 42
5.844803532225579
  0
ELLIPSE
  5
C5
330
89
100
AcDbEntity
  8
AM_9
100
AcDbEllipse
 10
1.960534154456891
 20
-0.9800000000000003
 30
0.0
 11
8.612328615003812E-18
 21
0.1406500000000008
 31
0.0
210
0.0
220
0.0
230
1.0
 40
0.7071067811865481
 41
0.0
 42
6.283185307179586
  0
ELLIPSE
  5
C6
330
89
100
AcDbEntity
  8
AM_9
100
AcDbEllipse
 10
1.960534154456887
 20
-0.9800000000004546
 30
0.0
 11
7.124004163839436E-18
 21
0.1163438171528223
 31
0.0
210
0.0
220
0.0
230
1.0
 40
0.7071067811865462
 41
0.0
 42
6.283185307179586
  0
ELLIPSE
  5
C7
330
89
100
AcDbEntity
  8
AM_9
100
AcDbEllipse
 10
1.82641554029836
 20
-0.9800000000004523
 30
0.0
 11
6.761045944252387E-18
 21
0.1104162595935365
 31
0.0
210
0.0
220
0.0
230
1.0
 40
0.7071067811865479
 41
0.0
 42
6.283185307179586
  0
LINE
  5
C9
330
89
100
AcDbEntity
  8
AM_4
100
AcDbLine
 10
2.057401890922937
 20
-1.101806473042281
 30
0.0
 11
2.069365453404433
 21
-1.091819974333027
 31
0.0
  0
LINE
  5
CA
330
89
100
AcDbEntity
  8
AM_4
100
AcDbLine
 10
2.069366603375419
 20
-0.8681810073183179
 30
0.0
 11
2.057401890922937
 21
-0.8581935269577184
 31
0.0
  0
LWPOLYLINE
  5
CB
330
89
100
AcDbEntity
  8
AM_4
100
AcDbPolyline
 90
        3
 70
     0
 43
0.0
 10
2.057401890922937
 20
-0.8581935269577184
 10
2.031450099454552
 20
-0.8378924481173382
 10
2.003552027255349
 20
-0.8175913692769581
  0
LWPOLYLINE
  5
CC
330
89
100
AcDbEntity
  8
AM_4
100
AcDbPolyline
 90
        3
 70
     0
 43
0.0
 10
2.003552027255349
 20
-1.142408630723041
 10
2.031328692641198
 20
-1.122198830999654
 10
2.057401890922937
 20
-1.101806473042281
  0
LINE
  5
CD
330
89
100
AcDbEntity
  8
AM_4
100
AcDbLine
 10
2.003552027255349
 20
-1.142408630723041
 30
0.0
 11
1.983072294572092
 21
-1.142408630723041
 31
0.0
  0
LWPOLYLINE
  5
CE
330
89
100
AcDbEntity
  8
AM_4
100
AcDbPolyline
 90
        3
 70
     0
 43
0.0
 10
1.95794732214905
 20
-1.101806473042281
 10
1.981722815067608
 20
-1.122107551882661
 10
2.003552027255349
 20
-1.142408630723041
  0
LWPOLYLINE
  5
CF
330
89
100
AcDbEntity
  8
AM_4
100
AcDbPolyline
 90
        3
 70
     0
 43
0.0
 10
1.904097458481461
 20
-1.061204315361521
 10
1.93187412386731
 20
-1.081414115084908
 10
1.95794732214905
 20
-1.101806473042281
  0
LINE
  5
D0
330
89
100
AcDbEntity
  8
AM_4
100
AcDbLine
 10
2.003552027255349
 20
-0.8175913692769581
 30
0.0
 11
1.983072294572092
 21
-0.8175913692769581
 31
0.0
  0
LWPOLYLINE
  5
D1
330
89
100
AcDbEntity
  8
AM_4
100
AcDbPolyline
 90
        3
 70
     0
 43
0.0
 10
1.95794732214905
 20
-0.8581935269577184
 10
1.931995530680664
 20
-0.8784946057980987
 10
1.904097458481461
 20
-0.8987956846384789
  0
LWPOLYLINE
  5
D2
330
89
100
AcDbEntity
  8
AM_4
100
AcDbPolyline
 90
        3
 70
     0
 43
0.0
 10
2.003552027255349
 20
-0.8175913692769581
 10
1.981824995515057
 20
-0.8378011690003457
 10
1.95794732214905
 20
-0.8581935269577184
  0
LINE
  5
D3
330
89
100
AcDbEntity
  8
AM_4
100
AcDbLine
 10
1.904097458481461
 20
-0.8987956846384789
 30
0.0
 11
1.883617725798204
 21
-0.8987956846384789
 31
0.0
  0
LINE
  5
D4
330
89
100
AcDbEntity
  8
AM_4
100
AcDbLine
 10
1.904097458481461
 20
-1.061204315361521
 30
0.0
 11
1.883617725798204
 21
-1.061204315361521
 31
0.0
  0
LWPOLYLINE
  5
D5
330
89
100
AcDbEntity
  8
AM_4
100
AcDbPolyline
 90
        4
 70
     0
 43
0.0
 10
1.908220037762106
 20
-0.9799999999999998
 10
1.907574267827024
 20
-1.011150875921951
 10
1.905722679138048
 20
-1.042301751843903
 10
1.904097458481461
 20
-1.061204315361521
  0
LWPOLYLINE
  5
D6
330
89
100
AcDbEntity
  8
AM_4
100
AcDbPolyline
 90
        3
 70
     0
 43
0.0
 10
1.904097458481461
 20
-0.8987956846384789
 10
1.907122275304239
 20
-0.9392152840852543
 10
1.908220037762106
 20
-0.9799999999999998
  0
ELLIPSE
  5
D7
330
89
100
AcDbEntity
  8
AM_4
100
AcDbEllipse
 10
2.007674606535994
 20
-0.9799999999999998
 30
0.0
 11
8.612328615003750E-18
 21
0.1406499999999998
 31
0.0
210
0.0
220
0.0
230
1.0
 40
0.7071067811865531
 41
5.625871263975766
 42
10.0820920039732
  0
ELLIPSE
  5
D8
330
89
100
AcDbEntity
  8
AM_4
100
AcDbEllipse
 10
2.029821579421526
 20
-0.9799999999999999
 30
0.0
 11
6.694498085252795E-18
 21
0.1093294505797715
 31
0.0
210
0.0
220
0.0
230
1.0
 40
0.707106781186546
 41
5.928986666165874
 42
9.778976601783093
  0
LINE
  5
D9
330
89
100
AcDbEntity
  8
AM_4
100
AcDbLine
 10
2.03699838784437
 20
-1.067904418563292
 30
0.0
 11
2.074820415558412
 21
-1.096099562589007
 31
0.0
  0
LINE
  5
DA
330
89
100
AcDbEntity
  8
AM_4
100
AcDbLine
 10
2.074820415558412
 20
-0.8639004374109928
 30
0.0
 11
2.03699838784437
 21
-0.8920955814367074
 31
0.0
  0
ELLIPSE
  5
DB
330
89
100
AcDbEntity
  8
AM_4
100
AcDbEllipse
 10
2.069763391358032
 20
-0.9799999999999996
 30
0.0
 11
6.084620899749656E-18
 21
0.0993694002872666
 31
0.0
210
0.0
220
0.0
230
1.0
 40
0.7071067811865495
 41
0.4851122464737765
 42
2.656480407116017
  0
LINE
  5
DC
330
89
100
AcDbEntity
  8
AM_4
100
AcDbLine
 10
2.184435133007904
 20
-1.100781117794319
 30
0.0
 11
2.224876726734105
 21
-1.07400189503009
 31
0.0
  0
LWPOLYLINE
  5
DD
330
89
100
AcDbEntity
  8
AM_4
100
AcDbPolyline
 90
        6
 70
     0
 43
0.0
 10
2.133036531999013
 20
-1.115926521995058
 10
2.142566560487264
 20
-1.115437051296835
 10
2.1547140997507
 20
-1.113372164114359
 10
2.166482232237206
 20
-1.109753321866416
 10
2.177769199889218
 20
-1.104642637851863
 10
2.182378354280123
 20
-1.102044421294735
  0
LWPOLYLINE
  5
DE
330
89
100
AcDbEntity
  8
AM_4
100
AcDbPolyline
 90
       11
 70
     0
 43
0.0
 10
2.181193962512788
 20
-0.8572577060832869
 10
2.17387459167581
 20
-0.853400287972348
 10
2.16171483199733
 20
-0.848580659429318
 10
2.149297920713191
 20
-0.8455041760783898
 10
2.136806048624027
 20
-0.8441499262113413
 10
2.124401363715203
 20
-0.8444751967833585
 10
2.112230028473971
 20
-0.8464246901367597
 10
2.100430711290859
 20
-0.8499328079629846
 10
2.08910565500109
 20
-0.8549370531801557
 10
2.078345806709181
 20
-0.861381735859539
 10
2.073882214730748
 20
-0.864607816818475
  0
LWPOLYLINE
  5
DF
330
89
100
AcDbEntity
  8
AM_4
100
AcDbPolyline
 90
        3
 70
     0
 43
0.0
 10
2.18710850262388
 20
-0.8609616382827162
 10
2.185577444976278
 20
-0.8599493632546619
 10
2.183001175864513
 20
-0.8583311722467274
  0
LWPOLYLINE
  5
E0
330
89
100
AcDbEntity
  8
AM_4
100
AcDbPolyline
 90
        7
 70
     0
 43
0.0
 10
2.074592395435376
 20
-1.095929111629672
 10
2.079668809418129
 20
-1.099508760409722
 10
2.091330331939635
 20
-1.10618172415065
 10
2.1034638074455
 20
-1.111127970137543
 10
2.115868406641217
 20
-1.114330730725915
 10
2.1283605416418
 20
-1.11580886514434
 10
2.133036531999013
 20
-1.115926521995058
  0
ELLIPSE
  5
E1
330
89
100
AcDbEntity
  8
AM_4
100
AcDbEllipse
 10
2.118094720062507
 20
-0.9799999999999995
 30
0.0
 11
8.036249332247498E-18
 21
0.1312419113468903
 31
0.0
210
0.0
220
0.0
230
1.0
 40
0.7071067811865415
 41
0.4941463417387713
 42
2.654432897910674
  0
ELLIPSE
  5
E2
330
89
100
AcDbEntity
  8
AM_4
100
AcDbEllipse
 10
2.204485993966249
 20
-0.9799999999999998
 30
0.0
 11
-1.484390032546750E-17
 21
-0.08080642971672813
 31
0.0
210
0.0
220
0.0
230
1.0
 40
0.707106781186548
 41
0.0
 42
6.283185307179586
  0
LWPOLYLINE
  5
E3
330
89
100
AcDbEntity
  8
AM_4
100
AcDbPolyline
 90
       19
 70
     0
 43
0.0
 10
2.224914484806254
 20
-1.073976845747325
 10
2.23191355536005
 20
-1.068746842628564
 10
2.240051129503066
 20
-1.060968564277656
 10
2.247398980179663
 20
-1.051889372629052
 10
2.253829680196971
 20
-1.041634055401179
 10
2.25922507026258
 20
-1.030369078560708
 10
2.263489842898046
 20
-1.018289724666341
 10
2.266555882129465
 20
-1.005606457559306
 10
2.26838171493705
 20
-0.9925263252131025
 10
2.268945064404086
 20
-0.9792472061943982
 10
2.26823645506369
 20
-0.9659631039753602
 10
2.266257083551729
 20
-0.9528676446488398
 10
2.263017813389404
 20
-0.940152115895851
 10
2.258538416925067
 20
-0.9280059831145672
 10
2.252850200681186
 20
-0.9166223538672257
 10
2.246007538593885
 20
-0.906207804023105
 10
2.238100398334319
 20
-0.8969758653636822
 10
2.229265097194549
 20
-0.8891317342534933
 10
2.226076096876815
 20
-0.8868095995298992
  0
ELLIPSE
  5
E4
330
89
100
AcDbEntity
  8
AM_4
100
AcDbEllipse
 10
2.146850963527785
 20
-0.98
 30
0.0
 11
8.079715312105963E-18
 21
0.1319517646676801
 31
0.0
210
0.0
220
0.0
230
1.0
 40
0.7071067811865516
 41
5.844803532225584
 42
9.863159735723382
  0
ELLIPSE
  5
E5
330
89
100
AcDbEntity
  8
AM_4
100
AcDbEllipse
 10
2.193715540200972
 20
-0.9799999999999998
 30
0.0
 11
6.357083428130980E-18
 21
0.1038190510530388
 31
0.0
210
0.0
220
0.0
230
1.0
 40
0.7071067811865482
 41
5.844803532225579
 42
9.863159735723386
  0
LINE
  5
E6
330
89
100
AcDbEntity
  8
AM_4
100
AcDbLine
 10
2.224876726734105
 20
-0.8859981049699094
 30
0.0
 11
2.186456156509996
 21
-0.8605256279505998
 31
0.0
  0
ELLIPSE
  5
E7
330
89
100
AcDbEntity
  8
AM_4
100
AcDbEllipse
 10
2.19371554019652
 20
-0.9800000000022207
 30
0.0
 11
6.357083428281913E-18
 21
0.1038190510555037
 31
0.0
210
0.0
220
0.0
230
1.0
 40
0.7071067812017772
 41
-0.453886060838756
 42
-0.438381774991548
  0
ENDBLK
  5
8C
330
89
100
AcDbEntity
  8
0
100
AcDbBlockEnd
  0
BLOCK
  5
EA
330
E8
100
AcDbEntity
  8
0
100
AcDbBlockBegin
  2
3_389935_0_in_123694_4
 70
     2
 10
0.0
 20
0.0
 30
0.0
  3
3_389935_0_in_123694_4
  1

  0
ATTDEF
  5
EC
330
E8
100
AcDbEntity
  8
AM_6
100
AcDbText
 10
6.968059542428211
 20
-0.0599999999999996
 30
0.0
 40
0.5
  1
Set Screw Intermediate Duty Insert Inch Bore
100
AcDbAttributeDefinition
  3

  2
NN
 70
     8
280
     0
  0
ATTDEF
  5
ED
330
E8
100
AcDbEntity
  8
AM_6
100
AcDbText
 10
6.968059542428211
 20
-0.5599999999999996
 30
0.0
 40
0.5
  1
VSC Intermediate Duty Bearing Inserts
100
AcDbAttributeDefinition
  3

  2
NT
 70
     8
280
     0
  0
ATTDEF
  5
EE
330
E8
100
AcDbEntity
  8
AM_6
100
AcDbText
 10
6.968059542428211
 20
-1.06
 30
0.0
 40
0.5
  1
389935
100
AcDbAttributeDefinition
  3

  2
NB
 70
     8
280
     0
  0
ATTDEF
  5
EF
330
E8
100
AcDbEntity
  8
AM_6
100
AcDbText
 10
6.968059542428211
 20
-1.56
 30
0.0
 40
0.5
  1
$PN.
100
AcDbAttributeDefinition
  3

  2
NBSYN
 70
     8
280
     0
  0
ATTDEF
  5
F0
330
E8
100
AcDbEntity
  8
AM_6
100
AcDbText
 10
6.968059542428211
 20
-2.06
 30
0.0
 40
0.5
  1
389935
100
AcDbAttributeDefinition
  3

  2
LINA
 70
     8
280
     0
  0
ATTDEF
  5
F1
330
E8
100
AcDbEntity
  8
AM_6
100
AcDbText
 10
6.968059542428211
 20
-2.56
 30
0.0
 40
0.5
  1
211
100
AcDbAttributeDefinition
  3

  2
SERIES
 70
     8
280
     0
  0
ATTDEF
  5
F2
330
E8
100
AcDbEntity
  8
AM_6
100
AcDbText
 10
6.968059542428211
 20
-3.06
 30
0.0
 40
0.5
  1
2
100
AcDbAttributeDefinition
  3

  2
SS
 70
     8
280
     0
  0
ATTDEF
  5
F3
330
E8
100
AcDbEntity
  8
AM_6
100
AcDbText
 10
6.968059542428211
 20
-3.56
 30
0.0
 40
0.5
  1
389935
100
AcDbAttributeDefinition
  3

  2
PN
 70
     8
280
     0
  0
ATTDEF
  5
F4
330
E8
100
AcDbEntity
  8
AM_6
100
AcDbText
 10
6.968059542428211
 20
-4.06
 30
0.0
 40
0.5
  1
INS-VSC-200L
100
AcDbAttributeDefinition
  3

  2
DESCRIPTION
 70
     8
280
     0
  0
ATTDEF
  5
F5
330
E8
100
AcDbEntity
  8
AM_6
100
AcDbText
 10
6.968059542428211
 20
-4.56
 30
0.0
 40
0.5
  1
2.24
100
AcDbAttributeDefinition
  3

  2
WEIGHT
 70
     8
280
     0
  0
ATTDEF
  5
F6
330
E8
100
AcDbEntity
  8
AM_6
100
AcDbText
 10
6.968059542428211
 20
-5.06
 30
0.0
 40
0.5
  1
2.22
100
AcDbAttributeDefinition
  3

  2
A
 70
     8
280
     0
  0
ATTDEF
  5
F7
330
E8
100
AcDbEntity
  8
AM_6
100
AcDbText
 10
6.968059542428211
 20
-5.56
 30
0.0
 40
0.5
  1
0.94
100
AcDbAttributeDefinition
  3

  2
C
 70
     8
280
     0
  0
ATTDEF
  5
F8
330
E8
100
AcDbEntity
  8
AM_6
100
AcDbText
 10
6.968059542428211
 20
-6.06
 30
0.0
 40
0.5
  1
3.9370
100
AcDbAttributeDefinition
  3

  2
D
 70
     8
280
     0
  0
ATTDEF
  5
F9
330
E8
100
AcDbEntity
  8
AM_6
100
AcDbText
 10
6.968059542428211
 20
-6.56
 30
0.0
 40
0.5
  1
0.250
100
AcDbAttributeDefinition
  3

  2
J
 70
     8
280
     0
  0
ATTDEF
  5
FA
330
E8
100
AcDbEntity
  8
AM_6
100
AcDbText
 10
6.968059542428211
 20
-7.06
 30
0.0
 40
0.5
  1
2.71
100
AcDbAttributeDefinition
  3

  2
L
 70
     8
280
     0
  0
ATTDEF
  5
FB
330
E8
100
AcDbEntity
  8
AM_6
100
AcDbText
 10
6.968059542428211
 20
-7.56
 30
0.0
 40
0.5
  1
3/8-24
100
AcDbAttributeDefinition
  3

  2
N
 70
     8
280
     0
  0
ATTDEF
  5
FC
330
E8
100
AcDbEntity
  8
AM_6
100
AcDbText
 10
6.968059542428211
 20
-8.059999999999999
 30
0.0
 40
0.5
  1
0.87
100
AcDbAttributeDefinition
  3

  2
W
 70
     8
280
     0
  0
ATTDEF
  5
FD
330
E8
100
AcDbEntity
  8
AM_6
100
AcDbText
 10
6.968059542428211
 20
-8.559999999999999
 30
0.0
 40
0.5
  1
1.35
100
AcDbAttributeDefinition
  3

  2
Y
 70
     8
280
     0
  0
ATTDEF
  5
FE
330
E8
100
AcDbEntity
  8
AM_6
100
AcDbText
 10
6.968059542428211
 20
-9.059999999999999
 30
0.0
 40
0.5
  1
baldor
100
AcDbAttributeDefinition
  3

  2
COMPANY
 70
     8
280
     0
  0
LINE
  5
FF
330
E8
100
AcDbEntity
  8
AM_9
100
AcDbLine
 10
-2.0685
 20
-0.640454545454546
 30
0.0
 11
-2.0685
 21
-0.7195454545454533
 31
0.0
  0
ARC
  5
100
330
E8
100
AcDbEntity
  8
AM_9
100
AcDbCircle
 10
-1.983045454545455
 20
-0.7195454545454545
 30
0.0
 40
0.0854545454545446
100
AcDbArc
 50
179.9999991462263
 51
270.0
  0
ARC
  5
101
330
E8
100
AcDbEntity
  8
AM_9
100
AcDbCircle
 10
-1.983045454545458
 20
-0.6404545454545413
 30
0.0
 40
0.0854545454545416
100
AcDbArc
 50
90.0
 51
180.0
  0
LINE
  5
102
330
E8
100
AcDbEntity
  8
AM_9
100
AcDbLine
 10
-1.983045454545454
 20
-0.8049999999999996
 30
0.0
 11
-1.96452723320393
 21
-0.8049999999999996
 31
0.0
  0
LINE
  5
103
330
E8
100
AcDbEntity
  8
AM_9
100
AcDbLine
 10
-1.932490302211718
 20
-0.5549999999999997
 30
0.0
 11
-1.983045454545454
 21
-0.5549999999999997
 31
0.0
  0
LINE
  5
104
330
E8
100
AcDbEntity
  8
AM_9
100
AcDbLine
 10
-1.983045454545454
 20
-0.5549999999999997
 30
0.0
 11
-1.983045454545454
 21
-0.8049999999999996
 31
0.0
  0
LINE
  5
105
330
E8
100
AcDbEntity
  8
AM_9
100
AcDbLine
 10
0.9062254606848154
 20
-2.06995
 30
0.0
 11
1.207609810836984
 21
-2.06995
 31
0.0
  0
LINE
  5
106
330
E8
100
AcDbEntity
  8
AM_9
100
AcDbLine
 10
1.207609810836984
 20
-1.74005
 30
0.0
 11
0.9062878834983065
 21
-1.74005
 31
0.0
  0
LWPOLYLINE
  5
107
330
E8
100
AcDbEntity
  8
AM_9
100
AcDbPolyline
 90
       21
 70
     0
 43
0.0
 10
0.9063021295419829
 20
-2.069949999456803
 10
0.9137788174959802
 20
-2.068962040011971
 10
0.9242451129324032
 20
-2.063813045925901
 10
0.9338855130732157
 20
-2.054074494138953
 10
0.9420464213000936
 20
-2.040492762326361
 10
0.9490671152731963
 20
-2.022725187521032
 10
0.9545963079721672
 20
-2.00196737112191
 10
0.9588785986709321
 20
-1.977802626712242
 10
0.9617101306110967
 20
-1.952223461229675
 10
0.9632901021675682
 20
-1.92449242409711
 10
0.9635553810580133
 20
-1.897310556979666
 10
0.9625528913229822
 20
-1.869560204765675
 10
0.9603408499887518
 20
-1.843740897071183
 10
0.9567588034824985
 20
-1.818931023732981
 10
0.9519196280577037
 20
-1.796971789921127
 10
0.9455446629345039
 20
-1.777463201529248
 10
0.9379055037030847
 20
-1.761867961787243
 10
0.9286658913598205
 20
-1.749957594112911
 10
0.9185215930524568
 20
-1.742774536688641
 10
0.9070438729456755
 20
-1.740059230326072
 10
0.9063118531285629
 20
-1.740050000280598
  0
LWPOLYLINE
  5
108
330
E8
100
AcDbEntity
  8
AM_9
100
AcDbPolyline
 90
       11
 70
     0
 43
0.0
 10
0.9063118531285629
 20
-1.740050000280598
 10
0.8953270306201285
 20
-1.742001247835656
 10
0.8829229859242266
 20
-1.748590380872087
 10
0.8709555462488108
 20
-1.759253742657419
 10
0.8591894053104873
 20
-1.774286222588047
 10
0.8486204569613766
 20
-1.792675668885204
 10
0.8392576569930861
 20
-1.814802442075077
 10
0.832004831176258
 20
-1.839000068372985
 10
0.826877678253959
 20
-1.865853164530652
 10
0.8248707785284889
 20
-1.885136708242067
 10
0.8241822374279459
 20
-1.905
  0
ELLIPSE
  5
109
330
E8
100
AcDbEntity
  8
AM_9
100
AcDbEllipse
 10
1.207609810836985
 20
-1.904999999999999
 30
0.0
 11
-3.030082342790358E-17
 21
-0.164950000000001
 31
0.0
210
0.0
220
0.0
230
1.0
 40
0.4226182617407033
 41
3.524876621379409
 42
5.890186748955383
  0
LINE
  5
10A
330
E8
100
AcDbEntity
  8
AM_9
100
AcDbLine
 10
1.175103092575817
 20
-2.050918500062369
 30
0.0
 11
1.189148379461475
 21
-2.068436997987121
 31
0.0
  0
LINE
  5
10B
330
E8
100
AcDbEntity
  8
AM_9
100
AcDbLine
 10
1.18890576029697
 20
-1.741865617642198
 30
0.0
 11
1.175103092575817
 21
-1.75908149993763
 31
0.0
  0
LWPOLYLINE
  5
10C
330
E8
100
AcDbEntity
  8
AM_9
100
AcDbPolyline
 90
       11
 70
     0
 43
0.0
 10
0.8241822374279459
 20
-1.905
 10
0.8254657525755811
 20
-1.932088501332361
 10
0.82939711158291
 20
-1.959177002664723
 10
0.8355548428183536
 20
-1.983982486056474
 10
0.843977844327316
 20
-2.007239794102886
 10
0.8539057667289528
 20
-2.027203740388344
 10
0.8653838052853206
 20
-2.044241457389438
 10
0.8773681735717617
 20
-2.056998156591189
 10
0.8900028791497459
 20
-2.065722726686377
 10
0.9020002497283887
 20
-2.069641507568748
 10
0.9063021295419829
 20
-2.069949999456803
  0
LINE
  5
10D
330
E8
100
AcDbEntity
  8
AM_9
100
AcDbLine
 10
1.0
 20
-2.2258
 30
0.0
 11
1.0
 21
-0.0735499999999998
 31
0.0
  0
LINE
  5
10E
330
E8
100
AcDbEntity
  8
AM_9
100
AcDbLine
 10
-1.0
 20
-0.0735499999999998
 30
0.0
 11
-1.0
 21
-2.2258
 31
0.0
  0
LINE
  5
10F
330
E8
100
AcDbEntity
  8
AM_9
100
AcDbLine
 10
1.0
 20
-0.0735499999999998
 30
0.0
 11
1.01355
 21
-0.0599999999999996
 31
0.0
  0
LINE
  5
110
330
E8
100
AcDbEntity
  8
AM_9
100
AcDbLine
 10
-1.01355
 20
-0.0599999999999996
 30
0.0
 11
-1.0
 21
-0.0735499999999998
 31
0.0
  0
LINE
  5
111
330
E8
100
AcDbEntity
  8
AM_9
100
AcDbLine
 10
-1.0
 20
-2.2258
 30
0.0
 11
-1.0542
 21
-2.28
 31
0.0
  0
LINE
  5
112
330
E8
100
AcDbEntity
  8
AM_9
100
AcDbLine
 10
1.0542
 20
-2.28
 30
0.0
 11
1.0
 21
-2.2258
 31
0.0
  0
LINE
  5
113
330
E8
100
AcDbEntity
  8
AM_9
100
AcDbLine
 10
1.355
 20
-0.4599999999999997
 30
0.0
 11
1.355
 21
-0.0735499999999995
 31
0.0
  0
LINE
  5
114
330
E8
100
AcDbEntity
  8
AM_9
100
AcDbLine
 10
-1.355
 20
-0.0735499999999995
 30
0.0
 11
-1.355
 21
-0.4599999999999997
 31
0.0
  0
LINE
  5
115
330
E8
100
AcDbEntity
  8
AM_9
100
AcDbLine
 10
1.355
 20
-1.6
 30
0.0
 11
1.355
 21
-1.399999999999999
 31
0.0
  0
LINE
  5
116
330
E8
100
AcDbEntity
  8
AM_9
100
AcDbLine
 10
-1.355
 20
-1.399999999999999
 30
0.0
 11
-1.355
 21
-1.6
 31
0.0
  0
LINE
  5
117
330
E8
100
AcDbEntity
  8
AM_9
100
AcDbLine
 10
-1.355
 20
-0.0735499999999995
 30
0.0
 11
1.355
 21
-0.0735499999999995
 31
0.0
  0
LINE
  5
118
330
E8
100
AcDbEntity
  8
AM_9
100
AcDbLine
 10
-1.34145
 20
-0.0599999999999996
 30
0.0
 11
1.34145
 21
-0.0599999999999996
 31
0.0
  0
LINE
  5
119
330
E8
100
AcDbEntity
  8
AM_9
100
AcDbLine
 10
-1.34145
 20
-0.0599999999999996
 30
0.0
 11
-1.355
 21
-0.0735499999999995
 31
0.0
  0
LINE
  5
11A
330
E8
100
AcDbEntity
  8
AM_9
100
AcDbLine
 10
1.355
 20
-0.0735499999999995
 30
0.0
 11
1.34145
 21
-0.0599999999999996
 31
0.0
  0
LINE
  5
11B
330
E8
100
AcDbEntity
  8
AM_9
100
AcDbLine
 10
1.885166666666667
 20
-1.23
 30
0.0
 11
1.885166666666667
 21
-1.13
 31
0.0
  0
LINE
  5
11C
330
E8
100
AcDbEntity
  8
AM_9
100
AcDbLine
 10
-1.885166666666667
 20
-1.13
 30
0.0
 11
-1.885166666666667
 21
-1.23
 31
0.0
  0
LINE
  5
11D
330
E8
100
AcDbEntity
  8
AM_9
100
AcDbLine
 10
-1.87196213904021
 20
-0.4599999999999997
 30
0.0
 11
1.871962139037842
 21
-0.4599999999999997
 31
0.0
  0
ARC
  5
11E
330
E8
100
AcDbEntity
  8
AM_9
100
AcDbCircle
 10
1.87196213904021
 20
-0.5100000000000003
 30
0.0
 40
0.0500000000000006
100
AcDbArc
 50
12.64566792865984
 51
90.0
  0
ARC
  5
11F
330
E8
100
AcDbEntity
  8
AM_9
100
AcDbCircle
 10
-1.87196213904021
 20
-0.5100000000000002
 30
0.0
 40
0.0500000000000005
100
AcDbArc
 50
90.0
 51
167.3543320713403
  0
LINE
  5
120
330
E8
100
AcDbEntity
  8
AM_9
100
AcDbLine
 10
-1.87196213904021
 20
-1.399999999999999
 30
0.0
 11
1.871962139037842
 21
-1.399999999999999
 31
0.0
  0
ARC
  5
121
330
E8
100
AcDbEntity
  8
AM_9
100
AcDbCircle
 10
1.87196213904021
 20
-1.349999999999999
 30
0.0
 40
0.0500000000000003
100
AcDbArc
 50
270.0
 51
347.3543320713405
  0
ARC
  5
122
330
E8
100
AcDbEntity
  8
AM_9
100
AcDbCircle
 10
-1.87196213904021
 20
-1.349999999999999
 30
0.0
 40
0.0500000000000001
100
AcDbArc
 50
192.6456679286596
 51
270.0
  0
LINE
  5
123
330
E8
100
AcDbEntity
  8
AM_9
100
AcDbLine
 10
-1.920749268022233
 20
-1.360946051602814
 30
0.0
 11
1.920749268022035
 21
-1.360946051602814
 31
0.0
  0
LINE
  5
124
330
E8
100
AcDbEntity
  8
AM_9
100
AcDbLine
 10
-1.945505654065287
 20
-1.23
 30
0.0
 11
1.945505654065089
 21
-1.23
 31
0.0
  0
ARC
  5
125
330
E8
100
AcDbEntity
  8
AM_9
100
AcDbCircle
 10
-0.0000000003327076
 20
-0.9299999999371346
 30
0.0
 40
1.968500000338206
100
AcDbArc
 50
347.3543320716742
 51
351.2339465517913
  0
ARC
  5
126
330
E8
100
AcDbEntity
  8
AM_9
100
AcDbCircle
 10
0.00000000033308
 20
-0.9299999999370642
 30
0.0
 40
1.968500000338585
100
AcDbArc
 50
188.766053448209
 51
192.6456679283255
  0
LINE
  5
127
330
E8
100
AcDbEntity
  8
AM_9
100
AcDbLine
 10
-1.958313624014294
 20
-1.129999999999999
 30
0.0
 11
1.95831362401428
 21
-1.129999999999999
 31
0.0
  0
LINE
  5
128
330
E8
100
AcDbEntity
  8
AM_9
100
AcDbLine
 10
-1.920749268022233
 20
-0.499053948397185
 30
0.0
 11
1.920749268022219
 21
-0.499053948397185
 31
0.0
  0
ARC
  5
129
330
E8
100
AcDbEntity
  8
AM_9
100
AcDbCircle
 10
-0.0000000000010754
 20
-0.9300000000000629
 30
0.0
 40
1.968500000001049
100
AcDbArc
 50
354.1686752533631
 51
12.64566792865426
  0
ARC
  5
12A
330
E8
100
AcDbEntity
  8
AM_9
100
AcDbCircle
 10
0.0000000000650933
 20
-0.9300000000131122
 30
0.0
 40
1.968500000066371
100
AcDbArc
 50
167.3543320713831
 51
169.0268210867026
  0
ARC
  5
12B
330
E8
100
AcDbEntity
  8
AM_9
100
AcDbCircle
 10
-0.0000000000016678
 20
-0.9300000000001158
 30
0.0
 40
1.968499999998315
100
AcDbArc
 50
176.3470721205294
 51
185.8313247466435
  0
LINE
  5
12C
330
E8
100
AcDbEntity
  8
AM_9
100
AcDbLine
 10
-1.932451098994511
 20
-0.5550000000104048
 30
0.0
 11
-1.964527233203597
 21
-0.8049999999973825
 31
0.0
  0
LINE
  5
12F
330
E8
100
AcDbEntity
  8
AM_7
100
AcDbLine
 10
-0.1731975
 20
-1.905
 30
0.0
 11
0.1731975
 21
-1.905
 31
0.0
  0
LINE
  5
130
330
E8
100
AcDbEntity
  8
AM_7
100
AcDbLine
 10
-2.104175
 20
-0.6799999999999996
 30
0.0
 11
-1.319325
 21
-0.6799999999999996
 31
0.0
  0
ELLIPSE
  5
131
330
E8
100
AcDbEntity
  8
AM_4
100
AcDbEllipse
 10
1.207609810836984
 20
-1.905
 30
0.0
 11
-3.030082342790337E-17
 21
-0.1649499999999999
 31
0.0
210
0.0
220
0.0
230
1.0
 40
0.4226182617406994
 41
5.89018674895539
 42
9.808061928558985
  0
LWPOLYLINE
  5
132
330
E8
100
AcDbEntity
  8
AM_4
100
AcDbPolyline
 90
       15
 70
     0
 43
0.0
 10
1.189151519887494
 20
-2.068440914996164
 10
1.189104908287963
 20
-2.068382737348943
 10
1.177847671152172
 20
-2.05185362258813
 10
1.167707093448475
 20
-2.031903791804017
 10
1.158552328056517
 20
-2.007609424481321
 10
1.151332739057424
 20
-1.980803687798739
 10
1.146105656627616
 20
-1.950460161813842
 10
1.143516510606511
 20
-1.918921244526963
 10
1.143759954044508
 20
-1.885932071284969
 10
1.146916664242262
 20
-1.853475054555146
 10
1.15295268768528
 20
-1.822288051745059
 10
1.161563663589691
 20
-1.793509166030443
 10
1.172180191870249
 20
-1.76860873516679
 10
1.184489108458831
 20
-1.747775795426453
 10
1.189133506620971
 20
-1.741581558765469
  0
LWPOLYLINE
  5
133
330
E8
100
AcDbEntity
  8
AM_4
100
AcDbPolyline
 90
        9
 70
     0
 43
0.0
 10
1.189133506620971
 20
-1.741581558765469
 10
1.197266787132109
 20
-1.732598278370139
 10
1.210600240921377
 20
-1.722424658213186
 10
1.223087869719477
 20
-1.717932184402309
 10
1.235189368062639
 20
-1.718393131904695
 10
1.246098182547132
 20
-1.723564079092333
 10
1.256062239914536
 20
-1.733097145999227
 10
1.262542247576108
 20
-1.742511959138902
 10
1.268396877512762
 20
-1.75385804289045
  0
LINE
  5
134
330
E8
100
AcDbEntity
  8
AM_4
100
AcDbLine
 10
-1.3008
 20
-2.28
 30
0.0
 11
1.3008
 21
-2.28
 31
0.0
  0
LINE
  5
135
330
E8
100
AcDbEntity
  8
AM_4
100
AcDbLine
 10
1.3008
 20
-2.28
 30
0.0
 11
1.355
 21
-2.2258
 31
0.0
  0
LINE
  5
136
330
E8
100
AcDbEntity
  8
AM_4
100
AcDbLine
 10
-1.355
 20
-2.2258
 30
0.0
 11
-1.3008
 21
-2.28
 31
0.0
  0
CIRCLE
  5
137
330
E8
100
AcDbEntity
  8
AM_4
100
AcDbCircle
 10
0.0
 20
-1.905
 30
0.0
 40
0.16495
  0
LINE
  5
138
330
E8
100
AcDbEntity
  8
AM_4
100
AcDbLine
 10
-1.355
 20
-2.2258
 30
0.0
 11
1.355
 21
-2.2258
 31
0.0
  0
LWPOLYLINE
  5
139
330
E8
100
AcDbEntity
  8
AM_4
100
AcDbPolyline
 90
       39
 70
     0
 43
0.0
 10
-0.1277226104911701
 20
-1.776092271356791
 10
-0.108642040524016
 20
-1.757567693770796
 10
-0.0864961106118245
 20
-1.741764036908202
 10
-0.059805024343355
 20
-1.728687241778072
 10
-0.0302599005834632
 20
-1.720300295426691
 10
-0.0023653814289806
 20
-1.717516985424156
 10
0.0264566516425467
 20
-1.71963685394838
 10
0.0528644240068566
 20
-1.726182197553467
 10
0.0785285565446545
 20
-1.737248235400463
 10
0.1019483213755292
 20
-1.752234526457385
 10
0.1232275026002678
 20
-1.771219770156022
 10
0.1417974237398672
 20
-1.794026282494023
 10
0.1569123534517156
 20
-1.820151107521064
 10
0.1680500461451654
 20
-1.849305604684186
 10
0.1745309356331886
 20
-1.880712441321534
 10
0.175853689405592
 20
-1.913103059480519
 10
0.1717079447328812
 20
-1.946177766066313
 10
0.1622837008235548
 20
-1.977511596577799
 10
0.1472330121663114
 20
-2.007637649857581
 10
0.1281311628611112
 20
-2.033446924866897
 10
0.1040230439429928
 20
-2.056168422068478
 10
0.0783962312062404
 20
-2.072822117085323
 10
0.0492376432213848
 20
-2.084992006307455
 10
0.0213147187423435
 20
-2.091115797845277
 10
-0.0081677232062406
 20
-2.092297377172351
 10
-0.0352498323886879
 20
-2.088689795156671
 10
-0.0620967653989348
 20
-2.080409257213472
 10
-0.0866651633263499
 20
-2.06813401596996
 10
-0.1095362699496227
 20
-2.051679015152518
 10
-0.1299583545759584
 20
-2.031347273257551
 10
-0.1473526635749677
 20
-2.007442877652923
 10
-0.161234467219607
 20
-1.98011486164404
 10
-0.1708280542905512
 20
-1.950128802097995
 10
-0.1755695333980721
 20
-1.918364282157806
 10
-0.1750462891674479
 20
-1.885350365215624
 10
-0.1691382117212063
 20
-1.853167072425705
 10
-0.1575749695871352
 20
-1.821553394059577
 10
-0.144450131089978
 20
-1.797974571190811
 10
-0.1277226105057424
 20
-1.776092271347449
  0
LWPOLYLINE
  5
13A
330
E8
100
AcDbEntity
  8
AM_4
100
AcDbPolyline
 90
       19
 70
     0
 43
0.0
 10
1.268396877512762
 20
-1.75385804289045
 10
1.275346257421025
 20
-1.772197435801979
 10
1.281067370400109
 20
-1.79330826340052
 10
1.286057473424227
 20
-1.819903054976561
 10
1.289525915141454
 20
-1.848637332690596
 10
1.291558952137441
 20
-1.880298726706038
 10
1.291985755408416
 20
-1.912623910362025
 10
1.290752272249859
 20
-1.94553060411455
 10
1.287819241683841
 20
-1.977288602157157
 10
1.283141987336347
 20
-2.006881931242762
 10
1.276685941591488
 20
-2.03347650635961
 10
1.268686051805973
 20
-2.055462874198243
 10
1.25901984567672
 20
-2.072967792616353
 10
1.248489678137133
 20
-2.084603299703844
 10
1.236786497516795
 20
-2.091152756889303
 10
1.224991198753719
 20
-2.092322904313521
 10
1.212765248235041
 20
-2.088704971773966
 10
1.200766987336685
 20
-2.080612886054212
 10
1.189151519887494
 20
-2.068440914996164
  0
LINE
  5
13B
330
E8
100
AcDbEntity
  8
AM_4
100
AcDbLine
 10
1.355
 20
-2.2258
 30
0.0
 11
1.355
 21
-1.6
 31
0.0
  0
LINE
  5
13C
330
E8
100
AcDbEntity
  8
AM_4
100
AcDbLine
 10
-1.355
 20
-1.6
 30
0.0
 11
-1.355
 21
-2.2258
 31
0.0
  0
CIRCLE
  5
13E
330
E8
100
AcDbEntity
  8
AM_5
100
AcDbCircle
 10
0.0
 20
-1.905
 30
0.0
 40
0.1874999999999998
  0
ENDBLK
  5
EB
330
E8
100
AcDbEntity
  8
0
100
AcDbBlockEnd
  0
BLOCK
  5
141
330
13F
100
AcDbEntity
  8
0
100
AcDbBlockBegin
  2
4_123694vsc_0_in_123694_4
 70
     2
 10
0.0
 20
0.0
 30
0.0
  3
4_123694vsc_0_in_123694_4
  1

  0
ATTDEF
  5
143
330
13F
100
AcDbEntity
  8
AM_6
100
AcDbText
 10
7.625
 20
0.08
 30
0.0
 40
0.5
  1
F2B-VSC -Inch - housing
100
AcDbAttributeDefinition
  3

  2
NN
 70
     8
280
     0
  0
ATTDEF
  5
144
330
13F
100
AcDbEntity
  8
AM_6
100
AcDbText
 10
7.625
 20
-0.42
 30
0.0
 40
0.5
  1
VSC Intermediate Duty 2-Bolt Flange Bearings
100
AcDbAttributeDefinition
  3

  2
NT
 70
     8
280
     0
  0
ATTDEF
  5
145
330
13F
100
AcDbEntity
  8
AM_6
100
AcDbText
 10
7.625
 20
-0.92
 30
0.0
 40
0.5
  1
123694vsc
100
AcDbAttributeDefinition
  3

  2
NB
 70
     8
280
     0
  0
ATTDEF
  5
146
330
13F
100
AcDbEntity
  8
AM_6
100
AcDbText
 10
7.625
 20
-1.42
 30
0.0
 40
0.5
  1
$PN.
100
AcDbAttributeDefinition
  3

  2
NBSYN
 70
     8
280
     0
  0
ATTDEF
  5
147
330
13F
100
AcDbEntity
  8
AM_6
100
AcDbText
 10
7.625
 20
-1.92
 30
0.0
 40
0.5
  1
123694vsc
100
AcDbAttributeDefinition
  3

  2
LINA
 70
     8
280
     0
  0
ATTDEF
  5
148
330
13F
100
AcDbEntity
  8
AM_6
100
AcDbText
 10
7.625
 20
-2.42
 30
0.0
 40
0.5
  1
211
100
AcDbAttributeDefinition
  3

  2
RS
 70
     8
280
     0
  0
ATTDEF
  5
149
330
13F
100
AcDbEntity
  8
AM_6
100
AcDbText
 10
7.625
 20
-2.92
 30
0.0
 40
0.5
  1
2
100
AcDbAttributeDefinition
  3

  2
SS
 70
     8
280
     0
  0
ATTDEF
  5
14A
330
13F
100
AcDbEntity
  8
AM_6
100
AcDbText
 10
7.625
 20
-3.42
 30
0.0
 40
0.5
  1
123694vsc
100
AcDbAttributeDefinition
  3

  2
PN
 70
     8
280
     0
  0
ATTDEF
  5
14B
330
13F
100
AcDbEntity
  8
AM_6
100
AcDbText
 10
7.625
 20
-3.92
 30
0.0
 40
0.5
  1
F2B-VSC-200L
100
AcDbAttributeDefinition
  3

  2
DESCRIPTION
 70
     8
280
     0
  0
ATTDEF
  5
14C
330
13F
100
AcDbEntity
  8
AM_6
100
AcDbText
 10
7.625
 20
-4.42
 30
0.0
 40
0.5
  1
RE-LUBE
100
AcDbAttributeDefinition
  3

  2
LF
 70
     8
280
     0
  0
ATTDEF
  5
14D
330
13F
100
AcDbEntity
  8
AM_6
100
AcDbText
 10
7.625
 20
-4.92
 30
0.0
 40
0.5
  1
6.7
100
AcDbAttributeDefinition
  3

  2
WEIGHT
 70
     8
280
     0
  0
ATTDEF
  5
14E
330
13F
100
AcDbEntity
  8
AM_6
100
AcDbText
 10
7.625
 20
-5.42
 30
0.0
 40
0.5
  1
2.22
100
AcDbAttributeDefinition
  3

  2
A
 70
     8
280
     0
  0
ATTDEF
  5
14F
330
13F
100
AcDbEntity
  8
AM_6
100
AcDbText
 10
7.625
 20
-5.92
 30
0.0
 40
0.5
  1
8.63
100
AcDbAttributeDefinition
  3

  2
B
 70
     8
280
     0
  0
ATTDEF
  5
150
330
13F
100
AcDbEntity
  8
AM_6
100
AcDbText
 10
7.625
 20
-6.42
 30
0.0
 40
0.5
  1
2.28
100
AcDbAttributeDefinition
  3

  2
C
 70
     8
280
     0
  0
ATTDEF
  5
151
330
13F
100
AcDbEntity
  8
AM_6
100
AcDbText
 10
7.625
 20
-6.92
 30
0.0
 40
0.5
  1
7.25
100
AcDbAttributeDefinition
  3

  2
D
 70
     8
280
     0
  0
ATTDEF
  5
152
330
13F
100
AcDbEntity
  8
AM_6
100
AcDbText
 10
7.625
 20
-7.42
 30
0.0
 40
0.5
  1
5/8
100
AcDbAttributeDefinition
  3

  2
F
 70
     8
280
     0
  0
ATTDEF
  5
153
330
13F
100
AcDbEntity
  8
AM_6
100
AcDbText
 10
7.625
 20
-7.92
 30
0.0
 40
0.5
  1
0.67
100
AcDbAttributeDefinition
  3

  2
H
 70
     8
280
     0
  0
ATTDEF
  5
154
330
13F
100
AcDbEntity
  8
AM_6
100
AcDbText
 10
7.625
 20
-8.42
 30
0.0
 40
0.5
  1
0.68
100
AcDbAttributeDefinition
  3

  2
J
 70
     8
280
     0
  0
ATTDEF
  5
155
330
13F
100
AcDbEntity
  8
AM_6
100
AcDbText
 10
7.625
 20
-8.92
 30
0.0
 40
0.5
  1
2.71
100
AcDbAttributeDefinition
  3

  2
L
 70
     8
280
     0
  0
ATTDEF
  5
156
330
13F
100
AcDbEntity
  8
AM_6
100
AcDbText
 10
7.625
 20
-9.42
 30
0.0
 40
0.5
  1
5.25
100
AcDbAttributeDefinition
  3

  2
M
 70
     8
280
     0
  0
ATTDEF
  5
157
330
13F
100
AcDbEntity
  8
AM_6
100
AcDbText
 10
7.625
 20
-9.92
 30
0.0
 40
0.5
  1
2.27
100
AcDbAttributeDefinition
  3

  2
N
 70
     8
280
     0
  0
ATTDEF
  5
158
330
13F
100
AcDbEntity
  8
AM_6
100
AcDbText
 10
7.625
 20
-10.42
 30
0.0
 40
0.5
  1
baldor
100
AcDbAttributeDefinition
  3

  2
COMPANY
 70
     8
280
     0
  0
LINE
  5
159
330
13F
100
AcDbEntity
  8
AM_9
100
AcDbLine
 10
2.176295623270775
 20
-1.533
 30
0.0
 11
2.177168136659796
 21
-0.1339999999999999
 31
0.0
  0
LINE
  5
15A
330
13F
100
AcDbEntity
  8
AM_9
100
AcDbLine
 10
2.219739676866612
 20
-0.603
 30
0.0
 11
1.667439749404276
 21
-0.6030000000000001
 31
0.0
  0
LINE
  5
15B
330
13F
100
AcDbEntity
  8
AM_9
100
AcDbLine
 10
0.6900000000000004
 20
-1.04
 30
0.0
 11
0.6900000000000004
 21
-0.1719999999999996
 31
0.0
  0
LINE
  5
15C
330
13F
100
AcDbEntity
  8
AM_9
100
AcDbLine
 10
-0.6900000000000004
 20
-1.04
 30
0.0
 11
-0.6900000000000004
 21
-0.1719999999999996
 31
0.0
  0
LINE
  5
15D
330
13F
100
AcDbEntity
  8
AM_9
100
AcDbLine
 10
1.9685
 20
-1.395999999999999
 30
0.0
 11
1.9685
 21
-0.1719999999999997
 31
0.0
  0
LINE
  5
15E
330
13F
100
AcDbEntity
  8
AM_9
100
AcDbLine
 10
-1.9685
 20
-0.1719999999999997
 30
0.0
 11
-1.9685
 21
-1.395999999999999
 31
0.0
  0
LINE
  5
15F
330
13F
100
AcDbEntity
  8
AM_9
100
AcDbLine
 10
0.6900000000000004
 20
-1.04
 30
0.0
 11
-0.6900000000000004
 21
-1.04
 31
0.0
  0
LINE
  5
160
330
13F
100
AcDbEntity
  8
AM_9
100
AcDbLine
 10
-2.1685
 20
-1.395999999999999
 30
0.0
 11
2.1685
 21
-1.395999999999999
 31
0.0
  0
LINE
  5
161
330
13F
100
AcDbEntity
  8
AM_9
100
AcDbLine
 10
2.1685
 20
-1.6
 30
0.0
 11
2.1685
 21
-1.395999999999999
 31
0.0
  0
LINE
  5
162
330
13F
100
AcDbEntity
  8
AM_9
100
AcDbLine
 10
-2.1685
 20
-1.395999999999999
 30
0.0
 11
-2.1685
 21
-1.6
 31
0.0
  0
LINE
  5
163
330
13F
100
AcDbEntity
  8
AM_9
100
AcDbLine
 10
-2.1685
 20
-0.1719999999999997
 30
0.0
 11
2.1685
 21
-0.1719999999999997
 31
0.0
  0
LINE
  5
164
330
13F
100
AcDbEntity
  8
AM_9
100
AcDbLine
 10
2.1685
 20
-0.1719999999999997
 30
0.0
 11
2.1685
 21
-0.134
 31
0.0
  0
LINE
  5
165
330
13F
100
AcDbEntity
  8
AM_9
100
AcDbLine
 10
-2.1685
 20
-0.134
 30
0.0
 11
-2.1685
 21
-0.1719999999999997
 31
0.0
  0
LINE
  5
166
330
13F
100
AcDbEntity
  8
AM_9
100
AcDbLine
 10
2.242580483267555
 20
-1.057843230273789
 30
0.0
 11
2.242580483267555
 21
-0.9022065641921998
 31
0.0
  0
LWPOLYLINE
  5
167
330
13F
100
AcDbEntity
  8
AM_9
100
AcDbPolyline
 90
       10
 70
     0
 43
0.0
 10
2.176295623270775
 20
-1.533
 10
2.175648914323947
 20
-1.543931365565156
 10
2.17365376358385
 20
-1.554862731130313
 10
2.170482688202899
 20
-1.564877178124097
 10
2.166053837536938
 20
-1.574266055637705
 10
2.160693791842568
 20
-1.582324035582651
 10
2.154292920086059
 20
-1.589209458415563
 10
2.147249644967514
 20
-1.594454508331035
 10
2.13947910244108
 20
-1.598083611995918
 10
2.128008365590233
 20
-1.6
  0
LINE
  5
168
330
13F
100
AcDbEntity
  8
AM_9
100
AcDbLine
 10
2.219739676866612
 20
-0.603
 30
0.0
 11
2.219739676866612
 21
-0.1339999999999999
 31
0.0
  0
LINE
  5
169
330
13F
100
AcDbEntity
  8
AM_9
100
AcDbLine
 10
1.467774628521855
 20
-1.533
 30
0.0
 11
2.281828174588557
 21
-1.533
 31
0.0
  0
LINE
  5
16A
330
13F
100
AcDbEntity
  8
AM_9
100
AcDbLine
 10
1.162544188172146
 20
-0.1339999999999999
 30
0.0
 11
1.162544188172146
 21
0.0000000000000001
 31
0.0
  0
LINE
  5
16B
330
13F
100
AcDbEntity
  8
AM_9
100
AcDbLine
 10
-1.162544193453697
 20
-0.1339999999999999
 30
0.0
 11
-1.162544193453697
 21
0.0000000000000001
 31
0.0
  0
LINE
  5
16C
330
13F
100
AcDbEntity
  8
AM_9
100
AcDbLine
 10
-1.440981588133116
 20
-0.1339999999999998
 30
0.0
 11
1.440981588133123
 21
-0.1339999999999998
 31
0.0
  0
LINE
  5
16D
330
13F
100
AcDbEntity
  8
AM_9
100
AcDbLine
 10
0.3125
 20
-0.6699999999999998
 30
0.0
 11
0.3125
 21
0.0000000000000002
 31
0.0
  0
LINE
  5
16E
330
13F
100
AcDbEntity
  8
AM_9
100
AcDbLine
 10
-0.3125
 20
0.0000000000000002
 30
0.0
 11
-0.3125
 21
-0.6699999999999998
 31
0.0
  0
LINE
  5
16F
330
13F
100
AcDbEntity
  8
AM_7
100
AcDbLine
 10
0.0
 20
-2.391
 30
0.0
 11
0.0
 21
0.08
 31
0.0
  0
LINE
  5
170
330
13F
100
AcDbEntity
  8
AM_4
100
AcDbLine
 10
2.281828174588557
 20
-1.6
 30
0.0
 11
2.281828174588557
 21
-0.1339999999999999
 31
0.0
  0
LINE
  5
171
330
13F
100
AcDbEntity
  8
AM_4
100
AcDbLine
 10
2.242580483267555
 20
-0.9022065641921998
 30
0.0
 11
2.242580483267555
 21
-0.1339999999999999
 31
0.0
  0
LINE
  5
172
330
13F
100
AcDbEntity
  8
AM_4
100
AcDbLine
 10
2.242580483267555
 20
-1.6
 30
0.0
 11
2.242580483267555
 21
-1.057843230273789
 31
0.0
  0
LINE
  5
173
330
13F
100
AcDbEntity
  8
AM_4
100
AcDbLine
 10
1.723564105876629
 20
-1.599999999999999
 30
0.0
 11
1.723564105876629
 21
-0.1339999999999998
 31
0.0
  0
LINE
  5
174
330
13F
100
AcDbEntity
  8
AM_4
100
AcDbLine
 10
1.534059488518634
 20
-1.599999999999999
 30
0.0
 11
1.534059488518634
 21
-0.603
 31
0.0
  0
LWPOLYLINE
  5
175
330
13F
100
AcDbEntity
  8
AM_4
100
AcDbPolyline
 90
       11
 70
     0
 43
0.0
 10
1.419487370841313
 20
-1.6
 10
1.424320693363704
 20
-1.599663824834403
 10
1.4323631726043
 20
-1.597575988413311
 10
1.440265867140602
 20
-1.593483571211779
 10
1.447324072246333
 20
-1.587752173525924
 10
1.453774895483769
 20
-1.580183458805927
 10
1.458979665450585
 20
-1.571559864368573
 10
1.463186812692397
 20
-1.56151021557817
 10
1.465978777821873
 20
-1.55110649491759
 10
1.467521260336537
 20
-1.539856237908644
 10
1.467774628521855
 20
-1.533
  0
LINE
  5
176
330
13F
100
AcDbEntity
  8
AM_4
100
AcDbLine
 10
-2.558
 20
-1.6
 30
0.0
 11
2.558
 21
-1.6
 31
0.0
  0
ARC
  5
177
330
13F
100
AcDbEntity
  8
AM_4
100
AcDbCircle
 10
2.558
 20
-1.533000000000001
 30
0.0
 40
0.0669999999999991
100
AcDbArc
 50
270.0
 51
0.0
  0
ARC
  5
178
330
13F
100
AcDbEntity
  8
AM_4
100
AcDbCircle
 10
-2.558
 20
-1.533000000000001
 30
0.0
 40
0.0669999999999993
100
AcDbArc
 50
180.0
 51
270.0
  0
LINE
  5
179
330
13F
100
AcDbEntity
  8
AM_4
100
AcDbLine
 10
-1.440981588133116
 20
-0.1339999999999998
 30
0.0
 11
-2.625000000000003
 21
-0.134
 31
0.0
  0
LINE
  5
17A
330
13F
100
AcDbEntity
  8
AM_4
100
AcDbLine
 10
2.281828174588557
 20
-1.533
 30
0.0
 11
2.625
 21
-1.533
 31
0.0
  0
LINE
  5
17B
330
13F
100
AcDbEntity
  8
AM_4
100
AcDbLine
 10
1.467774628521854
 20
-0.603
 30
0.0
 11
1.467774628521855
 21
-1.533
 31
0.0
  0
LINE
  5
17C
330
13F
100
AcDbEntity
  8
AM_4
100
AcDbLine
 10
2.625
 20
-1.533
 30
0.0
 11
2.625
 21
-0.134
 31
0.0
  0
LINE
  5
17D
330
13F
100
AcDbEntity
  8
AM_4
100
AcDbLine
 10
-2.625000000000003
 20
-0.134
 30
0.0
 11
-2.625000000000003
 21
-1.533
 31
0.0
  0
LINE
  5
17E
330
13F
100
AcDbEntity
  8
AM_4
100
AcDbLine
 10
-2.625000000000003
 20
-1.533
 30
0.0
 11
1.467774628521855
 21
-1.533
 31
0.0
  0
LINE
  5
17F
330
13F
100
AcDbEntity
  8
AM_4
100
AcDbLine
 10
1.463107797921778
 20
-0.1339999999999998
 30
0.0
 11
1.463107797921778
 21
0.0000000000000002
 31
0.0
  0
LINE
  5
180
330
13F
100
AcDbEntity
  8
AM_4
100
AcDbLine
 10
1.463107797921778
 20
0.0000000000000002
 30
0.0
 11
-1.463107797921777
 21
0.0000000000000002
 31
0.0
  0
LINE
  5
181
330
13F
100
AcDbEntity
  8
AM_4
100
AcDbLine
 10
-1.463107797921777
 20
0.0000000000000002
 30
0.0
 11
-1.463107797921777
 21
-0.1339999999999998
 31
0.0
  0
LINE
  5
182
330
13F
100
AcDbEntity
  8
AM_4
100
AcDbLine
 10
-1.040998163409148
 20
-0.603
 30
0.0
 11
-1.040998163409147
 21
-0.6699999999999999
 31
0.0
  0
LINE
  5
183
330
13F
100
AcDbEntity
  8
AM_4
100
AcDbLine
 10
1.040998163409148
 20
-0.6699999999999999
 30
0.0
 11
1.040998163409148
 21
-0.603
 31
0.0
  0
LINE
  5
184
330
13F
100
AcDbEntity
  8
AM_4
100
AcDbLine
 10
-0.6674547459657466
 20
-0.6029999999999999
 30
0.0
 11
-0.6674547459657466
 21
-0.6699999999999998
 31
0.0
  0
LINE
  5
185
330
13F
100
AcDbEntity
  8
AM_4
100
AcDbLine
 10
0.6674547459657464
 20
-0.6029999999999999
 30
0.0
 11
0.6674547459657464
 21
-0.6699999999999998
 31
0.0
  0
LINE
  5
186
330
13F
100
AcDbEntity
  8
AM_4
100
AcDbLine
 10
-1.440981588133116
 20
0.0000000000000002
 30
0.0
 11
-1.440981588133116
 21
-0.1339999999999998
 31
0.0
  0
LINE
  5
187
330
13F
100
AcDbEntity
  8
AM_4
100
AcDbLine
 10
-2.219739676866611
 20
-0.603
 30
0.0
 11
-2.219739676866614
 21
-0.1339999999999999
 31
0.0
  0
LINE
  5
188
330
13F
100
AcDbEntity
  8
AM_4
100
AcDbLine
 10
-0.6033111463578225
 20
-0.6029999999999999
 30
0.0
 11
-2.219739676866611
 21
-0.603
 31
0.0
  0
LINE
  5
189
330
13F
100
AcDbEntity
  8
AM_4
100
AcDbLine
 10
-0.6033111463578228
 20
-0.6699999999999998
 30
0.0
 11
-0.6033111463578225
 21
-0.6029999999999999
 31
0.0
  0
LINE
  5
18A
330
13F
100
AcDbEntity
  8
AM_4
100
AcDbLine
 10
1.040998163409148
 20
-0.6699999999999999
 30
0.0
 11
-1.040998163409147
 21
-0.6699999999999999
 31
0.0
  0
LINE
  5
18B
330
13F
100
AcDbEntity
  8
AM_4
100
AcDbLine
 10
2.625
 20
-0.134
 30
0.0
 11
1.440981588133123
 21
-0.1339999999999998
 31
0.0
  0
LINE
  5
18C
330
13F
100
AcDbEntity
  8
AM_4
100
AcDbLine
 10
1.440981588133123
 20
-0.1339999999999998
 30
0.0
 11
1.440981588133124
 21
0.0000000000000002
 31
0.0
  0
LINE
  5
18D
330
13F
100
AcDbEntity
  8
AM_4
100
AcDbLine
 10
0.6033111463578162
 20
-0.6029999999999999
 30
0.0
 11
0.6033111463578184
 21
-0.6699999999999998
 31
0.0
  0
LINE
  5
18E
330
13F
100
AcDbEntity
  8
AM_4
100
AcDbLine
 10
1.667439749404276
 20
-0.603
 30
0.0
 11
0.6033111463578162
 21
-0.6029999999999999
 31
0.0
  0
LINE
  5
18F
330
13F
100
AcDbEntity
  8
AM_4
100
AcDbLine
 10
1.667439749404276
 20
-0.1339999999999998
 30
0.0
 11
1.667439749404276
 21
-0.603
 31
0.0
  0
LINE
  5
190
330
13F
100
AcDbEntity
  8
AM_4
100
AcDbLine
 10
-0.5834744293477958
 20
-0.6699999999999998
 30
0.0
 11
-0.5834744293477958
 21
0.0000000000000002
 31
0.0
  0
LINE
  5
191
330
13F
100
AcDbEntity
  8
AM_4
100
AcDbLine
 10
0.5834744293477956
 20
-0.6699999999999998
 30
0.0
 11
0.5834744293477956
 21
0.0000000000000002
 31
0.0
  0
ENDBLK
  5
142
330
13F
100
AcDbEntity
  8
0
100
AcDbBlockEnd
  0
ENDSEC
  0
SECTION
  2
ENTITIES
  0
INSERT
  5
6F
330
1F
100
AcDbEntity
  8
0
100
AcDbBlockReference
  2
1_123694_4
 10
0.0
 20
0.0
 30
0.0
  0
POINT
  5
193
330
1F
100
AcDbEntity
  8
ConnectionPoints
100
AcDbPoint
 10
0.0
 20
-2.28
 30
0.0000000000000003
  0
POINT
  5
194
330
1F
100
AcDbEntity
  8
ConnectionPoints
100
AcDbPoint
 10
1.96053415445689
 20
-0.9799999999999999
 30
1.96053415445689
  0
POINT
  5
195
330
1F
100
AcDbEntity
  8
ConnectionPoints
100
AcDbPoint
 10
0.0
 20
-2.28
 30
0.0000000000000001
  0
ENDSEC
  0
SECTION
  2
OBJECTS
  0
DICTIONARY
  5
C
330
0
100
AcDbDictionary
281
     1
  3
ACAD_DETAILVIEWSTYLE
350
19D
  3
ACAD_GROUP
350
D
  3
ACAD_LAYOUT
350
1A
  3
ACAD_MATERIAL
350
43
  3
ACAD_MLEADERSTYLE
350
6B
  3
ACAD_MLINESTYLE
350
17
  3
ACAD_PLOTSETTINGS
350
19
  3
ACAD_PLOTSTYLENAME
350
E
  3
ACAD_SCALELIST
350
47
  3
ACAD_SECTIONVIEWSTYLE
350
19E
  3
ACAD_TABLESTYLE
350
69
  3
ACAD_VISUALSTYLE
350
2A
  3
ACDB_RECOMPOSE_DATA
350
19A
  3
AcDbVariableDictionary
350
196
  0
SUN
  5
6D
330
29
100
AcDbSun
 90
        1
290
     0
 63
     7
421
 16777215
 40
1.0
291
     1
 91
  2455826
 92
 54000000
292
     0
 70
     2
 71
   256
280
     1
  0
DICTIONARY
  5
19D
102
{ACAD_REACTORS
330
C
102
}
330
C
100
AcDbDictionary
281
     1
  0
DICTIONARY
  5
D
102
{ACAD_REACTORS
330
C
102
}
330
C
100
AcDbDictionary
281
     1
  0
DICTIONARY
  5
1A
102
{ACAD_REACTORS
330
C
102
}
330
C
100
AcDbDictionary
281
     1
  3
Layout1
350
1E
  3
Layout2
350
26
  3
Model
350
22
  0
DICTIONARY
  5
43
102
{ACAD_REACTORS
330
C
102
}
330
C
100
AcDbDictionary
281
     1
  3
ByBlock
350
45
  3
ByLayer
350
44
  3
Global
350
46
  0
DICTIONARY
  5
6B
102
{ACAD_REACTORS
330
C
102
}
330
C
100
AcDbDictionary
281
     1
  3
Standard
350
6C
  0
DICTIONARY
  5
17
102
{ACAD_REACTORS
330
C
102
}
330
C
100
AcDbDictionary
281
     1
  3
Standard
350
18
  0
DICTIONARY
  5
19
102
{ACAD_REACTORS
330
C
102
}
330
C
100
AcDbDictionary
281
     1
  0
ACDBDICTIONARYWDFLT
  5
E
102
{ACAD_REACTORS
330
C
102
}
330
C
100
AcDbDictionary
281
     1
  3
Normal
350
F
100
AcDbDictionaryWithDefault
340
F
  0
DICTIONARY
  5
47
102
{ACAD_REACTORS
330
C
102
}
330
C
100
AcDbDictionary
281
     1
  3
A0
350
48
  3
A1
350
49
  3
A2
350
4A
  3
A3
350
4B
  3
A4
350
4C
  3
A5
350
4D
  3
A6
350
4E
  3
A7
350
4F
  3
A8
350
50
  3
A9
350
51
  3
B0
350
52
  3
B1
350
53
  3
B2
350
54
  3
B3
350
55
  3
B4
350
56
  3
B5
350
57
  3
B6
350
58
  3
B7
350
59
  3
B8
350
5A
  3
B9
350
5B
  3
C0
350
5C
  3
C1
350
5D
  3
C2
350
5E
  3
C3
350
5F
  3
C4
350
60
  3
C5
350
61
  3
C6
350
62
  3
C7
350
63
  3
C8
350
64
  3
C9
350
65
  3
D0
350
66
  3
D1
350
67
  3
D2
350
68
  0
DICTIONARY
  5
19E
102
{ACAD_REACTORS
330
C
102
}
330
C
100
AcDbDictionary
281
     1
  0
DICTIONARY
  5
69
102
{ACAD_REACTORS
330
C
102
}
330
C
100
AcDbDictionary
281
     1
  3
Standard
350
6A
  0
DICTIONARY
  5
2A
102
{ACAD_REACTORS
330
C
102
}
330
C
100
AcDbDictionary
281
     1
  3
2dWireframe
350
2F
  3
Basic
350
32
  3
Brighten
350
36
  3
ColorChange
350
3A
  3
Conceptual
350
34
  3
Dim
350
35
  3
EdgeColorOff
350
3D
  3
Facepattern
350
39
  3
Flat
350
2B
  3
FlatWithEdges
350
2C
  3
Gouraud
350
2D
  3
GouraudWithEdges
350
2E
  3
Hidden
350
31
  3
JitterOff
350
3B
  3
Linepattern
350
38
  3
OverhangOff
350
3C
  3
Realistic
350
33
  3
Shaded
350
42
  3
Shaded with edges
350
41
  3
Shades of Gray
350
3E
  3
Sketchy
350
3F
  3
Thicken
350
37
  3
Wireframe
350
30
  3
X-Ray
350
40
  0
XRECORD
  5
19A
102
{ACAD_REACTORS
330
C
102
}
330
C
100
AcDbXrecord
280
     1
 90
        1
330
6A
  0
DICTIONARY
  5
196
102
{ACAD_REACTORS
330
C
102
}
330
C
100
AcDbDictionary
281
     1
  3
CANNOSCALE
350
197
  3
CMLEADERSTYLE
350
19C
  3
CTABLESTYLE
350
19B
  0
LAYOUT
  5
1E
102
{ACAD_REACTORS
330
1A
102
}
330
1A
100
AcDbPlotSettings
  1

  2
none_device
  4

  6

 40
0.0
 41
0.0
 42
0.0
 43
0.0
 44
0.0
 45
0.0
 46
0.0
 47
0.0
 48
0.0
 49
0.0
140
0.0
141
0.0
142
1.0
143
1.0
 70
   688
 72
     0
 73
     0
 74
     5
  7

 75
    16
 76
     0
 77
     2
 78
   300
147
1.0
148
0.0
149
0.0
100
AcDbLayout
  1
Layout1
 70
     1
 71
     1
 10
0.0
 20
0.0
 11
12.0
 21
9.0
 12
0.0
 22
0.0
 32
0.0
 14
1.000000000000000E+20
 24
1.000000000000000E+20
 34
1.000000000000000E+20
 15
-1.000000000000000E+20
 25
-1.000000000000000E+20
 35
-1.000000000000000E+20
146
0.0
 13
0.0
 23
0.0
 33
0.0
 16
1.0
 26
0.0
 36
0.0
 17
0.0
 27
1.0
 37
0.0
 76
     0
330
1B
  0
LAYOUT
  5
26
102
{ACAD_REACTORS
330
1A
102
}
330
1A
100
AcDbPlotSettings
  1

  2
none_device
  4

  6

 40
0.0
 41
0.0
 42
0.0
 43
0.0
 44
0.0
 45
0.0
 46
0.0
 47
0.0
 48
0.0
 49
0.0
140
0.0
141
0.0
142
1.0
143
1.0
 70
   688
 72
     0
 73
     0
 74
     5
  7

 75
    16
 76
     0
 77
     2
 78
   300
147
1.0
148
0.0
149
0.0
100
AcDbLayout
  1
Layout2
 70
     1
 71
     2
 10
0.0
 20
0.0
 11
0.0
 21
0.0
 12
0.0
 22
0.0
 32
0.0
 14
0.0
 24
0.0
 34
0.0
 15
0.0
 25
0.0
 35
0.0
146
0.0
 13
0.0
 23
0.0
 33
0.0
 16
1.0
 26
0.0
 36
0.0
 17
0.0
 27
1.0
 37
0.0
 76
     0
330
23
  0
LAYOUT
  5
22
102
{ACAD_REACTORS
330
1A
102
}
330
1A
100
AcDbPlotSettings
  1

  2
none_device
  4
Letter_(8.50_x_11.00_Inches)
  6

 40
6.35
 41
6.35
 42
6.35000508
 43
6.35000508
 44
215.9
 45
279.4
 46
0.0
 47
0.0
 48
0.0
 49
0.0
140
0.0
141
0.0
142
1.0
143
1.0
 70
  1712
 72
     0
 73
     0
 74
     0
  7

 75
     0
 76
     0
 77
     2
 78
   300
147
1.0
148
0.0
149
0.0
100
AcDbLayout
  1
Model
 70
     1
 71
     0
 10
0.0
 20
0.0
 11
12.0
 21
9.0
 12
0.0
 22
0.0
 32
0.0
 14
1.000000000000000E+20
 24
1.000000000000000E+20
 34
1.000000000000000E+20
 15
-1.000000000000000E+20
 25
-1.000000000000000E+20
 35
-1.000000000000000E+20
146
0.0
 13
0.0
 23
0.0
 33
0.0
 16
1.0
 26
0.0
 36
0.0
 17
0.0
 27
1.0
 37
0.0
 76
     0
330
1F
331
29
  0
MATERIAL
  5
45
102
{ACAD_REACTORS
330
43
102
}
330
43
100
AcDbMaterial
  1
ByBlock
 72
     1
 94
      127
  0
MATERIAL
  5
44
102
{ACAD_REACTORS
330
43
102
}
330
43
100
AcDbMaterial
  1
ByLayer
 72
     1
 94
      127
  0
MATERIAL
  5
46
102
{ACAD_REACTORS
330
43
102
}
330
43
100
AcDbMaterial
  1
Global
 72
     1
 94
      127
  0
MLEADERSTYLE
  5
6C
102
{ACAD_REACTORS
330
6B
102
}
330
6B
100
AcDbMLeaderStyle
179
     2
170
     2
171
     1
172
     0
 90
        2
 40
0.0
 41
0.0
173
     1
 91
-1056964608
340
14
 92
       -2
290
     1
 42
0.09
291
     1
 43
0.36
  3
Standard
341
0
 44
0.18
300

342
11
174
     1
178
     6
175
     1
176
     0
 93
-1056964608
 45
0.18
292
     0
297
     0
 46
0.18
343
0
 94
-1056964608
 47
1.0
 49
1.0
140
1.0
293
     1
141
0.0
294
     1
177
     0
142
1.0
295
     0
296
     0
143
0.125
271
     0
272
     9
273
     9
298
     0
  0
MLINESTYLE
  5
18
102
{ACAD_REACTORS
330
17
102
}
330
17
100
AcDbMlineStyle
  2
Standard
 70
     0
  3

 62
   256
 51
90.0
 52
90.0
 71
     2
 49
0.5
 62
   256
  6
BYLAYER
 49
-0.5
 62
   256
  6
BYLAYER
  0
ACDBPLACEHOLDER
  5
F
102
{ACAD_REACTORS
330
E
102
}
330
E
  0
SCALE
  5
48
102
{ACAD_REACTORS
330
47
102
}
330
47
100
AcDbScale
 70
     0
300
1:1
140
1.0
141
1.0
290
     1
  0
SCALE
  5
49
102
{ACAD_REACTORS
330
47
102
}
330
47
100
AcDbScale
 70
     0
300
1:2
140
1.0
141
2.0
290
     0
  0
SCALE
  5
4A
102
{ACAD_REACTORS
330
47
102
}
330
47
100
AcDbScale
 70
     0
300
1:4
140
1.0
141
4.0
290
     0
  0
SCALE
  5
4B
102
{ACAD_REACTORS
330
47
102
}
330
47
100
AcDbScale
 70
     0
300
1:5
140
1.0
141
5.0
290
     0
  0
SCALE
  5
4C
102
{ACAD_REACTORS
330
47
102
}
330
47
100
AcDbScale
 70
     0
300
1:8
140
1.0
141
8.0
290
     0
  0
SCALE
  5
4D
102
{ACAD_REACTORS
330
47
102
}
330
47
100
AcDbScale
 70
     0
300
1:10
140
1.0
141
10.0
290
     0
  0
SCALE
  5
4E
102
{ACAD_REACTORS
330
47
102
}
330
47
100
AcDbScale
 70
     0
300
1:16
140
1.0
141
16.0
290
     0
  0
SCALE
  5
4F
102
{ACAD_REACTORS
330
47
102
}
330
47
100
AcDbScale
 70
     0
300
1:20
140
1.0
141
20.0
290
     0
  0
SCALE
  5
50
102
{ACAD_REACTORS
330
47
102
}
330
47
100
AcDbScale
 70
     0
300
1:30
140
1.0
141
30.0
290
     0
  0
SCALE
  5
51
102
{ACAD_REACTORS
330
47
102
}
330
47
100
AcDbScale
 70
     0
300
1:40
140
1.0
141
40.0
290
     0
  0
SCALE
  5
52
102
{ACAD_REACTORS
330
47
102
}
330
47
100
AcDbScale
 70
     0
300
1:50
140
1.0
141
50.0
290
     0
  0
SCALE
  5
53
102
{ACAD_REACTORS
330
47
102
}
330
47
100
AcDbScale
 70
     0
300
1:100
140
1.0
141
100.0
290
     0
  0
SCALE
  5
54
102
{ACAD_REACTORS
330
47
102
}
330
47
100
AcDbScale
 70
     0
300
2:1
140
2.0
141
1.0
290
     0
  0
SCALE
  5
55
102
{ACAD_REACTORS
330
47
102
}
330
47
100
AcDbScale
 70
     0
300
4:1
140
4.0
141
1.0
290
     0
  0
SCALE
  5
56
102
{ACAD_REACTORS
330
47
102
}
330
47
100
AcDbScale
 70
     0
300
8:1
140
8.0
141
1.0
290
     0
  0
SCALE
  5
57
102
{ACAD_REACTORS
330
47
102
}
330
47
100
AcDbScale
 70
     0
300
10:1
140
10.0
141
1.0
290
     0
  0
SCALE
  5
58
102
{ACAD_REACTORS
330
47
102
}
330
47
100
AcDbScale
 70
     0
300
100:1
140
100.0
141
1.0
290
     0
  0
SCALE
  5
59
102
{ACAD_REACTORS
330
47
102
}
330
47
100
AcDbScale
 70
     0
300
1/128" = 1'-0"
140
0.0078125
141
12.0
290
     0
  0
SCALE
  5
5A
102
{ACAD_REACTORS
330
47
102
}
330
47
100
AcDbScale
 70
     0
300
1/64" = 1'-0"
140
0.015625
141
12.0
290
     0
  0
SCALE
  5
5B
102
{ACAD_REACTORS
330
47
102
}
330
47
100
AcDbScale
 70
     0
300
1/32" = 1'-0"
140
0.03125
141
12.0
290
     0
  0
SCALE
  5
5C
102
{ACAD_REACTORS
330
47
102
}
330
47
100
AcDbScale
 70
     0
300
1/16" = 1'-0"
140
0.0625
141
12.0
290
     0
  0
SCALE
  5
5D
102
{ACAD_REACTORS
330
47
102
}
330
47
100
AcDbScale
 70
     0
300
3/32" = 1'-0"
140
0.09375
141
12.0
290
     0
  0
SCALE
  5
5E
102
{ACAD_REACTORS
330
47
102
}
330
47
100
AcDbScale
 70
     0
300
1/8" = 1'-0"
140
0.125
141
12.0
290
     0
  0
SCALE
  5
5F
102
{ACAD_REACTORS
330
47
102
}
330
47
100
AcDbScale
 70
     0
300
3/16" = 1'-0"
140
0.1875
141
12.0
290
     0
  0
SCALE
  5
60
102
{ACAD_REACTORS
330
47
102
}
330
47
100
AcDbScale
 70
     0
300
1/4" = 1'-0"
140
0.25
141
12.0
290
     0
  0
SCALE
  5
61
102
{ACAD_REACTORS
330
47
102
}
330
47
100
AcDbScale
 70
     0
300
3/8" = 1'-0"
140
0.375
141
12.0
290
     0
  0
SCALE
  5
62
102
{ACAD_REACTORS
330
47
102
}
330
47
100
AcDbScale
 70
     0
300
1/2" = 1'-0"
140
0.5
141
12.0
290
     0
  0
SCALE
  5
63
102
{ACAD_REACTORS
330
47
102
}
330
47
100
AcDbScale
 70
     0
300
3/4" = 1'-0"
140
0.75
141
12.0
290
     0
  0
SCALE
  5
64
102
{ACAD_REACTORS
330
47
102
}
330
47
100
AcDbScale
 70
     0
300
1" = 1'-0"
140
1.0
141
12.0
290
     0
  0
SCALE
  5
65
102
{ACAD_REACTORS
330
47
102
}
330
47
100
AcDbScale
 70
     0
300
1-1/2" = 1'-0"
140
1.5
141
12.0
290
     0
  0
SCALE
  5
66
102
{ACAD_REACTORS
330
47
102
}
330
47
100
AcDbScale
 70
     0
300
3" = 1'-0"
140
3.0
141
12.0
290
     0
  0
SCALE
  5
67
102
{ACAD_REACTORS
330
47
102
}
330
47
100
AcDbScale
 70
     0
300
6" = 1'-0"
140
6.0
141
12.0
290
     0
  0
SCALE
  5
68
102
{ACAD_REACTORS
330
47
102
}
330
47
100
AcDbScale
 70
     0
300
1'-0" = 1'-0"
140
12.0
141
12.0
290
     0
  0
TABLESTYLE
  5
6A
102
{ACAD_REACTORS
330
69
102
}
102
{ACAD_XDICTIONARY
360
198
102
}
330
69
100
AcDbTableStyle
  3
Standard
 70
     0
 71
     0
 40
0.06
 41
0.06
280
     0
281
     0
  7
Standard
140
0.18
170
     2
 62
     0
 63
   257
283
     0
 90
        4
 91
        0
  1

274
    -2
284
     1
 64
     0
275
    -2
285
     1
 65
     0
276
    -2
286
     1
 66
     0
277
    -2
287
     1
 67
     0
278
    -2
288
     1
 68
     0
279
    -2
289
     1
 69
     0
  7
Standard
140
0.25
170
     5
 62
     0
 63
   257
283
     0
 90
        4
 91
        0
  1

274
    -2
284
     1
 64
     0
275
    -2
285
     1
 65
     0
276
    -2
286
     1
 66
     0
277
    -2
287
     1
 67
     0
278
    -2
288
     1
 68
     0
279
    -2
289
     1
 69
     0
  7
Standard
140
0.18
170
     5
 62
     0
 63
   257
283
     0
 90
        4
 91
        0
  1

274
    -2
284
     1
 64
     0
275
    -2
285
     1
 65
     0
276
    -2
286
     1
 66
     0
277
    -2
287
     1
 67
     0
278
    -2
288
     1
 68
     0
279
    -2
289
     1
 69
     0
  0
VISUALSTYLE
  5
2F
102
{ACAD_REACTORS
330
2A
102
}
330
2A
100
AcDbVisualStyle
  2
2dWireframe
 70
     4
177
     3
291
     0
 70
    58
 90
        0
176
     1
 90
        2
176
     1
 90
        0
176
     1
 90
        0
176
     1
 40
0.6
176
     1
 40
30.0
176
     1
 62
     7
420
 16777215
176
     1
 90
        1
176
     1
 90
        4
176
     1
 62
     7
176
     1
 62
   257
176
     1
 90
        1
176
     1
 90
        1
176
     1
 40
1.0
176
     1
 90
        0
176
     1
 62
   257
176
     1
 40
1.0
176
     1
 90
        1
176
     1
 90
        6
176
     1
 90
        2
176
     1
 62
     7
176
     1
 90
        5
176
     1
 90
        0
176
     1
 90
        0
176
     1
290
     0
176
     1
 90
        1
176
     1
 40
0.0
176
     1
 90
        0
176
     1
290
     1
176
     1
290
     1
176
     1
290
     0
176
     1
290
     0
176
     1
290
     0
176
     1
290
     0
176
     1
290
     0
176
     1
290
     0
176
     1
290
     0
176
     1
 90
       50
176
     1
 40
0.0
176
     1
 40
1.0
176
     1
 90
        0
176
     1
 62
    18
420
        0
176
     1
 90
       50
176
     1
 90
        3
176
     1
 62
     5
420
      255
176
     1
290
     0
176
     1
 90
       50
176
     1
 90
       50
176
     1
 90
       50
176
     1
290
     0
176
     1
 90
       50
176
     1
 62
   256
176
     0
 40
1.0
176
     0
 90
        2
176
     1
  1
strokes_ogs.tif
176
     1
290
     0
176
     1
 40
1.0
176
     1
 40
1.0
176
     1
  0
VISUALSTYLE
  5
32
102
{ACAD_REACTORS
330
2A
102
}
330
2A
100
AcDbVisualStyle
  2
Basic
 70
     7
177
     3
291
     1
 70
    58
 90
        1
176
     1
 90
        0
176
     1
 90
        1
176
     1
 90
        0
176
     1
 40
0.6
176
     1
 40
30.0
176
     1
 62
     7
420
 16777215
176
     1
 90
        0
176
     1
 90
        4
176
     1
 62
     7
176
     1
 62
   257
176
     1
 90
        1
176
     1
 90
        1
176
     1
 40
1.0
176
     1
 90
        8
176
     1
 62
     7
176
     1
 40
1.0
176
     1
 90
        1
176
     1
 90
        6
176
     1
 90
        2
176
     1
 62
     7
176
     1
 90
        5
176
     1
 90
        0
176
     1
 90
        0
176
     1
290
     0
176
     1
 90
        1
176
     1
 40
0.0
176
     1
 90
        0
176
     1
290
     0
176
     1
290
     1
176
     1
290
     1
176
     1
290
     0
176
     1
290
     0
176
     1
290
     0
176
     1
290
     0
176
     1
290
     0
176
     1
290
     0
176
     1
 90
       50
176
     1
 40
0.0
176
     1
 40
1.0
176
     1
 90
        0
176
     1
 62
    18
420
        0
176
     1
 90
       50
176
     1
 90
        3
176
     1
 62
     5
420
      255
176
     1
290
     0
176
     1
 90
       50
176
     1
 90
       50
176
     1
 90
       50
176
     1
290
     0
176
     1
 90
       50
176
     1
 62
   256
176
     0
 40
1.0
176
     0
 90
        2
176
     1
  1
strokes_ogs.tif
176
     1
290
     0
176
     1
 40
1.0
176
     1
 40
1.0
176
     1
  0
VISUALSTYLE
  5
36
102
{ACAD_REACTORS
330
2A
102
}
330
2A
100
AcDbVisualStyle
  2
Brighten
 70
    12
177
     3
291
     1
 70
    58
 90
        2
176
     1
 90
        2
176
     1
 90
        0
176
     1
 90
        0
176
     1
 40
0.6
176
     1
 40
30.0
176
     1
 62
     7
420
 16777215
176
     1
 90
        1
176
     1
 90
        4
176
     1
 62
     7
176
     1
 62
   257
176
     1
 90
        1
176
     1
 90
        1
176
     1
 40
1.0
176
     1
 90
        8
176
     1
 62
     7
176
     1
 40
1.0
176
     1
 90
        1
176
     1
 90
        6
176
     1
 90
        2
176
     1
 62
     7
176
     1
 90
        5
176
     1
 90
        0
176
     1
 90
        0
176
     1
290
     0
176
     1
 90
        1
176
     1
 40
50.0
176
     1
 90
        0
176
     1
290
     0
176
     1
290
     1
176
     1
290
     1
176
     1
290
     0
176
     1
290
     0
176
     1
290
     0
176
     1
290
     0
176
     1
290
     0
176
     1
290
     0
176
     1
 90
       50
176
     1
 40
0.0
176
     1
 40
1.0
176
     1
 90
        0
176
     1
 62
    18
420
        0
176
     1
 90
       50
176
     1
 90
        3
176
     1
 62
     5
420
      255
176
     1
290
     0
176
     1
 90
       50
176
     1
 90
       50
176
     1
 90
       50
176
     1
290
     0
176
     1
 90
       50
176
     1
 62
   256
176
     0
 40
1.0
176
     0
 90
        2
176
     1
  1
strokes_ogs.tif
176
     1
290
     0
176
     1
 40
1.0
176
     1
 40
1.0
176
     1
  0
VISUALSTYLE
  5
3A
102
{ACAD_REACTORS
330
2A
102
}
330
2A
100
AcDbVisualStyle
  2
ColorChange
 70
    16
177
     3
291
     1
 70
    58
 90
        2
176
     1
 90
        2
176
     1
 90
        3
176
     1
 90
        0
176
     1
 40
0.6
176
     1
 40
30.0
176
     1
 62
     8
420
  8421504
176
     1
 90
        1
176
     1
 90
        4
176
     1
 62
     7
176
     1
 62
   257
176
     1
 90
        1
176
     1
 90
        1
176
     1
 40
1.0
176
     1
 90
        8
176
     1
 62
     8
420
  8421504
176
     1
 40
1.0
176
     1
 90
        1
176
     1
 90
        6
176
     1
 90
        2
176
     1
 62
     7
176
     1
 90
        5
176
     1
 90
        0
176
     1
 90
        0
176
     1
290
     0
176
     1
 90
        1
176
     1
 40
0.0
176
     1
 90
        0
176
     1
290
     0
176
     1
290
     1
176
     1
290
     1
176
     1
290
     0
176
     1
290
     0
176
     1
290
     0
176
     1
290
     0
176
     1
290
     0
176
     1
290
     0
176
     1
 90
       50
176
     1
 40
0.0
176
     1
 40
1.0
176
     1
 90
        0
176
     1
 62
    18
420
        0
176
     1
 90
       50
176
     1
 90
        3
176
     1
 62
     5
420
      255
176
     1
290
     0
176
     1
 90
       50
176
     1
 90
       50
176
     1
 90
       50
176
     1
290
     0
176
     1
 90
       50
176
     1
 62
   256
176
     0
 40
1.0
176
     0
 90
        2
176
     1
  1
strokes_ogs.tif
176
     1
290
     0
176
     1
 40
1.0
176
     1
 40
1.0
176
     1
  0
VISUALSTYLE
  5
34
102
{ACAD_REACTORS
330
2A
102
}
330
2A
100
AcDbVisualStyle
  2
Conceptual
 70
     9
177
     3
291
     0
 70
    58
 90
        3
176
     1
 90
        2
176
     1
 90
        0
176
     1
 90
        0
176
     1
 40
0.6
176
     1
 40
30.0
176
     1
 62
     7
420
 16777215
176
     1
 90
        2
176
     1
 90
        2
176
     1
 62
     7
176
     1
 62
   257
176
     1
 90
        1
176
     1
 90
        1
176
     1
 40
179.0
176
     1
 90
        8
176
     1
 62
     7
176
     1
 40
1.0
176
     1
 90
        1
176
     1
 90
        6
176
     1
 90
        2
176
     1
 62
     7
176
     1
 90
        3
176
     1
 90
        0
176
     1
 90
        0
176
     1
290
     0
176
     1
 90
        1
176
     1
 40
0.0
176
     1
 90
        0
176
     1
290
     0
176
     1
290
     1
176
     1
290
     1
176
     1
290
     0
176
     1
290
     0
176
     1
290
     0
176
     1
290
     0
176
     1
290
     0
176
     1
290
     0
176
     1
 90
       50
176
     1
 40
0.0
176
     1
 40
1.0
176
     1
 90
        0
176
     1
 62
    18
420
        0
176
     1
 90
       50
176
     1
 90
        3
176
     1
 62
     5
420
      255
176
     1
290
     0
176
     1
 90
       50
176
     1
 90
       50
176
     1
 90
       50
176
     1
290
     0
176
     1
 90
       50
176
     1
 62
   256
176
     0
 40
1.0
176
     0
 90
        2
176
     1
  1
strokes_ogs.tif
176
     1
290
     0
176
     1
 40
1.0
176
     1
 40
1.0
176
     1
  0
VISUALSTYLE
  5
35
102
{ACAD_REACTORS
330
2A
102
}
330
2A
100
AcDbVisualStyle
  2
Dim
 70
    11
177
     3
291
     1
 70
    58
 90
        2
176
     1
 90
        2
176
     1
 90
        0
176
     1
 90
        0
176
     1
 40
0.6
176
     1
 40
30.0
176
     1
 62
     7
420
 16777215
176
     1
 90
        1
176
     1
 90
        4
176
     1
 62
     7
176
     1
 62
   257
176
     1
 90
        1
176
     1
 90
        1
176
     1
 40
1.0
176
     1
 90
        8
176
     1
 62
     7
176
     1
 40
1.0
176
     1
 90
        1
176
     1
 90
        6
176
     1
 90
        2
176
     1
 62
     7
176
     1
 90
        5
176
     1
 90
        0
176
     1
 90
        0
176
     1
290
     0
176
     1
 90
        1
176
     1
 40
-50.0
176
     1
 90
        0
176
     1
290
     0
176
     1
290
     1
176
     1
290
     1
176
     1
290
     0
176
     1
290
     0
176
     1
290
     0
176
     1
290
     0
176
     1
290
     0
176
     1
290
     0
176
     1
 90
       50
176
     1
 40
0.0
176
     1
 40
1.0
176
     1
 90
        0
176
     1
 62
    18
420
        0
176
     1
 90
       50
176
     1
 90
        3
176
     1
 62
     5
420
      255
176
     1
290
     0
176
     1
 90
       50
176
     1
 90
       50
176
     1
 90
       50
176
     1
290
     0
176
     1
 90
       50
176
     1
 62
   256
176
     0
 40
1.0
176
     0
 90
        2
176
     1
  1
strokes_ogs.tif
176
     1
290
     0
176
     1
 40
1.0
176
     1
 40
1.0
176
     1
  0
VISUALSTYLE
  5
3D
102
{ACAD_REACTORS
330
2A
102
}
330
2A
100
AcDbVisualStyle
  2
EdgeColorOff
 70
    22
177
     3
291
     1
 70
    58
 90
        2
176
     0
 90
        2
176
     0
 90
        0
176
     0
 90
        0
176
     0
 40
0.6
176
     0
 40
30.0
176
     0
 62
     7
420
 16777215
176
     0
 90
        1
176
     0
 90
        4
176
     0
 62
     7
176
     0
 62
   257
176
     0
 90
        1
176
     0
 90
        1
176
     0
 40
1.0
176
     0
 90
        8
176
     2
 62
     7
176
     0
 40
1.0
176
     0
 90
        1
176
     0
 90
        6
176
     0
 90
        2
176
     0
 62
     7
176
     0
 90
        5
176
     0
 90
        0
176
     0
 90
        0
176
     0
290
     0
176
     0
 90
        1
176
     0
 40
0.0
176
     0
 90
        0
176
     0
290
     0
176
     0
290
     1
176
     0
290
     1
176
     0
290
     0
176
     0
290
     0
176
     0
290
     0
176
     0
290
     0
176
     0
290
     0
176
     0
290
     0
176
     0
 90
       50
176
     0
 40
0.0
176
     0
 40
1.0
176
     0
 90
        0
176
     0
 62
    18
420
        0
176
     0
 90
       50
176
     0
 90
        3
176
     0
 62
     5
420
      255
176
     0
290
     0
176
     0
 90
       50
176
     0
 90
       50
176
     0
 90
       50
176
     0
290
     0
176
     0
 90
       50
176
     0
 62
   256
176
     0
 40
1.0
176
     0
 90
        2
176
     0
  1
strokes_ogs.tif
176
     0
290
     0
176
     0
 40
1.0
176
     0
 40
1.0
176
     0
  0
VISUALSTYLE
  5
39
102
{ACAD_REACTORS
330
2A
102
}
330
2A
100
AcDbVisualStyle
  2
Facepattern
 70
    15
177
     3
291
     1
 70
    58
 90
        2
176
     1
 90
        2
176
     1
 90
        0
176
     1
 90
        0
176
     1
 40
0.6
176
     1
 40
30.0
176
     1
 62
     7
420
 16777215
176
     1
 90
        1
176
     1
 90
        4
176
     1
 62
     7
176
     1
 62
   257
176
     1
 90
        1
176
     1
 90
        1
176
     1
 40
1.0
176
     1
 90
        8
176
     1
 62
     7
176
     1
 40
1.0
176
     1
 90
        1
176
     1
 90
        6
176
     1
 90
        2
176
     1
 62
     7
176
     1
 90
        5
176
     1
 90
        0
176
     1
 90
        0
176
     1
290
     0
176
     1
 90
        1
176
     1
 40
0.0
176
     1
 90
        0
176
     1
290
     0
176
     1
290
     1
176
     1
290
     1
176
     1
290
     0
176
     1
290
     0
176
     1
290
     0
176
     1
290
     0
176
     1
290
     0
176
     1
290
     0
176
     1
 90
       50
176
     1
 40
0.0
176
     1
 40
1.0
176
     1
 90
        0
176
     1
 62
    18
420
        0
176
     1
 90
       50
176
     1
 90
        3
176
     1
 62
     5
420
      255
176
     1
290
     0
176
     1
 90
       50
176
     1
 90
       50
176
     1
 90
       50
176
     1
290
     0
176
     1
 90
       50
176
     1
 62
   256
176
     0
 40
1.0
176
     0
 90
        2
176
     1
  1
strokes_ogs.tif
176
     1
290
     0
176
     1
 40
1.0
176
     1
 40
1.0
176
     1
  0
VISUALSTYLE
  5
2B
102
{ACAD_REACTORS
330
2A
102
}
330
2A
100
AcDbVisualStyle
  2
Flat
 70
     0
177
     3
291
     1
 70
    58
 90
        2
176
     1
 90
        1
176
     1
 90
        1
176
     1
 90
        2
176
     1
 40
0.6
176
     1
 40
30.0
176
     1
 62
     7
420
 16777215
176
     1
 90
        0
176
     1
 90
        0
176
     1
 62
     7
176
     1
 62
   257
176
     1
 90
        1
176
     1
 90
        1
176
     1
 40
1.0
176
     1
 90
        8
176
     1
 62
     7
176
     1
 40
1.0
176
     1
 90
        1
176
     1
 90
        6
176
     1
 90
        2
176
     1
 62
     7
176
     1
 90
        5
176
     1
 90
        0
176
     1
 90
        0
176
     1
290
     0
176
     1
 90
       13
176
     1
 40
0.0
176
     1
 90
        0
176
     1
290
     0
176
     1
290
     1
176
     1
290
     1
176
     1
290
     0
176
     1
290
     0
176
     1
290
     0
176
     1
290
     0
176
     1
290
     0
176
     1
290
     0
176
     1
 90
       50
176
     1
 40
0.0
176
     1
 40
1.0
176
     1
 90
        0
176
     1
 62
    18
420
        0
176
     1
 90
       50
176
     1
 90
        3
176
     1
 62
     5
420
      255
176
     1
290
     0
176
     1
 90
       50
176
     1
 90
       50
176
     1
 90
       50
176
     1
290
     0
176
     1
 90
       50
176
     1
 62
   256
176
     0
 40
1.0
176
     0
 90
        2
176
     1
  1
strokes_ogs.tif
176
     1
290
     0
176
     1
 40
1.0
176
     1
 40
1.0
176
     1
  0
VISUALSTYLE
  5
2C
102
{ACAD_REACTORS
330
2A
102
}
330
2A
100
AcDbVisualStyle
  2
FlatWithEdges
 70
     1
177
     3
291
     1
 70
    58
 90
        2
176
     1
 90
        1
176
     1
 90
        1
176
     1
 90
        2
176
     1
 40
0.6
176
     1
 40
30.0
176
     1
 62
     7
420
 16777215
176
     1
 90
        1
176
     1
 90
        0
176
     1
 62
     7
176
     1
 62
   257
176
     1
 90
        1
176
     1
 90
        1
176
     1
 40
1.0
176
     1
 90
        0
176
     1
 62
   257
176
     1
 40
1.0
176
     1
 90
        1
176
     1
 90
        6
176
     1
 90
        2
176
     1
 62
     7
176
     1
 90
        5
176
     1
 90
        0
176
     1
 90
        0
176
     1
290
     0
176
     1
 90
       13
176
     1
 40
0.0
176
     1
 90
        0
176
     1
290
     0
176
     1
290
     1
176
     1
290
     1
176
     1
290
     0
176
     1
290
     0
176
     1
290
     0
176
     1
290
     0
176
     1
290
     0
176
     1
290
     0
176
     1
 90
       50
176
     1
 40
0.0
176
     1
 40
1.0
176
     1
 90
        0
176
     1
 62
    18
420
        0
176
     1
 90
       50
176
     1
 90
        3
176
     1
 62
     5
420
      255
176
     1
290
     0
176
     1
 90
       50
176
     1
 90
       50
176
     1
 90
       50
176
     1
290
     0
176
     1
 90
       50
176
     1
 62
   256
176
     0
 40
1.0
176
     0
 90
        2
176
     1
  1
strokes_ogs.tif
176
     1
290
     0
176
     1
 40
1.0
176
     1
 40
1.0
176
     1
  0
VISUALSTYLE
  5
2D
102
{ACAD_REACTORS
330
2A
102
}
330
2A
100
AcDbVisualStyle
  2
Gouraud
 70
     2
177
     3
291
     1
 70
    58
 90
        2
176
     1
 90
        2
176
     1
 90
        1
176
     1
 90
        2
176
     1
 40
0.6
176
     1
 40
30.0
176
     1
 62
     7
420
 16777215
176
     1
 90
        0
176
     1
 90
        0
176
     1
 62
     7
176
     1
 62
   257
176
     1
 90
        1
176
     1
 90
        1
176
     1
 40
1.0
176
     1
 90
        0
176
     1
 62
     7
176
     1
 40
1.0
176
     1
 90
        1
176
     1
 90
        6
176
     1
 90
        2
176
     1
 62
     7
176
     1
 90
        5
176
     1
 90
        0
176
     1
 90
        0
176
     1
290
     0
176
     1
 90
       13
176
     1
 40
0.0
176
     1
 90
        0
176
     1
290
     0
176
     1
290
     1
176
     1
290
     1
176
     1
290
     0
176
     1
290
     0
176
     1
290
     0
176
     1
290
     0
176
     1
290
     0
176
     1
290
     0
176
     1
 90
       50
176
     1
 40
0.0
176
     1
 40
1.0
176
     1
 90
        0
176
     1
 62
    18
420
        0
176
     1
 90
       50
176
     1
 90
        3
176
     1
 62
     5
420
      255
176
     1
290
     0
176
     1
 90
       50
176
     1
 90
       50
176
     1
 90
       50
176
     1
290
     0
176
     1
 90
       50
176
     1
 62
   256
176
     0
 40
1.0
176
     0
 90
        2
176
     1
  1
strokes_ogs.tif
176
     1
290
     0
176
     1
 40
1.0
176
     1
 40
1.0
176
     1
  0
VISUALSTYLE
  5
2E
102
{ACAD_REACTORS
330
2A
102
}
330
2A
100
AcDbVisualStyle
  2
GouraudWithEdges
 70
     3
177
     3
291
     1
 70
    58
 90
        2
176
     1
 90
        2
176
     1
 90
        1
176
     1
 90
        2
176
     1
 40
0.6
176
     1
 40
30.0
176
     1
 62
     7
420
 16777215
176
     1
 90
        1
176
     1
 90
        0
176
     1
 62
     7
176
     1
 62
   257
176
     1
 90
        1
176
     1
 90
        1
176
     1
 40
1.0
176
     1
 90
        0
176
     1
 62
   257
176
     1
 40
1.0
176
     1
 90
        1
176
     1
 90
        6
176
     1
 90
        2
176
     1
 62
     7
176
     1
 90
        5
176
     1
 90
        0
176
     1
 90
        0
176
     1
290
     0
176
     1
 90
       13
176
     1
 40
0.0
176
     1
 90
        0
176
     1
290
     0
176
     1
290
     1
176
     1
290
     1
176
     1
290
     0
176
     1
290
     0
176
     1
290
     0
176
     1
290
     0
176
     1
290
     0
176
     1
290
     0
176
     1
 90
       50
176
     1
 40
0.0
176
     1
 40
1.0
176
     1
 90
        0
176
     1
 62
    18
420
        0
176
     1
 90
       50
176
     1
 90
        3
176
     1
 62
     5
420
      255
176
     1
290
     0
176
     1
 90
       50
176
     1
 90
       50
176
     1
 90
       50
176
     1
290
     0
176
     1
 90
       50
176
     1
 62
   256
176
     0
 40
1.0
176
     0
 90
        2
176
     1
  1
strokes_ogs.tif
176
     1
290
     0
176
     1
 40
1.0
176
     1
 40
1.0
176
     1
  0
VISUALSTYLE
  5
31
102
{ACAD_REACTORS
330
2A
102
}
330
2A
100
AcDbVisualStyle
  2
Hidden
 70
     6
177
     3
291
     0
 70
    58
 90
        1
176
     1
 90
        2
176
     1
 90
        2
176
     1
 90
        0
176
     1
 40
0.6
176
     1
 40
30.0
176
     1
 62
     7
420
 16777215
176
     1
 90
        2
176
     1
 90
        2
176
     1
 62
     7
176
     1
 62
   257
176
     1
 90
        2
176
     1
 90
        1
176
     1
 40
40.0
176
     1
 90
        0
176
     1
 62
   257
176
     1
 40
1.0
176
     1
 90
        1
176
     1
 90
        6
176
     1
 90
        2
176
     1
 62
     7
176
     1
 90
        3
176
     1
 90
        0
176
     1
 90
        0
176
     1
290
     0
176
     1
 90
        1
176
     1
 40
0.0
176
     1
 90
        0
176
     1
290
     0
176
     1
290
     1
176
     1
290
     1
176
     1
290
     0
176
     1
290
     0
176
     1
290
     0
176
     1
290
     0
176
     1
290
     0
176
     1
290
     0
176
     1
 90
       50
176
     1
 40
0.0
176
     1
 40
1.0
176
     1
 90
        0
176
     1
 62
    18
420
        0
176
     1
 90
       50
176
     1
 90
        3
176
     1
 62
     5
420
      255
176
     1
290
     0
176
     1
 90
       50
176
     1
 90
       50
176
     1
 90
       50
176
     1
290
     0
176
     1
 90
       50
176
     1
 62
   256
176
     0
 40
1.0
176
     0
 90
        2
176
     1
  1
strokes_ogs.tif
176
     1
290
     0
176
     1
 40
1.0
176
     1
 40
1.0
176
     1
  0
VISUALSTYLE
  5
3B
102
{ACAD_REACTORS
330
2A
102
}
330
2A
100
AcDbVisualStyle
  2
JitterOff
 70
    20
177
     3
291
     1
 70
    58
 90
        2
176
     0
 90
        2
176
     0
 90
        0
176
     0
 90
        0
176
     0
 40
0.6
176
     0
 40
30.0
176
     0
 62
     7
420
 16777215
176
     0
 90
        1
176
     0
 90
        4
176
     0
 62
     7
176
     0
 62
   257
176
     0
 90
        1
176
     0
 90
        1
176
     0
 40
1.0
176
     0
 90
       10
176
     2
 62
     7
176
     0
 40
1.0
176
     0
 90
        1
176
     0
 90
        6
176
     0
 90
        2
176
     0
 62
     7
176
     0
 90
        5
176
     0
 90
        0
176
     0
 90
        0
176
     0
290
     0
176
     0
 90
        1
176
     0
 40
0.0
176
     0
 90
        0
176
     0
290
     0
176
     0
290
     1
176
     0
290
     1
176
     0
290
     0
176
     0
290
     0
176
     0
290
     0
176
     0
290
     0
176
     0
290
     0
176
     0
290
     0
176
     0
 90
       50
176
     0
 40
0.0
176
     0
 40
1.0
176
     0
 90
        0
176
     0
 62
    18
420
        0
176
     0
 90
       50
176
     0
 90
        3
176
     0
 62
     5
420
      255
176
     0
290
     0
176
     0
 90
       50
176
     0
 90
       50
176
     0
 90
       50
176
     0
290
     0
176
     0
 90
       50
176
     0
 62
   256
176
     0
 40
1.0
176
     0
 90
        2
176
     0
  1
strokes_ogs.tif
176
     0
290
     0
176
     0
 40
1.0
176
     0
 40
1.0
176
     0
  0
VISUALSTYLE
  5
38
102
{ACAD_REACTORS
330
2A
102
}
330
2A
100
AcDbVisualStyle
  2
Linepattern
 70
    14
177
     3
291
     1
 70
    58
 90
        2
176
     1
 90
        2
176
     1
 90
        0
176
     1
 90
        0
176
     1
 40
0.6
176
     1
 40
30.0
176
     1
 62
     7
420
 16777215
176
     1
 90
        1
176
     1
 90
        4
176
     1
 62
     7
176
     1
 62
   257
176
     1
 90
        7
176
     1
 90
        7
176
     1
 40
1.0
176
     1
 90
        8
176
     1
 62
     7
176
     1
 40
1.0
176
     1
 90
        1
176
     1
 90
        6
176
     1
 90
        2
176
     1
 62
     7
176
     1
 90
        5
176
     1
 90
        0
176
     1
 90
        0
176
     1
290
     0
176
     1
 90
        1
176
     1
 40
0.0
176
     1
 90
        0
176
     1
290
     0
176
     1
290
     1
176
     1
290
     1
176
     1
290
     0
176
     1
290
     0
176
     1
290
     0
176
     1
290
     0
176
     1
290
     0
176
     1
290
     0
176
     1
 90
       50
176
     1
 40
0.0
176
     1
 40
1.0
176
     1
 90
        0
176
     1
 62
    18
420
        0
176
     1
 90
       50
176
     1
 90
        3
176
     1
 62
     5
420
      255
176
     1
290
     0
176
     1
 90
       50
176
     1
 90
       50
176
     1
 90
       50
176
     1
290
     0
176
     1
 90
       50
176
     1
 62
   256
176
     0
 40
1.0
176
     0
 90
        2
176
     1
  1
strokes_ogs.tif
176
     1
290
     0
176
     1
 40
1.0
176
     1
 40
1.0
176
     1
  0
VISUALSTYLE
  5
3C
102
{ACAD_REACTORS
330
2A
102
}
330
2A
100
AcDbVisualStyle
  2
OverhangOff
 70
    21
177
     3
291
     1
 70
    58
 90
        2
176
     0
 90
        2
176
     0
 90
        0
176
     0
 90
        0
176
     0
 40
0.6
176
     0
 40
30.0
176
     0
 62
     7
420
 16777215
176
     0
 90
        1
176
     0
 90
        4
176
     0
 62
     7
176
     0
 62
   257
176
     0
 90
        1
176
     0
 90
        1
176
     0
 40
1.0
176
     0
 90
        9
176
     2
 62
     7
176
     0
 40
1.0
176
     0
 90
        1
176
     0
 90
        6
176
     0
 90
        2
176
     0
 62
     7
176
     0
 90
        5
176
     0
 90
        0
176
     0
 90
        0
176
     0
290
     0
176
     0
 90
        1
176
     0
 40
0.0
176
     0
 90
        0
176
     0
290
     0
176
     0
290
     1
176
     0
290
     1
176
     0
290
     0
176
     0
290
     0
176
     0
290
     0
176
     0
290
     0
176
     0
290
     0
176
     0
290
     0
176
     0
 90
       50
176
     0
 40
0.0
176
     0
 40
1.0
176
     0
 90
        0
176
     0
 62
    18
420
        0
176
     0
 90
       50
176
     0
 90
        3
176
     0
 62
     5
420
      255
176
     0
290
     0
176
     0
 90
       50
176
     0
 90
       50
176
     0
 90
       50
176
     0
290
     0
176
     0
 90
       50
176
     0
 62
   256
176
     0
 40
1.0
176
     0
 90
        2
176
     0
  1
strokes_ogs.tif
176
     0
290
     0
176
     0
 40
1.0
176
     0
 40
1.0
176
     0
  0
VISUALSTYLE
  5
33
102
{ACAD_REACTORS
330
2A
102
}
330
2A
100
AcDbVisualStyle
  2
Realistic
 70
     8
177
     3
291
     0
 70
    58
 90
        2
176
     1
 90
        3
176
     1
 90
        0
176
     1
 90
        2
176
     1
 40
0.6
176
     1
 40
30.0
176
     1
 62
     7
420
 16777215
176
     1
 90
        0
176
     1
 90
        0
176
     1
 62
     7
176
     1
 62
   257
176
     1
 90
        1
176
     1
 90
        1
176
     1
 40
1.0
176
     1
 90
        8
176
     1
 62
   257
176
     1
 40
1.0
176
     1
 90
        1
176
     1
 90
        6
176
     1
 90
        2
176
     1
 62
     7
176
     1
 90
        3
176
     1
 90
        0
176
     1
 90
        0
176
     1
290
     0
176
     1
 90
       13
176
     1
 40
0.0
176
     1
 90
        0
176
     1
290
     0
176
     1
290
     1
176
     1
290
     1
176
     1
290
     0
176
     1
290
     0
176
     1
290
     0
176
     1
290
     0
176
     1
290
     0
176
     1
290
     0
176
     1
 90
       50
176
     1
 40
0.0
176
     1
 40
1.0
176
     1
 90
        0
176
     1
 62
    18
420
        0
176
     1
 90
       50
176
     1
 90
        3
176
     1
 62
     5
420
      255
176
     1
290
     0
176
     1
 90
       50
176
     1
 90
       50
176
     1
 90
       50
176
     1
290
     0
176
     1
 90
       50
176
     1
 62
   256
176
     0
 40
1.0
176
     0
 90
        2
176
     1
  1
strokes_ogs.tif
176
     1
290
     0
176
     1
 40
1.0
176
     1
 40
1.0
176
     1
  0
VISUALSTYLE
  5
42
102
{ACAD_REACTORS
330
2A
102
}
330
2A
100
AcDbVisualStyle
  2
Shaded
 70
    27
177
     3
291
     0
 70
    58
 90
        2
176
     1
 90
        2
176
     1
 90
        1
176
     1
 90
        2
176
     1
 40
0.6
176
     1
 40
30.0
176
     1
 62
     7
420
 16777215
176
     1
 90
        0
176
     1
 90
        4
176
     1
 62
     7
176
     1
 62
   257
176
     1
 90
        1
176
     1
 90
        1
176
     1
 40
1.0
176
     1
 90
        8
176
     1
 62
   257
176
     1
 40
1.0
176
     1
 90
        1
176
     1
 90
        6
176
     1
 90
        2
176
     1
 62
     8
420
  7895160
176
     1
 90
        3
176
     1
 90
        0
176
     1
 90
        0
176
     1
290
     0
176
     1
 90
        5
176
     1
 40
0.0
176
     1
 90
        0
176
     1
290
     0
176
     1
290
     1
176
     1
290
     1
176
     1
290
     0
176
     1
290
     0
176
     1
290
     0
176
     1
290
     0
176
     1
290
     0
176
     1
290
     0
176
     1
 90
       50
176
     1
 40
0.0
176
     1
 40
1.0
176
     1
 90
        0
176
     1
 62
    18
420
        0
176
     1
 90
       50
176
     1
 90
        3
176
     1
 62
     5
420
      255
176
     1
290
     0
176
     1
 90
       50
176
     1
 90
       50
176
     1
 90
       50
176
     1
290
     0
176
     1
 90
       50
176
     1
 62
   256
176
     0
 40
1.0
176
     0
 90
        2
176
     1
  1
strokes_ogs.tif
176
     1
290
     0
176
     1
 40
1.0
176
     1
 40
1.0
176
     1
  0
VISUALSTYLE
  5
41
102
{ACAD_REACTORS
330
2A
102
}
330
2A
100
AcDbVisualStyle
  2
Shaded with edges
 70
    26
177
     3
291
     0
 70
    58
 90
        2
176
     1
 90
        2
176
     1
 90
        1
176
     1
 90
        2
176
     1
 40
0.6
176
     1
 40
30.0
176
     1
 62
     7
420
 16777215
176
     1
 90
        1
176
     1
 90
       10
176
     1
 62
     7
176
     1
 62
   257
176
     1
 90
        2
176
     1
 90
        1
176
     1
 40
1.0
176
     1
 90
        8
176
     1
 62
   257
176
     1
 40
1.0
176
     1
 90
        1
176
     1
 90
        6
176
     1
 90
        2
176
     1
 62
     7
176
     1
 90
        3
176
     1
 90
        0
176
     1
 90
        0
176
     1
290
     0
176
     1
 90
        5
176
     1
 40
0.0
176
     1
 90
        0
176
     1
290
     0
176
     1
290
     1
176
     1
290
     1
176
     1
290
     0
176
     1
290
     0
176
     1
290
     0
176
     1
290
     0
176
     1
290
     0
176
     1
290
     0
176
     1
 90
       50
176
     1
 40
0.0
176
     1
 40
1.0
176
     1
 90
        0
176
     1
 62
    18
420
        0
176
     1
 90
       50
176
     1
 90
        3
176
     1
 62
     5
420
      255
176
     1
290
     0
176
     1
 90
       50
176
     1
 90
       50
176
     1
 90
       50
176
     1
290
     0
176
     1
 90
       50
176
     1
 62
   256
176
     0
 40
1.0
176
     0
 90
        2
176
     1
  1
strokes_ogs.tif
176
     1
290
     0
176
     1
 40
1.0
176
     1
 40
1.0
176
     1
  0
VISUALSTYLE
  5
3E
102
{ACAD_REACTORS
330
2A
102
}
330
2A
100
AcDbVisualStyle
  2
Shades of Gray
 70
    23
177
     3
291
     0
 70
    58
 90
        2
176
     1
 90
        2
176
     1
 90
        3
176
     1
 90
        0
176
     1
 40
0.6
176
     1
 40
30.0
176
     1
 62
     7
420
 16777215
176
     1
 90
        2
176
     1
 90
        2
176
     1
 62
     7
176
     1
 62
     7
176
     1
 90
        1
176
     1
 90
        1
176
     1
 40
40.0
176
     1
 90
        8
176
     1
 62
     7
176
     1
 40
1.0
176
     1
 90
        1
176
     1
 90
        6
176
     1
 90
        2
176
     1
 62
     7
176
     1
 90
        3
176
     1
 90
        0
176
     1
 90
        0
176
     1
290
     0
176
     1
 90
        1
176
     1
 40
0.0
176
     1
 90
        0
176
     1
290
     0
176
     1
290
     1
176
     1
290
     1
176
     1
290
     0
176
     1
290
     0
176
     1
290
     0
176
     1
290
     0
176
     1
290
     0
176
     1
290
     0
176
     1
 90
       50
176
     1
 40
0.0
176
     1
 40
1.0
176
     1
 90
        0
176
     1
 62
    18
420
        0
176
     1
 90
       50
176
     1
 90
        3
176
     1
 62
     5
420
      255
176
     1
290
     0
176
     1
 90
       50
176
     1
 90
       50
176
     1
 90
       50
176
     1
290
     0
176
     1
 90
       50
176
     1
 62
   256
176
     0
 40
1.0
176
     0
 90
        2
176
     1
  1
strokes_ogs.tif
176
     1
290
     0
176
     1
 40
1.0
176
     1
 40
1.0
176
     1
  0
VISUALSTYLE
  5
3F
102
{ACAD_REACTORS
330
2A
102
}
330
2A
100
AcDbVisualStyle
  2
Sketchy
 70
    24
177
     3
291
     0
 70
    58
 90
        1
176
     1
 90
        2
176
     1
 90
        2
176
     1
 90
        0
176
     1
 40
0.6
176
     1
 40
30.0
176
     1
 62
     7
420
 16777215
176
     1
 90
        2
176
     1
 90
        2
176
     1
 62
     7
176
     1
 62
     7
176
     1
 90
        1
176
     1
 90
        1
176
     1
 40
40.0
176
     1
 90
       11
176
     1
 62
     7
176
     1
 40
1.0
176
     1
 90
        1
176
     1
 90
        6
176
     1
 90
        2
176
     1
 62
     7
176
     1
 90
        6
176
     1
 90
        0
176
     1
 90
        0
176
     1
290
     0
176
     1
 90
        1
176
     1
 40
0.0
176
     1
 90
        0
176
     1
290
     0
176
     1
290
     1
176
     1
290
     1
176
     1
290
     0
176
     1
290
     0
176
     1
290
     0
176
     1
290
     0
176
     1
290
     0
176
     1
290
     0
176
     1
 90
       50
176
     1
 40
0.0
176
     1
 40
1.0
176
     1
 90
        0
176
     1
 62
    18
420
        0
176
     1
 90
       50
176
     1
 90
        3
176
     1
 62
     5
420
      255
176
     1
290
     0
176
     1
 90
       50
176
     1
 90
       50
176
     1
 90
       50
176
     1
290
     0
176
     1
 90
       50
176
     1
 62
   256
176
     0
 40
1.0
176
     0
 90
        2
176
     1
  1
strokes_ogs.tif
176
     1
290
     0
176
     1
 40
1.0
176
     1
 40
1.0
176
     1
  0
VISUALSTYLE
  5
37
102
{ACAD_REACTORS
330
2A
102
}
330
2A
100
AcDbVisualStyle
  2
Thicken
 70
    13
177
     3
291
     1
 70
    58
 90
        2
176
     1
 90
        2
176
     1
 90
        0
176
     1
 90
        0
176
     1
 40
0.6
176
     1
 40
30.0
176
     1
 62
     7
420
 16777215
176
     1
 90
        1
176
     1
 90
        4
176
     1
 62
     7
176
     1
 62
   257
176
     1
 90
        1
176
     1
 90
        1
176
     1
 40
1.0
176
     1
 90
       12
176
     1
 62
     7
176
     1
 40
1.0
176
     1
 90
        1
176
     1
 90
        6
176
     1
 90
        2
176
     1
 62
     7
176
     1
 90
        5
176
     1
 90
        0
176
     1
 90
        0
176
     1
290
     0
176
     1
 90
        1
176
     1
 40
0.0
176
     1
 90
        0
176
     1
290
     0
176
     1
290
     1
176
     1
290
     1
176
     1
290
     0
176
     1
290
     0
176
     1
290
     0
176
     1
290
     0
176
     1
290
     0
176
     1
290
     0
176
     1
 90
       50
176
     1
 40
0.0
176
     1
 40
1.0
176
     1
 90
        0
176
     1
 62
    18
420
        0
176
     1
 90
       50
176
     1
 90
        3
176
     1
 62
     5
420
      255
176
     1
290
     0
176
     1
 90
       50
176
     1
 90
       50
176
     1
 90
       50
176
     1
290
     0
176
     1
 90
       50
176
     1
 62
   256
176
     0
 40
1.0
176
     0
 90
        2
176
     1
  1
strokes_ogs.tif
176
     1
290
     0
176
     1
 40
1.0
176
     1
 40
1.0
176
     1
  0
VISUALSTYLE
  5
30
102
{ACAD_REACTORS
330
2A
102
}
330
2A
100
AcDbVisualStyle
  2
Wireframe
 70
     5
177
     3
291
     0
 70
    58
 90
        0
176
     1
 90
        2
176
     1
 90
        0
176
     1
 90
        0
176
     1
 40
0.6
176
     1
 40
30.0
176
     1
 62
     7
420
 16777215
176
     1
 90
        1
176
     1
 90
        4
176
     1
 62
     7
176
     1
 62
   257
176
     1
 90
        1
176
     1
 90
        1
176
     1
 40
1.0
176
     1
 90
        0
176
     1
 62
   257
176
     1
 40
1.0
176
     1
 90
        1
176
     1
 90
        6
176
     1
 90
        2
176
     1
 62
     7
176
     1
 90
        3
176
     1
 90
        0
176
     1
 90
        0
176
     1
290
     0
176
     1
 90
        1
176
     1
 40
0.0
176
     1
 90
        0
176
     1
290
     0
176
     1
290
     1
176
     1
290
     1
176
     1
290
     0
176
     1
290
     0
176
     1
290
     0
176
     1
290
     0
176
     1
290
     0
176
     1
290
     0
176
     1
 90
       50
176
     1
 40
0.0
176
     1
 40
1.0
176
     1
 90
        0
176
     1
 62
    18
420
        0
176
     1
 90
       50
176
     1
 90
        3
176
     1
 62
     5
420
      255
176
     1
290
     0
176
     1
 90
       50
176
     1
 90
       50
176
     1
 90
       50
176
     1
290
     0
176
     1
 90
       50
176
     1
 62
   256
176
     0
 40
1.0
176
     0
 90
        2
176
     1
  1
strokes_ogs.tif
176
     1
290
     0
176
     1
 40
1.0
176
     1
 40
1.0
176
     1
  0
VISUALSTYLE
  5
40
102
{ACAD_REACTORS
330
2A
102
}
330
2A
100
AcDbVisualStyle
  2
X-Ray
 70
    25
177
     3
291
     0
 70
    58
 90
        2
176
     1
 90
        2
176
     1
 90
        1
176
     1
 90
        1
176
     1
 40
0.5
176
     1
 40
30.0
176
     1
 62
     7
420
 16777215
176
     1
 90
        1
176
     1
 90
        0
176
     1
 62
     7
176
     1
 62
   257
176
     1
 90
        1
176
     1
 90
        1
176
     1
 40
1.0
176
     1
 90
        8
176
     1
 62
     7
176
     1
 40
1.0
176
     1
 90
        1
176
     1
 90
        6
176
     1
 90
        2
176
     1
 62
     7
176
     1
 90
        3
176
     1
 90
        0
176
     1
 90
        0
176
     1
290
     0
176
     1
 90
       13
176
     1
 40
0.0
176
     1
 90
        0
176
     1
290
     0
176
     1
290
     1
176
     1
290
     1
176
     1
290
     0
176
     1
290
     0
176
     1
290
     0
176
     1
290
     0
176
     1
290
     0
176
     1
290
     0
176
     1
 90
       50
176
     1
 40
0.0
176
     1
 40
1.0
176
     1
 90
        0
176
     1
 62
    18
420
        0
176
     1
 90
       50
176
     1
 90
        3
176
     1
 62
     5
420
      255
176
     1
290
     0
176
     1
 90
       50
176
     1
 90
       50
176
     1
 90
       50
176
     1
290
     0
176
     1
 90
       50
176
     1
 62
   256
176
     0
 40
1.0
176
     0
 90
        2
176
     1
  1
strokes_ogs.tif
176
     1
290
     0
176
     1
 40
1.0
176
     1
 40
1.0
176
     1
  0
DICTIONARYVAR
  5
197
102
{ACAD_REACTORS
330
196
102
}
330
196
100
DictionaryVariables
280
     0
  1
1:1
  0
DICTIONARYVAR
  5
19C
102
{ACAD_REACTORS
330
196
102
}
330
196
100
DictionaryVariables
280
     0
  1
Standard
  0
DICTIONARYVAR
  5
19B
102
{ACAD_REACTORS
330
196
102
}
330
196
100
DictionaryVariables
280
     0
  1
Standard
  0
DICTIONARY
  5
198
330
6A
100
AcDbDictionary
280
     1
281
     1
  3
ACAD_ROUNDTRIP_2008_TABLESTYLE_CELLSTYLEMAP
360
199
  0
CELLSTYLEMAP
  5
199
102
{ACAD_REACTORS
330
198
102
}
330
198
100
AcDbCellStyleMap
 90
        3
300
CELLSTYLE
  1
TABLEFORMAT_BEGIN
 90
        5
170
     1
 91
        0
 92
    32768
 62
   257
 93
        1
300
CONTENTFORMAT
  1
CONTENTFORMAT_BEGIN
 90
        0
 91
        0
 92
        4
 93
        0
300

 40
0.0
140
1.0
 94
        5
 62
     0
340
11
144
0.25
309
CONTENTFORMAT_END
171
     1
301
MARGIN
  1
CELLMARGIN_BEGIN
 40
0.06
 40
0.06
 40
0.06
 40
0.06
 40
0.06
 40
0.06
309
CELLMARGIN_END
 94
        6
 95
        1
302
GRIDFORMAT
  1
GRIDFORMAT_BEGIN
 90
        0
 91
        1
 62
     0
 92
       -2
340
14
 93
        0
 40
0.045
309
GRIDFORMAT_END
 95
        2
302
GRIDFORMAT
  1
GRIDFORMAT_BEGIN
 90
        0
 91
        1
 62
     0
 92
       -2
340
14
 93
        0
 40
0.045
309
GRIDFORMAT_END
 95
        4
302
GRIDFORMAT
  1
GRIDFORMAT_BEGIN
 90
        0
 91
        1
 62
     0
 92
       -2
340
14
 93
        0
 40
0.045
309
GRIDFORMAT_END
 95
        8
302
GRIDFORMAT
  1
GRIDFORMAT_BEGIN
 90
        0
 91
        1
 62
     0
 92
       -2
340
14
 93
        0
 40
0.045
309
GRIDFORMAT_END
 95
       16
302
GRIDFORMAT
  1
GRIDFORMAT_BEGIN
 90
        0
 91
        1
 62
     0
 92
       -2
340
14
 93
        0
 40
0.045
309
GRIDFORMAT_END
 95
       32
302
GRIDFORMAT
  1
GRIDFORMAT_BEGIN
 90
        0
 91
        1
 62
     0
 92
       -2
340
14
 93
        0
 40
0.045
309
GRIDFORMAT_END
309
TABLEFORMAT_END
  1
CELLSTYLE_BEGIN
 90
        1
 91
        1
300
_TITLE
309
CELLSTYLE_END
300
CELLSTYLE
  1
TABLEFORMAT_BEGIN
 90
        5
170
     1
 91
        0
 92
        0
 62
   257
 93
        1
300
CONTENTFORMAT
  1
CONTENTFORMAT_BEGIN
 90
        0
 91
        0
 92
        4
 93
        0
300

 40
0.0
140
1.0
 94
        5
 62
     0
340
11
144
0.18
309
CONTENTFORMAT_END
171
     1
301
MARGIN
  1
CELLMARGIN_BEGIN
 40
0.06
 40
0.06
 40
0.06
 40
0.06
 40
0.06
 40
0.06
309
CELLMARGIN_END
 94
        6
 95
        1
302
GRIDFORMAT
  1
GRIDFORMAT_BEGIN
 90
        0
 91
        1
 62
     0
 92
       -2
340
14
 93
        0
 40
0.045
309
GRIDFORMAT_END
 95
        2
302
GRIDFORMAT
  1
GRIDFORMAT_BEGIN
 90
        0
 91
        1
 62
     0
 92
       -2
340
14
 93
        0
 40
0.045
309
GRIDFORMAT_END
 95
        4
302
GRIDFORMAT
  1
GRIDFORMAT_BEGIN
 90
        0
 91
        1
 62
     0
 92
       -2
340
14
 93
        0
 40
0.045
309
GRIDFORMAT_END
 95
        8
302
GRIDFORMAT
  1
GRIDFORMAT_BEGIN
 90
        0
 91
        1
 62
     0
 92
       -2
340
14
 93
        0
 40
0.045
309
GRIDFORMAT_END
 95
       16
302
GRIDFORMAT
  1
GRIDFORMAT_BEGIN
 90
        0
 91
        1
 62
     0
 92
       -2
340
14
 93
        0
 40
0.045
309
GRIDFORMAT_END
 95
       32
302
GRIDFORMAT
  1
GRIDFORMAT_BEGIN
 90
        0
 91
        1
 62
     0
 92
       -2
340
14
 93
        0
 40
0.045
309
GRIDFORMAT_END
309
TABLEFORMAT_END
  1
CELLSTYLE_BEGIN
 90
        2
 91
        1
300
_HEADER
309
CELLSTYLE_END
300
CELLSTYLE
  1
TABLEFORMAT_BEGIN
 90
        5
170
     1
 91
        0
 92
        0
 62
   257
 93
        1
300
CONTENTFORMAT
  1
CONTENTFORMAT_BEGIN
 90
        0
 91
        0
 92
        4
 93
        0
300

 40
0.0
140
1.0
 94
        2
 62
     0
340
11
144
0.18
309
CONTENTFORMAT_END
171
     1
301
MARGIN
  1
CELLMARGIN_BEGIN
 40
0.06
 40
0.06
 40
0.06
 40
0.06
 40
0.06
 40
0.06
309
CELLMARGIN_END
 94
        6
 95
        1
302
GRIDFORMAT
  1
GRIDFORMAT_BEGIN
 90
        0
 91
        1
 62
     0
 92
       -2
340
14
 93
        0
 40
0.045
309
GRIDFORMAT_END
 95
        2
302
GRIDFORMAT
  1
GRIDFORMAT_BEGIN
 90
        0
 91
        1
 62
     0
 92
       -2
340
14
 93
        0
 40
0.045
309
GRIDFORMAT_END
 95
        4
302
GRIDFORMAT
  1
GRIDFORMAT_BEGIN
 90
        0
 91
        1
 62
     0
 92
       -2
340
14
 93
        0
 40
0.045
309
GRIDFORMAT_END
 95
        8
302
GRIDFORMAT
  1
GRIDFORMAT_BEGIN
 90
        0
 91
        1
 62
     0
 92
       -2
340
14
 93
        0
 40
0.045
309
GRIDFORMAT_END
 95
       16
302
GRIDFORMAT
  1
GRIDFORMAT_BEGIN
 90
        0
 91
        1
 62
     0
 92
       -2
340
14
 93
        0
 40
0.045
309
GRIDFORMAT_END
 95
       32
302
GRIDFORMAT
  1
GRIDFORMAT_BEGIN
 90
        0
 91
        1
 62
     0
 92
       -2
340
14
 93
        0
 40
0.045
309
GRIDFORMAT_END
309
TABLEFORMAT_END
  1
CELLSTYLE_BEGIN
 90
        3
 91
        2
300
_DATA
309
CELLSTYLE_END
  0
ENDSEC
  0
EOF