0
SECTION
  2
HEADER
  9
$ACADVER
  1
AC1027
  9
$ACADMAINTVER
 70
     8
  9
$DWGCODEPAGE
  3
ANSI_1252
  9
$REQUIREDVERSIONS
160
                 0
  9
$COMMENTS
  1
File was created by Cadenas
  9
$CUSTOMPROPERTYTAG
  1
NN
  9
$CUSTOMPROPERTY
  1
Set Screw Internmediate Duty Four-Bolt Flange Inch Bore
  9
$CUSTOMPROPERTYTAG
  1
NT
  9
$CUSTOMPROPERTY
  1
VSC Intermediate Duty 4-Bolt Flange Bearings
  9
$CUSTOMPROPERTYTAG
  1
NB
  9
$CUSTOMPROPERTY
  1
123627
  9
$CUSTOMPROPERTYTAG
  1
NBSYN
  9
$CUSTOMPROPERTY
  1
$PN.
  9
$CUSTOMPROPERTYTAG
  1
LINA
  9
$CUSTOMPROPERTY
  1
123627
  9
$CUSTOMPROPERTYTAG
  1
RS
  9
$CUSTOMPROPERTY
  1
206
  9
$CUSTOMPROPERTYTAG
  1
SS
  9
$CUSTOMPROPERTY
  1
1-3/16
  9
$CUSTOMPROPERTYTAG
  1
PN
  9
$CUSTOMPROPERTY
  1
123627
  9
$CUSTOMPROPERTYTAG
  1
DESCRIPTION
  9
$CUSTOMPROPERTY
  1
F4B-VSC-103
  9
$CUSTOMPROPERTYTAG
  1
LF
  9
$CUSTOMPROPERTY
  1
RE-LUBE
  9
$CUSTOMPROPERTYTAG
  1
WEIGHT
  9
$CUSTOMPROPERTY
  1
2.68
  9
$CUSTOMPROPERTYTAG
  1
A
  9
$CUSTOMPROPERTY
  1
1.52
  9
$CUSTOMPROPERTYTAG
  1
B
  9
$CUSTOMPROPERTY
  1
4.25
  9
$CUSTOMPROPERTYTAG
  1
C
  9
$CUSTOMPROPERTY
  1
1.56
  9
$CUSTOMPROPERTYTAG
  1
D
  9
$CUSTOMPROPERTY
  1
3.25
  9
$CUSTOMPROPERTYTAG
  1
F
  9
$CUSTOMPROPERTY
  1
7/16
  9
$CUSTOMPROPERTYTAG
  1
H
  9
$CUSTOMPROPERTY
  1
0.50
  9
$CUSTOMPROPERTYTAG
  1
J
  9
$CUSTOMPROPERTY
  1
0.49
  9
$CUSTOMPROPERTYTAG
  1
L
  9
$CUSTOMPROPERTY
  1
1.57
  9
$CUSTOMPROPERTYTAG
  1
N
  9
$CUSTOMPROPERTY
  1
2.19
  9
$CUSTOMPROPERTYTAG
  1
COMPANY
  9
$CUSTOMPROPERTY
  1
baldor
  9
$INSBASE
 10
0.0
 20
0.0
 30
0.0
  9
$EXTMIN
 10
1.000000000000000E+20
 20
1.000000000000000E+20
 30
1.000000000000000E+20
  9
$EXTMAX
 10
-1.000000000000000E+20
 20
-1.000000000000000E+20
 30
-1.000000000000000E+20
  9
$LIMMIN
 10
0.0
 20
0.0
  9
$LIMMAX
 10
12.0
 20
9.0
  9
$ORTHOMODE
 70
     0
  9
$REGENMODE
 70
     1
  9
$FILLMODE
 70
     1
  9
$QTEXTMODE
 70
     0
  9
$MIRRTEXT
 70
     1
  9
$LTSCALE
 40
1.0
  9
$ATTMODE
 70
     1
  9
$TEXTSIZE
 40
0.2
  9
$TRACEWID
 40
0.05
  9
$TEXTSTYLE
  7
Standard
  9
$CLAYER
  8
0
  9
$CELTYPE
  6
ByLayer
  9
$CECOLOR
 62
   256
  9
$CELTSCALE
 40
1.0
  9
$DISPSILH
 70
     0
  9
$DIMSCALE
 40
1.0
  9
$DIMASZ
 40
0.18
  9
$DIMEXO
 40
0.0625
  9
$DIMDLI
 40
0.38
  9
$DIMRND
 40
0.0
  9
$DIMDLE
 40
0.0
  9
$DIMEXE
 40
0.18
  9
$DIMTP
 40
0.0
  9
$DIMTM
 40
0.0
  9
$DIMTXT
 40
0.18
  9
$DIMCEN
 40
0.09
  9
$DIMTSZ
 40
0.0
  9
$DIMTOL
 70
     0
  9
$DIMLIM
 70
     0
  9
$DIMTIH
 70
     1
  9
$DIMTOH
 70
     1
  9
$DIMSE1
 70
     0
  9
$DIMSE2
 70
     0
  9
$DIMTAD
 70
     0
  9
$DIMZIN
 70
     0
  9
$DIMBLK
  1

  9
$DIMASO
 70
     1
  9
$DIMSHO
 70
     1
  9
$DIMPOST
  1

  9
$DIMAPOST
  1

  9
$DIMALT
 70
     0
  9
$DIMALTD
 70
     2
  9
$DIMALTF
 40
25.4
  9
$DIMLFAC
 40
1.0
  9
$DIMTOFL
 70
     0
  9
$DIMTVP
 40
0.0
  9
$DIMTIX
 70
     0
  9
$DIMSOXD
 70
     0
  9
$DIMSAH
 70
     0
  9
$DIMBLK1
  1

  9
$DIMBLK2
  1

  9
$DIMSTYLE
  2
Standard
  9
$DIMCLRD
 70
     0
  9
$DIMCLRE
 70
     0
  9
$DIMCLRT
 70
     0
  9
$DIMTFAC
 40
1.0
  9
$DIMGAP
 40
0.09
  9
$DIMJUST
 70
     0
  9
$DIMSD1
 70
     0
  9
$DIMSD2
 70
     0
  9
$DIMTOLJ
 70
     1
  9
$DIMTZIN
 70
     0
  9
$DIMALTZ
 70
     0
  9
$DIMALTTZ
 70
     0
  9
$DIMUPT
 70
     0
  9
$DIMDEC
 70
     4
  9
$DIMTDEC
 70
     4
  9
$DIMALTU
 70
     2
  9
$DIMALTTD
 70
     2
  9
$DIMTXSTY
  7
Standard
  9
$DIMAUNIT
 70
     0
  9
$DIMADEC
 70
     0
  9
$DIMALTRND
 40
0.0
  9
$DIMAZIN
 70
     0
  9
$DIMDSEP
 70
    46
  9
$DIMATFIT
 70
     3
  9
$DIMFRAC
 70
     0
  9
$DIMLDRBLK
  1

  9
$DIMLUNIT
 70
     2
  9
$DIMLWD
 70
    -2
  9
$DIMLWE
 70
    -2
  9
$DIMTMOVE
 70
     0
  9
$DIMFXL
 40
1.0
  9
$DIMFXLON
 70
     0
  9
$DIMJOGANG
 40
0.7853981633974483
  9
$DIMTFILL
 70
     0
  9
$DIMTFILLCLR
 70
     0
  9
$DIMARCSYM
 70
     0
  9
$DIMLTYPE
  6

  9
$DIMLTEX1
  6

  9
$DIMLTEX2
  6

  9
$DIMTXTDIRECTION
 70
     0
  9
$LUNITS
 70
     2
  9
$LUPREC
 70
     4
  9
$SKETCHINC
 40
0.1
  9
$FILLETRAD
 40
0.5
  9
$AUNITS
 70
     0
  9
$AUPREC
 70
     0
  9
$MENU
  1
.
  9
$ELEVATION
 40
0.0
  9
$PELEVATION
 40
0.0
  9
$THICKNESS
 40
0.0
  9
$LIMCHECK
 70
     0
  9
$CHAMFERA
 40
0.0
  9
$CHAMFERB
 40
0.0
  9
$CHAMFERC
 40
0.0
  9
$CHAMFERD
 40
0.0
  9
$SKPOLY
 70
     0
  9
$TDCREATE
 40
2458168.99860728
  9
$TDUCREATE
 40
2458168.956940613
  9
$TDUPDATE
 40
2458168.998607465
  9
$TDUUPDATE
 40
2458168.956940799
  9
$TDINDWG
 40
0.0000000116
  9
$TDUSRTIMER
 40
0.0000000116
  9
$USRTIMER
 70
     1
  9
$ANGBASE
 50
0.0
  9
$ANGDIR
 70
     0
  9
$PDMODE
 70
     0
  9
$PDSIZE
 40
0.0
  9
$PLINEWID
 40
0.0
  9
$SPLFRAME
 70
     0
  9
$SPLINETYPE
 70
     6
  9
$SPLINESEGS
 70
     8
  9
$HANDSEED
  5
16B
  9
$SURFTAB1
 70
     6
  9
$SURFTAB2
 70
     6
  9
$SURFTYPE
 70
     6
  9
$SURFU
 70
     6
  9
$SURFV
 70
     6
  9
$UCSBASE
  2

  9
$UCSNAME
  2

  9
$UCSORG
 10
0.0
 20
0.0
 30
0.0
  9
$UCSXDIR
 10
1.0
 20
0.0
 30
0.0
  9
$UCSYDIR
 10
0.0
 20
1.0
 30
0.0
  9
$UCSORTHOREF
  2

  9
$UCSORTHOVIEW
 70
     0
  9
$UCSORGTOP
 10
0.0
 20
0.0
 30
0.0
  9
$UCSORGBOTTOM
 10
0.0
 20
0.0
 30
0.0
  9
$UCSORGLEFT
 10
0.0
 20
0.0
 30
0.0
  9
$UCSORGRIGHT
 10
0.0
 20
0.0
 30
0.0
  9
$UCSORGFRONT
 10
0.0
 20
0.0
 30
0.0
  9
$UCSORGBACK
 10
0.0
 20
0.0
 30
0.0
  9
$PUCSBASE
  2

  9
$PUCSNAME
  2

  9
$PUCSORG
 10
0.0
 20
0.0
 30
0.0
  9
$PUCSXDIR
 10
1.0
 20
0.0
 30
0.0
  9
$PUCSYDIR
 10
0.0
 20
1.0
 30
0.0
  9
$PUCSORTHOREF
  2

  9
$PUCSORTHOVIEW
 70
     0
  9
$PUCSORGTOP
 10
0.0
 20
0.0
 30
0.0
  9
$PUCSORGBOTTOM
 10
0.0
 20
0.0
 30
0.0
  9
$PUCSORGLEFT
 10
0.0
 20
0.0
 30
0.0
  9
$PUCSORGRIGHT
 10
0.0
 20
0.0
 30
0.0
  9
$PUCSORGFRONT
 10
0.0
 20
0.0
 30
0.0
  9
$PUCSORGBACK
 10
0.0
 20
0.0
 30
0.0
  9
$USERI1
 70
     0
  9
$USERI2
 70
     0
  9
$USERI3
 70
     0
  9
$USERI4
 70
     0
  9
$USERI5
 70
     0
  9
$USERR1
 40
0.0
  9
$USERR2
 40
0.0
  9
$USERR3
 40
0.0
  9
$USERR4
 40
0.0
  9
$USERR5
 40
0.0
  9
$WORLDVIEW
 70
     1
  9
$SHADEDGE
 70
     3
  9
$SHADEDIF
 70
    70
  9
$TILEMODE
 70
     1
  9
$MAXACTVP
 70
    64
  9
$PINSBASE
 10
0.0
 20
0.0
 30
0.0
  9
$PLIMCHECK
 70
     0
  9
$PEXTMIN
 10
1.000000000000000E+20
 20
1.000000000000000E+20
 30
1.000000000000000E+20
  9
$PEXTMAX
 10
-1.000000000000000E+20
 20
-1.000000000000000E+20
 30
-1.000000000000000E+20
  9
$PLIMMIN
 10
0.0
 20
0.0
  9
$PLIMMAX
 10
12.0
 20
9.0
  9
$UNITMODE
 70
     0
  9
$VISRETAIN
 70
     1
  9
$PLINEGEN
 70
     0
  9
$PSLTSCALE
 70
     1
  9
$TREEDEPTH
 70
  3020
  9
$CMLSTYLE
  2
Standard
  9
$CMLJUST
 70
     0
  9
$CMLSCALE
 40
1.0
  9
$PROXYGRAPHICS
 70
     1
  9
$MEASUREMENT
 70
     0
  9
$CELWEIGHT
370
    -1
  9
$ENDCAPS
280
     0
  9
$JOINSTYLE
280
     0
  9
$LWDISPLAY
290
     0
  9
$INSUNITS
 70
     1
  9
$HYPERLINKBASE
  1

  9
$STYLESHEET
  1

  9
$XEDIT
290
     1
  9
$CEPSNTYPE
380
     0
  9
$PSTYLEMODE
290
     1
  9
$FINGERPRINTGUID
  2
{D2F2922F-AA63-403F-92B6-61E8E91C65E6}
  9
$VERSIONGUID
  2
{FAEB1C32-E019-11D5-929B-00C0DF256EC4}
  9
$EXTNAMES
290
     1
  9
$PSVPSCALE
 40
0.0
  9
$OLESTARTUP
290
     0
  9
$SORTENTS
280
   127
  9
$INDEXCTL
280
     0
  9
$HIDETEXT
280
     1
  9
$XCLIPFRAME
280
     2
  9
$HALOGAP
280
     0
  9
$OBSCOLOR
 70
   257
  9
$OBSLTYPE
280
     0
  9
$INTERSECTIONDISPLAY
280
     0
  9
$INTERSECTIONCOLOR
 70
   257
  9
$DIMASSOC
280
     2
  9
$PROJECTNAME
  1

  9
$CAMERADISPLAY
290
     0
  9
$LENSLENGTH
 40
50.0
  9
$CAMERAHEIGHT
 40
0.0
  9
$STEPSPERSEC
 40
2.0
  9
$STEPSIZE
 40
6.0
  9
$3DDWFPREC
 40
2.0
  9
$PSOLWIDTH
 40
0.25
  9
$PSOLHEIGHT
 40
4.0
  9
$LOFTANG1
 40
1.570796326794897
  9
$LOFTANG2
 40
1.570796326794897
  9
$LOFTMAG1
 40
0.0
  9
$LOFTMAG2
 40
0.0
  9
$LOFTPARAM
 70
     7
  9
$LOFTNORMALS
280
     1
  9
$LATITUDE
 40
37.795
  9
$LONGITUDE
 40
-122.394
  9
$NORTHDIRECTION
 40
0.0
  9
$TIMEZONE
 70
 -8000
  9
$LIGHTGLYPHDISPLAY
280
     1
  9
$TILEMODELIGHTSYNCH
280
     1
  9
$CMATERIAL
347
44
  9
$SOLIDHIST
280
     0
  9
$SHOWHIST
280
     1
  9
$DWFFRAME
280
     2
  9
$DGNFRAME
280
     2
  9
$REALWORLDSCALE
290
     1
  9
$INTERFERECOLOR
 62
   256
  9
$CSHADOW
280
     0
  9
$SHADOWPLANELOCATION
 40
0.0
  0
ENDSEC
  0
SECTION
  2
CLASSES
  0
CLASS
  1
ACDBDICTIONARYWDFLT
  2
AcDbDictionaryWithDefault
  3
ObjectDBX Classes
 90
        0
 91
        4
280
     0
281
     0
  0
CLASS
  1
VISUALSTYLE
  2
AcDbVisualStyle
  3
ObjectDBX Classes
 90
     4095
 91
        4
280
     0
281
     0
  0
CLASS
  1
MATERIAL
  2
AcDbMaterial
  3
ObjectDBX Classes
 90
     1153
 91
        4
280
     0
281
     0
  0
CLASS
  1
SCALE
  2
AcDbScale
  3
ObjectDBX Classes
 90
     1153
 91
        4
280
     0
281
     0
  0
CLASS
  1
TABLESTYLE
  2
AcDbTableStyle
  3
ObjectDBX Classes
 90
     4095
 91
        4
280
     0
281
     0
  0
CLASS
  1
MLEADERSTYLE
  2
AcDbMLeaderStyle
  3
ACDB_MLEADERSTYLE_CLASS
 90
     4095
 91
        4
280
     0
281
     0
  0
CLASS
  1
SUN
  2
AcDbSun
  3
SCENEOE
 90
     1153
 91
        4
280
     0
281
     0
  0
CLASS
  1
DICTIONARYVAR
  2
AcDbDictionaryVar
  3
ObjectDBX Classes
 90
        0
 91
        4
280
     0
281
     0
  0
CLASS
  1
CELLSTYLEMAP
  2
AcDbCellStyleMap
  3
ObjectDBX Classes
 90
     1152
 91
        4
280
     0
281
     0
  0
ENDSEC
  0
SECTION
  2
TABLES
  0
TABLE
  2
VPORT
  5
8
330
0
100
AcDbSymbolTable
 70
     1
  0
VPORT
  5
29
330
8
100
AcDbSymbolTableRecord
100
AcDbViewportTableRecord
  2
*Active
 70
     0
 10
0.0
 20
0.0
 11
1.0
 21
1.0
 12
0.0
 22
-0.7912499999999998
 13
0.0
 23
0.0
 14
0.5
 24
0.5
 15
0.5
 25
0.5
 16
0.0
 26
0.0
 36
1.0
 17
0.0
 27
0.0
 37
0.0
 40
1.723289999999999
 41
2.515537141166027
 42
50.0
 43
0.0
 44
0.0
 50
0.0
 51
0.0
 71
     0
 72
   100
 73
     1
 74
     3
 75
     0
 76
     0
 77
     0
 78
     0
281
     0
 65
     1
110
0.0
120
0.0
130
0.0
111
1.0
121
0.0
131
0.0
112
0.0
122
1.0
132
0.0
 79
     0
146
0.0
348
2F
 60
     3
 61
     5
292
     1
282
     1
141
0.0
142
0.0
 63
   250
361
6D
  0
ENDTAB
  0
TABLE
  2
LTYPE
  5
5
330
0
100
AcDbSymbolTable
 70
     3
  0
LTYPE
  5
14
330
5
100
AcDbSymbolTableRecord
100
AcDbLinetypeTableRecord
  2
ByBlock
 70
     0
  3

 72
    65
 73
     0
 40
0.0
  0
LTYPE
  5
15
330
5
100
AcDbSymbolTableRecord
100
AcDbLinetypeTableRecord
  2
ByLayer
 70
     0
  3

 72
    65
 73
     0
 40
0.0
  0
LTYPE
  5
16
330
5
100
AcDbSymbolTableRecord
100
AcDbLinetypeTableRecord
  2
Continuous
 70
     0
  3
Solid line
 72
    65
 73
     0
 40
0.0
  0
LTYPE
  5
9A
330
5
100
AcDbSymbolTableRecord
100
AcDbLinetypeTableRecord
  2
Dashed
 70
     0
  3

 72
    65
 73
     2
 40
2.0
 49
1.0
 74
     0
 49
-1.0
 74
     0
  0
LTYPE
  5
A1
330
5
100
AcDbSymbolTableRecord
100
AcDbLinetypeTableRecord
  2
Center
 70
     0
  3

 72
    65
 73
     4
 40
1.5
 49
0.45
 74
     0
 49
-0.5
 74
     0
 49
0.05
 74
     0
 49
-0.5
 74
     0
  0
ENDTAB
  0
TABLE
  2
LAYER
  5
2
330
0
100
AcDbSymbolTable
 70
     7
  0
LAYER
  5
10
330
2
100
AcDbSymbolTableRecord
100
AcDbLayerTableRecord
  2
0
 70
     0
 62
     7
  6
Continuous
370
    -3
390
F
347
46
348
0
  0
LAYER
  5
72
330
2
100
AcDbSymbolTableRecord
100
AcDbLayerTableRecord
  2
AM_6
 70
     0
 62
    -2
  6
Continuous
370
    35
390
F
347
46
348
0
  0
LAYER
  5
9B
330
2
100
AcDbSymbolTableRecord
100
AcDbLayerTableRecord
  2
AM_9
 70
     0
 62
     6
  6
Dashed
370
    25
390
F
347
46
348
0
  0
LAYER
  5
A2
330
2
100
AcDbSymbolTableRecord
100
AcDbLayerTableRecord
  2
AM_7
 70
     0
 62
     7
  6
Center
370
    25
390
F
347
46
348
0
  0
LAYER
  5
A4
330
2
100
AcDbSymbolTableRecord
100
AcDbLayerTableRecord
  2
AM_4
 70
     0
 62
     7
  6
Continuous
370
    50
390
F
347
46
348
0
  0
LAYER
  5
102
330
2
100
AcDbSymbolTableRecord
100
AcDbLayerTableRecord
  2
AM_5
 70
     0
 62
     3
  6
Continuous
370
    25
390
F
347
46
348
0
  0
LAYER
  5
15E
330
2
100
AcDbSymbolTableRecord
100
AcDbLayerTableRecord
  2
ConnectionPoints
 70
     0
 62
     7
  6
Continuous
370
    50
390
F
347
46
348
0
  0
ENDTAB
  0
TABLE
  2
STYLE
  5
3
330
0
100
AcDbSymbolTable
 70
     1
  0
STYLE
  5
11
330
3
100
AcDbSymbolTableRecord
100
AcDbTextStyleTableRecord
  2
Standard
 70
     0
 40
0.0
 41
1.0
 50
0.0
 71
     0
 42
0.2
  3
txt
  4

  0
ENDTAB
  0
TABLE
  2
VIEW
  5
6
330
0
100
AcDbSymbolTable
 70
     0
  0
ENDTAB
  0
TABLE
  2
UCS
  5
7
330
0
100
AcDbSymbolTable
 70
     0
  0
ENDTAB
  0
TABLE
  2
APPID
  5
9
330
0
100
AcDbSymbolTable
 70
     1
  0
APPID
  5
12
330
9
100
AcDbSymbolTableRecord
100
AcDbRegAppTableRecord
  2
ACAD
 70
     0
  0
ENDTAB
  0
TABLE
  2
DIMSTYLE
  5
A
330
0
100
AcDbSymbolTable
 70
     1
100
AcDbDimStyleTable
  0
DIMSTYLE
105
27
330
A
100
AcDbSymbolTableRecord
100
AcDbDimStyleTableRecord
  2
Standard
 70
     0
178
     0
340
11
  0
ENDTAB
  0
TABLE
  2
BLOCK_RECORD
  5
1
330
0
100
AcDbSymbolTable
 70
     5
  0
BLOCK_RECORD
  5
1F
330
1
100
AcDbSymbolTableRecord
100
AcDbBlockTableRecord
  2
*Model_Space
340
22
 70
     0
280
     1
281
     0
  0
BLOCK_RECORD
  5
1B
330
1
100
AcDbSymbolTableRecord
100
AcDbBlockTableRecord
  2
*Paper_Space
340
1E
 70
     0
280
     1
281
     0
  0
BLOCK_RECORD
  5
23
330
1
100
AcDbSymbolTableRecord
100
AcDbBlockTableRecord
  2
*Paper_Space0
340
26
 70
     0
280
     1
281
     0
  0
BLOCK_RECORD
  5
6E
330
1
100
AcDbSymbolTableRecord
100
AcDbBlockTableRecord
  2
1_123627_4
340
0
102
{BLKREFS
331
6F
102
}
 70
     0
280
     1
281
     0
  0
BLOCK_RECORD
  5
88
330
1
100
AcDbSymbolTableRecord
100
AcDbBlockTableRecord
  2
2_405020c_Inch_0_in_123627_4
340
0
102
{BLKREFS
331
89
102
}
 70
     0
280
     1
281
     0
  0
BLOCK_RECORD
  5
B0
330
1
100
AcDbSymbolTableRecord
100
AcDbBlockTableRecord
  2
3_389927_0_in_123627_4
340
0
102
{BLKREFS
331
B1
102
}
 70
     0
280
     1
281
     0
  0
BLOCK_RECORD
  5
104
330
1
100
AcDbSymbolTableRecord
100
AcDbBlockTableRecord
  2
4_123627vsc_0_in_123627_4
340
0
102
{BLKREFS
331
105
102
}
 70
     0
280
     1
281
     0
  0
ENDTAB
  0
ENDSEC
  0
SECTION
  2
BLOCKS
  0
BLOCK
  5
20
330
1F
100
AcDbEntity
  8
0
100
AcDbBlockBegin
  2
*Model_Space
 70
     0
 10
0.0
 20
0.0
 30
0.0
  3
*Model_Space
  1

  0
ENDBLK
  5
21
330
1F
100
AcDbEntity
  8
0
100
AcDbBlockEnd
  0
BLOCK
  5
1C
330
1B
100
AcDbEntity
 67
     1
  8
0
100
AcDbBlockBegin
  2
*Paper_Space
 70
     0
 10
0.0
 20
0.0
 30
0.0
  3
*Paper_Space
  1

  0
ENDBLK
  5
1D
330
1B
100
AcDbEntity
 67
     1
  8
0
100
AcDbBlockEnd
  0
BLOCK
  5
24
330
23
100
AcDbEntity
  8
0
100
AcDbBlockBegin
  2
*Paper_Space0
 70
     0
 10
0.0
 20
0.0
 30
0.0
  3
*Paper_Space0
  1

  0
ENDBLK
  5
25
330
23
100
AcDbEntity
  8
0
100
AcDbBlockEnd
  0
BLOCK
  5
70
330
6E
100
AcDbEntity
  8
0
100
AcDbBlockBegin
  2
1_123627_4
 70
     2
 10
0.0
 20
0.0
 30
0.0
  3
1_123627_4
  1

  0
ATTDEF
  5
73
330
6E
100
AcDbEntity
  8
AM_6
100
AcDbText
 10
7.125
 20
0.0535
 30
0.0
 40
0.5
  1
Set Screw Internmediate Duty Four-Bolt Flange Inch Bore
100
AcDbAttributeDefinition
  3

  2
NN
 70
     8
280
     0
  0
ATTDEF
  5
74
330
6E
100
AcDbEntity
  8
AM_6
100
AcDbText
 10
7.125
 20
-0.4465
 30
0.0
 40
0.5
  1
VSC Intermediate Duty 4-Bolt Flange Bearings
100
AcDbAttributeDefinition
  3

  2
NT
 70
     8
280
     0
  0
ATTDEF
  5
75
330
6E
100
AcDbEntity
  8
AM_6
100
AcDbText
 10
7.125
 20
-0.9465
 30
0.0
 40
0.5
  1
123627
100
AcDbAttributeDefinition
  3

  2
NB
 70
     8
280
     0
  0
ATTDEF
  5
76
330
6E
100
AcDbEntity
  8
AM_6
100
AcDbText
 10
7.125
 20
-1.4465
 30
0.0
 40
0.5
  1
$PN.
100
AcDbAttributeDefinition
  3

  2
NBSYN
 70
     8
280
     0
  0
ATTDEF
  5
77
330
6E
100
AcDbEntity
  8
AM_6
100
AcDbText
 10
7.125
 20
-1.9465
 30
0.0
 40
0.5
  1
123627
100
AcDbAttributeDefinition
  3

  2
LINA
 70
     8
280
     0
  0
ATTDEF
  5
78
330
6E
100
AcDbEntity
  8
AM_6
100
AcDbText
 10
7.125
 20
-2.4465
 30
0.0
 40
0.5
  1
206
100
AcDbAttributeDefinition
  3

  2
RS
 70
     8
280
     0
  0
ATTDEF
  5
79
330
6E
100
AcDbEntity
  8
AM_6
100
AcDbText
 10
7.125
 20
-2.9465
 30
0.0
 40
0.5
  1
1-3/16
100
AcDbAttributeDefinition
  3

  2
SS
 70
     8
280
     0
  0
ATTDEF
  5
7A
330
6E
100
AcDbEntity
  8
AM_6
100
AcDbText
 10
7.125
 20
-3.4465
 30
0.0
 40
0.5
  1
123627
100
AcDbAttributeDefinition
  3

  2
PN
 70
     8
280
     0
  0
ATTDEF
  5
7B
330
6E
100
AcDbEntity
  8
AM_6
100
AcDbText
 10
7.125
 20
-3.9465
 30
0.0
 40
0.5
  1
F4B-VSC-103
100
AcDbAttributeDefinition
  3

  2
DESCRIPTION
 70
     8
280
     0
  0
ATTDEF
  5
7C
330
6E
100
AcDbEntity
  8
AM_6
100
AcDbText
 10
7.125
 20
-4.4465
 30
0.0
 40
0.5
  1
RE-LUBE
100
AcDbAttributeDefinition
  3

  2
LF
 70
     8
280
     0
  0
ATTDEF
  5
7D
330
6E
100
AcDbEntity
  8
AM_6
100
AcDbText
 10
7.125
 20
-4.9465
 30
0.0
 40
0.5
  1
2.68
100
AcDbAttributeDefinition
  3

  2
WEIGHT
 70
     8
280
     0
  0
ATTDEF
  5
7E
330
6E
100
AcDbEntity
  8
AM_6
100
AcDbText
 10
7.125
 20
-5.4465
 30
0.0
 40
0.5
  1
1.52
100
AcDbAttributeDefinition
  3

  2
A
 70
     8
280
     0
  0
ATTDEF
  5
7F
330
6E
100
AcDbEntity
  8
AM_6
100
AcDbText
 10
7.125
 20
-5.9465
 30
0.0
 40
0.5
  1
4.25
100
AcDbAttributeDefinition
  3

  2
B
 70
     8
280
     0
  0
ATTDEF
  5
80
330
6E
100
AcDbEntity
  8
AM_6
100
AcDbText
 10
7.125
 20
-6.4465
 30
0.0
 40
0.5
  1
1.56
100
AcDbAttributeDefinition
  3

  2
C
 70
     8
280
     0
  0
ATTDEF
  5
81
330
6E
100
AcDbEntity
  8
AM_6
100
AcDbText
 10
7.125
 20
-6.9465
 30
0.0
 40
0.5
  1
3.25
100
AcDbAttributeDefinition
  3

  2
D
 70
     8
280
     0
  0
ATTDEF
  5
82
330
6E
100
AcDbEntity
  8
AM_6
100
AcDbText
 10
7.125
 20
-7.4465
 30
0.0
 40
0.5
  1
7/16
100
AcDbAttributeDefinition
  3

  2
F
 70
     8
280
     0
  0
ATTDEF
  5
83
330
6E
100
AcDbEntity
  8
AM_6
100
AcDbText
 10
7.125
 20
-7.9465
 30
0.0
 40
0.5
  1
0.50
100
AcDbAttributeDefinition
  3

  2
H
 70
     8
280
     0
  0
ATTDEF
  5
84
330
6E
100
AcDbEntity
  8
AM_6
100
AcDbText
 10
7.125
 20
-8.4465
 30
0.0
 40
0.5
  1
0.49
100
AcDbAttributeDefinition
  3

  2
J
 70
     8
280
     0
  0
ATTDEF
  5
85
330
6E
100
AcDbEntity
  8
AM_6
100
AcDbText
 10
7.125
 20
-8.9465
 30
0.0
 40
0.5
  1
1.57
100
AcDbAttributeDefinition
  3

  2
L
 70
     8
280
     0
  0
ATTDEF
  5
86
330
6E
100
AcDbEntity
  8
AM_6
100
AcDbText
 10
7.125
 20
-9.4465
 30
0.0
 40
0.5
  1
2.19
100
AcDbAttributeDefinition
  3

  2
N
 70
     8
280
     0
  0
ATTDEF
  5
87
330
6E
100
AcDbEntity
  8
AM_6
100
AcDbText
 10
7.125
 20
-9.9465
 30
0.0
 40
0.5
  1
baldor
100
AcDbAttributeDefinition
  3

  2
COMPANY
 70
     8
280
     0
  0
INSERT
  5
89
330
6E
100
AcDbEntity
  8
0
100
AcDbBlockReference
  2
2_405020c_Inch_0_in_123627_4
 10
0.0
 20
0.0
 30
0.0
  0
INSERT
  5
B1
330
6E
100
AcDbEntity
  8
0
100
AcDbBlockReference
  2
3_389927_0_in_123627_4
 10
0.0
 20
0.0
 30
0.0
  0
INSERT
  5
105
330
6E
100
AcDbEntity
  8
0
100
AcDbBlockReference
  2
4_123627vsc_0_in_123627_4
 10
0.0
 20
0.0
 30
0.0
  0
ENDBLK
  5
71
330
6E
100
AcDbEntity
  8
0
100
AcDbBlockEnd
  0
BLOCK
  5
8A
330
88
100
AcDbEntity
  8
0
100
AcDbBlockBegin
  2
2_405020c_Inch_0_in_123627_4
 70
     2
 10
0.0
 20
0.0
 30
0.0
  3
2_405020c_Inch_0_in_123627_4
  1

  0
ATTDEF
  5
8C
330
88
100
AcDbEntity
  8
AM_6
100
AcDbText
 10
5.1476825
 20
-0.5225913692769582
 30
0.0
 40
0.5
  1
405020C -Inch
100
AcDbAttributeDefinition
  3

  2
NN
 70
     8
280
     0
  0
ATTDEF
  5
8D
330
88
100
AcDbEntity
  8
AM_6
100
AcDbText
 10
5.1476825
 20
-1.022591369276958
 30
0.0
 40
0.5
  1
Grease fitting
100
AcDbAttributeDefinition
  3

  2
NT
 70
     8
280
     0
  0
ATTDEF
  5
8E
330
88
100
AcDbEntity
  8
AM_6
100
AcDbText
 10
5.1476825
 20
-1.522591369276958
 30
0.0
 40
0.5
  1
405020c-Inch
100
AcDbAttributeDefinition
  3

  2
NB
 70
     8
280
     0
  0
ATTDEF
  5
8F
330
88
100
AcDbEntity
  8
AM_6
100
AcDbText
 10
5.1476825
 20
-2.022591369276958
 30
0.0
 40
0.5
  1
$MN.-Inch
100
AcDbAttributeDefinition
  3

  2
NBSYN
 70
     8
280
     0
  0
ATTDEF
  5
90
330
88
100
AcDbEntity
  8
AM_6
100
AcDbText
 10
5.1476825
 20
-2.522591369276958
 30
0.0
 40
0.5
  1
405020c
100
AcDbAttributeDefinition
  3

  2
LINA
 70
     8
280
     0
  0
ATTDEF
  5
91
330
88
100
AcDbEntity
  8
AM_6
100
AcDbText
 10
5.1476825
 20
-3.022591369276958
 30
0.0
 40
0.5
  1
405020c
100
AcDbAttributeDefinition
  3

  2
MN
 70
     8
280
     0
  0
ATTDEF
  5
92
330
88
100
AcDbEntity
  8
AM_6
100
AcDbText
 10
5.1476825
 20
-3.522591369276958
 30
0.0
 40
0.5
  1
0.230
100
AcDbAttributeDefinition
  3

  2
NDR
 70
     8
280
     0
  0
ATTDEF
  5
93
330
88
100
AcDbEntity
  8
AM_6
100
AcDbText
 10
5.1476825
 20
-4.022591369276958
 30
0.0
 40
0.5
  1
0.210
100
AcDbAttributeDefinition
  3

  2
KDR
 70
     8
280
     0
  0
ATTDEF
  5
94
330
88
100
AcDbEntity
  8
AM_6
100
AcDbText
 10
5.1476825
 20
-4.522591369276958
 30
0.0
 40
0.5
  1
0.157
100
AcDbAttributeDefinition
  3

  2
BZE
 70
     8
280
     0
  0
ATTDEF
  5
95
330
88
100
AcDbEntity
  8
AM_6
100
AcDbText
 10
5.1476825
 20
-5.022591369276958
 30
0.0
 40
0.5
  1
9/32
100
AcDbAttributeDefinition
  3

  2
WAF
 70
     8
280
     0
  0
ATTDEF
  5
96
330
88
100
AcDbEntity
  8
AM_6
100
AcDbText
 10
5.1476825
 20
-5.522591369276958
 30
0.0
 40
0.5
  1
0.2813
100
AcDbAttributeDefinition
  3

  2
WAF1
 70
     8
280
     0
  0
ATTDEF
  5
97
330
88
100
AcDbEntity
  8
AM_6
100
AcDbText
 10
5.1476825
 20
-6.022591369276958
 30
0.0
 40
0.5
  1
0.545
100
AcDbAttributeDefinition
  3

  2
BL
 70
     8
280
     0
  0
ATTDEF
  5
98
330
88
100
AcDbEntity
  8
AM_6
100
AcDbText
 10
5.1476825
 20
-6.522591369276958
 30
0.0
 40
0.5
  1
0.200
100
AcDbAttributeDefinition
  3

  2
TL
 70
     8
280
     0
  0
ATTDEF
  5
99
330
88
100
AcDbEntity
  8
AM_6
100
AcDbText
 10
5.1476825
 20
-7.022591369276958
 30
0.0
 40
0.5
  1
baldor
100
AcDbAttributeDefinition
  3

  2
COMPANY
 70
     8
280
     0
  0
CIRCLE
  5
9C
330
88
100
AcDbEntity
  8
AM_9
100
AcDbCircle
 10
0.0
 20
-0.6849999999999999
 30
0.0
 40
0.1000886227036577
  0
CIRCLE
  5
9D
330
88
100
AcDbEntity
  8
AM_9
100
AcDbCircle
 10
0.0
 20
-0.6849999999999999
 30
0.0
 40
0.1104162595939891
  0
CIRCLE
  5
9E
330
88
100
AcDbEntity
  8
AM_9
100
AcDbCircle
 10
0.0
 20
-0.6849999999999999
 30
0.0
 40
0.1163438171532771
  0
CIRCLE
  5
9F
330
88
100
AcDbEntity
  8
AM_9
100
AcDbCircle
 10
0.0
 20
-0.6849999999999999
 30
0.0
 40
0.1093294505797714
  0
CIRCLE
  5
A0
330
88
100
AcDbEntity
  8
AM_9
100
AcDbCircle
 10
0.0
 20
-0.6849999999999999
 30
0.0
 40
0.0946847896390988
  0
LINE
  5
A3
330
88
100
AcDbEntity
  8
AM_7
100
AcDbLine
 10
-0.1476825000000008
 20
-0.6849999999999997
 30
0.0
 11
0.1476825
 21
-0.6849999999999997
 31
0.0
  0
LINE
  5
A5
330
88
100
AcDbEntity
  8
AM_4
100
AcDbLine
 10
0.14065
 20
-0.6037956846384791
 30
0.0
 11
0.0
 21
-0.5225913692769582
 31
0.0
  0
LINE
  5
A6
330
88
100
AcDbEntity
  8
AM_4
100
AcDbLine
 10
0.0
 20
-0.5225913692769582
 30
0.0
 11
-0.14065
 21
-0.6037956846384791
 31
0.0
  0
LINE
  5
A7
330
88
100
AcDbEntity
  8
AM_4
100
AcDbLine
 10
0.14065
 20
-0.7662043153615208
 30
0.0
 11
0.14065
 21
-0.6037956846384791
 31
0.0
  0
LINE
  5
A8
330
88
100
AcDbEntity
  8
AM_4
100
AcDbLine
 10
-0.14065
 20
-0.6037956846384791
 30
0.0
 11
-0.14065
 21
-0.7662043153615208
 31
0.0
  0
LINE
  5
A9
330
88
100
AcDbEntity
  8
AM_4
100
AcDbLine
 10
0.0
 20
-0.8474086307230417
 30
0.0
 11
0.14065
 21
-0.7662043153615208
 31
0.0
  0
LINE
  5
AA
330
88
100
AcDbEntity
  8
AM_4
100
AcDbLine
 10
-0.14065
 20
-0.7662043153615208
 30
0.0
 11
0.0
 21
-0.8474086307230417
 31
0.0
  0
CIRCLE
  5
AB
330
88
100
AcDbEntity
  8
AM_4
100
AcDbCircle
 10
0.0
 20
-0.6849999999999999
 30
0.0
 40
0.135926521995058
  0
CIRCLE
  5
AC
330
88
100
AcDbEntity
  8
AM_4
100
AcDbCircle
 10
0.0
 20
-0.6849999999999999
 30
0.0
 40
0.13195176466768
  0
CIRCLE
  5
AD
330
88
100
AcDbEntity
  8
AM_4
100
AcDbCircle
 10
0.0
 20
-0.6849999999999999
 30
0.0
 40
0.080806429716728
  0
CIRCLE
  5
AE
330
88
100
AcDbEntity
  8
AM_4
100
AcDbCircle
 10
0.0
 20
-0.6849999999999999
 30
0.0
 40
0.1038190510530391
  0
CIRCLE
  5
AF
330
88
100
AcDbEntity
  8
AM_4
100
AcDbCircle
 10
0.0
 20
-0.6850000000000003
 30
0.0
 40
0.1406499999999997
  0
ENDBLK
  5
8B
330
88
100
AcDbEntity
  8
0
100
AcDbBlockEnd
  0
BLOCK
  5
B2
330
B0
100
AcDbEntity
  8
0
100
AcDbBlockBegin
  2
3_389927_0_in_123627_4
 70
     2
 10
0.0
 20
0.0
 30
0.0
  3
3_389927_0_in_123627_4
  1

  0
ATTDEF
  5
B4
330
B0
100
AcDbEntity
  8
AM_6
100
AcDbText
 10
6.219872827573635
 20
-0.04
 30
0.0
 40
0.5
  1
Set Screw Intermediate Duty Insert Inch Bore
100
AcDbAttributeDefinition
  3

  2
NN
 70
     8
280
     0
  0
ATTDEF
  5
B5
330
B0
100
AcDbEntity
  8
AM_6
100
AcDbText
 10
6.219872827573635
 20
-0.54
 30
0.0
 40
0.5
  1
VSC Intermediate Duty Bearing Inserts
100
AcDbAttributeDefinition
  3

  2
NT
 70
     8
280
     0
  0
ATTDEF
  5
B6
330
B0
100
AcDbEntity
  8
AM_6
100
AcDbText
 10
6.219872827573635
 20
-1.04
 30
0.0
 40
0.5
  1
389927
100
AcDbAttributeDefinition
  3

  2
NB
 70
     8
280
     0
  0
ATTDEF
  5
B7
330
B0
100
AcDbEntity
  8
AM_6
100
AcDbText
 10
6.219872827573635
 20
-1.54
 30
0.0
 40
0.5
  1
$PN.
100
AcDbAttributeDefinition
  3

  2
NBSYN
 70
     8
280
     0
  0
ATTDEF
  5
B8
330
B0
100
AcDbEntity
  8
AM_6
100
AcDbText
 10
6.219872827573635
 20
-2.04
 30
0.0
 40
0.5
  1
389927
100
AcDbAttributeDefinition
  3

  2
LINA
 70
     8
280
     0
  0
ATTDEF
  5
B9
330
B0
100
AcDbEntity
  8
AM_6
100
AcDbText
 10
6.219872827573635
 20
-2.54
 30
0.0
 40
0.5
  1
206
100
AcDbAttributeDefinition
  3

  2
SERIES
 70
     8
280
     0
  0
ATTDEF
  5
BA
330
B0
100
AcDbEntity
  8
AM_6
100
AcDbText
 10
6.219872827573635
 20
-3.04
 30
0.0
 40
0.5
  1
1-3/16
100
AcDbAttributeDefinition
  3

  2
SS
 70
     8
280
     0
  0
ATTDEF
  5
BB
330
B0
100
AcDbEntity
  8
AM_6
100
AcDbText
 10
6.219872827573635
 20
-3.54
 30
0.0
 40
0.5
  1
389927
100
AcDbAttributeDefinition
  3

  2
PN
 70
     8
280
     0
  0
ATTDEF
  5
BC
330
B0
100
AcDbEntity
  8
AM_6
100
AcDbText
 10
6.219872827573635
 20
-4.04
 30
0.0
 40
0.5
  1
INS-VSC-103
100
AcDbAttributeDefinition
  3

  2
DESCRIPTION
 70
     8
280
     0
  0
ATTDEF
  5
BD
330
B0
100
AcDbEntity
  8
AM_6
100
AcDbText
 10
6.219872827573635
 20
-4.54
 30
0.0
 40
0.5
  1
0.58
100
AcDbAttributeDefinition
  3

  2
WEIGHT
 70
     8
280
     0
  0
ATTDEF
  5
BE
330
B0
100
AcDbEntity
  8
AM_6
100
AcDbText
 10
6.219872827573635
 20
-5.04
 30
0.0
 40
0.5
  1
1.52
100
AcDbAttributeDefinition
  3

  2
A
 70
     8
280
     0
  0
ATTDEF
  5
BF
330
B0
100
AcDbEntity
  8
AM_6
100
AcDbText
 10
6.219872827573635
 20
-5.54
 30
0.0
 40
0.5
  1
0.69
100
AcDbAttributeDefinition
  3

  2
C
 70
     8
280
     0
  0
ATTDEF
  5
C0
330
B0
100
AcDbEntity
  8
AM_6
100
AcDbText
 10
6.219872827573635
 20
-6.04
 30
0.0
 40
0.5
  1
2.4409
100
AcDbAttributeDefinition
  3

  2
D
 70
     8
280
     0
  0
ATTDEF
  5
C1
330
B0
100
AcDbEntity
  8
AM_6
100
AcDbText
 10
6.219872827573635
 20
-6.54
 30
0.0
 40
0.5
  1
0.160
100
AcDbAttributeDefinition
  3

  2
J
 70
     8
280
     0
  0
ATTDEF
  5
C2
330
B0
100
AcDbEntity
  8
AM_6
100
AcDbText
 10
6.219872827573635
 20
-7.04
 30
0.0
 40
0.5
  1
1.57
100
AcDbAttributeDefinition
  3

  2
L
 70
     8
280
     0
  0
ATTDEF
  5
C3
330
B0
100
AcDbEntity
  8
AM_6
100
AcDbText
 10
6.219872827573635
 20
-7.54
 30
0.0
 40
0.5
  1
5/16-24
100
AcDbAttributeDefinition
  3

  2
N
 70
     8
280
     0
  0
ATTDEF
  5
C4
330
B0
100
AcDbEntity
  8
AM_6
100
AcDbText
 10
6.219872827573635
 20
-8.04
 30
0.0
 40
0.5
  1
0.58
100
AcDbAttributeDefinition
  3

  2
W
 70
     8
280
     0
  0
ATTDEF
  5
C5
330
B0
100
AcDbEntity
  8
AM_6
100
AcDbText
 10
6.219872827573635
 20
-8.54
 30
0.0
 40
0.5
  1
0.94
100
AcDbAttributeDefinition
  3

  2
Y
 70
     8
280
     0
  0
ATTDEF
  5
C6
330
B0
100
AcDbEntity
  8
AM_6
100
AcDbText
 10
6.219872827573635
 20
-9.04
 30
0.0
 40
0.5
  1
baldor
100
AcDbAttributeDefinition
  3

  2
COMPANY
 70
     8
280
     0
  0
LINE
  5
C7
330
B0
100
AcDbEntity
  8
AM_9
100
AcDbLine
 10
-1.191558495747389
 20
-0.355833333333338
 30
0.0
 11
-1.217097727272727
 21
-0.355833333333338
 31
0.0
  0
LINE
  5
C8
330
B0
100
AcDbEntity
  8
AM_9
100
AcDbLine
 10
-1.279825
 20
-0.4185606060606104
 30
0.0
 11
-1.279825
 21
-0.5014393939393895
 31
0.0
  0
ARC
  5
C9
330
B0
100
AcDbEntity
  8
AM_9
100
AcDbCircle
 10
-1.217097727272727
 20
-0.5014393939393886
 30
0.0
 40
0.0627272727272732
100
AcDbArc
 50
180.0
 51
268.1422671406847
  0
ARC
  5
CA
330
B0
100
AcDbEntity
  8
AM_9
100
AcDbCircle
 10
-1.217097727272727
 20
-0.4185606060606111
 30
0.0
 40
0.0627272727272731
100
AcDbArc
 50
90.0
 51
180.0
  0
LINE
  5
CB
330
B0
100
AcDbEntity
  8
AM_9
100
AcDbLine
 10
-1.217097727272727
 20
-0.3558333333333379
 30
0.0
 11
-1.217097727272801
 21
-0.5483730302409319
 31
0.0
  0
LINE
  5
CC
330
B0
100
AcDbEntity
  8
AM_9
100
AcDbLine
 10
0.5380263080897977
 20
-1.3812
 30
0.0
 11
0.6910143722260939
 21
-1.3812
 31
0.0
  0
LINE
  5
CD
330
B0
100
AcDbEntity
  8
AM_9
100
AcDbLine
 10
0.6910143722260939
 20
-1.1138
 30
0.0
 11
0.5380676973144289
 21
-1.1138
 31
0.0
  0
LWPOLYLINE
  5
CE
330
B0
100
AcDbEntity
  8
AM_9
100
AcDbPolyline
 90
       21
 70
     0
 43
0.0
 10
0.5381165811639564
 20
-1.381199999718393
 10
0.5438351769804836
 20
-1.380478604282282
 10
0.5520443671330397
 20
-1.376487257933299
 10
0.559422876755737
 20
-1.368859438740521
 10
0.5655253532615062
 20
-1.358140819211825
 10
0.570626772877142
 20
-1.344089859248042
 10
0.5745716164255262
 20
-1.327451313088507
 10
0.5775460264095712
 20
-1.308011842756805
 10
0.5794805380880237
 20
-1.287317446045234
 10
0.5805635694732612
 20
-1.264792826007352
 10
0.5807870471089127
 20
-1.242890373741884
 10
0.5802095285137313
 20
-1.220476771501827
 10
0.5788578569471665
 20
-1.199719223822236
 10
0.576591994349017
 20
-1.179724993378491
 10
0.5733961269343458
 20
-1.161820542496378
 10
0.569028581278309
 20
-1.145825723944222
 10
0.5635392313529817
 20
-1.132799152900834
 10
0.5566474804953153
 20
-1.122716580099394
 10
0.5488424135209958
 20
-1.116483859414447
 10
0.539737022360625
 20
-1.113855513013215
 10
0.5381260329663091
 20
-1.113800000700619
  0
LWPOLYLINE
  5
CF
330
B0
100
AcDbEntity
  8
AM_9
100
AcDbPolyline
 90
       11
 70
     0
 43
0.0
 10
0.5381260329663091
 20
-1.113800000700619
 10
0.5303018211934019
 20
-1.115006353856613
 10
0.5200876446811389
 20
-1.11986259748071
 10
0.510057351796999
 20
-1.1279715137218
 10
0.5000105518813441
 20
-1.139552984239762
 10
0.4907267806032151
 20
-1.153978152718158
 10
0.4823352898042466
 20
-1.171456989144238
 10
0.4756268739659639
 20
-1.190848806607543
 10
0.4707220971944377
 20
-1.212517165771033
 10
0.4685482607285776
 20
-1.229685086711702
 10
0.467795872488285
 20
-1.2475
  0
ELLIPSE
  5
D0
330
B0
100
AcDbEntity
  8
AM_9
100
AcDbEllipse
 10
0.6910143722260939
 20
-1.2475
 30
0.0
 11
-2.456029155690024E-17
 21
-0.1337000000000004
 31
0.0
210
0.0
220
0.0
230
1.0
 40
0.4226182617406993
 41
3.513563265242356
 42
5.920421561720493
  0
LINE
  5
D1
330
B0
100
AcDbEntity
  8
AM_9
100
AcDbLine
 10
0.6646660955876088
 20
-1.365774043397022
 30
0.0
 11
0.6782079162082914
 21
-1.382664574603118
 31
0.0
  0
LINE
  5
D2
330
B0
100
AcDbEntity
  8
AM_9
100
AcDbLine
 10
0.6782764680098876
 20
-1.112249921654325
 30
0.0
 11
0.6646660955876088
 21
-1.129225956602978
 31
0.0
  0
LWPOLYLINE
  5
D3
330
B0
100
AcDbEntity
  8
AM_9
100
AcDbPolyline
 90
       11
 70
     0
 43
0.0
 10
0.467795872488285
 20
-1.2475
 10
0.4689249629222988
 20
-1.269307617778486
 10
0.4723749330960325
 20
-1.291115235556973
 10
0.4777501256836949
 20
-1.311078148901125
 10
0.4850497726530135
 20
-1.329802496948866
 10
0.4936556864580712
 20
-1.346028927712293
 10
0.5035165518499978
 20
-1.359912085771009
 10
0.5137590574706257
 20
-1.370405031219956
 10
0.5244232815284092
 20
-1.377626227466376
 10
0.5343087864906689
 20
-1.38090502113212
 10
0.5381165811639564
 20
-1.381199999718393
  0
LINE
  5
D4
330
B0
100
AcDbEntity
  8
AM_9
100
AcDbLine
 10
0.59375
 20
-1.5286
 30
0.0
 11
0.59375
 21
-0.04785
 31
0.0
  0
LINE
  5
D5
330
B0
100
AcDbEntity
  8
AM_9
100
AcDbLine
 10
-0.59375
 20
-0.04785
 30
0.0
 11
-0.59375
 21
-1.5286
 31
0.0
  0
LINE
  5
D6
330
B0
100
AcDbEntity
  8
AM_9
100
AcDbLine
 10
0.59375
 20
-0.04785
 30
0.0
 11
0.6016
 21
-0.04
 31
0.0
  0
LINE
  5
D7
330
B0
100
AcDbEntity
  8
AM_9
100
AcDbLine
 10
-0.6016
 20
-0.04
 30
0.0
 11
-0.59375
 21
-0.04785
 31
0.0
  0
LINE
  5
D8
330
B0
100
AcDbEntity
  8
AM_9
100
AcDbLine
 10
-0.59375
 20
-1.5286
 30
0.0
 11
-0.62515
 21
-1.56
 31
0.0
  0
LINE
  5
D9
330
B0
100
AcDbEntity
  8
AM_9
100
AcDbLine
 10
0.62515
 20
-1.56
 30
0.0
 11
0.59375
 21
-1.5286
 31
0.0
  0
LINE
  5
DA
330
B0
100
AcDbEntity
  8
AM_9
100
AcDbLine
 10
-0.7771499999999999
 20
-0.04
 30
0.0
 11
0.7771499999999999
 21
-0.04
 31
0.0
  0
LINE
  5
DB
330
B0
100
AcDbEntity
  8
AM_9
100
AcDbLine
 10
-0.7771499999999999
 20
-0.04
 30
0.0
 11
-0.7849999999999999
 21
-0.04785
 31
0.0
  0
LINE
  5
DC
330
B0
100
AcDbEntity
  8
AM_9
100
AcDbLine
 10
0.7849999999999999
 20
-0.04785
 30
0.0
 11
0.7771499999999999
 21
-0.04
 31
0.0
  0
LINE
  5
DD
330
B0
100
AcDbEntity
  8
AM_9
100
AcDbLine
 10
-0.7849999999999999
 20
-0.04785
 30
0.0
 11
0.7849999999999999
 21
-0.04785
 31
0.0
  0
LINE
  5
DE
330
B0
100
AcDbEntity
  8
AM_9
100
AcDbLine
 10
0.7849999999999999
 20
-0.275
 30
0.0
 11
0.7849999999999999
 21
-0.04785
 31
0.0
  0
LINE
  5
DF
330
B0
100
AcDbEntity
  8
AM_9
100
AcDbLine
 10
-0.7849999999999999
 20
-0.04785
 30
0.0
 11
-0.7849999999999999
 21
-0.275
 31
0.0
  0
LINE
  5
E0
330
B0
100
AcDbEntity
  8
AM_9
100
AcDbLine
 10
0.7849999999999999
 20
-1.07
 30
0.0
 11
0.7849999999999999
 21
-0.9649999999999999
 31
0.0
  0
LINE
  5
E1
330
B0
100
AcDbEntity
  8
AM_9
100
AcDbLine
 10
-0.7849999999999999
 20
-0.9649999999999999
 30
0.0
 11
-0.7849999999999999
 21
-1.07
 31
0.0
  0
LINE
  5
E2
330
B0
100
AcDbEntity
  8
AM_9
100
AcDbLine
 10
1.167116666666667
 20
-0.8119999999999998
 30
0.0
 11
1.167116666666667
 21
-0.7479999999999999
 31
0.0
  0
LINE
  5
E3
330
B0
100
AcDbEntity
  8
AM_9
100
AcDbLine
 10
-1.167116666666667
 20
-0.7479999999999999
 30
0.0
 11
-1.167116666666667
 21
-0.8119999999999998
 31
0.0
  0
LINE
  5
E4
330
B0
100
AcDbEntity
  8
AM_9
100
AcDbLine
 10
-1.146492216502145
 20
-0.275
 30
0.0
 11
1.146492216501276
 21
-0.275
 31
0.0
  0
ARC
  5
E5
330
B0
100
AcDbEntity
  8
AM_9
100
AcDbCircle
 10
1.146492216502145
 20
-0.3069999999999997
 30
0.0
 40
0.0319999999999998
100
AcDbArc
 50
15.27001663184324
 51
90.0
  0
ARC
  5
E6
330
B0
100
AcDbEntity
  8
AM_9
100
AcDbCircle
 10
-1.146492216502145
 20
-0.3069999999999997
 30
0.0
 40
0.0319999999999996
100
AcDbArc
 50
90.0
 51
164.7299833681568
  0
LINE
  5
E7
330
B0
100
AcDbEntity
  8
AM_9
100
AcDbLine
 10
-1.146492216502144
 20
-0.965
 30
0.0
 11
1.146492216501275
 21
-0.965
 31
0.0
  0
ARC
  5
E8
330
B0
100
AcDbEntity
  8
AM_9
100
AcDbCircle
 10
1.146492216502144
 20
-0.9329999999999996
 30
0.0
 40
0.0320000000000004
100
AcDbArc
 50
270.0
 51
344.729983368156
  0
ARC
  5
E9
330
B0
100
AcDbEntity
  8
AM_9
100
AcDbCircle
 10
-1.146492216502144
 20
-0.9329999999999996
 30
0.0
 40
0.0320000000000003
100
AcDbArc
 50
195.270016631844
 51
270.0
  0
LINE
  5
EA
330
B0
100
AcDbEntity
  8
AM_9
100
AcDbLine
 10
-1.177362468450538
 20
-0.9414277840885185
 30
0.0
 11
1.177362468450545
 21
-0.9414277840885185
 31
0.0
  0
LINE
  5
EB
330
B0
100
AcDbEntity
  8
AM_9
100
AcDbLine
 10
-1.205252754612077
 20
-0.8119999999999999
 30
0.0
 11
1.205252754612084
 21
-0.8119999999999999
 31
0.0
  0
ARC
  5
EC
330
B0
100
AcDbEntity
  8
AM_9
100
AcDbCircle
 10
0.0000000000039302
 20
-0.6200000000008457
 30
0.0
 40
1.220449999995992
100
AcDbArc
 50
344.729983368146
 51
350.9486832420337
  0
ARC
  5
ED
330
B0
100
AcDbEntity
  8
AM_9
100
AcDbCircle
 10
-0.000000000004168
 20
-0.6200000000008973
 30
0.0
 40
1.220449999995749
100
AcDbArc
 50
189.0513167579656
 51
195.2700166318546
  0
LINE
  5
EE
330
B0
100
AcDbEntity
  8
AM_9
100
AcDbLine
 10
-1.213719161297209
 20
-0.7479999999999997
 30
0.0
 11
1.213719161297201
 21
-0.7479999999999997
 31
0.0
  0
LINE
  5
EF
330
B0
100
AcDbEntity
  8
AM_9
100
AcDbLine
 10
-1.177362468450538
 20
-0.2985722159114814
 30
0.0
 11
1.17736246845053
 21
-0.2985722159114813
 31
0.0
  0
ARC
  5
F0
330
B0
100
AcDbEntity
  8
AM_9
100
AcDbCircle
 10
-0.0000000000004878
 20
-0.6200000000000385
 30
0.0
 40
1.220450000000473
100
AcDbArc
 50
353.9797846834528
 51
15.27001663183964
  0
ARC
  5
F1
330
B0
100
AcDbEntity
  8
AM_9
100
AcDbCircle
 10
0.0000000000128892
 20
-0.6200000000030164
 30
0.0
 40
1.220450000013221
100
AcDbArc
 50
164.7299833681788
 51
167.5136823310947
  0
ARC
  5
F2
330
B0
100
AcDbEntity
  8
AM_9
100
AcDbCircle
 10
0.0000000000013605
 20
-0.6200000000000124
 30
0.0
 40
1.220450000001344
100
AcDbArc
 50
177.3586925796071
 51
186.020215316544
  0
LINE
  5
F3
330
B0
100
AcDbEntity
  8
AM_9
100
AcDbLine
 10
-1.191517593124218
 20
-0.3558333333406607
 30
0.0
 11
-1.219170625674379
 21
-0.5641324065964468
 31
0.0
  0
LINE
  5
F4
330
B0
100
AcDbEntity
  8
AM_7
100
AcDbLine
 10
-0.140385
 20
-1.2475
 30
0.0
 11
0.140385
 21
-1.2475
 31
0.0
  0
LINE
  5
F5
330
B0
100
AcDbEntity
  8
AM_7
100
AcDbLine
 10
-1.30456625
 20
-0.46
 30
0.0
 11
-0.7602587499999999
 21
-0.46
 31
0.0
  0
ELLIPSE
  5
F6
330
B0
100
AcDbEntity
  8
AM_4
100
AcDbEllipse
 10
0.6910143722260939
 20
-1.2475
 30
0.0
 11
-2.456029155690020E-17
 21
-0.1337000000000002
 31
0.0
210
0.0
220
0.0
230
1.0
 40
0.4226182617406999
 41
5.920421561720491
 42
9.796748572421942
  0
LWPOLYLINE
  5
F7
330
B0
100
AcDbEntity
  8
AM_4
100
AcDbPolyline
 90
       16
 70
     0
 43
0.0
 10
0.6783397554575211
 20
-1.382829011153283
 10
0.6752754919027467
 20
-1.378812761679045
 10
0.6660263511281217
 20
-1.364103282209829
 10
0.6577703794968547
 20
-1.34685276341783
 10
0.6502345922748477
 20
-1.325689784235678
 10
0.6444748631418943
 20
-1.302664065298557
 10
0.6405411163318178
 20
-1.27652360728683
 10
0.6390634776901144
 20
-1.249618740521799
 10
0.6402281918673104
 20
-1.221737208531904
 10
0.6440333273366993
 20
-1.194580697550813
 10
0.6479879195639239
 20
-1.177258622908054
 10
0.6529826525018618
 20
-1.160792070274357
 10
0.6588826864177612
 20
-1.145531659813137
 10
0.6653777135130543
 20
-1.132099120631073
 10
0.67252079099172
 20
-1.120156776206276
 10
0.6783492003697594
 20
-1.112159204274355
  0
LWPOLYLINE
  5
F8
330
B0
100
AcDbEntity
  8
AM_4
100
AcDbPolyline
 90
       10
 70
     0
 43
0.0
 10
0.6783492003697594
 20
-1.112159204274355
 10
0.6801126105555508
 20
-1.110021182019308
 10
0.6911131377793359
 20
-1.099354691731504
 10
0.7022449179477751
 20
-1.092979361668299
 10
0.7120428639783484
 20
-1.091275897122546
 10
0.7212437807878466
 20
-1.09346703827994
 10
0.7292503838376289
 20
-1.099186976977915
 10
0.7363400248622035
 20
-1.108159542373657
 10
0.7410909050883231
 20
-1.117041443753503
 10
0.7452591326038535
 20
-1.127471130051376
  0
CIRCLE
  5
F9
330
B0
100
AcDbEntity
  8
AM_4
100
AcDbCircle
 10
0.0
 20
-1.2475
 30
0.0
 40
0.1337
  0
LINE
  5
FA
330
B0
100
AcDbEntity
  8
AM_4
100
AcDbLine
 10
-0.7535999999999999
 20
-1.56
 30
0.0
 11
0.7535999999999999
 21
-1.56
 31
0.0
  0
LINE
  5
FB
330
B0
100
AcDbEntity
  8
AM_4
100
AcDbLine
 10
0.7535999999999999
 20
-1.56
 30
0.0
 11
0.7849999999999999
 21
-1.5286
 31
0.0
  0
LINE
  5
FC
330
B0
100
AcDbEntity
  8
AM_4
100
AcDbLine
 10
-0.7849999999999999
 20
-1.5286
 30
0.0
 11
-0.7535999999999999
 21
-1.56
 31
0.0
  0
LINE
  5
FD
330
B0
100
AcDbEntity
  8
AM_4
100
AcDbLine
 10
-0.7849999999999999
 20
-1.5286
 30
0.0
 11
0.7849999999999999
 21
-1.5286
 31
0.0
  0
LWPOLYLINE
  5
FE
330
B0
100
AcDbEntity
  8
AM_4
100
AcDbPolyline
 90
       44
 70
     0
 43
0.0
 10
-0.1046876559246353
 20
-1.141139728859628
 10
-0.0893598557753135
 20
-1.125597063654784
 10
-0.0714703467180327
 20
-1.112230476788838
 10
-0.0497128858467561
 20
-1.10103236840932
 10
-0.0378059428181769
 20
-1.09683167062181
 10
-0.0254330656363889
 20
-1.093751479562502
 10
-0.0031193407358449
 20
-1.091287338914971
 10
0.0200026479857882
 20
-1.09279263207393
 10
0.04082571440551
 20
-1.097778685211001
 10
0.0610911932480633
 20
-1.106278162407078
 10
0.0798084038830572
 20
-1.11792322142161
 10
0.0968980756274608
 20
-1.132674848799197
 10
0.1123240836070426
 20
-1.150864921696743
 10
0.1250652772237572
 20
-1.171737599347692
 10
0.1349591665115209
 20
-1.195691549064245
 10
0.1411065899194419
 20
-1.221601142280607
 10
0.143092159684374
 20
-1.248814087116935
 10
0.1405531068677648
 20
-1.27675090291518
 10
0.1335452910213336
 20
-1.303488965334789
 10
0.1282520701043075
 20
-1.316641699098058
 10
0.1217845522010306
 20
-1.329370705154058
 10
0.1064583292218352
 20
-1.351744738131225
 10
0.0971164494929056
 20
-1.362104872060719
 10
0.0867562455996918
 20
-1.371628158362309
 10
0.0657949997894547
 20
-1.386170584632946
 10
0.0540452381869404
 20
-1.392118694202588
 10
0.0416492532203438
 20
-1.396949344654027
 10
0.0191170073157389
 20
-1.40234154195787
 10
-0.0048096001329642
 20
-1.403661218202964
 10
-0.0262334065274223
 20
-1.401087252232842
 10
-0.0475179326526944
 20
-1.394837486054282
 10
-0.0670381546304047
 20
-1.385456537327443
 10
-0.0852867851417793
 20
-1.37283835711507
 10
-0.1020493638383009
 20
-1.356873978579049
 10
-0.116497003591227
 20
-1.338063157811482
 10
-0.12858541213922
 20
-1.315902157109029
 10
-0.1372794245287699
 20
-1.291483010771913
 10
-0.1421914862266065
 20
-1.265002400600231
 10
-0.1427914653436678
 20
-1.237320102450934
 10
-0.138886388688263
 20
-1.209976496681443
 10
-0.1351586250033664
 20
-1.196312427786467
 10
-0.130241357320874
 20
-1.182926758092083
 10
-0.1192358588474415
 20
-1.161282443460373
 10
-0.1046876559582978
 20
-1.14113972883759
  0
LWPOLYLINE
  5
FF
330
B0
100
AcDbEntity
  8
AM_4
100
AcDbPolyline
 90
       21
 70
     0
 43
0.0
 10
0.7452591326038535
 20
-1.127471130051376
 10
0.7499702407336902
 20
-1.143677338989236
 10
0.7537002705839381
 20
-1.161939217741679
 10
0.7568740517447206
 20
-1.185122762303656
 10
0.7589166639157731
 20
-1.209854840188873
 10
0.7599236744050081
 20
-1.237021767558963
 10
0.759789442925245
 20
-1.264472192392237
 10
0.7584636945614813
 20
-1.292044519333992
 10
0.7558799626973859
 20
-1.318342217871311
 10
0.753427905391187
 20
-1.33461522451918
 10
0.7503337006510741
 20
-1.34979782154938
 10
0.7465811888133961
 20
-1.36354388232116
 10
0.7423411250959184
 20
-1.375106423794515
 10
0.7374288035766754
 20
-1.38501716752584
 10
0.7318816855879158
 20
-1.39299409854887
 10
0.723269470586453
 20
-1.400436859792572
 10
0.7136521948209273
 20
-1.403644427157385
 10
0.7041617663621503
 20
-1.402640292778133
 10
0.6943418401375484
 20
-1.39796889536444
 10
0.6846533765214572
 20
-1.389921022086676
 10
0.6783397554575211
 20
-1.382829011153283
  0
LINE
  5
100
330
B0
100
AcDbEntity
  8
AM_4
100
AcDbLine
 10
0.7849999999999999
 20
-1.5286
 30
0.0
 11
0.7849999999999999
 21
-1.07
 31
0.0
  0
LINE
  5
101
330
B0
100
AcDbEntity
  8
AM_4
100
AcDbLine
 10
-0.7849999999999999
 20
-1.07
 30
0.0
 11
-0.7849999999999999
 21
-1.5286
 31
0.0
  0
CIRCLE
  5
103
330
B0
100
AcDbEntity
  8
AM_5
100
AcDbCircle
 10
0.0
 20
-1.2475
 30
0.0
 40
0.15625
  0
ENDBLK
  5
B3
330
B0
100
AcDbEntity
  8
0
100
AcDbBlockEnd
  0
BLOCK
  5
106
330
104
100
AcDbEntity
  8
0
100
AcDbBlockBegin
  2
4_123627vsc_0_in_123627_4
 70
     2
 10
0.0
 20
0.0
 30
0.0
  3
4_123627vsc_0_in_123627_4
  1

  0
ATTDEF
  5
108
330
104
100
AcDbEntity
  8
AM_6
100
AcDbText
 10
7.125
 20
0.0535
 30
0.0
 40
0.5
  1
F4B-VSC -Inch - housing
100
AcDbAttributeDefinition
  3

  2
NN
 70
     8
280
     0
  0
ATTDEF
  5
109
330
104
100
AcDbEntity
  8
AM_6
100
AcDbText
 10
7.125
 20
-0.4465
 30
0.0
 40
0.5
  1
VSC Intermediate Duty 4-Bolt Flange Bearings
100
AcDbAttributeDefinition
  3

  2
NT
 70
     8
280
     0
  0
ATTDEF
  5
10A
330
104
100
AcDbEntity
  8
AM_6
100
AcDbText
 10
7.125
 20
-0.9465
 30
0.0
 40
0.5
  1
123627vsc
100
AcDbAttributeDefinition
  3

  2
NB
 70
     8
280
     0
  0
ATTDEF
  5
10B
330
104
100
AcDbEntity
  8
AM_6
100
AcDbText
 10
7.125
 20
-1.4465
 30
0.0
 40
0.5
  1
$PN.
100
AcDbAttributeDefinition
  3

  2
NBSYN
 70
     8
280
     0
  0
ATTDEF
  5
10C
330
104
100
AcDbEntity
  8
AM_6
100
AcDbText
 10
7.125
 20
-1.9465
 30
0.0
 40
0.5
  1
123627vsc
100
AcDbAttributeDefinition
  3

  2
LINA
 70
     8
280
     0
  0
ATTDEF
  5
10D
330
104
100
AcDbEntity
  8
AM_6
100
AcDbText
 10
7.125
 20
-2.4465
 30
0.0
 40
0.5
  1
206
100
AcDbAttributeDefinition
  3

  2
RS
 70
     8
280
     0
  0
ATTDEF
  5
10E
330
104
100
AcDbEntity
  8
AM_6
100
AcDbText
 10
7.125
 20
-2.9465
 30
0.0
 40
0.5
  1
1-3/16
100
AcDbAttributeDefinition
  3

  2
SS
 70
     8
280
     0
  0
ATTDEF
  5
10F
330
104
100
AcDbEntity
  8
AM_6
100
AcDbText
 10
7.125
 20
-3.4465
 30
0.0
 40
0.5
  1
123627vsc
100
AcDbAttributeDefinition
  3

  2
PN
 70
     8
280
     0
  0
ATTDEF
  5
110
330
104
100
AcDbEntity
  8
AM_6
100
AcDbText
 10
7.125
 20
-3.9465
 30
0.0
 40
0.5
  1
F4B-VSC-103
100
AcDbAttributeDefinition
  3

  2
DESCRIPTION
 70
     8
280
     0
  0
ATTDEF
  5
111
330
104
100
AcDbEntity
  8
AM_6
100
AcDbText
 10
7.125
 20
-4.4465
 30
0.0
 40
0.5
  1
RE-LUBE
100
AcDbAttributeDefinition
  3

  2
LF
 70
     8
280
     0
  0
ATTDEF
  5
112
330
104
100
AcDbEntity
  8
AM_6
100
AcDbText
 10
7.125
 20
-4.9465
 30
0.0
 40
0.5
  1
2.68
100
AcDbAttributeDefinition
  3

  2
WEIGHT
 70
     8
280
     0
  0
ATTDEF
  5
113
330
104
100
AcDbEntity
  8
AM_6
100
AcDbText
 10
7.125
 20
-5.4465
 30
0.0
 40
0.5
  1
1.52
100
AcDbAttributeDefinition
  3

  2
A
 70
     8
280
     0
  0
ATTDEF
  5
114
330
104
100
AcDbEntity
  8
AM_6
100
AcDbText
 10
7.125
 20
-5.9465
 30
0.0
 40
0.5
  1
4.25
100
AcDbAttributeDefinition
  3

  2
B
 70
     8
280
     0
  0
ATTDEF
  5
115
330
104
100
AcDbEntity
  8
AM_6
100
AcDbText
 10
7.125
 20
-6.4465
 30
0.0
 40
0.5
  1
1.56
100
AcDbAttributeDefinition
  3

  2
C
 70
     8
280
     0
  0
ATTDEF
  5
116
330
104
100
AcDbEntity
  8
AM_6
100
AcDbText
 10
7.125
 20
-6.9465
 30
0.0
 40
0.5
  1
3.25
100
AcDbAttributeDefinition
  3

  2
D
 70
     8
280
     0
  0
ATTDEF
  5
117
330
104
100
AcDbEntity
  8
AM_6
100
AcDbText
 10
7.125
 20
-7.4465
 30
0.0
 40
0.5
  1
7/16
100
AcDbAttributeDefinition
  3

  2
F
 70
     8
280
     0
  0
ATTDEF
  5
118
330
104
100
AcDbEntity
  8
AM_6
100
AcDbText
 10
7.125
 20
-7.9465
 30
0.0
 40
0.5
  1
0.50
100
AcDbAttributeDefinition
  3

  2
H
 70
     8
280
     0
  0
ATTDEF
  5
119
330
104
100
AcDbEntity
  8
AM_6
100
AcDbText
 10
7.125
 20
-8.4465
 30
0.0
 40
0.5
  1
0.49
100
AcDbAttributeDefinition
  3

  2
J
 70
     8
280
     0
  0
ATTDEF
  5
11A
330
104
100
AcDbEntity
  8
AM_6
100
AcDbText
 10
7.125
 20
-8.9465
 30
0.0
 40
0.5
  1
1.57
100
AcDbAttributeDefinition
  3

  2
L
 70
     8
280
     0
  0
ATTDEF
  5
11B
330
104
100
AcDbEntity
  8
AM_6
100
AcDbText
 10
7.125
 20
-9.4465
 30
0.0
 40
0.5
  1
2.19
100
AcDbAttributeDefinition
  3

  2
N
 70
     8
280
     0
  0
ATTDEF
  5
11C
330
104
100
AcDbEntity
  8
AM_6
100
AcDbText
 10
7.125
 20
-9.9465
 30
0.0
 40
0.5
  1
baldor
100
AcDbAttributeDefinition
  3

  2
COMPANY
 70
     8
280
     0
  0
LINE
  5
11D
330
104
100
AcDbEntity
  8
AM_9
100
AcDbLine
 10
1.133760542674246
 20
-0.642
 30
0.0
 11
1.133760542674246
 21
-0.0149999999999999
 31
0.0
  0
LINE
  5
11E
330
104
100
AcDbEntity
  8
AM_9
100
AcDbLine
 10
1.279825
 20
-0.642
 30
0.0
 11
1.279825
 21
-0.015
 31
0.0
  0
LINE
  5
11F
330
104
100
AcDbEntity
  8
AM_9
100
AcDbLine
 10
1.279825
 20
-0.642
 30
0.0
 11
1.066282861158333
 21
-0.642
 31
0.0
  0
LINE
  5
120
330
104
100
AcDbEntity
  8
AM_9
100
AcDbLine
 10
-1.066282861158333
 20
-0.642
 30
0.0
 11
-1.279825
 21
-0.642
 31
0.0
  0
LINE
  5
121
330
104
100
AcDbEntity
  8
AM_9
100
AcDbLine
 10
-1.133760542674246
 20
-0.642
 30
0.0
 11
-1.133760542674246
 21
-0.0149999999999999
 31
0.0
  0
LINE
  5
122
330
104
100
AcDbEntity
  8
AM_9
100
AcDbLine
 10
-1.279825
 20
-0.5014393939393895
 30
0.0
 11
-1.279825
 21
-0.642
 31
0.0
  0
LINE
  5
123
330
104
100
AcDbEntity
  8
AM_9
100
AcDbLine
 10
-1.279825
 20
-0.015
 30
0.0
 11
-1.279825
 21
-0.4185606060606104
 31
0.0
  0
LINE
  5
124
330
104
100
AcDbEntity
  8
AM_9
100
AcDbLine
 10
1.066282861158333
 20
-0.642
 30
0.0
 11
1.066282861158333
 21
-0.0149999999999999
 31
0.0
  0
LINE
  5
125
330
104
100
AcDbEntity
  8
AM_9
100
AcDbLine
 10
-1.066282861158333
 20
-0.0149999999999999
 30
0.0
 11
-1.066282861158333
 21
-0.642
 31
0.0
  0
LINE
  5
126
330
104
100
AcDbEntity
  8
AM_9
100
AcDbLine
 10
1.22045
 20
-0.9700000000000001
 30
0.0
 11
1.22045
 21
-0.642
 31
0.0
  0
LINE
  5
127
330
104
100
AcDbEntity
  8
AM_9
100
AcDbLine
 10
-1.22045
 20
-0.642
 30
0.0
 11
-1.22045
 21
-0.9700000000000001
 31
0.0
  0
LINE
  5
128
330
104
100
AcDbEntity
  8
AM_9
100
AcDbLine
 10
-1.299616666666667
 20
-0.9700000000000001
 30
0.0
 11
1.299616666666667
 21
-0.9700000000000001
 31
0.0
  0
LINE
  5
129
330
104
100
AcDbEntity
  8
AM_9
100
AcDbLine
 10
1.299616666666667
 20
-1.07
 30
0.0
 11
1.299616666666667
 21
-0.9700000000000001
 31
0.0
  0
LINE
  5
12A
330
104
100
AcDbEntity
  8
AM_9
100
AcDbLine
 10
-1.299616666666667
 20
-0.9700000000000001
 30
0.0
 11
-1.299616666666667
 21
-1.07
 31
0.0
  0
LINE
  5
12B
330
104
100
AcDbEntity
  8
AM_9
100
AcDbLine
 10
-1.299616666666667
 20
-0.015
 30
0.0
 11
1.299616666666667
 21
-0.015
 31
0.0
  0
LINE
  5
12C
330
104
100
AcDbEntity
  8
AM_9
100
AcDbLine
 10
1.299616666666667
 20
-0.015
 30
0.0
 11
1.299616666666667
 21
0.0
 31
0.0
  0
LINE
  5
12D
330
104
100
AcDbEntity
  8
AM_9
100
AcDbLine
 10
-1.299616666666667
 20
0.0
 30
0.0
 11
-1.299616666666667
 21
-0.015
 31
0.0
  0
LINE
  5
12E
330
104
100
AcDbEntity
  8
AM_9
100
AcDbLine
 10
2.058878727296004
 20
-0.4499999999999999
 30
0.0
 11
2.058878727296004
 21
-0.4999999999999999
 31
0.0
  0
LINE
  5
12F
330
104
100
AcDbEntity
  8
AM_9
100
AcDbLine
 10
1.661575314262275
 20
-0.4499999999999999
 30
0.0
 11
2.125
 21
-0.4499999999999999
 31
0.0
  0
LINE
  5
130
330
104
100
AcDbEntity
  8
AM_9
100
AcDbLine
 10
-2.058878727296004
 20
-0.4499999999999999
 30
0.0
 11
-2.058878727296004
 21
-0.4999999999999999
 31
0.0
  0
LINE
  5
131
330
104
100
AcDbEntity
  8
AM_9
100
AcDbLine
 10
-2.125
 20
-0.4499999999999999
 30
0.0
 11
-1.661575314262275
 21
-0.4499999999999999
 31
0.0
  0
LINE
  5
132
330
104
100
AcDbEntity
  8
AM_9
100
AcDbLine
 10
-1.661575314262275
 20
-0.4499999999999999
 30
0.0
 11
-1.658349055016445
 21
-0.4999999999999999
 31
0.0
  0
LINE
  5
133
330
104
100
AcDbEntity
  8
AM_9
100
AcDbLine
 10
0.26
 20
-0.45
 30
0.0
 11
-0.26
 21
-0.45
 31
0.0
  0
LINE
  5
134
330
104
100
AcDbEntity
  8
AM_9
100
AcDbLine
 10
1.658349055016445
 20
-0.4999999999999999
 30
0.0
 11
1.661575314262275
 21
-0.4499999999999999
 31
0.0
  0
LINE
  5
135
330
104
100
AcDbEntity
  8
AM_9
100
AcDbLine
 10
1.792640186915888
 20
-0.4999999999999999
 30
0.0
 11
1.797751168224299
 21
-0.45
 31
0.0
  0
LINE
  5
136
330
104
100
AcDbEntity
  8
AM_9
100
AcDbLine
 10
-1.797751168224299
 20
-0.45
 30
0.0
 11
-1.792640186915888
 21
-0.4999999999999999
 31
0.0
  0
LINE
  5
137
330
104
100
AcDbEntity
  8
AM_9
100
AcDbLine
 10
0.2597408081342729
 20
-1.025084486812791
 30
0.0
 11
-0.259740808134273
 21
-1.025084486812791
 31
0.0
  0
LINE
  5
138
330
104
100
AcDbEntity
  8
AM_9
100
AcDbLine
 10
1.84375
 20
-0.4999999999999999
 30
0.0
 11
1.84375
 21
0.0000000000000001
 31
0.0
  0
LINE
  5
139
330
104
100
AcDbEntity
  8
AM_9
100
AcDbLine
 10
1.40625
 20
0.0000000000000001
 30
0.0
 11
1.40625
 21
-0.4999999999999999
 31
0.0
  0
LINE
  5
13A
330
104
100
AcDbEntity
  8
AM_9
100
AcDbLine
 10
-1.40625
 20
-0.4999999999999999
 30
0.0
 11
-1.40625
 21
0.0000000000000001
 31
0.0
  0
LINE
  5
13B
330
104
100
AcDbEntity
  8
AM_9
100
AcDbLine
 10
-1.84375
 20
0.0000000000000001
 30
0.0
 11
-1.84375
 21
-0.4999999999999999
 31
0.0
  0
LINE
  5
13C
330
104
100
AcDbEntity
  8
AM_7
100
AcDbLine
 10
1.625
 20
0.0249999999999999
 30
0.0
 11
1.625
 21
-0.5250000000000001
 31
0.0
  0
LINE
  5
13D
330
104
100
AcDbEntity
  8
AM_7
100
AcDbLine
 10
-1.625
 20
0.0249999999999999
 30
0.0
 11
-1.625
 21
-0.5250000000000001
 31
0.0
  0
LINE
  5
13E
330
104
100
AcDbEntity
  8
AM_7
100
AcDbLine
 10
0.0
 20
-1.636
 30
0.0
 11
0.0
 21
0.0535
 31
0.0
  0
LINE
  5
13F
330
104
100
AcDbEntity
  8
AM_4
100
AcDbLine
 10
-1.689225438832878
 20
-1.07
 30
0.0
 11
1.689225438832878
 21
-1.07
 31
0.0
  0
ARC
  5
140
330
104
100
AcDbEntity
  8
AM_4
100
AcDbCircle
 10
1.689225438832878
 20
-1.02
 30
0.0
 40
0.0500000000000003
100
AcDbArc
 50
270.0
 51
354.1635186799077
  0
ARC
  5
141
330
104
100
AcDbEntity
  8
AM_4
100
AcDbCircle
 10
-1.689225438832878
 20
-1.02
 30
0.0
 40
0.0500000000000002
100
AcDbArc
 50
185.8364813200923
 51
270.0
  0
LINE
  5
142
330
104
100
AcDbEntity
  8
AM_4
100
AcDbLine
 10
0.2597408081342729
 20
-1.025084486812791
 30
0.0
 11
1.738966246967151
 21
-1.025084486812791
 31
0.0
  0
LINE
  5
143
330
104
100
AcDbEntity
  8
AM_4
100
AcDbLine
 10
1.738966246967151
 20
-1.025084486812791
 30
0.0
 11
1.792640186915888
 21
-0.4999999999999999
 31
0.0
  0
LINE
  5
144
330
104
100
AcDbEntity
  8
AM_4
100
AcDbLine
 10
-1.792640186915888
 20
-0.4999999999999999
 30
0.0
 11
-1.738966246967151
 21
-1.025084486812791
 31
0.0
  0
LINE
  5
145
330
104
100
AcDbEntity
  8
AM_4
100
AcDbLine
 10
-1.738966246967151
 20
-1.025084486812791
 30
0.0
 11
-0.259740808134273
 21
-1.025084486812791
 31
0.0
  0
LINE
  5
146
330
104
100
AcDbEntity
  8
AM_4
100
AcDbLine
 10
-0.26
 20
-0.4500000000000001
 30
0.0
 11
-1.593361415960855
 21
-0.4499999999999998
 31
0.0
  0
LINE
  5
147
330
104
100
AcDbEntity
  8
AM_4
100
AcDbLine
 10
1.593361415960859
 20
-0.4499999999999998
 30
0.0
 11
0.26
 21
-0.4500000000000001
 31
0.0
  0
LINE
  5
148
330
104
100
AcDbEntity
  8
AM_4
100
AcDbLine
 10
0.26
 20
-1.02
 30
0.0
 11
0.26
 21
-0.4500000000000001
 31
0.0
  0
ARC
  5
149
330
104
100
AcDbEntity
  8
AM_4
100
AcDbCircle
 10
-0.2099999999999999
 20
-1.02
 30
0.0
 40
0.0500000000000001
100
AcDbArc
 50
179.9999991462263
 51
270.0
  0
ARC
  5
14A
330
104
100
AcDbEntity
  8
AM_4
100
AcDbCircle
 10
0.2100000000000003
 20
-1.02
 30
0.0
 40
0.0499999999999996
100
AcDbArc
 50
270.0
 51
0.0
  0
LINE
  5
14B
330
104
100
AcDbEntity
  8
AM_4
100
AcDbLine
 10
-0.26
 20
-0.4500000000000001
 30
0.0
 11
-0.26
 21
-1.019999999254942
 31
0.0
  0
LINE
  5
14C
330
104
100
AcDbEntity
  8
AM_4
100
AcDbLine
 10
0.686350302605058
 20
-0.4499999999999999
 30
0.0
 11
0.6807622576728917
 21
-0.4999999999999999
 31
0.0
  0
LINE
  5
14D
330
104
100
AcDbEntity
  8
AM_4
100
AcDbLine
 10
-0.6807622576728917
 20
-0.5
 30
0.0
 11
-0.6863503026050579
 21
-0.4499999999999999
 31
0.0
  0
LINE
  5
14E
330
104
100
AcDbEntity
  8
AM_4
100
AcDbLine
 10
-1.374499999999999
 20
-0.4499999999999998
 30
0.0
 11
-1.374499999999999
 21
-0.4999999999999998
 31
0.0
  0
LINE
  5
14F
330
104
100
AcDbEntity
  8
AM_4
100
AcDbLine
 10
1.374499999999999
 20
-0.4499999999999998
 30
0.0
 11
1.374499999999999
 21
-0.4999999999999998
 31
0.0
  0
LINE
  5
150
330
104
100
AcDbEntity
  8
AM_4
100
AcDbLine
 10
-2.125
 20
-0.4999999999999999
 30
0.0
 11
-2.125
 21
0.0000000000000001
 31
0.0
  0
LINE
  5
151
330
104
100
AcDbEntity
  8
AM_4
100
AcDbLine
 10
-0.6807622576728917
 20
-0.5
 30
0.0
 11
-2.125
 21
-0.4999999999999999
 31
0.0
  0
LINE
  5
152
330
104
100
AcDbEntity
  8
AM_4
100
AcDbLine
 10
2.125
 20
-0.4999999999999999
 30
0.0
 11
0.6807622576728917
 21
-0.4999999999999999
 31
0.0
  0
LINE
  5
153
330
104
100
AcDbEntity
  8
AM_4
100
AcDbLine
 10
2.125
 20
0.0000000000000001
 30
0.0
 11
-2.125
 21
0.0000000000000001
 31
0.0
  0
LINE
  5
154
330
104
100
AcDbEntity
  8
AM_4
100
AcDbLine
 10
2.125
 20
-0.4999999999999999
 30
0.0
 11
2.125
 21
0.0000000000000001
 31
0.0
  0
LINE
  5
155
330
104
100
AcDbEntity
  8
AM_4
100
AcDbLine
 10
0.39
 20
-0.4499999999999998
 30
0.0
 11
0.39
 21
-0.2666666666666667
 31
0.0
  0
ARC
  5
156
330
104
100
AcDbEntity
  8
AM_4
100
AcDbCircle
 10
-0.2899999999999999
 20
-0.2666666666666666
 30
0.0
 40
0.1
100
AcDbArc
 50
90.0
 51
180.0
  0
ARC
  5
157
330
104
100
AcDbEntity
  8
AM_4
100
AcDbCircle
 10
0.2899999999999999
 20
-0.2666666666666666
 30
0.0
 40
0.1000000000000001
100
AcDbArc
 50
0.0
 51
90.0
  0
LINE
  5
158
330
104
100
AcDbEntity
  8
AM_4
100
AcDbLine
 10
0.29
 20
-0.1666666666666665
 30
0.0
 11
-0.29
 21
-0.1666666666666665
 31
0.0
  0
LINE
  5
159
330
104
100
AcDbEntity
  8
AM_4
100
AcDbLine
 10
-0.39
 20
-0.2666666666666664
 30
0.0
 11
-0.39
 21
-0.4499999999999998
 31
0.0
  0
LINE
  5
15A
330
104
100
AcDbEntity
  8
AM_4
100
AcDbLine
 10
1.593361415960859
 20
-0.4999999999999998
 30
0.0
 11
1.593361415960859
 21
-0.4499999999999998
 31
0.0
  0
LINE
  5
15B
330
104
100
AcDbEntity
  8
AM_4
100
AcDbLine
 10
1.625000000000001
 20
-0.4999999999999998
 30
0.0
 11
1.625000000000001
 21
0.0000000000000001
 31
0.0
  0
LINE
  5
15C
330
104
100
AcDbEntity
  8
AM_4
100
AcDbLine
 10
-1.625
 20
-0.4999999999999998
 30
0.0
 11
-1.625
 21
0.0000000000000001
 31
0.0
  0
LINE
  5
15D
330
104
100
AcDbEntity
  8
AM_4
100
AcDbLine
 10
-1.593361415960855
 20
-0.4499999999999998
 30
0.0
 11
-1.593361415960855
 21
-0.4999999999999998
 31
0.0
  0
ENDBLK
  5
107
330
104
100
AcDbEntity
  8
0
100
AcDbBlockEnd
  0
ENDSEC
  0
SECTION
  2
ENTITIES
  0
INSERT
  5
6F
330
1F
100
AcDbEntity
  8
0
100
AcDbBlockReference
  2
1_123627_4
 10
0.0
 20
0.0
 30
0.0
  0
POINT
  5
15F
330
1F
100
AcDbEntity
  8
ConnectionPoints
100
AcDbPoint
 10
0.0
 20
-1.56
 30
0.0000000000000002
  0
POINT
  5
160
330
1F
100
AcDbEntity
  8
ConnectionPoints
100
AcDbPoint
 10
0.0
 20
-0.6849999999999999
 30
1.845
  0
POINT
  5
161
330
1F
100
AcDbEntity
  8
ConnectionPoints
100
AcDbPoint
 10
0.0
 20
-1.56
 30
0.0000000000000001
  0
ENDSEC
  0
SECTION
  2
OBJECTS
  0
DICTIONARY
  5
C
330
0
100
AcDbDictionary
281
     1
  3
ACAD_DETAILVIEWSTYLE
350
169
  3
ACAD_GROUP
350
D
  3
ACAD_LAYOUT
350
1A
  3
ACAD_MATERIAL
350
43
  3
ACAD_MLEADERSTYLE
350
6B
  3
ACAD_MLINESTYLE
350
17
  3
ACAD_PLOTSETTINGS
350
19
  3
ACAD_PLOTSTYLENAME
350
E
  3
ACAD_SCALELIST
350
47
  3
ACAD_SECTIONVIEWSTYLE
350
16A
  3
ACAD_TABLESTYLE
350
69
  3
ACAD_VISUALSTYLE
350
2A
  3
ACDB_RECOMPOSE_DATA
350
166
  3
AcDbVariableDictionary
350
162
  0
SUN
  5
6D
330
29
100
AcDbSun
 90
        1
290
     0
 63
     7
421
 16777215
 40
1.0
291
     1
 91
  2455826
 92
 54000000
292
     0
 70
     2
 71
   256
280
     1
  0
DICTIONARY
  5
169
102
{ACAD_REACTORS
330
C
102
}
330
C
100
AcDbDictionary
281
     1
  0
DICTIONARY
  5
D
102
{ACAD_REACTORS
330
C
102
}
330
C
100
AcDbDictionary
281
     1
  0
DICTIONARY
  5
1A
102
{ACAD_REACTORS
330
C
102
}
330
C
100
AcDbDictionary
281
     1
  3
Layout1
350
1E
  3
Layout2
350
26
  3
Model
350
22
  0
DICTIONARY
  5
43
102
{ACAD_REACTORS
330
C
102
}
330
C
100
AcDbDictionary
281
     1
  3
ByBlock
350
45
  3
ByLayer
350
44
  3
Global
350
46
  0
DICTIONARY
  5
6B
102
{ACAD_REACTORS
330
C
102
}
330
C
100
AcDbDictionary
281
     1
  3
Standard
350
6C
  0
DICTIONARY
  5
17
102
{ACAD_REACTORS
330
C
102
}
330
C
100
AcDbDictionary
281
     1
  3
Standard
350
18
  0
DICTIONARY
  5
19
102
{ACAD_REACTORS
330
C
102
}
330
C
100
AcDbDictionary
281
     1
  0
ACDBDICTIONARYWDFLT
  5
E
102
{ACAD_REACTORS
330
C
102
}
330
C
100
AcDbDictionary
281
     1
  3
Normal
350
F
100
AcDbDictionaryWithDefault
340
F
  0
DICTIONARY
  5
47
102
{ACAD_REACTORS
330
C
102
}
330
C
100
AcDbDictionary
281
     1
  3
A0
350
48
  3
A1
350
49
  3
A2
350
4A
  3
A3
350
4B
  3
A4
350
4C
  3
A5
350
4D
  3
A6
350
4E
  3
A7
350
4F
  3
A8
350
50
  3
A9
350
51
  3
B0
350
52
  3
B1
350
53
  3
B2
350
54
  3
B3
350
55
  3
B4
350
56
  3
B5
350
57
  3
B6
350
58
  3
B7
350
59
  3
B8
350
5A
  3
B9
350
5B
  3
C0
350
5C
  3
C1
350
5D
  3
C2
350
5E
  3
C3
350
5F
  3
C4
350
60
  3
C5
350
61
  3
C6
350
62
  3
C7
350
63
  3
C8
350
64
  3
C9
350
65
  3
D0
350
66
  3
D1
350
67
  3
D2
350
68
  0
DICTIONARY
  5
16A
102
{ACAD_REACTORS
330
C
102
}
330
C
100
AcDbDictionary
281
     1
  0
DICTIONARY
  5
69
102
{ACAD_REACTORS
330
C
102
}
330
C
100
AcDbDictionary
281
     1
  3
Standard
350
6A
  0
DICTIONARY
  5
2A
102
{ACAD_REACTORS
330
C
102
}
330
C
100
AcDbDictionary
281
     1
  3
2dWireframe
350
2F
  3
Basic
350
32
  3
Brighten
350
36
  3
ColorChange
350
3A
  3
Conceptual
350
34
  3
Dim
350
35
  3
EdgeColorOff
350
3D
  3
Facepattern
350
39
  3
Flat
350
2B
  3
FlatWithEdges
350
2C
  3
Gouraud
350
2D
  3
GouraudWithEdges
350
2E
  3
Hidden
350
31
  3
JitterOff
350
3B
  3
Linepattern
350
38
  3
OverhangOff
350
3C
  3
Realistic
350
33
  3
Shaded
350
42
  3
Shaded with edges
350
41
  3
Shades of Gray
350
3E
  3
Sketchy
350
3F
  3
Thicken
350
37
  3
Wireframe
350
30
  3
X-Ray
350
40
  0
XRECORD
  5
166
102
{ACAD_REACTORS
330
C
102
}
330
C
100
AcDbXrecord
280
     1
 90
        1
330
6A
  0
DICTIONARY
  5
162
102
{ACAD_REACTORS
330
C
102
}
330
C
100
AcDbDictionary
281
     1
  3
CANNOSCALE
350
163
  3
CMLEADERSTYLE
350
168
  3
CTABLESTYLE
350
167
  0
LAYOUT
  5
1E
102
{ACAD_REACTORS
330
1A
102
}
330
1A
100
AcDbPlotSettings
  1

  2
none_device
  4

  6

 40
0.0
 41
0.0
 42
0.0
 43
0.0
 44
0.0
 45
0.0
 46
0.0
 47
0.0
 48
0.0
 49
0.0
140
0.0
141
0.0
142
1.0
143
1.0
 70
   688
 72
     0
 73
     0
 74
     5
  7

 75
    16
 76
     0
 77
     2
 78
   300
147
1.0
148
0.0
149
0.0
100
AcDbLayout
  1
Layout1
 70
     1
 71
     1
 10
0.0
 20
0.0
 11
12.0
 21
9.0
 12
0.0
 22
0.0
 32
0.0
 14
1.000000000000000E+20
 24
1.000000000000000E+20
 34
1.000000000000000E+20
 15
-1.000000000000000E+20
 25
-1.000000000000000E+20
 35
-1.000000000000000E+20
146
0.0
 13
0.0
 23
0.0
 33
0.0
 16
1.0
 26
0.0
 36
0.0
 17
0.0
 27
1.0
 37
0.0
 76
     0
330
1B
  0
LAYOUT
  5
26
102
{ACAD_REACTORS
330
1A
102
}
330
1A
100
AcDbPlotSettings
  1

  2
none_device
  4

  6

 40
0.0
 41
0.0
 42
0.0
 43
0.0
 44
0.0
 45
0.0
 46
0.0
 47
0.0
 48
0.0
 49
0.0
140
0.0
141
0.0
142
1.0
143
1.0
 70
   688
 72
     0
 73
     0
 74
     5
  7

 75
    16
 76
     0
 77
     2
 78
   300
147
1.0
148
0.0
149
0.0
100
AcDbLayout
  1
Layout2
 70
     1
 71
     2
 10
0.0
 20
0.0
 11
0.0
 21
0.0
 12
0.0
 22
0.0
 32
0.0
 14
0.0
 24
0.0
 34
0.0
 15
0.0
 25
0.0
 35
0.0
146
0.0
 13
0.0
 23
0.0
 33
0.0
 16
1.0
 26
0.0
 36
0.0
 17
0.0
 27
1.0
 37
0.0
 76
     0
330
23
  0
LAYOUT
  5
22
102
{ACAD_REACTORS
330
1A
102
}
330
1A
100
AcDbPlotSettings
  1

  2
none_device
  4
Letter_(8.50_x_11.00_Inches)
  6

 40
6.35
 41
6.35
 42
6.35000508
 43
6.35000508
 44
215.9
 45
279.4
 46
0.0
 47
0.0
 48
0.0
 49
0.0
140
0.0
141
0.0
142
1.0
143
1.0
 70
  1712
 72
     0
 73
     0
 74
     0
  7

 75
     0
 76
     0
 77
     2
 78
   300
147
1.0
148
0.0
149
0.0
100
AcDbLayout
  1
Model
 70
     1
 71
     0
 10
0.0
 20
0.0
 11
12.0
 21
9.0
 12
0.0
 22
0.0
 32
0.0
 14
1.000000000000000E+20
 24
1.000000000000000E+20
 34
1.000000000000000E+20
 15
-1.000000000000000E+20
 25
-1.000000000000000E+20
 35
-1.000000000000000E+20
146
0.0
 13
0.0
 23
0.0
 33
0.0
 16
1.0
 26
0.0
 36
0.0
 17
0.0
 27
1.0
 37
0.0
 76
     0
330
1F
331
29
  0
MATERIAL
  5
45
102
{ACAD_REACTORS
330
43
102
}
330
43
100
AcDbMaterial
  1
ByBlock
 72
     1
 94
      127
  0
MATERIAL
  5
44
102
{ACAD_REACTORS
330
43
102
}
330
43
100
AcDbMaterial
  1
ByLayer
 72
     1
 94
      127
  0
MATERIAL
  5
46
102
{ACAD_REACTORS
330
43
102
}
330
43
100
AcDbMaterial
  1
Global
 72
     1
 94
      127
  0
MLEADERSTYLE
  5
6C
102
{ACAD_REACTORS
330
6B
102
}
330
6B
100
AcDbMLeaderStyle
179
     2
170
     2
171
     1
172
     0
 90
        2
 40
0.0
 41
0.0
173
     1
 91
-1056964608
340
14
 92
       -2
290
     1
 42
0.09
291
     1
 43
0.36
  3
Standard
341
0
 44
0.18
300

342
11
174
     1
178
     6
175
     1
176
     0
 93
-1056964608
 45
0.18
292
     0
297
     0
 46
0.18
343
0
 94
-1056964608
 47
1.0
 49
1.0
140
1.0
293
     1
141
0.0
294
     1
177
     0
142
1.0
295
     0
296
     0
143
0.125
271
     0
272
     9
273
     9
298
     0
  0
MLINESTYLE
  5
18
102
{ACAD_REACTORS
330
17
102
}
330
17
100
AcDbMlineStyle
  2
Standard
 70
     0
  3

 62
   256
 51
90.0
 52
90.0
 71
     2
 49
0.5
 62
   256
  6
BYLAYER
 49
-0.5
 62
   256
  6
BYLAYER
  0
ACDBPLACEHOLDER
  5
F
102
{ACAD_REACTORS
330
E
102
}
330
E
  0
SCALE
  5
48
102
{ACAD_REACTORS
330
47
102
}
330
47
100
AcDbScale
 70
     0
300
1:1
140
1.0
141
1.0
290
     1
  0
SCALE
  5
49
102
{ACAD_REACTORS
330
47
102
}
330
47
100
AcDbScale
 70
     0
300
1:2
140
1.0
141
2.0
290
     0
  0
SCALE
  5
4A
102
{ACAD_REACTORS
330
47
102
}
330
47
100
AcDbScale
 70
     0
300
1:4
140
1.0
141
4.0
290
     0
  0
SCALE
  5
4B
102
{ACAD_REACTORS
330
47
102
}
330
47
100
AcDbScale
 70
     0
300
1:5
140
1.0
141
5.0
290
     0
  0
SCALE
  5
4C
102
{ACAD_REACTORS
330
47
102
}
330
47
100
AcDbScale
 70
     0
300
1:8
140
1.0
141
8.0
290
     0
  0
SCALE
  5
4D
102
{ACAD_REACTORS
330
47
102
}
330
47
100
AcDbScale
 70
     0
300
1:10
140
1.0
141
10.0
290
     0
  0
SCALE
  5
4E
102
{ACAD_REACTORS
330
47
102
}
330
47
100
AcDbScale
 70
     0
300
1:16
140
1.0
141
16.0
290
     0
  0
SCALE
  5
4F
102
{ACAD_REACTORS
330
47
102
}
330
47
100
AcDbScale
 70
     0
300
1:20
140
1.0
141
20.0
290
     0
  0
SCALE
  5
50
102
{ACAD_REACTORS
330
47
102
}
330
47
100
AcDbScale
 70
     0
300
1:30
140
1.0
141
30.0
290
     0
  0
SCALE
  5
51
102
{ACAD_REACTORS
330
47
102
}
330
47
100
AcDbScale
 70
     0
300
1:40
140
1.0
141
40.0
290
     0
  0
SCALE
  5
52
102
{ACAD_REACTORS
330
47
102
}
330
47
100
AcDbScale
 70
     0
300
1:50
140
1.0
141
50.0
290
     0
  0
SCALE
  5
53
102
{ACAD_REACTORS
330
47
102
}
330
47
100
AcDbScale
 70
     0
300
1:100
140
1.0
141
100.0
290
     0
  0
SCALE
  5
54
102
{ACAD_REACTORS
330
47
102
}
330
47
100
AcDbScale
 70
     0
300
2:1
140
2.0
141
1.0
290
     0
  0
SCALE
  5
55
102
{ACAD_REACTORS
330
47
102
}
330
47
100
AcDbScale
 70
     0
300
4:1
140
4.0
141
1.0
290
     0
  0
SCALE
  5
56
102
{ACAD_REACTORS
330
47
102
}
330
47
100
AcDbScale
 70
     0
300
8:1
140
8.0
141
1.0
290
     0
  0
SCALE
  5
57
102
{ACAD_REACTORS
330
47
102
}
330
47
100
AcDbScale
 70
     0
300
10:1
140
10.0
141
1.0
290
     0
  0
SCALE
  5
58
102
{ACAD_REACTORS
330
47
102
}
330
47
100
AcDbScale
 70
     0
300
100:1
140
100.0
141
1.0
290
     0
  0
SCALE
  5
59
102
{ACAD_REACTORS
330
47
102
}
330
47
100
AcDbScale
 70
     0
300
1/128" = 1'-0"
140
0.0078125
141
12.0
290
     0
  0
SCALE
  5
5A
102
{ACAD_REACTORS
330
47
102
}
330
47
100
AcDbScale
 70
     0
300
1/64" = 1'-0"
140
0.015625
141
12.0
290
     0
  0
SCALE
  5
5B
102
{ACAD_REACTORS
330
47
102
}
330
47
100
AcDbScale
 70
     0
300
1/32" = 1'-0"
140
0.03125
141
12.0
290
     0
  0
SCALE
  5
5C
102
{ACAD_REACTORS
330
47
102
}
330
47
100
AcDbScale
 70
     0
300
1/16" = 1'-0"
140
0.0625
141
12.0
290
     0
  0
SCALE
  5
5D
102
{ACAD_REACTORS
330
47
102
}
330
47
100
AcDbScale
 70
     0
300
3/32" = 1'-0"
140
0.09375
141
12.0
290
     0
  0
SCALE
  5
5E
102
{ACAD_REACTORS
330
47
102
}
330
47
100
AcDbScale
 70
     0
300
1/8" = 1'-0"
140
0.125
141
12.0
290
     0
  0
SCALE
  5
5F
102
{ACAD_REACTORS
330
47
102
}
330
47
100
AcDbScale
 70
     0
300
3/16" = 1'-0"
140
0.1875
141
12.0
290
     0
  0
SCALE
  5
60
102
{ACAD_REACTORS
330
47
102
}
330
47
100
AcDbScale
 70
     0
300
1/4" = 1'-0"
140
0.25
141
12.0
290
     0
  0
SCALE
  5
61
102
{ACAD_REACTORS
330
47
102
}
330
47
100
AcDbScale
 70
     0
300
3/8" = 1'-0"
140
0.375
141
12.0
290
     0
  0
SCALE
  5
62
102
{ACAD_REACTORS
330
47
102
}
330
47
100
AcDbScale
 70
     0
300
1/2" = 1'-0"
140
0.5
141
12.0
290
     0
  0
SCALE
  5
63
102
{ACAD_REACTORS
330
47
102
}
330
47
100
AcDbScale
 70
     0
300
3/4" = 1'-0"
140
0.75
141
12.0
290
     0
  0
SCALE
  5
64
102
{ACAD_REACTORS
330
47
102
}
330
47
100
AcDbScale
 70
     0
300
1" = 1'-0"
140
1.0
141
12.0
290
     0
  0
SCALE
  5
65
102
{ACAD_REACTORS
330
47
102
}
330
47
100
AcDbScale
 70
     0
300
1-1/2" = 1'-0"
140
1.5
141
12.0
290
     0
  0
SCALE
  5
66
102
{ACAD_REACTORS
330
47
102
}
330
47
100
AcDbScale
 70
     0
300
3" = 1'-0"
140
3.0
141
12.0
290
     0
  0
SCALE
  5
67
102
{ACAD_REACTORS
330
47
102
}
330
47
100
AcDbScale
 70
     0
300
6" = 1'-0"
140
6.0
141
12.0
290
     0
  0
SCALE
  5
68
102
{ACAD_REACTORS
330
47
102
}
330
47
100
AcDbScale
 70
     0
300
1'-0" = 1'-0"
140
12.0
141
12.0
290
     0
  0
TABLESTYLE
  5
6A
102
{ACAD_REACTORS
330
69
102
}
102
{ACAD_XDICTIONARY
360
164
102
}
330
69
100
AcDbTableStyle
  3
Standard
 70
     0
 71
     0
 40
0.06
 41
0.06
280
     0
281
     0
  7
Standard
140
0.18
170
     2
 62
     0
 63
   257
283
     0
 90
        4
 91
        0
  1

274
    -2
284
     1
 64
     0
275
    -2
285
     1
 65
     0
276
    -2
286
     1
 66
     0
277
    -2
287
     1
 67
     0
278
    -2
288
     1
 68
     0
279
    -2
289
     1
 69
     0
  7
Standard
140
0.25
170
     5
 62
     0
 63
   257
283
     0
 90
        4
 91
        0
  1

274
    -2
284
     1
 64
     0
275
    -2
285
     1
 65
     0
276
    -2
286
     1
 66
     0
277
    -2
287
     1
 67
     0
278
    -2
288
     1
 68
     0
279
    -2
289
     1
 69
     0
  7
Standard
140
0.18
170
     5
 62
     0
 63
   257
283
     0
 90
        4
 91
        0
  1

274
    -2
284
     1
 64
     0
275
    -2
285
     1
 65
     0
276
    -2
286
     1
 66
     0
277
    -2
287
     1
 67
     0
278
    -2
288
     1
 68
     0
279
    -2
289
     1
 69
     0
  0
VISUALSTYLE
  5
2F
102
{ACAD_REACTORS
330
2A
102
}
330
2A
100
AcDbVisualStyle
  2
2dWireframe
 70
     4
177
     3
291
     0
 70
    58
 90
        0
176
     1
 90
        2
176
     1
 90
        0
176
     1
 90
        0
176
     1
 40
0.6
176
     1
 40
30.0
176
     1
 62
     7
420
 16777215
176
     1
 90
        1
176
     1
 90
        4
176
     1
 62
     7
176
     1
 62
   257
176
     1
 90
        1
176
     1
 90
        1
176
     1
 40
1.0
176
     1
 90
        0
176
     1
 62
   257
176
     1
 40
1.0
176
     1
 90
        1
176
     1
 90
        6
176
     1
 90
        2
176
     1
 62
     7
176
     1
 90
        5
176
     1
 90
        0
176
     1
 90
        0
176
     1
290
     0
176
     1
 90
        1
176
     1
 40
0.0
176
     1
 90
        0
176
     1
290
     1
176
     1
290
     1
176
     1
290
     0
176
     1
290
     0
176
     1
290
     0
176
     1
290
     0
176
     1
290
     0
176
     1
290
     0
176
     1
290
     0
176
     1
 90
       50
176
     1
 40
0.0
176
     1
 40
1.0
176
     1
 90
        0
176
     1
 62
    18
420
        0
176
     1
 90
       50
176
     1
 90
        3
176
     1
 62
     5
420
      255
176
     1
290
     0
176
     1
 90
       50
176
     1
 90
       50
176
     1
 90
       50
176
     1
290
     0
176
     1
 90
       50
176
     1
 62
   256
176
     0
 40
1.0
176
     0
 90
        2
176
     1
  1
strokes_ogs.tif
176
     1
290
     0
176
     1
 40
1.0
176
     1
 40
1.0
176
     1
  0
VISUALSTYLE
  5
32
102
{ACAD_REACTORS
330
2A
102
}
330
2A
100
AcDbVisualStyle
  2
Basic
 70
     7
177
     3
291
     1
 70
    58
 90
        1
176
     1
 90
        0
176
     1
 90
        1
176
     1
 90
        0
176
     1
 40
0.6
176
     1
 40
30.0
176
     1
 62
     7
420
 16777215
176
     1
 90
        0
176
     1
 90
        4
176
     1
 62
     7
176
     1
 62
   257
176
     1
 90
        1
176
     1
 90
        1
176
     1
 40
1.0
176
     1
 90
        8
176
     1
 62
     7
176
     1
 40
1.0
176
     1
 90
        1
176
     1
 90
        6
176
     1
 90
        2
176
     1
 62
     7
176
     1
 90
        5
176
     1
 90
        0
176
     1
 90
        0
176
     1
290
     0
176
     1
 90
        1
176
     1
 40
0.0
176
     1
 90
        0
176
     1
290
     0
176
     1
290
     1
176
     1
290
     1
176
     1
290
     0
176
     1
290
     0
176
     1
290
     0
176
     1
290
     0
176
     1
290
     0
176
     1
290
     0
176
     1
 90
       50
176
     1
 40
0.0
176
     1
 40
1.0
176
     1
 90
        0
176
     1
 62
    18
420
        0
176
     1
 90
       50
176
     1
 90
        3
176
     1
 62
     5
420
      255
176
     1
290
     0
176
     1
 90
       50
176
     1
 90
       50
176
     1
 90
       50
176
     1
290
     0
176
     1
 90
       50
176
     1
 62
   256
176
     0
 40
1.0
176
     0
 90
        2
176
     1
  1
strokes_ogs.tif
176
     1
290
     0
176
     1
 40
1.0
176
     1
 40
1.0
176
     1
  0
VISUALSTYLE
  5
36
102
{ACAD_REACTORS
330
2A
102
}
330
2A
100
AcDbVisualStyle
  2
Brighten
 70
    12
177
     3
291
     1
 70
    58
 90
        2
176
     1
 90
        2
176
     1
 90
        0
176
     1
 90
        0
176
     1
 40
0.6
176
     1
 40
30.0
176
     1
 62
     7
420
 16777215
176
     1
 90
        1
176
     1
 90
        4
176
     1
 62
     7
176
     1
 62
   257
176
     1
 90
        1
176
     1
 90
        1
176
     1
 40
1.0
176
     1
 90
        8
176
     1
 62
     7
176
     1
 40
1.0
176
     1
 90
        1
176
     1
 90
        6
176
     1
 90
        2
176
     1
 62
     7
176
     1
 90
        5
176
     1
 90
        0
176
     1
 90
        0
176
     1
290
     0
176
     1
 90
        1
176
     1
 40
50.0
176
     1
 90
        0
176
     1
290
     0
176
     1
290
     1
176
     1
290
     1
176
     1
290
     0
176
     1
290
     0
176
     1
290
     0
176
     1
290
     0
176
     1
290
     0
176
     1
290
     0
176
     1
 90
       50
176
     1
 40
0.0
176
     1
 40
1.0
176
     1
 90
        0
176
     1
 62
    18
420
        0
176
     1
 90
       50
176
     1
 90
        3
176
     1
 62
     5
420
      255
176
     1
290
     0
176
     1
 90
       50
176
     1
 90
       50
176
     1
 90
       50
176
     1
290
     0
176
     1
 90
       50
176
     1
 62
   256
176
     0
 40
1.0
176
     0
 90
        2
176
     1
  1
strokes_ogs.tif
176
     1
290
     0
176
     1
 40
1.0
176
     1
 40
1.0
176
     1
  0
VISUALSTYLE
  5
3A
102
{ACAD_REACTORS
330
2A
102
}
330
2A
100
AcDbVisualStyle
  2
ColorChange
 70
    16
177
     3
291
     1
 70
    58
 90
        2
176
     1
 90
        2
176
     1
 90
        3
176
     1
 90
        0
176
     1
 40
0.6
176
     1
 40
30.0
176
     1
 62
     8
420
  8421504
176
     1
 90
        1
176
     1
 90
        4
176
     1
 62
     7
176
     1
 62
   257
176
     1
 90
        1
176
     1
 90
        1
176
     1
 40
1.0
176
     1
 90
        8
176
     1
 62
     8
420
  8421504
176
     1
 40
1.0
176
     1
 90
        1
176
     1
 90
        6
176
     1
 90
        2
176
     1
 62
     7
176
     1
 90
        5
176
     1
 90
        0
176
     1
 90
        0
176
     1
290
     0
176
     1
 90
        1
176
     1
 40
0.0
176
     1
 90
        0
176
     1
290
     0
176
     1
290
     1
176
     1
290
     1
176
     1
290
     0
176
     1
290
     0
176
     1
290
     0
176
     1
290
     0
176
     1
290
     0
176
     1
290
     0
176
     1
 90
       50
176
     1
 40
0.0
176
     1
 40
1.0
176
     1
 90
        0
176
     1
 62
    18
420
        0
176
     1
 90
       50
176
     1
 90
        3
176
     1
 62
     5
420
      255
176
     1
290
     0
176
     1
 90
       50
176
     1
 90
       50
176
     1
 90
       50
176
     1
290
     0
176
     1
 90
       50
176
     1
 62
   256
176
     0
 40
1.0
176
     0
 90
        2
176
     1
  1
strokes_ogs.tif
176
     1
290
     0
176
     1
 40
1.0
176
     1
 40
1.0
176
     1
  0
VISUALSTYLE
  5
34
102
{ACAD_REACTORS
330
2A
102
}
330
2A
100
AcDbVisualStyle
  2
Conceptual
 70
     9
177
     3
291
     0
 70
    58
 90
        3
176
     1
 90
        2
176
     1
 90
        0
176
     1
 90
        0
176
     1
 40
0.6
176
     1
 40
30.0
176
     1
 62
     7
420
 16777215
176
     1
 90
        2
176
     1
 90
        2
176
     1
 62
     7
176
     1
 62
   257
176
     1
 90
        1
176
     1
 90
        1
176
     1
 40
179.0
176
     1
 90
        8
176
     1
 62
     7
176
     1
 40
1.0
176
     1
 90
        1
176
     1
 90
        6
176
     1
 90
        2
176
     1
 62
     7
176
     1
 90
        3
176
     1
 90
        0
176
     1
 90
        0
176
     1
290
     0
176
     1
 90
        1
176
     1
 40
0.0
176
     1
 90
        0
176
     1
290
     0
176
     1
290
     1
176
     1
290
     1
176
     1
290
     0
176
     1
290
     0
176
     1
290
     0
176
     1
290
     0
176
     1
290
     0
176
     1
290
     0
176
     1
 90
       50
176
     1
 40
0.0
176
     1
 40
1.0
176
     1
 90
        0
176
     1
 62
    18
420
        0
176
     1
 90
       50
176
     1
 90
        3
176
     1
 62
     5
420
      255
176
     1
290
     0
176
     1
 90
       50
176
     1
 90
       50
176
     1
 90
       50
176
     1
290
     0
176
     1
 90
       50
176
     1
 62
   256
176
     0
 40
1.0
176
     0
 90
        2
176
     1
  1
strokes_ogs.tif
176
     1
290
     0
176
     1
 40
1.0
176
     1
 40
1.0
176
     1
  0
VISUALSTYLE
  5
35
102
{ACAD_REACTORS
330
2A
102
}
330
2A
100
AcDbVisualStyle
  2
Dim
 70
    11
177
     3
291
     1
 70
    58
 90
        2
176
     1
 90
        2
176
     1
 90
        0
176
     1
 90
        0
176
     1
 40
0.6
176
     1
 40
30.0
176
     1
 62
     7
420
 16777215
176
     1
 90
        1
176
     1
 90
        4
176
     1
 62
     7
176
     1
 62
   257
176
     1
 90
        1
176
     1
 90
        1
176
     1
 40
1.0
176
     1
 90
        8
176
     1
 62
     7
176
     1
 40
1.0
176
     1
 90
        1
176
     1
 90
        6
176
     1
 90
        2
176
     1
 62
     7
176
     1
 90
        5
176
     1
 90
        0
176
     1
 90
        0
176
     1
290
     0
176
     1
 90
        1
176
     1
 40
-50.0
176
     1
 90
        0
176
     1
290
     0
176
     1
290
     1
176
     1
290
     1
176
     1
290
     0
176
     1
290
     0
176
     1
290
     0
176
     1
290
     0
176
     1
290
     0
176
     1
290
     0
176
     1
 90
       50
176
     1
 40
0.0
176
     1
 40
1.0
176
     1
 90
        0
176
     1
 62
    18
420
        0
176
     1
 90
       50
176
     1
 90
        3
176
     1
 62
     5
420
      255
176
     1
290
     0
176
     1
 90
       50
176
     1
 90
       50
176
     1
 90
       50
176
     1
290
     0
176
     1
 90
       50
176
     1
 62
   256
176
     0
 40
1.0
176
     0
 90
        2
176
     1
  1
strokes_ogs.tif
176
     1
290
     0
176
     1
 40
1.0
176
     1
 40
1.0
176
     1
  0
VISUALSTYLE
  5
3D
102
{ACAD_REACTORS
330
2A
102
}
330
2A
100
AcDbVisualStyle
  2
EdgeColorOff
 70
    22
177
     3
291
     1
 70
    58
 90
        2
176
     0
 90
        2
176
     0
 90
        0
176
     0
 90
        0
176
     0
 40
0.6
176
     0
 40
30.0
176
     0
 62
     7
420
 16777215
176
     0
 90
        1
176
     0
 90
        4
176
     0
 62
     7
176
     0
 62
   257
176
     0
 90
        1
176
     0
 90
        1
176
     0
 40
1.0
176
     0
 90
        8
176
     2
 62
     7
176
     0
 40
1.0
176
     0
 90
        1
176
     0
 90
        6
176
     0
 90
        2
176
     0
 62
     7
176
     0
 90
        5
176
     0
 90
        0
176
     0
 90
        0
176
     0
290
     0
176
     0
 90
        1
176
     0
 40
0.0
176
     0
 90
        0
176
     0
290
     0
176
     0
290
     1
176
     0
290
     1
176
     0
290
     0
176
     0
290
     0
176
     0
290
     0
176
     0
290
     0
176
     0
290
     0
176
     0
290
     0
176
     0
 90
       50
176
     0
 40
0.0
176
     0
 40
1.0
176
     0
 90
        0
176
     0
 62
    18
420
        0
176
     0
 90
       50
176
     0
 90
        3
176
     0
 62
     5
420
      255
176
     0
290
     0
176
     0
 90
       50
176
     0
 90
       50
176
     0
 90
       50
176
     0
290
     0
176
     0
 90
       50
176
     0
 62
   256
176
     0
 40
1.0
176
     0
 90
        2
176
     0
  1
strokes_ogs.tif
176
     0
290
     0
176
     0
 40
1.0
176
     0
 40
1.0
176
     0
  0
VISUALSTYLE
  5
39
102
{ACAD_REACTORS
330
2A
102
}
330
2A
100
AcDbVisualStyle
  2
Facepattern
 70
    15
177
     3
291
     1
 70
    58
 90
        2
176
     1
 90
        2
176
     1
 90
        0
176
     1
 90
        0
176
     1
 40
0.6
176
     1
 40
30.0
176
     1
 62
     7
420
 16777215
176
     1
 90
        1
176
     1
 90
        4
176
     1
 62
     7
176
     1
 62
   257
176
     1
 90
        1
176
     1
 90
        1
176
     1
 40
1.0
176
     1
 90
        8
176
     1
 62
     7
176
     1
 40
1.0
176
     1
 90
        1
176
     1
 90
        6
176
     1
 90
        2
176
     1
 62
     7
176
     1
 90
        5
176
     1
 90
        0
176
     1
 90
        0
176
     1
290
     0
176
     1
 90
        1
176
     1
 40
0.0
176
     1
 90
        0
176
     1
290
     0
176
     1
290
     1
176
     1
290
     1
176
     1
290
     0
176
     1
290
     0
176
     1
290
     0
176
     1
290
     0
176
     1
290
     0
176
     1
290
     0
176
     1
 90
       50
176
     1
 40
0.0
176
     1
 40
1.0
176
     1
 90
        0
176
     1
 62
    18
420
        0
176
     1
 90
       50
176
     1
 90
        3
176
     1
 62
     5
420
      255
176
     1
290
     0
176
     1
 90
       50
176
     1
 90
       50
176
     1
 90
       50
176
     1
290
     0
176
     1
 90
       50
176
     1
 62
   256
176
     0
 40
1.0
176
     0
 90
        2
176
     1
  1
strokes_ogs.tif
176
     1
290
     0
176
     1
 40
1.0
176
     1
 40
1.0
176
     1
  0
VISUALSTYLE
  5
2B
102
{ACAD_REACTORS
330
2A
102
}
330
2A
100
AcDbVisualStyle
  2
Flat
 70
     0
177
     3
291
     1
 70
    58
 90
        2
176
     1
 90
        1
176
     1
 90
        1
176
     1
 90
        2
176
     1
 40
0.6
176
     1
 40
30.0
176
     1
 62
     7
420
 16777215
176
     1
 90
        0
176
     1
 90
        0
176
     1
 62
     7
176
     1
 62
   257
176
     1
 90
        1
176
     1
 90
        1
176
     1
 40
1.0
176
     1
 90
        8
176
     1
 62
     7
176
     1
 40
1.0
176
     1
 90
        1
176
     1
 90
        6
176
     1
 90
        2
176
     1
 62
     7
176
     1
 90
        5
176
     1
 90
        0
176
     1
 90
        0
176
     1
290
     0
176
     1
 90
       13
176
     1
 40
0.0
176
     1
 90
        0
176
     1
290
     0
176
     1
290
     1
176
     1
290
     1
176
     1
290
     0
176
     1
290
     0
176
     1
290
     0
176
     1
290
     0
176
     1
290
     0
176
     1
290
     0
176
     1
 90
       50
176
     1
 40
0.0
176
     1
 40
1.0
176
     1
 90
        0
176
     1
 62
    18
420
        0
176
     1
 90
       50
176
     1
 90
        3
176
     1
 62
     5
420
      255
176
     1
290
     0
176
     1
 90
       50
176
     1
 90
       50
176
     1
 90
       50
176
     1
290
     0
176
     1
 90
       50
176
     1
 62
   256
176
     0
 40
1.0
176
     0
 90
        2
176
     1
  1
strokes_ogs.tif
176
     1
290
     0
176
     1
 40
1.0
176
     1
 40
1.0
176
     1
  0
VISUALSTYLE
  5
2C
102
{ACAD_REACTORS
330
2A
102
}
330
2A
100
AcDbVisualStyle
  2
FlatWithEdges
 70
     1
177
     3
291
     1
 70
    58
 90
        2
176
     1
 90
        1
176
     1
 90
        1
176
     1
 90
        2
176
     1
 40
0.6
176
     1
 40
30.0
176
     1
 62
     7
420
 16777215
176
     1
 90
        1
176
     1
 90
        0
176
     1
 62
     7
176
     1
 62
   257
176
     1
 90
        1
176
     1
 90
        1
176
     1
 40
1.0
176
     1
 90
        0
176
     1
 62
   257
176
     1
 40
1.0
176
     1
 90
        1
176
     1
 90
        6
176
     1
 90
        2
176
     1
 62
     7
176
     1
 90
        5
176
     1
 90
        0
176
     1
 90
        0
176
     1
290
     0
176
     1
 90
       13
176
     1
 40
0.0
176
     1
 90
        0
176
     1
290
     0
176
     1
290
     1
176
     1
290
     1
176
     1
290
     0
176
     1
290
     0
176
     1
290
     0
176
     1
290
     0
176
     1
290
     0
176
     1
290
     0
176
     1
 90
       50
176
     1
 40
0.0
176
     1
 40
1.0
176
     1
 90
        0
176
     1
 62
    18
420
        0
176
     1
 90
       50
176
     1
 90
        3
176
     1
 62
     5
420
      255
176
     1
290
     0
176
     1
 90
       50
176
     1
 90
       50
176
     1
 90
       50
176
     1
290
     0
176
     1
 90
       50
176
     1
 62
   256
176
     0
 40
1.0
176
     0
 90
        2
176
     1
  1
strokes_ogs.tif
176
     1
290
     0
176
     1
 40
1.0
176
     1
 40
1.0
176
     1
  0
VISUALSTYLE
  5
2D
102
{ACAD_REACTORS
330
2A
102
}
330
2A
100
AcDbVisualStyle
  2
Gouraud
 70
     2
177
     3
291
     1
 70
    58
 90
        2
176
     1
 90
        2
176
     1
 90
        1
176
     1
 90
        2
176
     1
 40
0.6
176
     1
 40
30.0
176
     1
 62
     7
420
 16777215
176
     1
 90
        0
176
     1
 90
        0
176
     1
 62
     7
176
     1
 62
   257
176
     1
 90
        1
176
     1
 90
        1
176
     1
 40
1.0
176
     1
 90
        0
176
     1
 62
     7
176
     1
 40
1.0
176
     1
 90
        1
176
     1
 90
        6
176
     1
 90
        2
176
     1
 62
     7
176
     1
 90
        5
176
     1
 90
        0
176
     1
 90
        0
176
     1
290
     0
176
     1
 90
       13
176
     1
 40
0.0
176
     1
 90
        0
176
     1
290
     0
176
     1
290
     1
176
     1
290
     1
176
     1
290
     0
176
     1
290
     0
176
     1
290
     0
176
     1
290
     0
176
     1
290
     0
176
     1
290
     0
176
     1
 90
       50
176
     1
 40
0.0
176
     1
 40
1.0
176
     1
 90
        0
176
     1
 62
    18
420
        0
176
     1
 90
       50
176
     1
 90
        3
176
     1
 62
     5
420
      255
176
     1
290
     0
176
     1
 90
       50
176
     1
 90
       50
176
     1
 90
       50
176
     1
290
     0
176
     1
 90
       50
176
     1
 62
   256
176
     0
 40
1.0
176
     0
 90
        2
176
     1
  1
strokes_ogs.tif
176
     1
290
     0
176
     1
 40
1.0
176
     1
 40
1.0
176
     1
  0
VISUALSTYLE
  5
2E
102
{ACAD_REACTORS
330
2A
102
}
330
2A
100
AcDbVisualStyle
  2
GouraudWithEdges
 70
     3
177
     3
291
     1
 70
    58
 90
        2
176
     1
 90
        2
176
     1
 90
        1
176
     1
 90
        2
176
     1
 40
0.6
176
     1
 40
30.0
176
     1
 62
     7
420
 16777215
176
     1
 90
        1
176
     1
 90
        0
176
     1
 62
     7
176
     1
 62
   257
176
     1
 90
        1
176
     1
 90
        1
176
     1
 40
1.0
176
     1
 90
        0
176
     1
 62
   257
176
     1
 40
1.0
176
     1
 90
        1
176
     1
 90
        6
176
     1
 90
        2
176
     1
 62
     7
176
     1
 90
        5
176
     1
 90
        0
176
     1
 90
        0
176
     1
290
     0
176
     1
 90
       13
176
     1
 40
0.0
176
     1
 90
        0
176
     1
290
     0
176
     1
290
     1
176
     1
290
     1
176
     1
290
     0
176
     1
290
     0
176
     1
290
     0
176
     1
290
     0
176
     1
290
     0
176
     1
290
     0
176
     1
 90
       50
176
     1
 40
0.0
176
     1
 40
1.0
176
     1
 90
        0
176
     1
 62
    18
420
        0
176
     1
 90
       50
176
     1
 90
        3
176
     1
 62
     5
420
      255
176
     1
290
     0
176
     1
 90
       50
176
     1
 90
       50
176
     1
 90
       50
176
     1
290
     0
176
     1
 90
       50
176
     1
 62
   256
176
     0
 40
1.0
176
     0
 90
        2
176
     1
  1
strokes_ogs.tif
176
     1
290
     0
176
     1
 40
1.0
176
     1
 40
1.0
176
     1
  0
VISUALSTYLE
  5
31
102
{ACAD_REACTORS
330
2A
102
}
330
2A
100
AcDbVisualStyle
  2
Hidden
 70
     6
177
     3
291
     0
 70
    58
 90
        1
176
     1
 90
        2
176
     1
 90
        2
176
     1
 90
        0
176
     1
 40
0.6
176
     1
 40
30.0
176
     1
 62
     7
420
 16777215
176
     1
 90
        2
176
     1
 90
        2
176
     1
 62
     7
176
     1
 62
   257
176
     1
 90
        2
176
     1
 90
        1
176
     1
 40
40.0
176
     1
 90
        0
176
     1
 62
   257
176
     1
 40
1.0
176
     1
 90
        1
176
     1
 90
        6
176
     1
 90
        2
176
     1
 62
     7
176
     1
 90
        3
176
     1
 90
        0
176
     1
 90
        0
176
     1
290
     0
176
     1
 90
        1
176
     1
 40
0.0
176
     1
 90
        0
176
     1
290
     0
176
     1
290
     1
176
     1
290
     1
176
     1
290
     0
176
     1
290
     0
176
     1
290
     0
176
     1
290
     0
176
     1
290
     0
176
     1
290
     0
176
     1
 90
       50
176
     1
 40
0.0
176
     1
 40
1.0
176
     1
 90
        0
176
     1
 62
    18
420
        0
176
     1
 90
       50
176
     1
 90
        3
176
     1
 62
     5
420
      255
176
     1
290
     0
176
     1
 90
       50
176
     1
 90
       50
176
     1
 90
       50
176
     1
290
     0
176
     1
 90
       50
176
     1
 62
   256
176
     0
 40
1.0
176
     0
 90
        2
176
     1
  1
strokes_ogs.tif
176
     1
290
     0
176
     1
 40
1.0
176
     1
 40
1.0
176
     1
  0
VISUALSTYLE
  5
3B
102
{ACAD_REACTORS
330
2A
102
}
330
2A
100
AcDbVisualStyle
  2
JitterOff
 70
    20
177
     3
291
     1
 70
    58
 90
        2
176
     0
 90
        2
176
     0
 90
        0
176
     0
 90
        0
176
     0
 40
0.6
176
     0
 40
30.0
176
     0
 62
     7
420
 16777215
176
     0
 90
        1
176
     0
 90
        4
176
     0
 62
     7
176
     0
 62
   257
176
     0
 90
        1
176
     0
 90
        1
176
     0
 40
1.0
176
     0
 90
       10
176
     2
 62
     7
176
     0
 40
1.0
176
     0
 90
        1
176
     0
 90
        6
176
     0
 90
        2
176
     0
 62
     7
176
     0
 90
        5
176
     0
 90
        0
176
     0
 90
        0
176
     0
290
     0
176
     0
 90
        1
176
     0
 40
0.0
176
     0
 90
        0
176
     0
290
     0
176
     0
290
     1
176
     0
290
     1
176
     0
290
     0
176
     0
290
     0
176
     0
290
     0
176
     0
290
     0
176
     0
290
     0
176
     0
290
     0
176
     0
 90
       50
176
     0
 40
0.0
176
     0
 40
1.0
176
     0
 90
        0
176
     0
 62
    18
420
        0
176
     0
 90
       50
176
     0
 90
        3
176
     0
 62
     5
420
      255
176
     0
290
     0
176
     0
 90
       50
176
     0
 90
       50
176
     0
 90
       50
176
     0
290
     0
176
     0
 90
       50
176
     0
 62
   256
176
     0
 40
1.0
176
     0
 90
        2
176
     0
  1
strokes_ogs.tif
176
     0
290
     0
176
     0
 40
1.0
176
     0
 40
1.0
176
     0
  0
VISUALSTYLE
  5
38
102
{ACAD_REACTORS
330
2A
102
}
330
2A
100
AcDbVisualStyle
  2
Linepattern
 70
    14
177
     3
291
     1
 70
    58
 90
        2
176
     1
 90
        2
176
     1
 90
        0
176
     1
 90
        0
176
     1
 40
0.6
176
     1
 40
30.0
176
     1
 62
     7
420
 16777215
176
     1
 90
        1
176
     1
 90
        4
176
     1
 62
     7
176
     1
 62
   257
176
     1
 90
        7
176
     1
 90
        7
176
     1
 40
1.0
176
     1
 90
        8
176
     1
 62
     7
176
     1
 40
1.0
176
     1
 90
        1
176
     1
 90
        6
176
     1
 90
        2
176
     1
 62
     7
176
     1
 90
        5
176
     1
 90
        0
176
     1
 90
        0
176
     1
290
     0
176
     1
 90
        1
176
     1
 40
0.0
176
     1
 90
        0
176
     1
290
     0
176
     1
290
     1
176
     1
290
     1
176
     1
290
     0
176
     1
290
     0
176
     1
290
     0
176
     1
290
     0
176
     1
290
     0
176
     1
290
     0
176
     1
 90
       50
176
     1
 40
0.0
176
     1
 40
1.0
176
     1
 90
        0
176
     1
 62
    18
420
        0
176
     1
 90
       50
176
     1
 90
        3
176
     1
 62
     5
420
      255
176
     1
290
     0
176
     1
 90
       50
176
     1
 90
       50
176
     1
 90
       50
176
     1
290
     0
176
     1
 90
       50
176
     1
 62
   256
176
     0
 40
1.0
176
     0
 90
        2
176
     1
  1
strokes_ogs.tif
176
     1
290
     0
176
     1
 40
1.0
176
     1
 40
1.0
176
     1
  0
VISUALSTYLE
  5
3C
102
{ACAD_REACTORS
330
2A
102
}
330
2A
100
AcDbVisualStyle
  2
OverhangOff
 70
    21
177
     3
291
     1
 70
    58
 90
        2
176
     0
 90
        2
176
     0
 90
        0
176
     0
 90
        0
176
     0
 40
0.6
176
     0
 40
30.0
176
     0
 62
     7
420
 16777215
176
     0
 90
        1
176
     0
 90
        4
176
     0
 62
     7
176
     0
 62
   257
176
     0
 90
        1
176
     0
 90
        1
176
     0
 40
1.0
176
     0
 90
        9
176
     2
 62
     7
176
     0
 40
1.0
176
     0
 90
        1
176
     0
 90
        6
176
     0
 90
        2
176
     0
 62
     7
176
     0
 90
        5
176
     0
 90
        0
176
     0
 90
        0
176
     0
290
     0
176
     0
 90
        1
176
     0
 40
0.0
176
     0
 90
        0
176
     0
290
     0
176
     0
290
     1
176
     0
290
     1
176
     0
290
     0
176
     0
290
     0
176
     0
290
     0
176
     0
290
     0
176
     0
290
     0
176
     0
290
     0
176
     0
 90
       50
176
     0
 40
0.0
176
     0
 40
1.0
176
     0
 90
        0
176
     0
 62
    18
420
        0
176
     0
 90
       50
176
     0
 90
        3
176
     0
 62
     5
420
      255
176
     0
290
     0
176
     0
 90
       50
176
     0
 90
       50
176
     0
 90
       50
176
     0
290
     0
176
     0
 90
       50
176
     0
 62
   256
176
     0
 40
1.0
176
     0
 90
        2
176
     0
  1
strokes_ogs.tif
176
     0
290
     0
176
     0
 40
1.0
176
     0
 40
1.0
176
     0
  0
VISUALSTYLE
  5
33
102
{ACAD_REACTORS
330
2A
102
}
330
2A
100
AcDbVisualStyle
  2
Realistic
 70
     8
177
     3
291
     0
 70
    58
 90
        2
176
     1
 90
        3
176
     1
 90
        0
176
     1
 90
        2
176
     1
 40
0.6
176
     1
 40
30.0
176
     1
 62
     7
420
 16777215
176
     1
 90
        0
176
     1
 90
        0
176
     1
 62
     7
176
     1
 62
   257
176
     1
 90
        1
176
     1
 90
        1
176
     1
 40
1.0
176
     1
 90
        8
176
     1
 62
   257
176
     1
 40
1.0
176
     1
 90
        1
176
     1
 90
        6
176
     1
 90
        2
176
     1
 62
     7
176
     1
 90
        3
176
     1
 90
        0
176
     1
 90
        0
176
     1
290
     0
176
     1
 90
       13
176
     1
 40
0.0
176
     1
 90
        0
176
     1
290
     0
176
     1
290
     1
176
     1
290
     1
176
     1
290
     0
176
     1
290
     0
176
     1
290
     0
176
     1
290
     0
176
     1
290
     0
176
     1
290
     0
176
     1
 90
       50
176
     1
 40
0.0
176
     1
 40
1.0
176
     1
 90
        0
176
     1
 62
    18
420
        0
176
     1
 90
       50
176
     1
 90
        3
176
     1
 62
     5
420
      255
176
     1
290
     0
176
     1
 90
       50
176
     1
 90
       50
176
     1
 90
       50
176
     1
290
     0
176
     1
 90
       50
176
     1
 62
   256
176
     0
 40
1.0
176
     0
 90
        2
176
     1
  1
strokes_ogs.tif
176
     1
290
     0
176
     1
 40
1.0
176
     1
 40
1.0
176
     1
  0
VISUALSTYLE
  5
42
102
{ACAD_REACTORS
330
2A
102
}
330
2A
100
AcDbVisualStyle
  2
Shaded
 70
    27
177
     3
291
     0
 70
    58
 90
        2
176
     1
 90
        2
176
     1
 90
        1
176
     1
 90
        2
176
     1
 40
0.6
176
     1
 40
30.0
176
     1
 62
     7
420
 16777215
176
     1
 90
        0
176
     1
 90
        4
176
     1
 62
     7
176
     1
 62
   257
176
     1
 90
        1
176
     1
 90
        1
176
     1
 40
1.0
176
     1
 90
        8
176
     1
 62
   257
176
     1
 40
1.0
176
     1
 90
        1
176
     1
 90
        6
176
     1
 90
        2
176
     1
 62
     8
420
  7895160
176
     1
 90
        3
176
     1
 90
        0
176
     1
 90
        0
176
     1
290
     0
176
     1
 90
        5
176
     1
 40
0.0
176
     1
 90
        0
176
     1
290
     0
176
     1
290
     1
176
     1
290
     1
176
     1
290
     0
176
     1
290
     0
176
     1
290
     0
176
     1
290
     0
176
     1
290
     0
176
     1
290
     0
176
     1
 90
       50
176
     1
 40
0.0
176
     1
 40
1.0
176
     1
 90
        0
176
     1
 62
    18
420
        0
176
     1
 90
       50
176
     1
 90
        3
176
     1
 62
     5
420
      255
176
     1
290
     0
176
     1
 90
       50
176
     1
 90
       50
176
     1
 90
       50
176
     1
290
     0
176
     1
 90
       50
176
     1
 62
   256
176
     0
 40
1.0
176
     0
 90
        2
176
     1
  1
strokes_ogs.tif
176
     1
290
     0
176
     1
 40
1.0
176
     1
 40
1.0
176
     1
  0
VISUALSTYLE
  5
41
102
{ACAD_REACTORS
330
2A
102
}
330
2A
100
AcDbVisualStyle
  2
Shaded with edges
 70
    26
177
     3
291
     0
 70
    58
 90
        2
176
     1
 90
        2
176
     1
 90
        1
176
     1
 90
        2
176
     1
 40
0.6
176
     1
 40
30.0
176
     1
 62
     7
420
 16777215
176
     1
 90
        1
176
     1
 90
       10
176
     1
 62
     7
176
     1
 62
   257
176
     1
 90
        2
176
     1
 90
        1
176
     1
 40
1.0
176
     1
 90
        8
176
     1
 62
   257
176
     1
 40
1.0
176
     1
 90
        1
176
     1
 90
        6
176
     1
 90
        2
176
     1
 62
     7
176
     1
 90
        3
176
     1
 90
        0
176
     1
 90
        0
176
     1
290
     0
176
     1
 90
        5
176
     1
 40
0.0
176
     1
 90
        0
176
     1
290
     0
176
     1
290
     1
176
     1
290
     1
176
     1
290
     0
176
     1
290
     0
176
     1
290
     0
176
     1
290
     0
176
     1
290
     0
176
     1
290
     0
176
     1
 90
       50
176
     1
 40
0.0
176
     1
 40
1.0
176
     1
 90
        0
176
     1
 62
    18
420
        0
176
     1
 90
       50
176
     1
 90
        3
176
     1
 62
     5
420
      255
176
     1
290
     0
176
     1
 90
       50
176
     1
 90
       50
176
     1
 90
       50
176
     1
290
     0
176
     1
 90
       50
176
     1
 62
   256
176
     0
 40
1.0
176
     0
 90
        2
176
     1
  1
strokes_ogs.tif
176
     1
290
     0
176
     1
 40
1.0
176
     1
 40
1.0
176
     1
  0
VISUALSTYLE
  5
3E
102
{ACAD_REACTORS
330
2A
102
}
330
2A
100
AcDbVisualStyle
  2
Shades of Gray
 70
    23
177
     3
291
     0
 70
    58
 90
        2
176
     1
 90
        2
176
     1
 90
        3
176
     1
 90
        0
176
     1
 40
0.6
176
     1
 40
30.0
176
     1
 62
     7
420
 16777215
176
     1
 90
        2
176
     1
 90
        2
176
     1
 62
     7
176
     1
 62
     7
176
     1
 90
        1
176
     1
 90
        1
176
     1
 40
40.0
176
     1
 90
        8
176
     1
 62
     7
176
     1
 40
1.0
176
     1
 90
        1
176
     1
 90
        6
176
     1
 90
        2
176
     1
 62
     7
176
     1
 90
        3
176
     1
 90
        0
176
     1
 90
        0
176
     1
290
     0
176
     1
 90
        1
176
     1
 40
0.0
176
     1
 90
        0
176
     1
290
     0
176
     1
290
     1
176
     1
290
     1
176
     1
290
     0
176
     1
290
     0
176
     1
290
     0
176
     1
290
     0
176
     1
290
     0
176
     1
290
     0
176
     1
 90
       50
176
     1
 40
0.0
176
     1
 40
1.0
176
     1
 90
        0
176
     1
 62
    18
420
        0
176
     1
 90
       50
176
     1
 90
        3
176
     1
 62
     5
420
      255
176
     1
290
     0
176
     1
 90
       50
176
     1
 90
       50
176
     1
 90
       50
176
     1
290
     0
176
     1
 90
       50
176
     1
 62
   256
176
     0
 40
1.0
176
     0
 90
        2
176
     1
  1
strokes_ogs.tif
176
     1
290
     0
176
     1
 40
1.0
176
     1
 40
1.0
176
     1
  0
VISUALSTYLE
  5
3F
102
{ACAD_REACTORS
330
2A
102
}
330
2A
100
AcDbVisualStyle
  2
Sketchy
 70
    24
177
     3
291
     0
 70
    58
 90
        1
176
     1
 90
        2
176
     1
 90
        2
176
     1
 90
        0
176
     1
 40
0.6
176
     1
 40
30.0
176
     1
 62
     7
420
 16777215
176
     1
 90
        2
176
     1
 90
        2
176
     1
 62
     7
176
     1
 62
     7
176
     1
 90
        1
176
     1
 90
        1
176
     1
 40
40.0
176
     1
 90
       11
176
     1
 62
     7
176
     1
 40
1.0
176
     1
 90
        1
176
     1
 90
        6
176
     1
 90
        2
176
     1
 62
     7
176
     1
 90
        6
176
     1
 90
        0
176
     1
 90
        0
176
     1
290
     0
176
     1
 90
        1
176
     1
 40
0.0
176
     1
 90
        0
176
     1
290
     0
176
     1
290
     1
176
     1
290
     1
176
     1
290
     0
176
     1
290
     0
176
     1
290
     0
176
     1
290
     0
176
     1
290
     0
176
     1
290
     0
176
     1
 90
       50
176
     1
 40
0.0
176
     1
 40
1.0
176
     1
 90
        0
176
     1
 62
    18
420
        0
176
     1
 90
       50
176
     1
 90
        3
176
     1
 62
     5
420
      255
176
     1
290
     0
176
     1
 90
       50
176
     1
 90
       50
176
     1
 90
       50
176
     1
290
     0
176
     1
 90
       50
176
     1
 62
   256
176
     0
 40
1.0
176
     0
 90
        2
176
     1
  1
strokes_ogs.tif
176
     1
290
     0
176
     1
 40
1.0
176
     1
 40
1.0
176
     1
  0
VISUALSTYLE
  5
37
102
{ACAD_REACTORS
330
2A
102
}
330
2A
100
AcDbVisualStyle
  2
Thicken
 70
    13
177
     3
291
     1
 70
    58
 90
        2
176
     1
 90
        2
176
     1
 90
        0
176
     1
 90
        0
176
     1
 40
0.6
176
     1
 40
30.0
176
     1
 62
     7
420
 16777215
176
     1
 90
        1
176
     1
 90
        4
176
     1
 62
     7
176
     1
 62
   257
176
     1
 90
        1
176
     1
 90
        1
176
     1
 40
1.0
176
     1
 90
       12
176
     1
 62
     7
176
     1
 40
1.0
176
     1
 90
        1
176
     1
 90
        6
176
     1
 90
        2
176
     1
 62
     7
176
     1
 90
        5
176
     1
 90
        0
176
     1
 90
        0
176
     1
290
     0
176
     1
 90
        1
176
     1
 40
0.0
176
     1
 90
        0
176
     1
290
     0
176
     1
290
     1
176
     1
290
     1
176
     1
290
     0
176
     1
290
     0
176
     1
290
     0
176
     1
290
     0
176
     1
290
     0
176
     1
290
     0
176
     1
 90
       50
176
     1
 40
0.0
176
     1
 40
1.0
176
     1
 90
        0
176
     1
 62
    18
420
        0
176
     1
 90
       50
176
     1
 90
        3
176
     1
 62
     5
420
      255
176
     1
290
     0
176
     1
 90
       50
176
     1
 90
       50
176
     1
 90
       50
176
     1
290
     0
176
     1
 90
       50
176
     1
 62
   256
176
     0
 40
1.0
176
     0
 90
        2
176
     1
  1
strokes_ogs.tif
176
     1
290
     0
176
     1
 40
1.0
176
     1
 40
1.0
176
     1
  0
VISUALSTYLE
  5
30
102
{ACAD_REACTORS
330
2A
102
}
330
2A
100
AcDbVisualStyle
  2
Wireframe
 70
     5
177
     3
291
     0
 70
    58
 90
        0
176
     1
 90
        2
176
     1
 90
        0
176
     1
 90
        0
176
     1
 40
0.6
176
     1
 40
30.0
176
     1
 62
     7
420
 16777215
176
     1
 90
        1
176
     1
 90
        4
176
     1
 62
     7
176
     1
 62
   257
176
     1
 90
        1
176
     1
 90
        1
176
     1
 40
1.0
176
     1
 90
        0
176
     1
 62
   257
176
     1
 40
1.0
176
     1
 90
        1
176
     1
 90
        6
176
     1
 90
        2
176
     1
 62
     7
176
     1
 90
        3
176
     1
 90
        0
176
     1
 90
        0
176
     1
290
     0
176
     1
 90
        1
176
     1
 40
0.0
176
     1
 90
        0
176
     1
290
     0
176
     1
290
     1
176
     1
290
     1
176
     1
290
     0
176
     1
290
     0
176
     1
290
     0
176
     1
290
     0
176
     1
290
     0
176
     1
290
     0
176
     1
 90
       50
176
     1
 40
0.0
176
     1
 40
1.0
176
     1
 90
        0
176
     1
 62
    18
420
        0
176
     1
 90
       50
176
     1
 90
        3
176
     1
 62
     5
420
      255
176
     1
290
     0
176
     1
 90
       50
176
     1
 90
       50
176
     1
 90
       50
176
     1
290
     0
176
     1
 90
       50
176
     1
 62
   256
176
     0
 40
1.0
176
     0
 90
        2
176
     1
  1
strokes_ogs.tif
176
     1
290
     0
176
     1
 40
1.0
176
     1
 40
1.0
176
     1
  0
VISUALSTYLE
  5
40
102
{ACAD_REACTORS
330
2A
102
}
330
2A
100
AcDbVisualStyle
  2
X-Ray
 70
    25
177
     3
291
     0
 70
    58
 90
        2
176
     1
 90
        2
176
     1
 90
        1
176
     1
 90
        1
176
     1
 40
0.5
176
     1
 40
30.0
176
     1
 62
     7
420
 16777215
176
     1
 90
        1
176
     1
 90
        0
176
     1
 62
     7
176
     1
 62
   257
176
     1
 90
        1
176
     1
 90
        1
176
     1
 40
1.0
176
     1
 90
        8
176
     1
 62
     7
176
     1
 40
1.0
176
     1
 90
        1
176
     1
 90
        6
176
     1
 90
        2
176
     1
 62
     7
176
     1
 90
        3
176
     1
 90
        0
176
     1
 90
        0
176
     1
290
     0
176
     1
 90
       13
176
     1
 40
0.0
176
     1
 90
        0
176
     1
290
     0
176
     1
290
     1
176
     1
290
     1
176
     1
290
     0
176
     1
290
     0
176
     1
290
     0
176
     1
290
     0
176
     1
290
     0
176
     1
290
     0
176
     1
 90
       50
176
     1
 40
0.0
176
     1
 40
1.0
176
     1
 90
        0
176
     1
 62
    18
420
        0
176
     1
 90
       50
176
     1
 90
        3
176
     1
 62
     5
420
      255
176
     1
290
     0
176
     1
 90
       50
176
     1
 90
       50
176
     1
 90
       50
176
     1
290
     0
176
     1
 90
       50
176
     1
 62
   256
176
     0
 40
1.0
176
     0
 90
        2
176
     1
  1
strokes_ogs.tif
176
     1
290
     0
176
     1
 40
1.0
176
     1
 40
1.0
176
     1
  0
DICTIONARYVAR
  5
163
102
{ACAD_REACTORS
330
162
102
}
330
162
100
DictionaryVariables
280
     0
  1
1:1
  0
DICTIONARYVAR
  5
168
102
{ACAD_REACTORS
330
162
102
}
330
162
100
DictionaryVariables
280
     0
  1
Standard
  0
DICTIONARYVAR
  5
167
102
{ACAD_REACTORS
330
162
102
}
330
162
100
DictionaryVariables
280
     0
  1
Standard
  0
DICTIONARY
  5
164
330
6A
100
AcDbDictionary
280
     1
281
     1
  3
ACAD_ROUNDTRIP_2008_TABLESTYLE_CELLSTYLEMAP
360
165
  0
CELLSTYLEMAP
  5
165
102
{ACAD_REACTORS
330
164
102
}
330
164
100
AcDbCellStyleMap
 90
        3
300
CELLSTYLE
  1
TABLEFORMAT_BEGIN
 90
        5
170
     1
 91
        0
 92
    32768
 62
   257
 93
        1
300
CONTENTFORMAT
  1
CONTENTFORMAT_BEGIN
 90
        0
 91
        0
 92
        4
 93
        0
300

 40
0.0
140
1.0
 94
        5
 62
     0
340
11
144
0.25
309
CONTENTFORMAT_END
171
     1
301
MARGIN
  1
CELLMARGIN_BEGIN
 40
0.06
 40
0.06
 40
0.06
 40
0.06
 40
0.06
 40
0.06
309
CELLMARGIN_END
 94
        6
 95
        1
302
GRIDFORMAT
  1
GRIDFORMAT_BEGIN
 90
        0
 91
        1
 62
     0
 92
       -2
340
14
 93
        0
 40
0.045
309
GRIDFORMAT_END
 95
        2
302
GRIDFORMAT
  1
GRIDFORMAT_BEGIN
 90
        0
 91
        1
 62
     0
 92
       -2
340
14
 93
        0
 40
0.045
309
GRIDFORMAT_END
 95
        4
302
GRIDFORMAT
  1
GRIDFORMAT_BEGIN
 90
        0
 91
        1
 62
     0
 92
       -2
340
14
 93
        0
 40
0.045
309
GRIDFORMAT_END
 95
        8
302
GRIDFORMAT
  1
GRIDFORMAT_BEGIN
 90
        0
 91
        1
 62
     0
 92
       -2
340
14
 93
        0
 40
0.045
309
GRIDFORMAT_END
 95
       16
302
GRIDFORMAT
  1
GRIDFORMAT_BEGIN
 90
        0
 91
        1
 62
     0
 92
       -2
340
14
 93
        0
 40
0.045
309
GRIDFORMAT_END
 95
       32
302
GRIDFORMAT
  1
GRIDFORMAT_BEGIN
 90
        0
 91
        1
 62
     0
 92
       -2
340
14
 93
        0
 40
0.045
309
GRIDFORMAT_END
309
TABLEFORMAT_END
  1
CELLSTYLE_BEGIN
 90
        1
 91
        1
300
_TITLE
309
CELLSTYLE_END
300
CELLSTYLE
  1
TABLEFORMAT_BEGIN
 90
        5
170
     1
 91
        0
 92
        0
 62
   257
 93
        1
300
CONTENTFORMAT
  1
CONTENTFORMAT_BEGIN
 90
        0
 91
        0
 92
        4
 93
        0
300

 40
0.0
140
1.0
 94
        5
 62
     0
340
11
144
0.18
309
CONTENTFORMAT_END
171
     1
301
MARGIN
  1
CELLMARGIN_BEGIN
 40
0.06
 40
0.06
 40
0.06
 40
0.06
 40
0.06
 40
0.06
309
CELLMARGIN_END
 94
        6
 95
        1
302
GRIDFORMAT
  1
GRIDFORMAT_BEGIN
 90
        0
 91
        1
 62
     0
 92
       -2
340
14
 93
        0
 40
0.045
309
GRIDFORMAT_END
 95
        2
302
GRIDFORMAT
  1
GRIDFORMAT_BEGIN
 90
        0
 91
        1
 62
     0
 92
       -2
340
14
 93
        0
 40
0.045
309
GRIDFORMAT_END
 95
        4
302
GRIDFORMAT
  1
GRIDFORMAT_BEGIN
 90
        0
 91
        1
 62
     0
 92
       -2
340
14
 93
        0
 40
0.045
309
GRIDFORMAT_END
 95
        8
302
GRIDFORMAT
  1
GRIDFORMAT_BEGIN
 90
        0
 91
        1
 62
     0
 92
       -2
340
14
 93
        0
 40
0.045
309
GRIDFORMAT_END
 95
       16
302
GRIDFORMAT
  1
GRIDFORMAT_BEGIN
 90
        0
 91
        1
 62
     0
 92
       -2
340
14
 93
        0
 40
0.045
309
GRIDFORMAT_END
 95
       32
302
GRIDFORMAT
  1
GRIDFORMAT_BEGIN
 90
        0
 91
        1
 62
     0
 92
       -2
340
14
 93
        0
 40
0.045
309
GRIDFORMAT_END
309
TABLEFORMAT_END
  1
CELLSTYLE_BEGIN
 90
        2
 91
        1
300
_HEADER
309
CELLSTYLE_END
300
CELLSTYLE
  1
TABLEFORMAT_BEGIN
 90
        5
170
     1
 91
        0
 92
        0
 62
   257
 93
        1
300
CONTENTFORMAT
  1
CONTENTFORMAT_BEGIN
 90
        0
 91
        0
 92
        4
 93
        0
300

 40
0.0
140
1.0
 94
        2
 62
     0
340
11
144
0.18
309
CONTENTFORMAT_END
171
     1
301
MARGIN
  1
CELLMARGIN_BEGIN
 40
0.06
 40
0.06
 40
0.06
 40
0.06
 40
0.06
 40
0.06
309
CELLMARGIN_END
 94
        6
 95
        1
302
GRIDFORMAT
  1
GRIDFORMAT_BEGIN
 90
        0
 91
        1
 62
     0
 92
       -2
340
14
 93
        0
 40
0.045
309
GRIDFORMAT_END
 95
        2
302
GRIDFORMAT
  1
GRIDFORMAT_BEGIN
 90
        0
 91
        1
 62
     0
 92
       -2
340
14
 93
        0
 40
0.045
309
GRIDFORMAT_END
 95
        4
302
GRIDFORMAT
  1
GRIDFORMAT_BEGIN
 90
        0
 91
        1
 62
     0
 92
       -2
340
14
 93
        0
 40
0.045
309
GRIDFORMAT_END
 95
        8
302
GRIDFORMAT
  1
GRIDFORMAT_BEGIN
 90
        0
 91
        1
 62
     0
 92
       -2
340
14
 93
        0
 40
0.045
309
GRIDFORMAT_END
 95
       16
302
GRIDFORMAT
  1
GRIDFORMAT_BEGIN
 90
        0
 91
        1
 62
     0
 92
       -2
340
14
 93
        0
 40
0.045
309
GRIDFORMAT_END
 95
       32
302
GRIDFORMAT
  1
GRIDFORMAT_BEGIN
 90
        0
 91
        1
 62
     0
 92
       -2
340
14
 93
        0
 40
0.045
309
GRIDFORMAT_END
309
TABLEFORMAT_END
  1
CELLSTYLE_BEGIN
 90
        3
 91
        2
300
_DATA
309
CELLSTYLE_END
  0
ENDSEC
  0
EOF