0
SECTION
  2
HEADER
  9
$ACADVER
  1
AC1027
  9
$ACADMAINTVER
 70
     8
  9
$DWGCODEPAGE
  3
ANSI_1252
  9
$REQUIREDVERSIONS
160
                 0
  9
$COMMENTS
  1
File was created by Cadenas
  9
$CUSTOMPROPERTYTAG
  1
NN
  9
$CUSTOMPROPERTY
  1
Set Screw Intermediate Duty Two-Bolt Flange Inch Bore
  9
$CUSTOMPROPERTYTAG
  1
NT
  9
$CUSTOMPROPERTY
  1

  9
$CUSTOMPROPERTYTAG
  1
NB
  9
$CUSTOMPROPERTY
  1
123613
  9
$CUSTOMPROPERTYTAG
  1
NBSYN
  9
$CUSTOMPROPERTY
  1
$PN.
  9
$CUSTOMPROPERTYTAG
  1
LINA
  9
$CUSTOMPROPERTY
  1
123613
  9
$CUSTOMPROPERTYTAG
  1
RS
  9
$CUSTOMPROPERTY
  1
207
  9
$CUSTOMPROPERTYTAG
  1
SS
  9
$CUSTOMPROPERTY
  1
1-1/4
  9
$CUSTOMPROPERTYTAG
  1
PN
  9
$CUSTOMPROPERTY
  1
123613
  9
$CUSTOMPROPERTYTAG
  1
DESCRIPTION
  9
$CUSTOMPROPERTY
  1
F2B-VSC-104
  9
$CUSTOMPROPERTYTAG
  1
LF
  9
$CUSTOMPROPERTY
  1
RE-LUBE
  9
$CUSTOMPROPERTYTAG
  1
WEIGHT
  9
$CUSTOMPROPERTY
  1
3.5
  9
$CUSTOMPROPERTYTAG
  1
A
  9
$CUSTOMPROPERTY
  1
1.71
  9
$CUSTOMPROPERTYTAG
  1
B
  9
$CUSTOMPROPERTY
  1
6.13
  9
$CUSTOMPROPERTYTAG
  1
C
  9
$CUSTOMPROPERTY
  1
1.75
  9
$CUSTOMPROPERTYTAG
  1
D
  9
$CUSTOMPROPERTY
  1
5.12
  9
$CUSTOMPROPERTYTAG
  1
F
  9
$CUSTOMPROPERTY
  1
1/2
  9
$CUSTOMPROPERTYTAG
  1
H
  9
$CUSTOMPROPERTY
  1
0.56
  9
$CUSTOMPROPERTYTAG
  1
J
  9
$CUSTOMPROPERTY
  1
0.53
  9
$CUSTOMPROPERTYTAG
  1
L
  9
$CUSTOMPROPERTY
  1
1.84
  9
$CUSTOMPROPERTYTAG
  1
M
  9
$CUSTOMPROPERTY
  1
3.75
  9
$CUSTOMPROPERTYTAG
  1
N
  9
$CUSTOMPROPERTY
  1
1.84
  9
$CUSTOMPROPERTYTAG
  1
COMPANY
  9
$CUSTOMPROPERTY
  1
baldor
  9
$INSBASE
 10
0.0
 20
0.0
 30
0.0
  9
$EXTMIN
 10
1.000000000000000E+20
 20
1.000000000000000E+20
 30
1.000000000000000E+20
  9
$EXTMAX
 10
-1.000000000000000E+20
 20
-1.000000000000000E+20
 30
-1.000000000000000E+20
  9
$LIMMIN
 10
0.0
 20
0.0
  9
$LIMMAX
 10
12.0
 20
9.0
  9
$ORTHOMODE
 70
     0
  9
$REGENMODE
 70
     1
  9
$FILLMODE
 70
     1
  9
$QTEXTMODE
 70
     0
  9
$MIRRTEXT
 70
     1
  9
$LTSCALE
 40
1.0
  9
$ATTMODE
 70
     1
  9
$TEXTSIZE
 40
0.2
  9
$TRACEWID
 40
0.05
  9
$TEXTSTYLE
  7
Standard
  9
$CLAYER
  8
0
  9
$CELTYPE
  6
ByLayer
  9
$CECOLOR
 62
   256
  9
$CELTSCALE
 40
1.0
  9
$DISPSILH
 70
     0
  9
$DIMSCALE
 40
1.0
  9
$DIMASZ
 40
0.18
  9
$DIMEXO
 40
0.0625
  9
$DIMDLI
 40
0.38
  9
$DIMRND
 40
0.0
  9
$DIMDLE
 40
0.0
  9
$DIMEXE
 40
0.18
  9
$DIMTP
 40
0.0
  9
$DIMTM
 40
0.0
  9
$DIMTXT
 40
0.18
  9
$DIMCEN
 40
0.09
  9
$DIMTSZ
 40
0.0
  9
$DIMTOL
 70
     0
  9
$DIMLIM
 70
     0
  9
$DIMTIH
 70
     1
  9
$DIMTOH
 70
     1
  9
$DIMSE1
 70
     0
  9
$DIMSE2
 70
     0
  9
$DIMTAD
 70
     0
  9
$DIMZIN
 70
     0
  9
$DIMBLK
  1

  9
$DIMASO
 70
     1
  9
$DIMSHO
 70
     1
  9
$DIMPOST
  1

  9
$DIMAPOST
  1

  9
$DIMALT
 70
     0
  9
$DIMALTD
 70
     2
  9
$DIMALTF
 40
25.4
  9
$DIMLFAC
 40
1.0
  9
$DIMTOFL
 70
     0
  9
$DIMTVP
 40
0.0
  9
$DIMTIX
 70
     0
  9
$DIMSOXD
 70
     0
  9
$DIMSAH
 70
     0
  9
$DIMBLK1
  1

  9
$DIMBLK2
  1

  9
$DIMSTYLE
  2
Standard
  9
$DIMCLRD
 70
     0
  9
$DIMCLRE
 70
     0
  9
$DIMCLRT
 70
     0
  9
$DIMTFAC
 40
1.0
  9
$DIMGAP
 40
0.09
  9
$DIMJUST
 70
     0
  9
$DIMSD1
 70
     0
  9
$DIMSD2
 70
     0
  9
$DIMTOLJ
 70
     1
  9
$DIMTZIN
 70
     0
  9
$DIMALTZ
 70
     0
  9
$DIMALTTZ
 70
     0
  9
$DIMUPT
 70
     0
  9
$DIMDEC
 70
     4
  9
$DIMTDEC
 70
     4
  9
$DIMALTU
 70
     2
  9
$DIMALTTD
 70
     2
  9
$DIMTXSTY
  7
Standard
  9
$DIMAUNIT
 70
     0
  9
$DIMADEC
 70
     0
  9
$DIMALTRND
 40
0.0
  9
$DIMAZIN
 70
     0
  9
$DIMDSEP
 70
    46
  9
$DIMATFIT
 70
     3
  9
$DIMFRAC
 70
     0
  9
$DIMLDRBLK
  1

  9
$DIMLUNIT
 70
     2
  9
$DIMLWD
 70
    -2
  9
$DIMLWE
 70
    -2
  9
$DIMTMOVE
 70
     0
  9
$DIMFXL
 40
1.0
  9
$DIMFXLON
 70
     0
  9
$DIMJOGANG
 40
0.7853981633974483
  9
$DIMTFILL
 70
     0
  9
$DIMTFILLCLR
 70
     0
  9
$DIMARCSYM
 70
     0
  9
$DIMLTYPE
  6

  9
$DIMLTEX1
  6

  9
$DIMLTEX2
  6

  9
$DIMTXTDIRECTION
 70
     0
  9
$LUNITS
 70
     2
  9
$LUPREC
 70
     4
  9
$SKETCHINC
 40
0.1
  9
$FILLETRAD
 40
0.5
  9
$AUNITS
 70
     0
  9
$AUPREC
 70
     0
  9
$MENU
  1
.
  9
$ELEVATION
 40
0.0
  9
$PELEVATION
 40
0.0
  9
$THICKNESS
 40
0.0
  9
$LIMCHECK
 70
     0
  9
$CHAMFERA
 40
0.0
  9
$CHAMFERB
 40
0.0
  9
$CHAMFERC
 40
0.0
  9
$CHAMFERD
 40
0.0
  9
$SKPOLY
 70
     0
  9
$TDCREATE
 40
2458168.998385914
  9
$TDUCREATE
 40
2458168.956719248
  9
$TDUPDATE
 40
2458168.998386099
  9
$TDUUPDATE
 40
2458168.956719433
  9
$TDINDWG
 40
0.0000000116
  9
$TDUSRTIMER
 40
0.0000000116
  9
$USRTIMER
 70
     1
  9
$ANGBASE
 50
0.0
  9
$ANGDIR
 70
     0
  9
$PDMODE
 70
     0
  9
$PDSIZE
 40
0.0
  9
$PLINEWID
 40
0.0
  9
$SPLFRAME
 70
     0
  9
$SPLINETYPE
 70
     6
  9
$SPLINESEGS
 70
     8
  9
$HANDSEED
  5
19A
  9
$SURFTAB1
 70
     6
  9
$SURFTAB2
 70
     6
  9
$SURFTYPE
 70
     6
  9
$SURFU
 70
     6
  9
$SURFV
 70
     6
  9
$UCSBASE
  2

  9
$UCSNAME
  2

  9
$UCSORG
 10
0.0
 20
0.0
 30
0.0
  9
$UCSXDIR
 10
1.0
 20
0.0
 30
0.0
  9
$UCSYDIR
 10
0.0
 20
1.0
 30
0.0
  9
$UCSORTHOREF
  2

  9
$UCSORTHOVIEW
 70
     0
  9
$UCSORGTOP
 10
0.0
 20
0.0
 30
0.0
  9
$UCSORGBOTTOM
 10
0.0
 20
0.0
 30
0.0
  9
$UCSORGLEFT
 10
0.0
 20
0.0
 30
0.0
  9
$UCSORGRIGHT
 10
0.0
 20
0.0
 30
0.0
  9
$UCSORGFRONT
 10
0.0
 20
0.0
 30
0.0
  9
$UCSORGBACK
 10
0.0
 20
0.0
 30
0.0
  9
$PUCSBASE
  2

  9
$PUCSNAME
  2

  9
$PUCSORG
 10
0.0
 20
0.0
 30
0.0
  9
$PUCSXDIR
 10
1.0
 20
0.0
 30
0.0
  9
$PUCSYDIR
 10
0.0
 20
1.0
 30
0.0
  9
$PUCSORTHOREF
  2

  9
$PUCSORTHOVIEW
 70
     0
  9
$PUCSORGTOP
 10
0.0
 20
0.0
 30
0.0
  9
$PUCSORGBOTTOM
 10
0.0
 20
0.0
 30
0.0
  9
$PUCSORGLEFT
 10
0.0
 20
0.0
 30
0.0
  9
$PUCSORGRIGHT
 10
0.0
 20
0.0
 30
0.0
  9
$PUCSORGFRONT
 10
0.0
 20
0.0
 30
0.0
  9
$PUCSORGBACK
 10
0.0
 20
0.0
 30
0.0
  9
$USERI1
 70
     0
  9
$USERI2
 70
     0
  9
$USERI3
 70
     0
  9
$USERI4
 70
     0
  9
$USERI5
 70
     0
  9
$USERR1
 40
0.0
  9
$USERR2
 40
0.0
  9
$USERR3
 40
0.0
  9
$USERR4
 40
0.0
  9
$USERR5
 40
0.0
  9
$WORLDVIEW
 70
     1
  9
$SHADEDGE
 70
     3
  9
$SHADEDIF
 70
    70
  9
$TILEMODE
 70
     1
  9
$MAXACTVP
 70
    64
  9
$PINSBASE
 10
0.0
 20
0.0
 30
0.0
  9
$PLIMCHECK
 70
     0
  9
$PEXTMIN
 10
1.000000000000000E+20
 20
1.000000000000000E+20
 30
1.000000000000000E+20
  9
$PEXTMAX
 10
-1.000000000000000E+20
 20
-1.000000000000000E+20
 30
-1.000000000000000E+20
  9
$PLIMMIN
 10
0.0
 20
0.0
  9
$PLIMMAX
 10
12.0
 20
9.0
  9
$UNITMODE
 70
     0
  9
$VISRETAIN
 70
     1
  9
$PLINEGEN
 70
     0
  9
$PSLTSCALE
 70
     1
  9
$TREEDEPTH
 70
  3020
  9
$CMLSTYLE
  2
Standard
  9
$CMLJUST
 70
     0
  9
$CMLSCALE
 40
1.0
  9
$PROXYGRAPHICS
 70
     1
  9
$MEASUREMENT
 70
     0
  9
$CELWEIGHT
370
    -1
  9
$ENDCAPS
280
     0
  9
$JOINSTYLE
280
     0
  9
$LWDISPLAY
290
     0
  9
$INSUNITS
 70
     1
  9
$HYPERLINKBASE
  1

  9
$STYLESHEET
  1

  9
$XEDIT
290
     1
  9
$CEPSNTYPE
380
     0
  9
$PSTYLEMODE
290
     1
  9
$FINGERPRINTGUID
  2
{126896FF-03A8-497D-AFB5-F635F8125972}
  9
$VERSIONGUID
  2
{FAEB1C32-E019-11D5-929B-00C0DF256EC4}
  9
$EXTNAMES
290
     1
  9
$PSVPSCALE
 40
0.0
  9
$OLESTARTUP
290
     0
  9
$SORTENTS
280
   127
  9
$INDEXCTL
280
     0
  9
$HIDETEXT
280
     1
  9
$XCLIPFRAME
280
     2
  9
$HALOGAP
280
     0
  9
$OBSCOLOR
 70
   257
  9
$OBSLTYPE
280
     0
  9
$INTERSECTIONDISPLAY
280
     0
  9
$INTERSECTIONCOLOR
 70
   257
  9
$DIMASSOC
280
     2
  9
$PROJECTNAME
  1

  9
$CAMERADISPLAY
290
     0
  9
$LENSLENGTH
 40
50.0
  9
$CAMERAHEIGHT
 40
0.0
  9
$STEPSPERSEC
 40
2.0
  9
$STEPSIZE
 40
6.0
  9
$3DDWFPREC
 40
2.0
  9
$PSOLWIDTH
 40
0.25
  9
$PSOLHEIGHT
 40
4.0
  9
$LOFTANG1
 40
1.570796326794897
  9
$LOFTANG2
 40
1.570796326794897
  9
$LOFTMAG1
 40
0.0
  9
$LOFTMAG2
 40
0.0
  9
$LOFTPARAM
 70
     7
  9
$LOFTNORMALS
280
     1
  9
$LATITUDE
 40
37.795
  9
$LONGITUDE
 40
-122.394
  9
$NORTHDIRECTION
 40
0.0
  9
$TIMEZONE
 70
 -8000
  9
$LIGHTGLYPHDISPLAY
280
     1
  9
$TILEMODELIGHTSYNCH
280
     1
  9
$CMATERIAL
347
44
  9
$SOLIDHIST
280
     0
  9
$SHOWHIST
280
     1
  9
$DWFFRAME
280
     2
  9
$DGNFRAME
280
     2
  9
$REALWORLDSCALE
290
     1
  9
$INTERFERECOLOR
 62
   256
  9
$CSHADOW
280
     0
  9
$SHADOWPLANELOCATION
 40
0.0
  0
ENDSEC
  0
SECTION
  2
CLASSES
  0
CLASS
  1
ACDBDICTIONARYWDFLT
  2
AcDbDictionaryWithDefault
  3
ObjectDBX Classes
 90
        0
 91
        4
280
     0
281
     0
  0
CLASS
  1
VISUALSTYLE
  2
AcDbVisualStyle
  3
ObjectDBX Classes
 90
     4095
 91
        4
280
     0
281
     0
  0
CLASS
  1
MATERIAL
  2
AcDbMaterial
  3
ObjectDBX Classes
 90
     1153
 91
        4
280
     0
281
     0
  0
CLASS
  1
SCALE
  2
AcDbScale
  3
ObjectDBX Classes
 90
     1153
 91
        4
280
     0
281
     0
  0
CLASS
  1
TABLESTYLE
  2
AcDbTableStyle
  3
ObjectDBX Classes
 90
     4095
 91
        4
280
     0
281
     0
  0
CLASS
  1
MLEADERSTYLE
  2
AcDbMLeaderStyle
  3
ACDB_MLEADERSTYLE_CLASS
 90
     4095
 91
        4
280
     0
281
     0
  0
CLASS
  1
SUN
  2
AcDbSun
  3
SCENEOE
 90
     1153
 91
        4
280
     0
281
     0
  0
CLASS
  1
DICTIONARYVAR
  2
AcDbDictionaryVar
  3
ObjectDBX Classes
 90
        0
 91
        4
280
     0
281
     0
  0
CLASS
  1
CELLSTYLEMAP
  2
AcDbCellStyleMap
  3
ObjectDBX Classes
 90
     1152
 91
        4
280
     0
281
     0
  0
ENDSEC
  0
SECTION
  2
TABLES
  0
TABLE
  2
VPORT
  5
8
330
0
100
AcDbSymbolTable
 70
     1
  0
VPORT
  5
29
330
8
100
AcDbSymbolTableRecord
100
AcDbViewportTableRecord
  2
*Active
 70
     0
 10
0.0
 20
0.0
 11
1.0
 21
1.0
 12
0.0
 22
-0.8872499999999999
 13
0.0
 23
0.0
 14
0.5
 24
0.5
 15
0.5
 25
0.5
 16
0.0
 26
0.0
 36
1.0
 17
0.0
 27
0.0
 37
0.0
 40
1.93443
 41
1.977326654363301
 42
50.0
 43
0.0
 44
0.0
 50
0.0
 51
0.0
 71
     0
 72
   100
 73
     1
 74
     3
 75
     0
 76
     0
 77
     0
 78
     0
281
     0
 65
     1
110
0.0
120
0.0
130
0.0
111
1.0
121
0.0
131
0.0
112
0.0
122
1.0
132
0.0
 79
     0
146
0.0
348
2F
 60
     3
 61
     5
292
     1
282
     1
141
0.0
142
0.0
 63
   250
361
6D
  0
ENDTAB
  0
TABLE
  2
LTYPE
  5
5
330
0
100
AcDbSymbolTable
 70
     3
  0
LTYPE
  5
14
330
5
100
AcDbSymbolTableRecord
100
AcDbLinetypeTableRecord
  2
ByBlock
 70
     0
  3

 72
    65
 73
     0
 40
0.0
  0
LTYPE
  5
15
330
5
100
AcDbSymbolTableRecord
100
AcDbLinetypeTableRecord
  2
ByLayer
 70
     0
  3

 72
    65
 73
     0
 40
0.0
  0
LTYPE
  5
16
330
5
100
AcDbSymbolTableRecord
100
AcDbLinetypeTableRecord
  2
Continuous
 70
     0
  3
Solid line
 72
    65
 73
     0
 40
0.0
  0
LTYPE
  5
9B
330
5
100
AcDbSymbolTableRecord
100
AcDbLinetypeTableRecord
  2
Dashed
 70
     0
  3

 72
    65
 73
     2
 40
2.0
 49
1.0
 74
     0
 49
-1.0
 74
     0
  0
LTYPE
  5
12B
330
5
100
AcDbSymbolTableRecord
100
AcDbLinetypeTableRecord
  2
Center
 70
     0
  3

 72
    65
 73
     4
 40
1.5
 49
0.45
 74
     0
 49
-0.5
 74
     0
 49
0.05
 74
     0
 49
-0.5
 74
     0
  0
ENDTAB
  0
TABLE
  2
LAYER
  5
2
330
0
100
AcDbSymbolTable
 70
     7
  0
LAYER
  5
10
330
2
100
AcDbSymbolTableRecord
100
AcDbLayerTableRecord
  2
0
 70
     0
 62
     7
  6
Continuous
370
    -3
390
F
347
46
348
0
  0
LAYER
  5
72
330
2
100
AcDbSymbolTableRecord
100
AcDbLayerTableRecord
  2
AM_6
 70
     0
 62
    -2
  6
Continuous
370
    35
390
F
347
46
348
0
  0
LAYER
  5
9C
330
2
100
AcDbSymbolTableRecord
100
AcDbLayerTableRecord
  2
AM_9
 70
     0
 62
     6
  6
Dashed
370
    25
390
F
347
46
348
0
  0
LAYER
  5
C9
330
2
100
AcDbSymbolTableRecord
100
AcDbLayerTableRecord
  2
AM_4
 70
     0
 62
     7
  6
Continuous
370
    50
390
F
347
46
348
0
  0
LAYER
  5
12C
330
2
100
AcDbSymbolTableRecord
100
AcDbLayerTableRecord
  2
AM_7
 70
     0
 62
     7
  6
Center
370
    25
390
F
347
46
348
0
  0
LAYER
  5
13B
330
2
100
AcDbSymbolTableRecord
100
AcDbLayerTableRecord
  2
AM_5
 70
     0
 62
     3
  6
Continuous
370
    25
390
F
347
46
348
0
  0
LAYER
  5
18D
330
2
100
AcDbSymbolTableRecord
100
AcDbLayerTableRecord
  2
ConnectionPoints
 70
     0
 62
     7
  6
Continuous
370
    50
390
F
347
46
348
0
  0
ENDTAB
  0
TABLE
  2
STYLE
  5
3
330
0
100
AcDbSymbolTable
 70
     1
  0
STYLE
  5
11
330
3
100
AcDbSymbolTableRecord
100
AcDbTextStyleTableRecord
  2
Standard
 70
     0
 40
0.0
 41
1.0
 50
0.0
 71
     0
 42
0.2
  3
txt
  4

  0
ENDTAB
  0
TABLE
  2
VIEW
  5
6
330
0
100
AcDbSymbolTable
 70
     0
  0
ENDTAB
  0
TABLE
  2
UCS
  5
7
330
0
100
AcDbSymbolTable
 70
     0
  0
ENDTAB
  0
TABLE
  2
APPID
  5
9
330
0
100
AcDbSymbolTable
 70
     1
  0
APPID
  5
12
330
9
100
AcDbSymbolTableRecord
100
AcDbRegAppTableRecord
  2
ACAD
 70
     0
  0
ENDTAB
  0
TABLE
  2
DIMSTYLE
  5
A
330
0
100
AcDbSymbolTable
 70
     1
100
AcDbDimStyleTable
  0
DIMSTYLE
105
27
330
A
100
AcDbSymbolTableRecord
100
AcDbDimStyleTableRecord
  2
Standard
 70
     0
178
     0
340
11
  0
ENDTAB
  0
TABLE
  2
BLOCK_RECORD
  5
1
330
0
100
AcDbSymbolTable
 70
     5
  0
BLOCK_RECORD
  5
1F
330
1
100
AcDbSymbolTableRecord
100
AcDbBlockTableRecord
  2
*Model_Space
340
22
 70
     0
280
     1
281
     0
  0
BLOCK_RECORD
  5
1B
330
1
100
AcDbSymbolTableRecord
100
AcDbBlockTableRecord
  2
*Paper_Space
340
1E
 70
     0
280
     1
281
     0
  0
BLOCK_RECORD
  5
23
330
1
100
AcDbSymbolTableRecord
100
AcDbBlockTableRecord
  2
*Paper_Space0
340
26
 70
     0
280
     1
281
     0
  0
BLOCK_RECORD
  5
6E
330
1
100
AcDbSymbolTableRecord
100
AcDbBlockTableRecord
  2
1_123613_4
340
0
102
{BLKREFS
331
6F
102
}
 70
     0
280
     1
281
     0
  0
BLOCK_RECORD
  5
89
330
1
100
AcDbSymbolTableRecord
100
AcDbBlockTableRecord
  2
2_405020c_Inch_0_in_123613_4
340
0
102
{BLKREFS
331
8A
102
}
 70
     0
280
     1
281
     0
  0
BLOCK_RECORD
  5
E7
330
1
100
AcDbSymbolTableRecord
100
AcDbBlockTableRecord
  2
3_389928_0_in_123613_4
340
0
102
{BLKREFS
331
E8
102
}
 70
     0
280
     1
281
     0
  0
BLOCK_RECORD
  5
13D
330
1
100
AcDbSymbolTableRecord
100
AcDbBlockTableRecord
  2
4_123613vsc_0_in_123613_4
340
0
102
{BLKREFS
331
13E
102
}
 70
     0
280
     1
281
     0
  0
ENDTAB
  0
ENDSEC
  0
SECTION
  2
BLOCKS
  0
BLOCK
  5
20
330
1F
100
AcDbEntity
  8
0
100
AcDbBlockBegin
  2
*Model_Space
 70
     0
 10
0.0
 20
0.0
 30
0.0
  3
*Model_Space
  1

  0
ENDBLK
  5
21
330
1F
100
AcDbEntity
  8
0
100
AcDbBlockEnd
  0
BLOCK
  5
1C
330
1B
100
AcDbEntity
 67
     1
  8
0
100
AcDbBlockBegin
  2
*Paper_Space
 70
     0
 10
0.0
 20
0.0
 30
0.0
  3
*Paper_Space
  1

  0
ENDBLK
  5
1D
330
1B
100
AcDbEntity
 67
     1
  8
0
100
AcDbBlockEnd
  0
BLOCK
  5
24
330
23
100
AcDbEntity
  8
0
100
AcDbBlockBegin
  2
*Paper_Space0
 70
     0
 10
0.0
 20
0.0
 30
0.0
  3
*Paper_Space0
  1

  0
ENDBLK
  5
25
330
23
100
AcDbEntity
  8
0
100
AcDbBlockEnd
  0
BLOCK
  5
70
330
6E
100
AcDbEntity
  8
0
100
AcDbBlockBegin
  2
1_123613_4
 70
     2
 10
0.0
 20
0.0
 30
0.0
  3
1_123613_4
  1

  0
ATTDEF
  5
73
330
6E
100
AcDbEntity
  8
AM_6
100
AcDbText
 10
6.875
 20
0.061
 30
0.0
 40
0.5
  1
Set Screw Intermediate Duty Two-Bolt Flange Inch Bore
100
AcDbAttributeDefinition
  3

  2
NN
 70
     8
280
     0
  0
ATTDEF
  5
74
330
6E
100
AcDbEntity
  8
AM_6
100
AcDbText
 10
6.875
 20
-0.439
 30
0.0
 40
0.5
  1

100
AcDbAttributeDefinition
  3

  2
NT
 70
     8
280
     0
  0
ATTDEF
  5
75
330
6E
100
AcDbEntity
  8
AM_6
100
AcDbText
 10
6.875
 20
-0.9390000000000001
 30
0.0
 40
0.5
  1
123613
100
AcDbAttributeDefinition
  3

  2
NB
 70
     8
280
     0
  0
ATTDEF
  5
76
330
6E
100
AcDbEntity
  8
AM_6
100
AcDbText
 10
6.875
 20
-1.439
 30
0.0
 40
0.5
  1
$PN.
100
AcDbAttributeDefinition
  3

  2
NBSYN
 70
     8
280
     0
  0
ATTDEF
  5
77
330
6E
100
AcDbEntity
  8
AM_6
100
AcDbText
 10
6.875
 20
-1.939
 30
0.0
 40
0.5
  1
123613
100
AcDbAttributeDefinition
  3

  2
LINA
 70
     8
280
     0
  0
ATTDEF
  5
78
330
6E
100
AcDbEntity
  8
AM_6
100
AcDbText
 10
6.875
 20
-2.439
 30
0.0
 40
0.5
  1
207
100
AcDbAttributeDefinition
  3

  2
RS
 70
     8
280
     0
  0
ATTDEF
  5
79
330
6E
100
AcDbEntity
  8
AM_6
100
AcDbText
 10
6.875
 20
-2.939
 30
0.0
 40
0.5
  1
1-1/4
100
AcDbAttributeDefinition
  3

  2
SS
 70
     8
280
     0
  0
ATTDEF
  5
7A
330
6E
100
AcDbEntity
  8
AM_6
100
AcDbText
 10
6.875
 20
-3.439
 30
0.0
 40
0.5
  1
123613
100
AcDbAttributeDefinition
  3

  2
PN
 70
     8
280
     0
  0
ATTDEF
  5
7B
330
6E
100
AcDbEntity
  8
AM_6
100
AcDbText
 10
6.875
 20
-3.939
 30
0.0
 40
0.5
  1
F2B-VSC-104
100
AcDbAttributeDefinition
  3

  2
DESCRIPTION
 70
     8
280
     0
  0
ATTDEF
  5
7C
330
6E
100
AcDbEntity
  8
AM_6
100
AcDbText
 10
6.875
 20
-4.439
 30
0.0
 40
0.5
  1
RE-LUBE
100
AcDbAttributeDefinition
  3

  2
LF
 70
     8
280
     0
  0
ATTDEF
  5
7D
330
6E
100
AcDbEntity
  8
AM_6
100
AcDbText
 10
6.875
 20
-4.939
 30
0.0
 40
0.5
  1
3.5
100
AcDbAttributeDefinition
  3

  2
WEIGHT
 70
     8
280
     0
  0
ATTDEF
  5
7E
330
6E
100
AcDbEntity
  8
AM_6
100
AcDbText
 10
6.875
 20
-5.439
 30
0.0
 40
0.5
  1
1.71
100
AcDbAttributeDefinition
  3

  2
A
 70
     8
280
     0
  0
ATTDEF
  5
7F
330
6E
100
AcDbEntity
  8
AM_6
100
AcDbText
 10
6.875
 20
-5.939
 30
0.0
 40
0.5
  1
6.13
100
AcDbAttributeDefinition
  3

  2
B
 70
     8
280
     0
  0
ATTDEF
  5
80
330
6E
100
AcDbEntity
  8
AM_6
100
AcDbText
 10
6.875
 20
-6.439
 30
0.0
 40
0.5
  1
1.75
100
AcDbAttributeDefinition
  3

  2
C
 70
     8
280
     0
  0
ATTDEF
  5
81
330
6E
100
AcDbEntity
  8
AM_6
100
AcDbText
 10
6.875
 20
-6.939
 30
0.0
 40
0.5
  1
5.12
100
AcDbAttributeDefinition
  3

  2
D
 70
     8
280
     0
  0
ATTDEF
  5
82
330
6E
100
AcDbEntity
  8
AM_6
100
AcDbText
 10
6.875
 20
-7.439
 30
0.0
 40
0.5
  1
1/2
100
AcDbAttributeDefinition
  3

  2
F
 70
     8
280
     0
  0
ATTDEF
  5
83
330
6E
100
AcDbEntity
  8
AM_6
100
AcDbText
 10
6.875
 20
-7.939
 30
0.0
 40
0.5
  1
0.56
100
AcDbAttributeDefinition
  3

  2
H
 70
     8
280
     0
  0
ATTDEF
  5
84
330
6E
100
AcDbEntity
  8
AM_6
100
AcDbText
 10
6.875
 20
-8.439
 30
0.0
 40
0.5
  1
0.53
100
AcDbAttributeDefinition
  3

  2
J
 70
     8
280
     0
  0
ATTDEF
  5
85
330
6E
100
AcDbEntity
  8
AM_6
100
AcDbText
 10
6.875
 20
-8.939
 30
0.0
 40
0.5
  1
1.84
100
AcDbAttributeDefinition
  3

  2
L
 70
     8
280
     0
  0
ATTDEF
  5
86
330
6E
100
AcDbEntity
  8
AM_6
100
AcDbText
 10
6.875
 20
-9.439
 30
0.0
 40
0.5
  1
3.75
100
AcDbAttributeDefinition
  3

  2
M
 70
     8
280
     0
  0
ATTDEF
  5
87
330
6E
100
AcDbEntity
  8
AM_6
100
AcDbText
 10
6.875
 20
-9.939
 30
0.0
 40
0.5
  1
1.84
100
AcDbAttributeDefinition
  3

  2
N
 70
     8
280
     0
  0
ATTDEF
  5
88
330
6E
100
AcDbEntity
  8
AM_6
100
AcDbText
 10
6.875
 20
-10.439
 30
0.0
 40
0.5
  1
baldor
100
AcDbAttributeDefinition
  3

  2
COMPANY
 70
     8
280
     0
  0
INSERT
  5
8A
330
6E
100
AcDbEntity
  8
0
100
AcDbBlockReference
  2
2_405020c_Inch_0_in_123613_4
 10
0.0
 20
0.0
 30
0.0
  0
INSERT
  5
E8
330
6E
100
AcDbEntity
  8
0
100
AcDbBlockReference
  2
3_389928_0_in_123613_4
 10
0.0
 20
0.0
 30
0.0
  0
INSERT
  5
13E
330
6E
100
AcDbEntity
  8
0
100
AcDbBlockReference
  2
4_123613vsc_0_in_123613_4
 10
0.0
 20
0.0
 30
0.0
  0
ENDBLK
  5
71
330
6E
100
AcDbEntity
  8
0
100
AcDbBlockEnd
  0
BLOCK
  5
8B
330
89
100
AcDbEntity
  8
0
100
AcDbBlockBegin
  2
2_405020c_Inch_0_in_123613_4
 70
     2
 10
0.0
 20
0.0
 30
0.0
  3
2_405020c_Inch_0_in_123613_4
  1

  0
ATTDEF
  5
8D
330
89
100
AcDbEntity
  8
AM_6
100
AcDbText
 10
6.724266883322431
 20
-0.6175913692769581
 30
0.0
 40
0.5
  1
405020C -Inch
100
AcDbAttributeDefinition
  3

  2
NN
 70
     8
280
     0
  0
ATTDEF
  5
8E
330
89
100
AcDbEntity
  8
AM_6
100
AcDbText
 10
6.724266883322431
 20
-1.117591369276958
 30
0.0
 40
0.5
  1
Grease fitting
100
AcDbAttributeDefinition
  3

  2
NT
 70
     8
280
     0
  0
ATTDEF
  5
8F
330
89
100
AcDbEntity
  8
AM_6
100
AcDbText
 10
6.724266883322431
 20
-1.617591369276958
 30
0.0
 40
0.5
  1
405020c-Inch
100
AcDbAttributeDefinition
  3

  2
NB
 70
     8
280
     0
  0
ATTDEF
  5
90
330
89
100
AcDbEntity
  8
AM_6
100
AcDbText
 10
6.724266883322431
 20
-2.117591369276958
 30
0.0
 40
0.5
  1
$MN.-Inch
100
AcDbAttributeDefinition
  3

  2
NBSYN
 70
     8
280
     0
  0
ATTDEF
  5
91
330
89
100
AcDbEntity
  8
AM_6
100
AcDbText
 10
6.724266883322431
 20
-2.617591369276958
 30
0.0
 40
0.5
  1
405020c
100
AcDbAttributeDefinition
  3

  2
LINA
 70
     8
280
     0
  0
ATTDEF
  5
92
330
89
100
AcDbEntity
  8
AM_6
100
AcDbText
 10
6.724266883322431
 20
-3.117591369276958
 30
0.0
 40
0.5
  1
405020c
100
AcDbAttributeDefinition
  3

  2
MN
 70
     8
280
     0
  0
ATTDEF
  5
93
330
89
100
AcDbEntity
  8
AM_6
100
AcDbText
 10
6.724266883322431
 20
-3.617591369276958
 30
0.0
 40
0.5
  1
0.230
100
AcDbAttributeDefinition
  3

  2
NDR
 70
     8
280
     0
  0
ATTDEF
  5
94
330
89
100
AcDbEntity
  8
AM_6
100
AcDbText
 10
6.724266883322431
 20
-4.117591369276958
 30
0.0
 40
0.5
  1
0.210
100
AcDbAttributeDefinition
  3

  2
KDR
 70
     8
280
     0
  0
ATTDEF
  5
95
330
89
100
AcDbEntity
  8
AM_6
100
AcDbText
 10
6.724266883322431
 20
-4.617591369276958
 30
0.0
 40
0.5
  1
0.157
100
AcDbAttributeDefinition
  3

  2
BZE
 70
     8
280
     0
  0
ATTDEF
  5
96
330
89
100
AcDbEntity
  8
AM_6
100
AcDbText
 10
6.724266883322431
 20
-5.117591369276958
 30
0.0
 40
0.5
  1
9/32
100
AcDbAttributeDefinition
  3

  2
WAF
 70
     8
280
     0
  0
ATTDEF
  5
97
330
89
100
AcDbEntity
  8
AM_6
100
AcDbText
 10
6.724266883322431
 20
-5.617591369276958
 30
0.0
 40
0.5
  1
0.2813
100
AcDbAttributeDefinition
  3

  2
WAF1
 70
     8
280
     0
  0
ATTDEF
  5
98
330
89
100
AcDbEntity
  8
AM_6
100
AcDbText
 10
6.724266883322431
 20
-6.117591369276958
 30
0.0
 40
0.5
  1
0.545
100
AcDbAttributeDefinition
  3

  2
BL
 70
     8
280
     0
  0
ATTDEF
  5
99
330
89
100
AcDbEntity
  8
AM_6
100
AcDbText
 10
6.724266883322431
 20
-6.617591369276958
 30
0.0
 40
0.5
  1
0.200
100
AcDbAttributeDefinition
  3

  2
TL
 70
     8
280
     0
  0
ATTDEF
  5
9A
330
89
100
AcDbEntity
  8
AM_6
100
AcDbText
 10
6.724266883322431
 20
-7.117591369276958
 30
0.0
 40
0.5
  1
baldor
100
AcDbAttributeDefinition
  3

  2
COMPANY
 70
     8
280
     0
  0
ELLIPSE
  5
9D
330
89
100
AcDbEntity
  8
AM_9
100
AcDbEllipse
 10
1.274476361758882
 20
-0.7799999999999999
 30
0.0
 11
-1.838598171376523E-17
 21
-0.1000886227036577
 31
0.0
210
0.0
220
0.0
230
1.0
 40
0.7071067811865474
 41
0.0
 42
6.283185307179586
  0
LINE
  5
9E
330
89
100
AcDbEntity
  8
AM_9
100
AcDbLine
 10
1.558370159568538
 20
-0.698795684638479
 30
0.0
 11
1.519474866050724
 21
-0.698795684638479
 31
0.0
  0
LINE
  5
9F
330
89
100
AcDbEntity
  8
AM_9
100
AcDbLine
 10
1.558370159568538
 20
-0.8612043153615208
 30
0.0
 11
1.519474866050724
 21
-0.8612043153615208
 31
0.0
  0
LWPOLYLINE
  5
A0
330
89
100
AcDbEntity
  8
AM_9
100
AcDbPolyline
 90
        4
 70
     0
 43
0.0
 10
1.51535228677008
 20
-0.7799999999999999
 10
1.515998056705162
 20
-0.8111508759219515
 10
1.517849645394138
 20
-0.8423017518439031
 10
1.519474866050724
 20
-0.8612043153615208
  0
LWPOLYLINE
  5
A1
330
89
100
AcDbEntity
  8
AM_9
100
AcDbPolyline
 90
        3
 70
     0
 43
0.0
 10
1.517213424848666
 20
-0.7265240167733019
 10
1.516450049227946
 20
-0.7392152840852544
 10
1.51535228677008
 20
-0.7799999999999999
  0
LINE
  5
A2
330
89
100
AcDbEntity
  8
AM_9
100
AcDbLine
 10
1.519474866050724
 20
-0.698795684638479
 30
0.0
 11
1.517213424848666
 21
-0.7265240167733019
 31
0.0
  0
LWPOLYLINE
  5
A3
330
89
100
AcDbEntity
  8
AM_9
100
AcDbPolyline
 90
        3
 70
     0
 43
0.0
 10
1.465625002383136
 20
-0.6581935269577186
 10
1.491576793851521
 20
-0.6784946057980987
 10
1.519474866050724
 20
-0.698795684638479
  0
LWPOLYLINE
  5
A4
330
89
100
AcDbEntity
  8
AM_9
100
AcDbPolyline
 90
        3
 70
     0
 43
0.0
 10
1.519474866050724
 20
-0.8612043153615208
 10
1.491698200664876
 20
-0.8814141150849084
 10
1.465625002383136
 20
-0.9018064730422812
  0
LWPOLYLINE
  5
A5
330
89
100
AcDbEntity
  8
AM_9
100
AcDbPolyline
 90
        3
 70
     0
 43
0.0
 10
1.558370159568538
 20
-0.698795684638479
 10
1.536643127828246
 20
-0.6785858849150913
 10
1.524730166914721
 20
-0.6681810073183181
  0
LWPOLYLINE
  5
A6
330
89
100
AcDbEntity
  8
AM_9
100
AcDbPolyline
 90
        3
 70
     0
 43
0.0
 10
1.562492738849183
 20
-0.7799999999999999
 10
1.56140458957427
 20
-0.7393978423192394
 10
1.558370159568538
 20
-0.698795684638479
  0
LWPOLYLINE
  5
A7
330
89
100
AcDbEntity
  8
AM_9
100
AcDbPolyline
 90
        3
 70
     0
 43
0.0
 10
1.524729016943734
 20
-0.8918199743330276
 10
1.536540947380798
 20
-0.881505394201901
 10
1.558370159568538
 20
-0.8612043153615208
  0
LINE
  5
A8
330
89
100
AcDbEntity
  8
AM_9
100
AcDbLine
 10
1.56247603304657
 20
-0.7849810151709188
 30
0.0
 11
1.562492738849183
 21
-0.7799999999999999
 31
0.0
  0
LWPOLYLINE
  5
A9
330
89
100
AcDbEntity
  8
AM_9
100
AcDbPolyline
 90
        4
 70
     0
 43
0.0
 10
1.558370159568538
 20
-0.8612043153615208
 10
1.559995380225125
 20
-0.8423017518439031
 10
1.561843196406151
 20
-0.8112428256208203
 10
1.56247603304657
 20
-0.7849810151709188
  0
LWPOLYLINE
  5
AA
330
89
100
AcDbEntity
  8
AM_9
100
AcDbPolyline
 90
        3
 70
     0
 43
0.0
 10
1.465625002383136
 20
-0.9018064730422812
 10
1.441849509464578
 20
-0.9221075518826614
 10
1.420020297276837
 20
-0.9424086307230416
  0
LWPOLYLINE
  5
AB
330
89
100
AcDbEntity
  8
AM_9
100
AcDbPolyline
 90
        3
 70
     0
 43
0.0
 10
1.420020297276837
 20
-0.6175913692769581
 10
1.441747329017129
 20
-0.6378011690003458
 10
1.465625002383136
 20
-0.6581935269577186
  0
LINE
  5
AC
330
89
100
AcDbEntity
  8
AM_9
100
AcDbLine
 10
1.279339104221168
 20
-0.8903623268442185
 30
0.0
 11
1.413326730079376
 21
-0.8962869890918942
 31
0.0
  0
LINE
  5
AD
330
89
100
AcDbEntity
  8
AM_9
100
AcDbLine
 10
1.413326730079376
 20
-0.6637130109081055
 30
0.0
 11
1.279339104221168
 21
-0.6696376731557813
 31
0.0
  0
LWPOLYLINE
  5
AE
330
89
100
AcDbEntity
  8
AM_9
100
AcDbPolyline
 90
        3
 70
     0
 43
0.0
 10
1.366170433609248
 20
-0.9018064730422812
 10
1.342394940690689
 20
-0.881505394201901
 10
1.320565728502949
 20
-0.8612043153615208
  0
LWPOLYLINE
  5
AF
330
89
100
AcDbEntity
  8
AM_9
100
AcDbPolyline
 90
        3
 70
     0
 43
0.0
 10
1.420020297276837
 20
-0.9424086307230416
 10
1.392243631890988
 20
-0.9221988309996539
 10
1.366170433609248
 20
-0.9018064730422812
  0
LINE
  5
B0
330
89
100
AcDbEntity
  8
AM_9
100
AcDbLine
 10
1.438266898970465
 20
-0.9424086307230416
 30
0.0
 11
1.420020297276837
 21
-0.9424086307230416
 31
0.0
  0
LINE
  5
B1
330
89
100
AcDbEntity
  8
AM_9
100
AcDbLine
 10
1.438266898970465
 20
-0.6175913692769581
 30
0.0
 11
1.420020297276837
 21
-0.6175913692769581
 31
0.0
  0
LWPOLYLINE
  5
B2
330
89
100
AcDbEntity
  8
AM_9
100
AcDbPolyline
 90
        3
 70
     0
 43
0.0
 10
1.366170433609248
 20
-0.6581935269577186
 10
1.392122225077634
 20
-0.6378924481173384
 10
1.420020297276837
 20
-0.6175913692769581
  0
LWPOLYLINE
  5
B3
330
89
100
AcDbEntity
  8
AM_9
100
AcDbPolyline
 90
        3
 70
     0
 43
0.0
 10
1.320565728502949
 20
-0.698795684638479
 10
1.342292760243241
 20
-0.6785858849150913
 10
1.366170433609248
 20
-0.6581935269577186
  0
LINE
  5
B4
330
89
100
AcDbEntity
  8
AM_9
100
AcDbLine
 10
1.338812330196577
 20
-0.698795684638479
 30
0.0
 11
1.320565728502949
 21
-0.698795684638479
 31
0.0
  0
LWPOLYLINE
  5
B5
330
89
100
AcDbEntity
  8
AM_9
100
AcDbPolyline
 90
        3
 70
     0
 43
0.0
 10
1.316443149222304
 20
-0.7799999999999999
 10
1.317531298497218
 20
-0.7393978423192394
 10
1.320565728502949
 20
-0.698795684638479
  0
LWPOLYLINE
  5
B6
330
89
100
AcDbEntity
  8
AM_9
100
AcDbPolyline
 90
        4
 70
     0
 43
0.0
 10
1.320565728502949
 20
-0.8612043153615208
 10
1.318940507846362
 20
-0.8423017518439031
 10
1.317092691665336
 20
-0.8112428256208203
 10
1.316443149222304
 20
-0.7799999999999999
  0
LINE
  5
B7
330
89
100
AcDbEntity
  8
AM_9
100
AcDbLine
 10
1.338812330196577
 20
-0.8612043153615208
 30
0.0
 11
1.320565728502949
 21
-0.8612043153615208
 31
0.0
  0
ELLIPSE
  5
B8
330
89
100
AcDbEntity
  8
AM_9
100
AcDbEllipse
 10
1.463038170075293
 20
-0.7799999999999991
 30
0.0
 11
8.612328615003840E-18
 21
0.1406500000000013
 31
0.0
210
0.0
220
0.0
230
1.0
 40
0.7071067811865553
 41
3.798906696793622
 42
5.625871263975749
  0
ELLIPSE
  5
B9
330
89
100
AcDbEntity
  8
AM_9
100
AcDbEllipse
 10
1.485185142960828
 20
-0.7800000000000009
 30
0.0
 11
6.694498085252863E-18
 21
0.1093294505797726
 31
0.0
210
0.0
220
0.0
230
1.0
 40
0.7071067811865429
 41
5.307607178367496
 42
5.928986666165883
  0
ELLIPSE
  5
BA
330
89
100
AcDbEntity
  8
AM_9
100
AcDbEllipse
 10
1.485185142960827
 20
-0.7800000000000014
 30
0.0
 11
6.694498085252667E-18
 21
0.1093294505797694
 31
0.0
210
0.0
220
0.0
230
1.0
 40
0.7071067811865556
 41
3.49579129460351
 42
4.055975748272075
  0
ELLIPSE
  5
BB
330
89
100
AcDbEntity
  8
AM_9
100
AcDbEllipse
 10
1.485185142960874
 20
-0.7799999999999803
 30
0.0
 11
6.694498085255616E-18
 21
0.1093294505798176
 31
0.0
210
0.0
220
0.0
230
1.0
 40
0.707106781185915
 41
4.238275966794724
 42
5.106332299320923
  0
LWPOLYLINE
  5
BC
330
89
100
AcDbEntity
  8
AM_9
100
AcDbPolyline
 90
        4
 70
     0
 43
0.0
 10
1.510185142960827
 20
-0.8746847896390987
 10
1.508629410691857
 20
-0.8746306660203365
 10
1.504207743449506
 20
-0.8738930767107779
 10
1.502113813010435
 20
-0.8732508956334679
  0
LWPOLYLINE
  5
BD
330
89
100
AcDbEntity
  8
AM_9
100
AcDbPolyline
 90
       15
 70
     0
 43
0.0
 10
1.50101354659998
 20
-0.6871596617227456
 10
1.503222444900057
 20
-0.6863861756395915
 10
1.507321960899436
 20
-0.685498215952467
 10
1.511764945053855
 20
-0.685371020420091
 10
1.51619210153635
 20
-0.686114702804244
 10
1.520399140161221
 20
-0.6875943924691525
 10
1.524669093962594
 20
-0.6898332411587857
 10
1.52904162468462
 20
-0.6928879165295744
 10
1.533906396733846
 20
-0.6972299797950088
 10
1.538677338914951
 20
-0.702554258559454
 10
1.543265753371176
 20
-0.7088491940871516
 10
1.547573243924448
 20
-0.7160809526948232
 10
1.55149676532373
 20
-0.7241855985563881
 10
1.554936323170679
 20
-0.7330668406605293
 10
1.557601359295844
 20
-0.7418341127449988
  0
LWPOLYLINE
  5
BE
330
89
100
AcDbEntity
  8
AM_9
100
AcDbPolyline
 90
        4
 70
     0
 43
0.0
 10
1.492368874288583
 20
-0.6920904216122455
 10
1.494748573378033
 20
-0.6904326496114748
 10
1.499075150581078
 20
-0.6880033425734668
 10
1.50101354659998
 20
-0.6871596617227456
  0
LWPOLYLINE
  5
BF
330
89
100
AcDbEntity
  8
AM_9
100
AcDbPolyline
 90
       13
 70
     0
 43
0.0
 10
1.557445421975699
 20
-0.8187455874859932
 10
1.555277090283179
 20
-0.8259261573864035
 10
1.551897976526075
 20
-0.8348794820671451
 10
1.548039260969296
 20
-0.8430426046752534
 10
1.543807839738239
 20
-0.8503185386257806
 10
1.539321616219149
 20
-0.8566367254507151
 10
1.53470978604669
 20
-0.8619513005265967
 10
1.530097921285607
 20
-0.8662560920974117
 10
1.525593900341311
 20
-0.8695853681727332
 10
1.521268545335563
 20
-0.8720092610694429
 10
1.517122149286875
 20
-0.8736216257600686
 10
1.513022064673645
 20
-0.8745051177129184
 10
1.510185142960827
 20
-0.8746847896390987
  0
ELLIPSE
  5
C0
330
89
100
AcDbEntity
  8
AM_9
100
AcDbEllipse
 10
1.525126954897332
 20
-0.78
 30
0.0
 11
6.084620899749628E-18
 21
0.09936940028726615
 31
0.0
210
0.0
220
0.0
230
1.0
 40
0.7071067811865415
 41
2.656480407116032
 42
3.141592653589793
  0
ELLIPSE
  5
C1
330
89
100
AcDbEntity
  8
AM_9
100
AcDbEllipse
 10
1.573458283601976
 20
-0.7799999999998432
 30
0.0
 11
8.036249332258204E-18
 21
0.1312419113470652
 31
0.0
210
0.0
220
0.0
230
1.0
 40
0.7071067811869343
 41
-3.626704900064382
 42
-3.563764704476552
  0
ELLIPSE
  5
C2
330
89
100
AcDbEntity
  8
AM_9
100
AcDbEllipse
 10
1.573458283601806
 20
-0.7800000000000027
 30
0.0
 11
8.036249332247334E-18
 21
0.1312419113468877
 31
0.0
210
0.0
220
0.0
230
1.0
 40
0.7071067811865407
 41
2.736124815829316
 42
6.728459086410757
  0
ELLIPSE
  5
C3
330
89
100
AcDbEntity
  8
AM_9
100
AcDbEllipse
 10
1.573458283603955
 20
-0.7800000000007034
 30
0.0
 11
8.036249332295744E-18
 21
0.1312419113476783
 31
0.0
210
0.0
220
0.0
230
1.0
 40
0.7071067811931294
 41
0.4622844546427558
 42
0.4887995917059736
  0
ELLIPSE
  5
C4
330
89
100
AcDbEntity
  8
AM_9
100
AcDbEllipse
 10
1.649079103740239
 20
-0.7800000000000895
 30
0.0
 11
6.357083428137235E-18
 21
0.1038190510531409
 31
0.0
210
0.0
220
0.0
230
1.0
 40
0.7071067811865477
 41
3.587240716591918
 42
5.836119253761082
  0
ELLIPSE
  5
C5
330
89
100
AcDbEntity
  8
AM_9
100
AcDbEllipse
 10
1.602214527067087
 20
-0.7799999999999998
 30
0.0
 11
8.079715312105943E-18
 21
0.1319517646676798
 31
0.0
210
0.0
220
0.0
230
1.0
 40
0.7071067811865483
 41
3.58698268871701
 42
5.844803532225578
  0
ELLIPSE
  5
C6
330
89
100
AcDbEntity
  8
AM_9
100
AcDbEllipse
 10
1.415897717996192
 20
-0.7799999999999997
 30
0.0
 11
8.612328615003738E-18
 21
0.1406499999999996
 31
0.0
210
0.0
220
0.0
230
1.0
 40
0.7071067811865527
 41
0.0
 42
6.283185307179586
  0
ELLIPSE
  5
C7
330
89
100
AcDbEntity
  8
AM_9
100
AcDbEllipse
 10
1.415897717996189
 20
-0.7800000000004549
 30
0.0
 11
7.124004163839430E-18
 21
0.1163438171528222
 31
0.0
210
0.0
220
0.0
230
1.0
 40
0.7071067811865469
 41
0.0
 42
6.283185307179586
  0
ELLIPSE
  5
C8
330
89
100
AcDbEntity
  8
AM_9
100
AcDbEllipse
 10
1.28177910383767
 20
-0.7799999999999776
 30
0.0
 11
6.761045944281462E-18
 21
0.1104162595940114
 31
0.0
210
0.0
220
0.0
230
1.0
 40
0.7071067811865476
 41
0.0
 42
6.283185307179586
  0
LINE
  5
CA
330
89
100
AcDbEntity
  8
AM_4
100
AcDbLine
 10
1.524730166914721
 20
-0.6681810073183181
 30
0.0
 11
1.512765454462239
 21
-0.6581935269577186
 31
0.0
  0
LINE
  5
CB
330
89
100
AcDbEntity
  8
AM_4
100
AcDbLine
 10
1.512765454462239
 20
-0.9018064730422812
 30
0.0
 11
1.524729016943734
 21
-0.8918199743330276
 31
0.0
  0
LWPOLYLINE
  5
CC
330
89
100
AcDbEntity
  8
AM_4
100
AcDbPolyline
 90
        3
 70
     0
 43
0.0
 10
1.512765454462239
 20
-0.6581935269577186
 10
1.486813662993854
 20
-0.6378924481173384
 10
1.45891559079465
 20
-0.6175913692769581
  0
LWPOLYLINE
  5
CD
330
89
100
AcDbEntity
  8
AM_4
100
AcDbPolyline
 90
        3
 70
     0
 43
0.0
 10
1.45891559079465
 20
-0.9424086307230416
 10
1.486692256180499
 20
-0.9221988309996539
 10
1.512765454462239
 20
-0.9018064730422812
  0
LINE
  5
CE
330
89
100
AcDbEntity
  8
AM_4
100
AcDbLine
 10
1.45891559079465
 20
-0.9424086307230416
 30
0.0
 11
1.438266898970465
 21
-0.9424086307230416
 31
0.0
  0
LWPOLYLINE
  5
CF
330
89
100
AcDbEntity
  8
AM_4
100
AcDbPolyline
 90
        3
 70
     0
 43
0.0
 10
1.413310885688351
 20
-0.9018064730422812
 10
1.43708637860691
 20
-0.9221075518826614
 10
1.45891559079465
 20
-0.9424086307230416
  0
LINE
  5
D0
330
89
100
AcDbEntity
  8
AM_4
100
AcDbLine
 10
1.45891559079465
 20
-0.6175913692769581
 30
0.0
 11
1.438266898970465
 21
-0.6175913692769581
 31
0.0
  0
LWPOLYLINE
  5
D1
330
89
100
AcDbEntity
  8
AM_4
100
AcDbPolyline
 90
        3
 70
     0
 43
0.0
 10
1.413310885688351
 20
-0.6581935269577186
 10
1.387359094219966
 20
-0.6784946057980987
 10
1.359461022020763
 20
-0.698795684638479
  0
LWPOLYLINE
  5
D2
330
89
100
AcDbEntity
  8
AM_4
100
AcDbPolyline
 90
        3
 70
     0
 43
0.0
 10
1.45891559079465
 20
-0.6175913692769581
 10
1.437188559054358
 20
-0.6378011690003458
 10
1.413310885688351
 20
-0.6581935269577186
  0
LWPOLYLINE
  5
D3
330
89
100
AcDbEntity
  8
AM_4
100
AcDbPolyline
 90
        3
 70
     0
 43
0.0
 10
1.359461022020763
 20
-0.8612043153615208
 10
1.387237687406611
 20
-0.8814141150849084
 10
1.413310885688351
 20
-0.9018064730422812
  0
LINE
  5
D4
330
89
100
AcDbEntity
  8
AM_4
100
AcDbLine
 10
1.359461022020763
 20
-0.698795684638479
 30
0.0
 11
1.338812330196577
 21
-0.698795684638479
 31
0.0
  0
LINE
  5
D5
330
89
100
AcDbEntity
  8
AM_4
100
AcDbLine
 10
1.359461022020763
 20
-0.8612043153615208
 30
0.0
 11
1.338812330196577
 21
-0.8612043153615208
 31
0.0
  0
LWPOLYLINE
  5
D6
330
89
100
AcDbEntity
  8
AM_4
100
AcDbPolyline
 90
        4
 70
     0
 43
0.0
 10
1.363583601301407
 20
-0.7799999999999999
 10
1.362937831366325
 20
-0.8111508759219515
 10
1.36108624267735
 20
-0.8423017518439031
 10
1.359461022020763
 20
-0.8612043153615208
  0
LWPOLYLINE
  5
D7
330
89
100
AcDbEntity
  8
AM_4
100
AcDbPolyline
 90
        3
 70
     0
 43
0.0
 10
1.359461022020763
 20
-0.698795684638479
 10
1.362485838843541
 20
-0.7392152840852544
 10
1.363583601301407
 20
-0.7799999999999999
  0
ELLIPSE
  5
D8
330
89
100
AcDbEntity
  8
AM_4
100
AcDbEllipse
 10
1.463038170075295
 20
-0.7800000000000001
 30
0.0
 11
8.612328615003772E-18
 21
0.1406500000000002
 31
0.0
210
0.0
220
0.0
230
1.0
 40
0.7071067811865499
 41
5.625871263975766
 42
10.0820920039732
  0
ELLIPSE
  5
D9
330
89
100
AcDbEntity
  8
AM_4
100
AcDbEllipse
 10
1.485185142960827
 20
-0.78
 30
0.0
 11
6.694498085252775E-18
 21
0.1093294505797712
 31
0.0
210
0.0
220
0.0
230
1.0
 40
0.7071067811865481
 41
5.928986666165874
 42
9.778976601783093
  0
LINE
  5
DA
330
89
100
AcDbEntity
  8
AM_4
100
AcDbLine
 10
1.492361951383672
 20
-0.8679044185632921
 30
0.0
 11
1.530183979097714
 21
-0.8960995625890069
 31
0.0
  0
LINE
  5
DB
330
89
100
AcDbEntity
  8
AM_4
100
AcDbLine
 10
1.530183979097714
 20
-0.6639004374109928
 30
0.0
 11
1.492361951383672
 21
-0.6920955814367075
 31
0.0
  0
ELLIPSE
  5
DC
330
89
100
AcDbEntity
  8
AM_4
100
AcDbEllipse
 10
1.525126954897334
 20
-0.7799999999999998
 30
0.0
 11
6.084620899749656E-18
 21
0.0993694002872666
 31
0.0
210
0.0
220
0.0
230
1.0
 40
0.7071067811865472
 41
0.4851122464737809
 42
2.656480407116012
  0
LWPOLYLINE
  5
DD
330
89
100
AcDbEntity
  8
AM_4
100
AcDbPolyline
 90
        7
 70
     0
 43
0.0
 10
1.588400095538315
 20
-0.9159265219950579
 10
1.59675891433578
 20
-0.9155501435117777
 10
1.607445891808584
 20
-0.913959550158954
 10
1.617873476301442
 20
-0.9111608104619108
 10
1.627967624480989
 20
-0.9071929635589228
 10
1.637661684367214
 20
-0.902092372112075
 10
1.642577055046012
 20
-0.8989675310231681
  0
LWPOLYLINE
  5
DE
330
89
100
AcDbEntity
  8
AM_4
100
AcDbPolyline
 90
       13
 70
     0
 43
0.0
 10
1.64226030054123
 20
-0.6608193281314648
 10
1.634311961044366
 20
-0.6559922829564324
 10
1.623880847059604
 20
-0.651044088919383
 10
1.613165160556073
 20
-0.6474182725230909
 10
1.602289949754693
 20
-0.6451156230120012
 10
1.591370883736629
 20
-0.644120955447047
 10
1.580513558469804
 20
-0.6444084691024776
 10
1.569816677436219
 20
-0.6459453644320392
 10
1.559376135558081
 20
-0.6486921166640127
 10
1.549265976943309
 20
-0.6526096332212057
 10
1.539553093940614
 20
-0.6576614228791167
 10
1.530300705912312
 20
-0.6638135438355861
 10
1.529806976029308
 20
-0.6641827650111022
  0
LWPOLYLINE
  5
DF
330
89
100
AcDbEntity
  8
AM_4
100
AcDbPolyline
 90
        8
 70
     0
 43
0.0
 10
1.529419169385418
 20
-0.8955241242362122
 10
1.532048117138506
 20
-0.8974583075682797
 10
1.542040690086804
 20
-0.9037614595890835
 10
1.552456379794126
 20
-0.9087671297380989
 10
1.563162302223395
 20
-0.9124509191141021
 10
1.574033027945133
 20
-0.9148111985720895
 10
1.584952458589046
 20
-0.9158625755259064
 10
1.588400095538315
 20
-0.9159265219950579
  0
ELLIPSE
  5
E0
330
89
100
AcDbEntity
  8
AM_4
100
AcDbEllipse
 10
1.573458283601809
 20
-0.7799999999999998
 30
0.0
 11
8.036249332247511E-18
 21
0.1312419113468906
 31
0.0
210
0.0
220
0.0
230
1.0
 40
0.7071067811865454
 41
0.4887995916919357
 42
2.649054779117474
  0
ELLIPSE
  5
E1
330
89
100
AcDbEntity
  8
AM_4
100
AcDbEllipse
 10
1.659849557505551
 20
-0.7799999999999999
 30
0.0
 11
-1.484390032546748E-17
 21
-0.08080642971672802
 31
0.0
210
0.0
220
0.0
230
1.0
 40
0.7071067811865462
 41
0.0
 42
6.283185307179586
  0
LWPOLYLINE
  5
E2
330
89
100
AcDbEntity
  8
AM_4
100
AcDbPolyline
 90
       22
 70
     0
 43
0.0
 10
1.680806705463664
 20
-0.8736227440517962
 10
1.682319573438352
 20
-0.8725739520280157
 10
1.689860505276363
 20
-0.8664951478148377
 10
1.696856517765997
 20
-0.8593620311917332
 10
1.703220747529341
 20
-0.8512412628720075
 10
1.70886602445138
 20
-0.8422250124853187
 10
1.713713236370547
 20
-0.832429034363102
 10
1.717697826905622
 20
-0.8219849946163534
 10
1.720771698788401
 20
-0.8110329368982752
 10
1.722902517869995
 20
-0.7997139284887389
 10
1.724071136242555
 20
-0.7881619113715972
 10
1.724266883322431
 20
-0.7765083823351474
 10
1.723485819541041
 20
-0.7648829180000677
 10
1.721730168814641
 20
-0.7534160707045007
 10
1.719007693138152
 20
-0.742235816118038
 10
1.715331541518982
 20
-0.7314697617430824
 10
1.710721585621009
 20
-0.7212474634151972
 10
1.705208895107243
 20
-0.7117043332311523
 10
1.69884379639826
 20
-0.7029835060127269
 10
1.691699496600921
 20
-0.6952257637157554
 10
1.683877884351052
 20
-0.6885628809470432
 10
1.680918164176126
 20
-0.6864527225911315
  0
ELLIPSE
  5
E3
330
89
100
AcDbEntity
  8
AM_4
100
AcDbEllipse
 10
1.602214527067087
 20
-0.7799999999999998
 30
0.0
 11
8.079715312105949E-18
 21
0.1319517646676799
 31
0.0
210
0.0
220
0.0
230
1.0
 40
0.7071067811865495
 41
5.844803532225583
 42
9.863159735723386
  0
ELLIPSE
  5
E4
330
89
100
AcDbEntity
  8
AM_4
100
AcDbEllipse
 10
1.649079103740273
 20
-0.7799999999999998
 30
0.0
 11
6.357083428131001E-18
 21
0.1038190510530391
 31
0.0
210
0.0
220
0.0
230
1.0
 40
0.7071067811865481
 41
5.844803532225584
 42
9.863159735723382
  0
LINE
  5
E5
330
89
100
AcDbEntity
  8
AM_4
100
AcDbLine
 10
1.680240290273406
 20
-0.6859981049699094
 30
0.0
 11
1.641819720049298
 21
-0.6605256279505999
 31
0.0
  0
LINE
  5
E6
330
89
100
AcDbEntity
  8
AM_4
100
AcDbLine
 10
1.641819720049298
 20
-0.8994743720493998
 30
0.0
 11
1.680240290273406
 21
-0.8740018950300902
 31
0.0
  0
ENDBLK
  5
8C
330
89
100
AcDbEntity
  8
0
100
AcDbBlockEnd
  0
BLOCK
  5
E9
330
E7
100
AcDbEntity
  8
0
100
AcDbBlockBegin
  2
3_389928_0_in_123613_4
 70
     2
 10
0.0
 20
0.0
 30
0.0
  3
3_389928_0_in_123613_4
  1

  0
ATTDEF
  5
EB
330
E7
100
AcDbEntity
  8
AM_6
100
AcDbText
 10
6.416645210840087
 20
-0.0399999999999998
 30
0.0
 40
0.5
  1
Set Screw Intermediate Duty Insert Inch Bore
100
AcDbAttributeDefinition
  3

  2
NN
 70
     8
280
     0
  0
ATTDEF
  5
EC
330
E7
100
AcDbEntity
  8
AM_6
100
AcDbText
 10
6.416645210840087
 20
-0.5399999999999998
 30
0.0
 40
0.5
  1
VSC Intermediate Duty Bearing Inserts
100
AcDbAttributeDefinition
  3

  2
NT
 70
     8
280
     0
  0
ATTDEF
  5
ED
330
E7
100
AcDbEntity
  8
AM_6
100
AcDbText
 10
6.416645210840087
 20
-1.04
 30
0.0
 40
0.5
  1
389928
100
AcDbAttributeDefinition
  3

  2
NB
 70
     8
280
     0
  0
ATTDEF
  5
EE
330
E7
100
AcDbEntity
  8
AM_6
100
AcDbText
 10
6.416645210840087
 20
-1.54
 30
0.0
 40
0.5
  1
$PN.
100
AcDbAttributeDefinition
  3

  2
NBSYN
 70
     8
280
     0
  0
ATTDEF
  5
EF
330
E7
100
AcDbEntity
  8
AM_6
100
AcDbText
 10
6.416645210840087
 20
-2.04
 30
0.0
 40
0.5
  1
389928
100
AcDbAttributeDefinition
  3

  2
LINA
 70
     8
280
     0
  0
ATTDEF
  5
F0
330
E7
100
AcDbEntity
  8
AM_6
100
AcDbText
 10
6.416645210840087
 20
-2.54
 30
0.0
 40
0.5
  1
207
100
AcDbAttributeDefinition
  3

  2
SERIES
 70
     8
280
     0
  0
ATTDEF
  5
F1
330
E7
100
AcDbEntity
  8
AM_6
100
AcDbText
 10
6.416645210840087
 20
-3.04
 30
0.0
 40
0.5
  1
1-1/4
100
AcDbAttributeDefinition
  3

  2
SS
 70
     8
280
     0
  0
ATTDEF
  5
F2
330
E7
100
AcDbEntity
  8
AM_6
100
AcDbText
 10
6.416645210840087
 20
-3.54
 30
0.0
 40
0.5
  1
389928
100
AcDbAttributeDefinition
  3

  2
PN
 70
     8
280
     0
  0
ATTDEF
  5
F3
330
E7
100
AcDbEntity
  8
AM_6
100
AcDbText
 10
6.416645210840087
 20
-4.04
 30
0.0
 40
0.5
  1
INS-VSC-104
100
AcDbAttributeDefinition
  3

  2
DESCRIPTION
 70
     8
280
     0
  0
ATTDEF
  5
F4
330
E7
100
AcDbEntity
  8
AM_6
100
AcDbText
 10
6.416645210840087
 20
-4.54
 30
0.0
 40
0.5
  1
0.92
100
AcDbAttributeDefinition
  3

  2
WEIGHT
 70
     8
280
     0
  0
ATTDEF
  5
F5
330
E7
100
AcDbEntity
  8
AM_6
100
AcDbText
 10
6.416645210840087
 20
-5.04
 30
0.0
 40
0.5
  1
1.71
100
AcDbAttributeDefinition
  3

  2
A
 70
     8
280
     0
  0
ATTDEF
  5
F6
330
E7
100
AcDbEntity
  8
AM_6
100
AcDbText
 10
6.416645210840087
 20
-5.54
 30
0.0
 40
0.5
  1
0.75
100
AcDbAttributeDefinition
  3

  2
C
 70
     8
280
     0
  0
ATTDEF
  5
F7
330
E7
100
AcDbEntity
  8
AM_6
100
AcDbText
 10
6.416645210840087
 20
-6.04
 30
0.0
 40
0.5
  1
2.8346
100
AcDbAttributeDefinition
  3

  2
D
 70
     8
280
     0
  0
ATTDEF
  5
F8
330
E7
100
AcDbEntity
  8
AM_6
100
AcDbText
 10
6.416645210840087
 20
-6.54
 30
0.0
 40
0.5
  1
0.200
100
AcDbAttributeDefinition
  3

  2
J
 70
     8
280
     0
  0
ATTDEF
  5
F9
330
E7
100
AcDbEntity
  8
AM_6
100
AcDbText
 10
6.416645210840087
 20
-7.04
 30
0.0
 40
0.5
  1
1.84
100
AcDbAttributeDefinition
  3

  2
L
 70
     8
280
     0
  0
ATTDEF
  5
FA
330
E7
100
AcDbEntity
  8
AM_6
100
AcDbText
 10
6.416645210840087
 20
-7.54
 30
0.0
 40
0.5
  1
5/16-24
100
AcDbAttributeDefinition
  3

  2
N
 70
     8
280
     0
  0
ATTDEF
  5
FB
330
E7
100
AcDbEntity
  8
AM_6
100
AcDbText
 10
6.416645210840087
 20
-8.04
 30
0.0
 40
0.5
  1
0.67
100
AcDbAttributeDefinition
  3

  2
W
 70
     8
280
     0
  0
ATTDEF
  5
FC
330
E7
100
AcDbEntity
  8
AM_6
100
AcDbText
 10
6.416645210840087
 20
-8.54
 30
0.0
 40
0.5
  1
1.04
100
AcDbAttributeDefinition
  3

  2
Y
 70
     8
280
     0
  0
ATTDEF
  5
FD
330
E7
100
AcDbEntity
  8
AM_6
100
AcDbText
 10
6.416645210840087
 20
-9.04
 30
0.0
 40
0.5
  1
baldor
100
AcDbAttributeDefinition
  3

  2
COMPANY
 70
     8
280
     0
  0
LINE
  5
FE
330
E7
100
AcDbEntity
  8
AM_9
100
AcDbLine
 10
-1.4798
 20
-0.4740151515151458
 30
0.0
 11
-1.4798
 21
-0.545984848484854
 31
0.0
  0
ARC
  5
FF
330
E7
100
AcDbEntity
  8
AM_9
100
AcDbCircle
 10
-1.411618181818104
 20
-0.545984848484768
 30
0.0
 40
0.0681818181818963
100
AcDbArc
 50
180.0
 51
267.9922840922168
  0
ARC
  5
100
330
E7
100
AcDbEntity
  8
AM_9
100
AcDbCircle
 10
-1.411618181818182
 20
-0.4740151515151561
 30
0.0
 40
0.0681818181818181
100
AcDbArc
 50
90.0
 51
180.0
  0
LINE
  5
101
330
E7
100
AcDbEntity
  8
AM_9
100
AcDbLine
 10
-1.384299799507563
 20
-0.405833333333338
 30
0.0
 11
-1.411618181818182
 21
-0.405833333333338
 31
0.0
  0
LINE
  5
102
330
E7
100
AcDbEntity
  8
AM_9
100
AcDbLine
 10
-1.411618181818182
 20
-0.405833333333338
 30
0.0
 11
-1.411618181818185
 21
-0.5969432392103098
 31
0.0
  0
LINE
  5
103
330
E7
100
AcDbEntity
  8
AM_9
100
AcDbLine
 10
0.5663536325708911
 20
-1.5712
 30
0.0
 11
0.8133659234760416
 21
-1.5712
 31
0.0
  0
LINE
  5
104
330
E7
100
AcDbEntity
  8
AM_9
100
AcDbLine
 10
0.8133659234760416
 20
-1.3038
 30
0.0
 11
0.5663977796567856
 21
-1.3038
 31
0.0
  0
LWPOLYLINE
  5
105
330
E7
100
AcDbEntity
  8
AM_9
100
AcDbPolyline
 90
       21
 70
     0
 43
0.0
 10
0.5664384990245521
 20
-1.571199999686763
 10
0.5722270926110175
 20
-1.570462324141106
 10
0.5804871792323835
 20
-1.566433230948111
 10
0.5879459818615442
 20
-1.558750489877332
 10
0.5941429454696131
 20
-1.547971263209041
 10
0.5993534170742937
 20
-1.533846829942717
 10
0.603398183434863
 20
-1.517168089530923
 10
0.6064660190212009
 20
-1.497696123371985
 10
0.6084690213476586
 20
-1.476993945226231
 10
0.6095903837821041
 20
-1.454479905924173
 10
0.6098134158878081
 20
-1.432551297831488
 10
0.6091926963744904
 20
-1.410122293546052
 10
0.6077586658478283
 20
-1.389328032733975
 10
0.6053728232055112
 20
-1.369308401018684
 10
0.6020385920017324
 20
-1.351423784649157
 10
0.5975172990474971
 20
-1.33546491007392
 10
0.5918913873481956
 20
-1.322518764708029
 10
0.5848819231637138
 20
-1.312525944328911
 10
0.5769935311613411
 20
-1.306380017864595
 10
0.567846385343739
 20
-1.303841758897089
 10
0.5664479210557944
 20
-1.303800000645949
  0
LWPOLYLINE
  5
106
330
E7
100
AcDbEntity
  8
AM_9
100
AcDbPolyline
 90
       11
 70
     0
 43
0.0
 10
0.5664479210557944
 20
-1.303800000645949
 10
0.5583935135352309
 20
-1.305080580375312
 10
0.5482035775194507
 20
-1.310036978244874
 10
0.5382285702411428
 20
-1.318256874925726
 10
0.5282721228677795
 20
-1.329963888985151
 10
0.5191222958452621
 20
-1.344491644742229
 10
0.5108842862952504
 20
-1.362069320164476
 10
0.5043411615402564
 20
-1.381509428072691
 10
0.499589368995761
 20
-1.403200341041623
 10
0.4975353688393331
 20
-1.420046991709835
 10
0.4968258345735519
 20
-1.4375
  0
ELLIPSE
  5
107
330
E7
100
AcDbEntity
  8
AM_9
100
AcDbEllipse
 10
0.8133659234760405
 20
-1.4375
 30
0.0
 11
-2.456029155690003E-17
 21
-0.1336999999999993
 31
0.0
210
0.0
220
0.0
230
1.0
 40
0.4226182617406944
 41
3.501733258392587
 42
5.937085696045733
  0
LINE
  5
108
330
E7
100
AcDbEntity
  8
AM_9
100
AcDbLine
 10
0.7870176468375566
 20
-1.555774043397022
 30
0.0
 11
0.8008747982755753
 21
-1.573057882501639
 31
0.0
  0
LINE
  5
109
330
E7
100
AcDbEntity
  8
AM_9
100
AcDbLine
 10
0.8009476866551263
 20
-1.301851204800294
 30
0.0
 11
0.7870176468375566
 21
-1.319225956602978
 31
0.0
  0
LWPOLYLINE
  5
10A
330
E7
100
AcDbEntity
  8
AM_9
100
AcDbPolyline
 90
       11
 70
     0
 43
0.0
 10
0.4968258345735519
 20
-1.4375
 10
0.4979386146728819
 20
-1.459339039059057
 10
0.5013402665006406
 20
-1.481178078118113
 10
0.5066454096766859
 20
-1.501171226547111
 10
0.5138594618003532
 20
-1.519922402271406
 10
0.5223617965584862
 20
-1.536139630306527
 10
0.5321191642407586
 20
-1.550007548386564
 10
0.5422610902991827
 20
-1.560468085773533
 10
0.5528436845408266
 20
-1.56765759598642
 10
0.5626982816912836
 20
-1.570914776095263
 10
0.5664384990245521
 20
-1.571199999686763
  0
LINE
  5
10B
330
E7
100
AcDbEntity
  8
AM_9
100
AcDbLine
 10
0.625
 20
-1.7132
 30
0.0
 11
0.625
 21
-0.0492
 31
0.0
  0
LINE
  5
10C
330
E7
100
AcDbEntity
  8
AM_9
100
AcDbLine
 10
-0.625
 20
-0.0492
 30
0.0
 11
-0.625
 21
-1.7132
 31
0.0
  0
LINE
  5
10D
330
E7
100
AcDbEntity
  8
AM_9
100
AcDbLine
 10
0.625
 20
-0.0492
 30
0.0
 11
0.6342
 21
-0.0399999999999998
 31
0.0
  0
LINE
  5
10E
330
E7
100
AcDbEntity
  8
AM_9
100
AcDbLine
 10
-0.6342
 20
-0.0399999999999998
 30
0.0
 11
-0.625
 21
-0.0492
 31
0.0
  0
LINE
  5
10F
330
E7
100
AcDbEntity
  8
AM_9
100
AcDbLine
 10
-0.6250000000000001
 20
-1.7132
 30
0.0
 11
-0.6618000000000002
 21
-1.75
 31
0.0
  0
LINE
  5
110
330
E7
100
AcDbEntity
  8
AM_9
100
AcDbLine
 10
0.6618000000000002
 20
-1.75
 30
0.0
 11
0.6250000000000001
 21
-1.7132
 31
0.0
  0
LINE
  5
111
330
E7
100
AcDbEntity
  8
AM_9
100
AcDbLine
 10
0.92
 20
-1.22
 30
0.0
 11
0.92
 21
-1.085
 31
0.0
  0
LINE
  5
112
330
E7
100
AcDbEntity
  8
AM_9
100
AcDbLine
 10
-0.92
 20
-1.085
 30
0.0
 11
-0.92
 21
-1.22
 31
0.0
  0
LINE
  5
113
330
E7
100
AcDbEntity
  8
AM_9
100
AcDbLine
 10
-0.9108000000000002
 20
-0.0399999999999998
 30
0.0
 11
0.9108000000000002
 21
-0.0399999999999998
 31
0.0
  0
LINE
  5
114
330
E7
100
AcDbEntity
  8
AM_9
100
AcDbLine
 10
-0.9108000000000002
 20
-0.0399999999999998
 30
0.0
 11
-0.9200000000000002
 21
-0.0491999999999998
 31
0.0
  0
LINE
  5
115
330
E7
100
AcDbEntity
  8
AM_9
100
AcDbLine
 10
0.9200000000000002
 20
-0.0491999999999998
 30
0.0
 11
0.9108000000000002
 21
-0.0399999999999998
 31
0.0
  0
LINE
  5
116
330
E7
100
AcDbEntity
  8
AM_9
100
AcDbLine
 10
-0.9200000000000002
 20
-0.0491999999999998
 30
0.0
 11
0.92
 21
-0.0491999999999998
 31
0.0
  0
LINE
  5
117
330
E7
100
AcDbEntity
  8
AM_9
100
AcDbLine
 10
0.92
 20
-0.335
 30
0.0
 11
0.92
 21
-0.0491999999999998
 31
0.0
  0
LINE
  5
118
330
E7
100
AcDbEntity
  8
AM_9
100
AcDbLine
 10
-0.92
 20
-0.0491999999999998
 30
0.0
 11
-0.92
 21
-0.335
 31
0.0
  0
LINE
  5
119
330
E7
100
AcDbEntity
  8
AM_9
100
AcDbLine
 10
1.350633333333333
 20
-0.9499999999999998
 30
0.0
 11
1.350633333333333
 21
-0.8699999999999999
 31
0.0
  0
LINE
  5
11A
330
E7
100
AcDbEntity
  8
AM_9
100
AcDbLine
 10
-1.350633333333333
 20
-0.8699999999999999
 30
0.0
 11
-1.350633333333333
 21
-0.9499999999999998
 31
0.0
  0
LINE
  5
11B
330
E7
100
AcDbEntity
  8
AM_9
100
AcDbLine
 10
-1.335937981344943
 20
-0.335
 30
0.0
 11
1.335937981344905
 21
-0.335
 31
0.0
  0
ARC
  5
11C
330
E7
100
AcDbEntity
  8
AM_9
100
AcDbCircle
 10
1.335937981344943
 20
-0.3749999999999998
 30
0.0
 40
0.0399999999999997
100
AcDbArc
 50
14.0772302633402
 51
90.0
  0
ARC
  5
11D
330
E7
100
AcDbEntity
  8
AM_9
100
AcDbCircle
 10
-1.335937981344943
 20
-0.3749999999999998
 30
0.0
 40
0.0399999999999998
100
AcDbArc
 50
90.0
 51
165.9227697366598
  0
LINE
  5
11E
330
E7
100
AcDbEntity
  8
AM_9
100
AcDbLine
 10
-1.335937981344943
 20
-1.085
 30
0.0
 11
1.335937981344905
 21
-1.085
 31
0.0
  0
ARC
  5
11F
330
E7
100
AcDbEntity
  8
AM_9
100
AcDbCircle
 10
1.335937981344942
 20
-1.044999999999999
 30
0.0
 40
0.0400000000000005
100
AcDbArc
 50
270.0
 51
345.922772793286
  0
ARC
  5
120
330
E7
100
AcDbEntity
  8
AM_9
100
AcDbCircle
 10
-1.335937981344943
 20
-1.045
 30
0.0
 40
0.04
100
AcDbArc
 50
194.0772272067134
 51
270.0
  0
LINE
  5
121
330
E7
100
AcDbEntity
  8
AM_9
100
AcDbLine
 10
-1.396831876068126
 20
-0.95
 30
0.0
 11
1.396831876068094
 21
-0.95
 31
0.0
  0
LINE
  5
122
330
E7
100
AcDbEntity
  8
AM_9
100
AcDbLine
 10
-1.374736731983001
 20
-1.054729180280259
 30
0.0
 11
1.37473673198297
 21
-1.054729180280259
 31
0.0
  0
ARC
  5
123
330
E7
100
AcDbEntity
  8
AM_9
100
AcDbCircle
 10
-0.0000000000417544
 20
-0.7099999999912077
 30
0.0
 40
1.417300000042609
100
AcDbArc
 50
345.9227727933522
 51
350.2507814750213
  0
ARC
  5
124
330
E7
100
AcDbEntity
  8
AM_9
100
AcDbCircle
 10
0.0000000000418798
 20
-0.7099999999911811
 30
0.0
 40
1.417300000042737
100
AcDbArc
 50
189.7492185249788
 51
194.0772272066475
  0
LINE
  5
125
330
E7
100
AcDbEntity
  8
AM_9
100
AcDbLine
 10
-1.40823978426971
 20
-0.8699999999999999
 30
0.0
 11
1.40823978426971
 21
-0.8699999999999999
 31
0.0
  0
LINE
  5
126
330
E7
100
AcDbEntity
  8
AM_9
100
AcDbLine
 10
-1.374736731463967
 20
-0.3652708176498977
 30
0.0
 11
1.374736731463966
 21
-0.3652708176498978
 31
0.0
  0
ARC
  5
127
330
E7
100
AcDbEntity
  8
AM_9
100
AcDbCircle
 10
-0.0000000000000344
 20
-0.7100000000000014
 30
0.0
 40
1.417300000000034
100
AcDbArc
 50
353.5180207994822
 51
14.07722729297917
  0
ARC
  5
128
330
E7
100
AcDbEntity
  8
AM_9
100
AcDbCircle
 10
0.0000000000050557
 20
-0.7100000000011712
 30
0.0
 40
1.417300000005189
100
AcDbArc
 50
165.9227727070244
 51
167.6139252565225
  0
ARC
  5
129
330
E7
100
AcDbEntity
  8
AM_9
100
AcDbCircle
 10
-0.0000000000000306
 20
-0.7100000000000025
 30
0.0
 40
1.417299999999969
100
AcDbArc
 50
176.1059993720351
 51
186.481979200518
  0
LINE
  5
12A
330
E7
100
AcDbEntity
  8
AM_9
100
AcDbLine
 10
-1.384276680765138
 20
-0.4058333333864815
 30
0.0
 11
-1.414053366232156
 21
-0.6141231652196165
 31
0.0
  0
LINE
  5
12D
330
E7
100
AcDbEntity
  8
AM_7
100
AcDbLine
 10
-0.140385
 20
-1.4375
 30
0.0
 11
0.140385
 21
-1.4375
 31
0.0
  0
LINE
  5
12E
330
E7
100
AcDbEntity
  8
AM_7
100
AcDbLine
 10
-1.50779
 20
-0.5099999999999999
 30
0.0
 11
-0.8920100000000001
 21
-0.5099999999999999
 31
0.0
  0
ELLIPSE
  5
12F
330
E7
100
AcDbEntity
  8
AM_4
100
AcDbEllipse
 10
0.8133659234760416
 20
-1.4375
 30
0.0
 11
-2.456029155690020E-17
 21
-0.1337000000000002
 31
0.0
210
0.0
220
0.0
230
1.0
 40
0.4226182617406991
 41
5.93708569604572
 42
9.78491856557219
  0
LWPOLYLINE
  5
130
330
E7
100
AcDbEntity
  8
AM_4
100
AcDbPolyline
 90
       14
 70
     0
 43
0.0
 10
0.801020011242967
 20
-1.573239000585489
 10
0.7975842179135424
 20
-1.56870071760225
 10
0.7883864594169163
 20
-1.55379090223837
 10
0.7802163297231693
 20
-1.536258099308582
 10
0.7728882481466536
 20
-1.514975983706107
 10
0.7673226261023995
 20
-1.491812797077808
 10
0.7635884624803467
 20
-1.465739164783674
 10
0.7622272915058733
 20
-1.438918060301231
 10
0.7634082445863541
 20
-1.411209376767638
 10
0.7671221129005841
 20
-1.384241025427607
 10
0.7732608398707713
 20
-1.358766576090167
 10
0.7815134685520373
 20
-1.335609721212233
 10
0.7912245624262377
 20
-1.316153255401974
 10
0.8010304705104971
 20
-1.301747949876195
  0
LWPOLYLINE
  5
131
330
E7
100
AcDbEntity
  8
AM_4
100
AcDbPolyline
 90
       10
 70
     0
 43
0.0
 10
0.8010304705104971
 20
-1.301747949876195
 10
0.8021651109779088
 20
-1.300359121078962
 10
0.8130437162660916
 20
-1.289614125956303
 10
0.824124632264255
 20
-1.283126105699236
 10
0.834112938361791
 20
-1.281269994723431
 10
0.843576127568735
 20
-1.283381937986448
 10
0.8519425409266692
 20
-1.289149587010375
 10
0.8594202932404971
 20
-1.298296378231255
 10
0.8643980420447521
 20
-1.307244643199723
 10
0.868802710372581
 20
-1.317766434458781
  0
LINE
  5
132
330
E7
100
AcDbEntity
  8
AM_4
100
AcDbLine
 10
-0.8832
 20
-1.75
 30
0.0
 11
0.8832
 21
-1.75
 31
0.0
  0
LINE
  5
133
330
E7
100
AcDbEntity
  8
AM_4
100
AcDbLine
 10
0.8832
 20
-1.75
 30
0.0
 11
0.92
 21
-1.7132
 31
0.0
  0
LINE
  5
134
330
E7
100
AcDbEntity
  8
AM_4
100
AcDbLine
 10
-0.92
 20
-1.7132
 30
0.0
 11
-0.8832
 21
-1.75
 31
0.0
  0
LINE
  5
135
330
E7
100
AcDbEntity
  8
AM_4
100
AcDbLine
 10
-0.92
 20
-1.7132
 30
0.0
 11
0.92
 21
-1.7132
 31
0.0
  0
LWPOLYLINE
  5
136
330
E7
100
AcDbEntity
  8
AM_4
100
AcDbPolyline
 90
       19
 70
     0
 43
0.0
 10
0.868802710372581
 20
-1.317766434458781
 10
0.8737946153947468
 20
-1.334015153554399
 10
0.8777907951569252
 20
-1.352341080380759
 10
0.8812120625973896
 20
-1.375540831094179
 10
0.8834298114589223
 20
-1.400298309894563
 10
0.8845149490787284
 20
-1.427331580221495
 10
0.884357478759741
 20
-1.454640507479415
 10
0.8829033788927199
 20
-1.482036126493255
 10
0.8801060327144928
 20
-1.508157566034877
 10
0.8759203865015293
 20
-1.532011333484199
 10
0.8702614389256621
 20
-1.553048109698719
 10
0.8633873301078526
 20
-1.569770208423347
 10
0.8551104179047309
 20
-1.582520750680058
 10
0.8462853350130269
 20
-1.590174650579855
 10
0.8365225503553133
 20
-1.593592556685618
 10
0.8268285108889205
 20
-1.592749404716892
 10
0.8168494406613077
 20
-1.588131611641142
 10
0.8070394557251491
 20
-1.580010233631385
 10
0.801020011242967
 20
-1.573239000585489
  0
LINE
  5
137
330
E7
100
AcDbEntity
  8
AM_4
100
AcDbLine
 10
0.92
 20
-1.7132
 30
0.0
 11
0.92
 21
-1.22
 31
0.0
  0
LINE
  5
138
330
E7
100
AcDbEntity
  8
AM_4
100
AcDbLine
 10
-0.92
 20
-1.22
 30
0.0
 11
-0.92
 21
-1.7132
 31
0.0
  0
LWPOLYLINE
  5
139
330
E7
100
AcDbEntity
  8
AM_4
100
AcDbPolyline
 90
       39
 70
     0
 43
0.0
 10
-0.105574259381261
 20
-1.330702000323414
 10
-0.0899840893107071
 20
-1.315197559264582
 10
-0.0718332236118054
 20
-1.301911510578777
 10
-0.0498579354883939
 20
-1.290845360994856
 10
-0.0254288212278396
 20
-1.283689339438157
 10
-0.0026802967841614
 20
-1.28127689538784
 10
0.0208621745706072
 20
-1.282887709292676
 10
0.0422467576266727
 20
-1.28807800418593
 10
0.0630475065461465
 20
-1.296901785147332
 10
0.0821526965233294
 20
-1.308931069170064
 10
0.0995598632963648
 20
-1.324174461755274
 10
0.115027127886333
 20
-1.342742760359668
 10
0.1277201329430541
 20
-1.364035311871043
 10
0.137343674770972
 20
-1.388150937441961
 10
0.1431578928100207
 20
-1.414187658310163
 10
0.1447425530684373
 20
-1.441305306327235
 10
0.1417851499590972
 20
-1.469076666666508
 10
0.1343855258852637
 20
-1.495536749272893
 10
0.1222566494643258
 20
-1.521071183091885
 10
0.1066517150572106
 20
-1.543044249054816
 10
0.0867630850057927
 20
-1.562486730407953
 10
0.0656259758414284
 20
-1.576713523130625
 10
0.0414216690385027
 20
-1.587191789525457
 10
0.0185528130585311
 20
-1.592456205546238
 10
-0.0056652931037754
 20
-1.593629805600345
 10
-0.0276284761342422
 20
-1.59086632826091
 10
-0.049428100006959
 20
-1.584324576229281
 10
-0.0694066142806755
 20
-1.574555970466862
 10
-0.0880491122957947
 20
-1.561433595151944
 10
-0.1049495075510756
 20
-1.545012575571328
 10
-0.1194389852284725
 20
-1.525680947373353
 10
-0.1312998751069861
 20
-1.503227484573339
 10
-0.1396820204946629
 20
-1.47853330114013
 10
-0.1441538682410586
 20
-1.452048546231256
 10
-0.1442764501702269
 20
-1.424436063332689
 10
-0.1398964376451168
 20
-1.397323030434088
 10
-0.1307836239789331
 20
-1.370587929495405
 10
-0.119816038282878
 20
-1.349915825633624
 10
-0.1055742594178673
 20
-1.330702000299702
  0
CIRCLE
  5
13A
330
E7
100
AcDbEntity
  8
AM_4
100
AcDbCircle
 10
0.0
 20
-1.4375
 30
0.0
 40
0.1337
  0
CIRCLE
  5
13C
330
E7
100
AcDbEntity
  8
AM_5
100
AcDbCircle
 10
0.0
 20
-1.4375
 30
0.0
 40
0.15625
  0
ENDBLK
  5
EA
330
E7
100
AcDbEntity
  8
0
100
AcDbBlockEnd
  0
BLOCK
  5
13F
330
13D
100
AcDbEntity
  8
0
100
AcDbBlockBegin
  2
4_123613vsc_0_in_123613_4
 70
     2
 10
0.0
 20
0.0
 30
0.0
  3
4_123613vsc_0_in_123613_4
  1

  0
ATTDEF
  5
141
330
13D
100
AcDbEntity
  8
AM_6
100
AcDbText
 10
6.875
 20
0.061
 30
0.0
 40
0.5
  1
F2B-VSC -Inch - housing
100
AcDbAttributeDefinition
  3

  2
NN
 70
     8
280
     0
  0
ATTDEF
  5
142
330
13D
100
AcDbEntity
  8
AM_6
100
AcDbText
 10
6.875
 20
-0.439
 30
0.0
 40
0.5
  1
VSC Intermediate Duty 2-Bolt Flange Bearings
100
AcDbAttributeDefinition
  3

  2
NT
 70
     8
280
     0
  0
ATTDEF
  5
143
330
13D
100
AcDbEntity
  8
AM_6
100
AcDbText
 10
6.875
 20
-0.9390000000000001
 30
0.0
 40
0.5
  1
123613vsc
100
AcDbAttributeDefinition
  3

  2
NB
 70
     8
280
     0
  0
ATTDEF
  5
144
330
13D
100
AcDbEntity
  8
AM_6
100
AcDbText
 10
6.875
 20
-1.439
 30
0.0
 40
0.5
  1
$PN.
100
AcDbAttributeDefinition
  3

  2
NBSYN
 70
     8
280
     0
  0
ATTDEF
  5
145
330
13D
100
AcDbEntity
  8
AM_6
100
AcDbText
 10
6.875
 20
-1.939
 30
0.0
 40
0.5
  1
123613vsc
100
AcDbAttributeDefinition
  3

  2
LINA
 70
     8
280
     0
  0
ATTDEF
  5
146
330
13D
100
AcDbEntity
  8
AM_6
100
AcDbText
 10
6.875
 20
-2.439
 30
0.0
 40
0.5
  1
207
100
AcDbAttributeDefinition
  3

  2
RS
 70
     8
280
     0
  0
ATTDEF
  5
147
330
13D
100
AcDbEntity
  8
AM_6
100
AcDbText
 10
6.875
 20
-2.939
 30
0.0
 40
0.5
  1
1-1/4
100
AcDbAttributeDefinition
  3

  2
SS
 70
     8
280
     0
  0
ATTDEF
  5
148
330
13D
100
AcDbEntity
  8
AM_6
100
AcDbText
 10
6.875
 20
-3.439
 30
0.0
 40
0.5
  1
123613vsc
100
AcDbAttributeDefinition
  3

  2
PN
 70
     8
280
     0
  0
ATTDEF
  5
149
330
13D
100
AcDbEntity
  8
AM_6
100
AcDbText
 10
6.875
 20
-3.939
 30
0.0
 40
0.5
  1
F2B-VSC-104
100
AcDbAttributeDefinition
  3

  2
DESCRIPTION
 70
     8
280
     0
  0
ATTDEF
  5
14A
330
13D
100
AcDbEntity
  8
AM_6
100
AcDbText
 10
6.875
 20
-4.439
 30
0.0
 40
0.5
  1
RE-LUBE
100
AcDbAttributeDefinition
  3

  2
LF
 70
     8
280
     0
  0
ATTDEF
  5
14B
330
13D
100
AcDbEntity
  8
AM_6
100
AcDbText
 10
6.875
 20
-4.939
 30
0.0
 40
0.5
  1
3.5
100
AcDbAttributeDefinition
  3

  2
WEIGHT
 70
     8
280
     0
  0
ATTDEF
  5
14C
330
13D
100
AcDbEntity
  8
AM_6
100
AcDbText
 10
6.875
 20
-5.439
 30
0.0
 40
0.5
  1
1.71
100
AcDbAttributeDefinition
  3

  2
A
 70
     8
280
     0
  0
ATTDEF
  5
14D
330
13D
100
AcDbEntity
  8
AM_6
100
AcDbText
 10
6.875
 20
-5.939
 30
0.0
 40
0.5
  1
6.13
100
AcDbAttributeDefinition
  3

  2
B
 70
     8
280
     0
  0
ATTDEF
  5
14E
330
13D
100
AcDbEntity
  8
AM_6
100
AcDbText
 10
6.875
 20
-6.439
 30
0.0
 40
0.5
  1
1.75
100
AcDbAttributeDefinition
  3

  2
C
 70
     8
280
     0
  0
ATTDEF
  5
14F
330
13D
100
AcDbEntity
  8
AM_6
100
AcDbText
 10
6.875
 20
-6.939
 30
0.0
 40
0.5
  1
5.12
100
AcDbAttributeDefinition
  3

  2
D
 70
     8
280
     0
  0
ATTDEF
  5
150
330
13D
100
AcDbEntity
  8
AM_6
100
AcDbText
 10
6.875
 20
-7.439
 30
0.0
 40
0.5
  1
1/2
100
AcDbAttributeDefinition
  3

  2
F
 70
     8
280
     0
  0
ATTDEF
  5
151
330
13D
100
AcDbEntity
  8
AM_6
100
AcDbText
 10
6.875
 20
-7.939
 30
0.0
 40
0.5
  1
0.56
100
AcDbAttributeDefinition
  3

  2
H
 70
     8
280
     0
  0
ATTDEF
  5
152
330
13D
100
AcDbEntity
  8
AM_6
100
AcDbText
 10
6.875
 20
-8.439
 30
0.0
 40
0.5
  1
0.53
100
AcDbAttributeDefinition
  3

  2
J
 70
     8
280
     0
  0
ATTDEF
  5
153
330
13D
100
AcDbEntity
  8
AM_6
100
AcDbText
 10
6.875
 20
-8.939
 30
0.0
 40
0.5
  1
1.84
100
AcDbAttributeDefinition
  3

  2
L
 70
     8
280
     0
  0
ATTDEF
  5
154
330
13D
100
AcDbEntity
  8
AM_6
100
AcDbText
 10
6.875
 20
-9.439
 30
0.0
 40
0.5
  1
3.75
100
AcDbAttributeDefinition
  3

  2
M
 70
     8
280
     0
  0
ATTDEF
  5
155
330
13D
100
AcDbEntity
  8
AM_6
100
AcDbText
 10
6.875
 20
-9.939
 30
0.0
 40
0.5
  1
1.84
100
AcDbAttributeDefinition
  3

  2
N
 70
     8
280
     0
  0
ATTDEF
  5
156
330
13D
100
AcDbEntity
  8
AM_6
100
AcDbText
 10
6.875
 20
-10.439
 30
0.0
 40
0.5
  1
baldor
100
AcDbAttributeDefinition
  3

  2
COMPANY
 70
     8
280
     0
  0
LINE
  5
157
330
13D
100
AcDbEntity
  8
AM_9
100
AcDbLine
 10
-0.5049999999999999
 20
-0.7929999999999998
 30
0.0
 11
-0.5049999999999999
 21
-0.112
 31
0.0
  0
LINE
  5
158
330
13D
100
AcDbEntity
  8
AM_9
100
AcDbLine
 10
0.5049999999999999
 20
-0.7929999999999998
 30
0.0
 11
0.5049999999999999
 21
-0.112
 31
0.0
  0
LINE
  5
159
330
13D
100
AcDbEntity
  8
AM_9
100
AcDbLine
 10
1.4173
 20
-1.061
 30
0.0
 11
1.4173
 21
-0.112
 31
0.0
  0
LINE
  5
15A
330
13D
100
AcDbEntity
  8
AM_9
100
AcDbLine
 10
-1.4173
 20
-0.112
 30
0.0
 11
-1.4173
 21
-1.061
 31
0.0
  0
LINE
  5
15B
330
13D
100
AcDbEntity
  8
AM_9
100
AcDbLine
 10
0.5049999999999999
 20
-0.7929999999999998
 30
0.0
 11
-0.5049999999999999
 21
-0.7929999999999998
 31
0.0
  0
LINE
  5
15C
330
13D
100
AcDbEntity
  8
AM_9
100
AcDbLine
 10
-1.542299999999999
 20
-1.061
 30
0.0
 11
1.5423
 21
-1.061
 31
0.0
  0
LINE
  5
15D
330
13D
100
AcDbEntity
  8
AM_9
100
AcDbLine
 10
1.5423
 20
-1.22
 30
0.0
 11
1.5423
 21
-1.061
 31
0.0
  0
LINE
  5
15E
330
13D
100
AcDbEntity
  8
AM_9
100
AcDbLine
 10
-1.5423
 20
-1.061
 30
0.0
 11
-1.5423
 21
-1.22
 31
0.0
  0
LINE
  5
15F
330
13D
100
AcDbEntity
  8
AM_9
100
AcDbLine
 10
1.713331436852032
 20
-0.8332006325091749
 30
0.0
 11
1.713331436852032
 21
-0.7270346506389717
 31
0.0
  0
LWPOLYLINE
  5
160
330
13D
100
AcDbEntity
  8
AM_9
100
AcDbPolyline
 90
       10
 70
     0
 43
0.0
 10
1.631880159089167
 20
-1.164
 10
1.631344706665335
 20
-1.173010771522566
 10
1.629694058515832
 20
-1.182021543045133
 10
1.627075869331931
 20
-1.190274305868387
 10
1.623429594937334
 20
-1.198014176330724
 10
1.618989532615482
 20
-1.204723880634378
 10
1.61369930966811
 20
-1.210479162045343
 10
1.607776476340459
 20
-1.214979981548626
 10
1.601243632367418
 20
-1.2181473091356
 10
1.590739369009556
 20
-1.22
  0
LINE
  5
161
330
13D
100
AcDbEntity
  8
AM_9
100
AcDbLine
 10
1.583912049322696
 20
-0.5040000000000001
 30
0.0
 11
1.116435225143279
 21
-0.504
 31
0.0
  0
LINE
  5
162
330
13D
100
AcDbEntity
  8
AM_9
100
AcDbLine
 10
1.583912049322696
 20
-0.5040000000000001
 30
0.0
 11
1.583912049322696
 21
-0.1120000000000001
 31
0.0
  0
LINE
  5
163
330
13D
100
AcDbEntity
  8
AM_9
100
AcDbLine
 10
1.631880159089167
 20
-1.164
 30
0.0
 11
1.631880159089167
 21
-0.112
 31
0.0
  0
LINE
  5
164
330
13D
100
AcDbEntity
  8
AM_9
100
AcDbLine
 10
0.9233591643402457
 20
-1.164
 30
0.0
 11
1.746135477359138
 21
-1.164
 31
0.0
  0
LINE
  5
165
330
13D
100
AcDbEntity
  8
AM_9
100
AcDbLine
 10
0.7764970445374553
 20
-0.1119999999999999
 30
0.0
 11
0.7764970445374553
 21
0.0000000000000001
 31
0.0
  0
LINE
  5
166
330
13D
100
AcDbEntity
  8
AM_9
100
AcDbLine
 10
-0.7764970381931078
 20
-0.1119999999999999
 30
0.0
 11
-0.7764970381931078
 21
0.0000000000000001
 31
0.0
  0
LINE
  5
167
330
13D
100
AcDbEntity
  8
AM_9
100
AcDbLine
 10
-0.9951855458295694
 20
-0.1119999999999999
 30
0.0
 11
0.9951855458295699
 21
-0.1119999999999999
 31
0.0
  0
LINE
  5
168
330
13D
100
AcDbEntity
  8
AM_9
100
AcDbLine
 10
0.25
 20
-0.5599999999999999
 30
0.0
 11
0.25
 21
0.0000000000000002
 31
0.0
  0
LINE
  5
169
330
13D
100
AcDbEntity
  8
AM_9
100
AcDbLine
 10
-0.25
 20
0.0000000000000002
 30
0.0
 11
-0.25
 21
-0.5599999999999999
 31
0.0
  0
LINE
  5
16A
330
13D
100
AcDbEntity
  8
AM_7
100
AcDbLine
 10
0.0
 20
-1.8355
 30
0.0
 11
0.0
 21
0.061
 31
0.0
  0
LINE
  5
16B
330
13D
100
AcDbEntity
  8
AM_4
100
AcDbLine
 10
1.746135477359138
 20
-1.22
 30
0.0
 11
1.746135477359138
 21
-0.112
 31
0.0
  0
LINE
  5
16C
330
13D
100
AcDbEntity
  8
AM_4
100
AcDbLine
 10
1.819
 20
-1.22
 30
0.0
 11
-1.819
 21
-1.22
 31
0.0
  0
LINE
  5
16D
330
13D
100
AcDbEntity
  8
AM_4
100
AcDbLine
 10
1.713331436852032
 20
-0.7270346506389717
 30
0.0
 11
1.713331436852032
 21
-0.112
 31
0.0
  0
LINE
  5
16E
330
13D
100
AcDbEntity
  8
AM_4
100
AcDbLine
 10
1.713331436852032
 20
-1.22
 30
0.0
 11
1.713331436852032
 21
-0.8332006325091749
 31
0.0
  0
LINE
  5
16F
330
13D
100
AcDbEntity
  8
AM_4
100
AcDbLine
 10
1.163202361088898
 20
-1.22
 30
0.0
 11
1.163202361088898
 21
-0.112
 31
0.0
  0
LINE
  5
170
330
13D
100
AcDbEntity
  8
AM_4
100
AcDbLine
 10
1.004810442103111
 20
-1.22
 30
0.0
 11
1.004810442103111
 21
-0.5039999999999999
 31
0.0
  0
LWPOLYLINE
  5
171
330
13D
100
AcDbEntity
  8
AM_4
100
AcDbPolyline
 90
       11
 70
     0
 43
0.0
 10
0.8822183742606353
 20
-1.22
 10
0.885673501251019
 20
-1.219802605105368
 10
0.8926845757921653
 20
-1.218160942992826
 10
0.8995953631236594
 20
-1.214767174759905
 10
0.9057581195322092
 20
-1.209938842408246
 10
0.9114047746781755
 20
-1.203481502756861
 10
0.9158903872819847
 20
-1.196189841202064
 10
0.9195166389729588
 20
-1.187643542581921
 10
0.9218669374929039
 20
-1.17895387310104
 10
0.9231576052393707
 20
-1.16953975984356
 10
0.9233591643402457
 20
-1.164
  0
ARC
  5
172
330
13D
100
AcDbEntity
  8
AM_4
100
AcDbCircle
 10
1.819000000000001
 20
-1.164000000000001
 30
0.0
 40
0.0559999999999994
100
AcDbArc
 50
270.0
 51
0.0
  0
ARC
  5
173
330
13D
100
AcDbEntity
  8
AM_4
100
AcDbCircle
 10
-1.819000000000001
 20
-1.164000000000001
 30
0.0
 40
0.0559999999999992
100
AcDbArc
 50
180.0
 51
270.0
  0
LINE
  5
174
330
13D
100
AcDbEntity
  8
AM_4
100
AcDbLine
 10
-0.9951855458295694
 20
-0.1119999999999999
 30
0.0
 11
-1.874999999999997
 21
-0.112
 31
0.0
  0
LINE
  5
175
330
13D
100
AcDbEntity
  8
AM_4
100
AcDbLine
 10
1.746135477359138
 20
-1.164
 30
0.0
 11
1.875
 21
-1.164
 31
0.0
  0
LINE
  5
176
330
13D
100
AcDbEntity
  8
AM_4
100
AcDbLine
 10
0.9233591643402455
 20
-0.5039999999999999
 30
0.0
 11
0.9233591643402457
 21
-1.164
 31
0.0
  0
LINE
  5
177
330
13D
100
AcDbEntity
  8
AM_4
100
AcDbLine
 10
1.875
 20
-1.164
 30
0.0
 11
1.875
 21
-0.112
 31
0.0
  0
LINE
  5
178
330
13D
100
AcDbEntity
  8
AM_4
100
AcDbLine
 10
-1.874999999999997
 20
-0.112
 30
0.0
 11
-1.874999999999997
 21
-1.164
 31
0.0
  0
LINE
  5
179
330
13D
100
AcDbEntity
  8
AM_4
100
AcDbLine
 10
-1.874999999999997
 20
-1.164
 30
0.0
 11
0.9233591643402457
 21
-1.164
 31
0.0
  0
LINE
  5
17A
330
13D
100
AcDbEntity
  8
AM_4
100
AcDbLine
 10
1.012148878629269
 20
-0.1119999999999999
 30
0.0
 11
1.012148878629269
 21
0.0000000000000001
 31
0.0
  0
LINE
  5
17B
330
13D
100
AcDbEntity
  8
AM_4
100
AcDbLine
 10
1.012148878629269
 20
0.0000000000000001
 30
0.0
 11
-1.012148878629269
 21
0.0000000000000001
 31
0.0
  0
LINE
  5
17C
330
13D
100
AcDbEntity
  8
AM_4
100
AcDbLine
 10
-1.012148878629269
 20
0.0000000000000001
 30
0.0
 11
-1.012148878629269
 21
-0.1119999999999999
 31
0.0
  0
LINE
  5
17D
330
13D
100
AcDbEntity
  8
AM_4
100
AcDbLine
 10
0.7492505422092877
 20
-0.5599999999999999
 30
0.0
 11
0.7492505422092877
 21
-0.5039999999999999
 31
0.0
  0
LINE
  5
17E
330
13D
100
AcDbEntity
  8
AM_4
100
AcDbLine
 10
-0.7492505422092876
 20
-0.5039999999999999
 30
0.0
 11
-0.7492505422092876
 21
-0.5599999999999999
 31
0.0
  0
LINE
  5
17F
330
13D
100
AcDbEntity
  8
AM_4
100
AcDbLine
 10
0.4887584681022686
 20
-0.5039999999999999
 30
0.0
 11
0.4887584681022686
 21
-0.5599999999999999
 31
0.0
  0
LINE
  5
180
330
13D
100
AcDbEntity
  8
AM_4
100
AcDbLine
 10
-0.4887584681022686
 20
-0.5039999999999999
 30
0.0
 11
-0.4887584681022686
 21
-0.5599999999999999
 31
0.0
  0
LINE
  5
181
330
13D
100
AcDbEntity
  8
AM_4
100
AcDbLine
 10
1.875
 20
-0.112
 30
0.0
 11
0.9951855458295699
 21
-0.1119999999999999
 31
0.0
  0
LINE
  5
182
330
13D
100
AcDbEntity
  8
AM_4
100
AcDbLine
 10
0.9951855458295699
 20
-0.1119999999999999
 30
0.0
 11
0.9951855458295701
 21
0.0000000000000001
 31
0.0
  0
LINE
  5
183
330
13D
100
AcDbEntity
  8
AM_4
100
AcDbLine
 10
0.4436162611235311
 20
-0.5039999999999998
 30
0.0
 11
0.4436162611235326
 21
-0.5599999999999998
 31
0.0
  0
LINE
  5
184
330
13D
100
AcDbEntity
  8
AM_4
100
AcDbLine
 10
1.116435225143279
 20
-0.5039999999999999
 30
0.0
 11
0.4436162611235311
 21
-0.5039999999999998
 31
0.0
  0
LINE
  5
185
330
13D
100
AcDbEntity
  8
AM_4
100
AcDbLine
 10
1.116435225143279
 20
-0.112
 30
0.0
 11
1.116435225143279
 21
-0.5039999999999999
 31
0.0
  0
LINE
  5
186
330
13D
100
AcDbEntity
  8
AM_4
100
AcDbLine
 10
0.7492505422092877
 20
-0.5599999999999999
 30
0.0
 11
-0.7492505422092876
 21
-0.5599999999999999
 31
0.0
  0
LINE
  5
187
330
13D
100
AcDbEntity
  8
AM_4
100
AcDbLine
 10
-0.9951855458295695
 20
0.0000000000000001
 30
0.0
 11
-0.9951855458295694
 21
-0.1119999999999999
 31
0.0
  0
LINE
  5
188
330
13D
100
AcDbEntity
  8
AM_4
100
AcDbLine
 10
-1.583912049322696
 20
-0.5039999999999999
 30
0.0
 11
-1.583912049322694
 21
-0.1119999999999999
 31
0.0
  0
LINE
  5
189
330
13D
100
AcDbEntity
  8
AM_4
100
AcDbLine
 10
-0.4436162611235308
 20
-0.5039999999999998
 30
0.0
 11
-1.583912049322696
 21
-0.5039999999999999
 31
0.0
  0
LINE
  5
18A
330
13D
100
AcDbEntity
  8
AM_4
100
AcDbLine
 10
-0.4436162611235312
 20
-0.5599999999999998
 30
0.0
 11
-0.4436162611235308
 21
-0.5039999999999998
 31
0.0
  0
LINE
  5
18B
330
13D
100
AcDbEntity
  8
AM_4
100
AcDbLine
 10
-0.4266003119509129
 20
-0.5599999999999998
 30
0.0
 11
-0.4266003119509129
 21
0.0000000000000002
 31
0.0
  0
LINE
  5
18C
330
13D
100
AcDbEntity
  8
AM_4
100
AcDbLine
 10
0.4266003119509127
 20
-0.5599999999999998
 30
0.0
 11
0.4266003119509127
 21
0.0000000000000002
 31
0.0
  0
ENDBLK
  5
140
330
13D
100
AcDbEntity
  8
0
100
AcDbBlockEnd
  0
ENDSEC
  0
SECTION
  2
ENTITIES
  0
INSERT
  5
6F
330
1F
100
AcDbEntity
  8
0
100
AcDbBlockReference
  2
1_123613_4
 10
0.0
 20
0.0
 30
0.0
  0
POINT
  5
18E
330
1F
100
AcDbEntity
  8
ConnectionPoints
100
AcDbPoint
 10
0.0
 20
-1.75
 30
0.0000000000000002
  0
POINT
  5
18F
330
1F
100
AcDbEntity
  8
ConnectionPoints
100
AcDbPoint
 10
1.415897717996192
 20
-0.7799999999999999
 30
1.415897717996192
  0
POINT
  5
190
330
1F
100
AcDbEntity
  8
ConnectionPoints
100
AcDbPoint
 10
0.0
 20
-1.75
 30
0.0000000000000001
  0
ENDSEC
  0
SECTION
  2
OBJECTS
  0
DICTIONARY
  5
C
330
0
100
AcDbDictionary
281
     1
  3
ACAD_DETAILVIEWSTYLE
350
198
  3
ACAD_GROUP
350
D
  3
ACAD_LAYOUT
350
1A
  3
ACAD_MATERIAL
350
43
  3
ACAD_MLEADERSTYLE
350
6B
  3
ACAD_MLINESTYLE
350
17
  3
ACAD_PLOTSETTINGS
350
19
  3
ACAD_PLOTSTYLENAME
350
E
  3
ACAD_SCALELIST
350
47
  3
ACAD_SECTIONVIEWSTYLE
350
199
  3
ACAD_TABLESTYLE
350
69
  3
ACAD_VISUALSTYLE
350
2A
  3
ACDB_RECOMPOSE_DATA
350
195
  3
AcDbVariableDictionary
350
191
  0
SUN
  5
6D
330
29
100
AcDbSun
 90
        1
290
     0
 63
     7
421
 16777215
 40
1.0
291
     1
 91
  2455826
 92
 54000000
292
     0
 70
     2
 71
   256
280
     1
  0
DICTIONARY
  5
198
102
{ACAD_REACTORS
330
C
102
}
330
C
100
AcDbDictionary
281
     1
  0
DICTIONARY
  5
D
102
{ACAD_REACTORS
330
C
102
}
330
C
100
AcDbDictionary
281
     1
  0
DICTIONARY
  5
1A
102
{ACAD_REACTORS
330
C
102
}
330
C
100
AcDbDictionary
281
     1
  3
Layout1
350
1E
  3
Layout2
350
26
  3
Model
350
22
  0
DICTIONARY
  5
43
102
{ACAD_REACTORS
330
C
102
}
330
C
100
AcDbDictionary
281
     1
  3
ByBlock
350
45
  3
ByLayer
350
44
  3
Global
350
46
  0
DICTIONARY
  5
6B
102
{ACAD_REACTORS
330
C
102
}
330
C
100
AcDbDictionary
281
     1
  3
Standard
350
6C
  0
DICTIONARY
  5
17
102
{ACAD_REACTORS
330
C
102
}
330
C
100
AcDbDictionary
281
     1
  3
Standard
350
18
  0
DICTIONARY
  5
19
102
{ACAD_REACTORS
330
C
102
}
330
C
100
AcDbDictionary
281
     1
  0
ACDBDICTIONARYWDFLT
  5
E
102
{ACAD_REACTORS
330
C
102
}
330
C
100
AcDbDictionary
281
     1
  3
Normal
350
F
100
AcDbDictionaryWithDefault
340
F
  0
DICTIONARY
  5
47
102
{ACAD_REACTORS
330
C
102
}
330
C
100
AcDbDictionary
281
     1
  3
A0
350
48
  3
A1
350
49
  3
A2
350
4A
  3
A3
350
4B
  3
A4
350
4C
  3
A5
350
4D
  3
A6
350
4E
  3
A7
350
4F
  3
A8
350
50
  3
A9
350
51
  3
B0
350
52
  3
B1
350
53
  3
B2
350
54
  3
B3
350
55
  3
B4
350
56
  3
B5
350
57
  3
B6
350
58
  3
B7
350
59
  3
B8
350
5A
  3
B9
350
5B
  3
C0
350
5C
  3
C1
350
5D
  3
C2
350
5E
  3
C3
350
5F
  3
C4
350
60
  3
C5
350
61
  3
C6
350
62
  3
C7
350
63
  3
C8
350
64
  3
C9
350
65
  3
D0
350
66
  3
D1
350
67
  3
D2
350
68
  0
DICTIONARY
  5
199
102
{ACAD_REACTORS
330
C
102
}
330
C
100
AcDbDictionary
281
     1
  0
DICTIONARY
  5
69
102
{ACAD_REACTORS
330
C
102
}
330
C
100
AcDbDictionary
281
     1
  3
Standard
350
6A
  0
DICTIONARY
  5
2A
102
{ACAD_REACTORS
330
C
102
}
330
C
100
AcDbDictionary
281
     1
  3
2dWireframe
350
2F
  3
Basic
350
32
  3
Brighten
350
36
  3
ColorChange
350
3A
  3
Conceptual
350
34
  3
Dim
350
35
  3
EdgeColorOff
350
3D
  3
Facepattern
350
39
  3
Flat
350
2B
  3
FlatWithEdges
350
2C
  3
Gouraud
350
2D
  3
GouraudWithEdges
350
2E
  3
Hidden
350
31
  3
JitterOff
350
3B
  3
Linepattern
350
38
  3
OverhangOff
350
3C
  3
Realistic
350
33
  3
Shaded
350
42
  3
Shaded with edges
350
41
  3
Shades of Gray
350
3E
  3
Sketchy
350
3F
  3
Thicken
350
37
  3
Wireframe
350
30
  3
X-Ray
350
40
  0
XRECORD
  5
195
102
{ACAD_REACTORS
330
C
102
}
330
C
100
AcDbXrecord
280
     1
 90
        1
330
6A
  0
DICTIONARY
  5
191
102
{ACAD_REACTORS
330
C
102
}
330
C
100
AcDbDictionary
281
     1
  3
CANNOSCALE
350
192
  3
CMLEADERSTYLE
350
197
  3
CTABLESTYLE
350
196
  0
LAYOUT
  5
1E
102
{ACAD_REACTORS
330
1A
102
}
330
1A
100
AcDbPlotSettings
  1

  2
none_device
  4

  6

 40
0.0
 41
0.0
 42
0.0
 43
0.0
 44
0.0
 45
0.0
 46
0.0
 47
0.0
 48
0.0
 49
0.0
140
0.0
141
0.0
142
1.0
143
1.0
 70
   688
 72
     0
 73
     0
 74
     5
  7

 75
    16
 76
     0
 77
     2
 78
   300
147
1.0
148
0.0
149
0.0
100
AcDbLayout
  1
Layout1
 70
     1
 71
     1
 10
0.0
 20
0.0
 11
12.0
 21
9.0
 12
0.0
 22
0.0
 32
0.0
 14
1.000000000000000E+20
 24
1.000000000000000E+20
 34
1.000000000000000E+20
 15
-1.000000000000000E+20
 25
-1.000000000000000E+20
 35
-1.000000000000000E+20
146
0.0
 13
0.0
 23
0.0
 33
0.0
 16
1.0
 26
0.0
 36
0.0
 17
0.0
 27
1.0
 37
0.0
 76
     0
330
1B
  0
LAYOUT
  5
26
102
{ACAD_REACTORS
330
1A
102
}
330
1A
100
AcDbPlotSettings
  1

  2
none_device
  4

  6

 40
0.0
 41
0.0
 42
0.0
 43
0.0
 44
0.0
 45
0.0
 46
0.0
 47
0.0
 48
0.0
 49
0.0
140
0.0
141
0.0
142
1.0
143
1.0
 70
   688
 72
     0
 73
     0
 74
     5
  7

 75
    16
 76
     0
 77
     2
 78
   300
147
1.0
148
0.0
149
0.0
100
AcDbLayout
  1
Layout2
 70
     1
 71
     2
 10
0.0
 20
0.0
 11
0.0
 21
0.0
 12
0.0
 22
0.0
 32
0.0
 14
0.0
 24
0.0
 34
0.0
 15
0.0
 25
0.0
 35
0.0
146
0.0
 13
0.0
 23
0.0
 33
0.0
 16
1.0
 26
0.0
 36
0.0
 17
0.0
 27
1.0
 37
0.0
 76
     0
330
23
  0
LAYOUT
  5
22
102
{ACAD_REACTORS
330
1A
102
}
330
1A
100
AcDbPlotSettings
  1

  2
none_device
  4
Letter_(8.50_x_11.00_Inches)
  6

 40
6.35
 41
6.35
 42
6.35000508
 43
6.35000508
 44
215.9
 45
279.4
 46
0.0
 47
0.0
 48
0.0
 49
0.0
140
0.0
141
0.0
142
1.0
143
1.0
 70
  1712
 72
     0
 73
     0
 74
     0
  7

 75
     0
 76
     0
 77
     2
 78
   300
147
1.0
148
0.0
149
0.0
100
AcDbLayout
  1
Model
 70
     1
 71
     0
 10
0.0
 20
0.0
 11
12.0
 21
9.0
 12
0.0
 22
0.0
 32
0.0
 14
1.000000000000000E+20
 24
1.000000000000000E+20
 34
1.000000000000000E+20
 15
-1.000000000000000E+20
 25
-1.000000000000000E+20
 35
-1.000000000000000E+20
146
0.0
 13
0.0
 23
0.0
 33
0.0
 16
1.0
 26
0.0
 36
0.0
 17
0.0
 27
1.0
 37
0.0
 76
     0
330
1F
331
29
  0
MATERIAL
  5
45
102
{ACAD_REACTORS
330
43
102
}
330
43
100
AcDbMaterial
  1
ByBlock
 72
     1
 94
      127
  0
MATERIAL
  5
44
102
{ACAD_REACTORS
330
43
102
}
330
43
100
AcDbMaterial
  1
ByLayer
 72
     1
 94
      127
  0
MATERIAL
  5
46
102
{ACAD_REACTORS
330
43
102
}
330
43
100
AcDbMaterial
  1
Global
 72
     1
 94
      127
  0
MLEADERSTYLE
  5
6C
102
{ACAD_REACTORS
330
6B
102
}
330
6B
100
AcDbMLeaderStyle
179
     2
170
     2
171
     1
172
     0
 90
        2
 40
0.0
 41
0.0
173
     1
 91
-1056964608
340
14
 92
       -2
290
     1
 42
0.09
291
     1
 43
0.36
  3
Standard
341
0
 44
0.18
300

342
11
174
     1
178
     6
175
     1
176
     0
 93
-1056964608
 45
0.18
292
     0
297
     0
 46
0.18
343
0
 94
-1056964608
 47
1.0
 49
1.0
140
1.0
293
     1
141
0.0
294
     1
177
     0
142
1.0
295
     0
296
     0
143
0.125
271
     0
272
     9
273
     9
298
     0
  0
MLINESTYLE
  5
18
102
{ACAD_REACTORS
330
17
102
}
330
17
100
AcDbMlineStyle
  2
Standard
 70
     0
  3

 62
   256
 51
90.0
 52
90.0
 71
     2
 49
0.5
 62
   256
  6
BYLAYER
 49
-0.5
 62
   256
  6
BYLAYER
  0
ACDBPLACEHOLDER
  5
F
102
{ACAD_REACTORS
330
E
102
}
330
E
  0
SCALE
  5
48
102
{ACAD_REACTORS
330
47
102
}
330
47
100
AcDbScale
 70
     0
300
1:1
140
1.0
141
1.0
290
     1
  0
SCALE
  5
49
102
{ACAD_REACTORS
330
47
102
}
330
47
100
AcDbScale
 70
     0
300
1:2
140
1.0
141
2.0
290
     0
  0
SCALE
  5
4A
102
{ACAD_REACTORS
330
47
102
}
330
47
100
AcDbScale
 70
     0
300
1:4
140
1.0
141
4.0
290
     0
  0
SCALE
  5
4B
102
{ACAD_REACTORS
330
47
102
}
330
47
100
AcDbScale
 70
     0
300
1:5
140
1.0
141
5.0
290
     0
  0
SCALE
  5
4C
102
{ACAD_REACTORS
330
47
102
}
330
47
100
AcDbScale
 70
     0
300
1:8
140
1.0
141
8.0
290
     0
  0
SCALE
  5
4D
102
{ACAD_REACTORS
330
47
102
}
330
47
100
AcDbScale
 70
     0
300
1:10
140
1.0
141
10.0
290
     0
  0
SCALE
  5
4E
102
{ACAD_REACTORS
330
47
102
}
330
47
100
AcDbScale
 70
     0
300
1:16
140
1.0
141
16.0
290
     0
  0
SCALE
  5
4F
102
{ACAD_REACTORS
330
47
102
}
330
47
100
AcDbScale
 70
     0
300
1:20
140
1.0
141
20.0
290
     0
  0
SCALE
  5
50
102
{ACAD_REACTORS
330
47
102
}
330
47
100
AcDbScale
 70
     0
300
1:30
140
1.0
141
30.0
290
     0
  0
SCALE
  5
51
102
{ACAD_REACTORS
330
47
102
}
330
47
100
AcDbScale
 70
     0
300
1:40
140
1.0
141
40.0
290
     0
  0
SCALE
  5
52
102
{ACAD_REACTORS
330
47
102
}
330
47
100
AcDbScale
 70
     0
300
1:50
140
1.0
141
50.0
290
     0
  0
SCALE
  5
53
102
{ACAD_REACTORS
330
47
102
}
330
47
100
AcDbScale
 70
     0
300
1:100
140
1.0
141
100.0
290
     0
  0
SCALE
  5
54
102
{ACAD_REACTORS
330
47
102
}
330
47
100
AcDbScale
 70
     0
300
2:1
140
2.0
141
1.0
290
     0
  0
SCALE
  5
55
102
{ACAD_REACTORS
330
47
102
}
330
47
100
AcDbScale
 70
     0
300
4:1
140
4.0
141
1.0
290
     0
  0
SCALE
  5
56
102
{ACAD_REACTORS
330
47
102
}
330
47
100
AcDbScale
 70
     0
300
8:1
140
8.0
141
1.0
290
     0
  0
SCALE
  5
57
102
{ACAD_REACTORS
330
47
102
}
330
47
100
AcDbScale
 70
     0
300
10:1
140
10.0
141
1.0
290
     0
  0
SCALE
  5
58
102
{ACAD_REACTORS
330
47
102
}
330
47
100
AcDbScale
 70
     0
300
100:1
140
100.0
141
1.0
290
     0
  0
SCALE
  5
59
102
{ACAD_REACTORS
330
47
102
}
330
47
100
AcDbScale
 70
     0
300
1/128" = 1'-0"
140
0.0078125
141
12.0
290
     0
  0
SCALE
  5
5A
102
{ACAD_REACTORS
330
47
102
}
330
47
100
AcDbScale
 70
     0
300
1/64" = 1'-0"
140
0.015625
141
12.0
290
     0
  0
SCALE
  5
5B
102
{ACAD_REACTORS
330
47
102
}
330
47
100
AcDbScale
 70
     0
300
1/32" = 1'-0"
140
0.03125
141
12.0
290
     0
  0
SCALE
  5
5C
102
{ACAD_REACTORS
330
47
102
}
330
47
100
AcDbScale
 70
     0
300
1/16" = 1'-0"
140
0.0625
141
12.0
290
     0
  0
SCALE
  5
5D
102
{ACAD_REACTORS
330
47
102
}
330
47
100
AcDbScale
 70
     0
300
3/32" = 1'-0"
140
0.09375
141
12.0
290
     0
  0
SCALE
  5
5E
102
{ACAD_REACTORS
330
47
102
}
330
47
100
AcDbScale
 70
     0
300
1/8" = 1'-0"
140
0.125
141
12.0
290
     0
  0
SCALE
  5
5F
102
{ACAD_REACTORS
330
47
102
}
330
47
100
AcDbScale
 70
     0
300
3/16" = 1'-0"
140
0.1875
141
12.0
290
     0
  0
SCALE
  5
60
102
{ACAD_REACTORS
330
47
102
}
330
47
100
AcDbScale
 70
     0
300
1/4" = 1'-0"
140
0.25
141
12.0
290
     0
  0
SCALE
  5
61
102
{ACAD_REACTORS
330
47
102
}
330
47
100
AcDbScale
 70
     0
300
3/8" = 1'-0"
140
0.375
141
12.0
290
     0
  0
SCALE
  5
62
102
{ACAD_REACTORS
330
47
102
}
330
47
100
AcDbScale
 70
     0
300
1/2" = 1'-0"
140
0.5
141
12.0
290
     0
  0
SCALE
  5
63
102
{ACAD_REACTORS
330
47
102
}
330
47
100
AcDbScale
 70
     0
300
3/4" = 1'-0"
140
0.75
141
12.0
290
     0
  0
SCALE
  5
64
102
{ACAD_REACTORS
330
47
102
}
330
47
100
AcDbScale
 70
     0
300
1" = 1'-0"
140
1.0
141
12.0
290
     0
  0
SCALE
  5
65
102
{ACAD_REACTORS
330
47
102
}
330
47
100
AcDbScale
 70
     0
300
1-1/2" = 1'-0"
140
1.5
141
12.0
290
     0
  0
SCALE
  5
66
102
{ACAD_REACTORS
330
47
102
}
330
47
100
AcDbScale
 70
     0
300
3" = 1'-0"
140
3.0
141
12.0
290
     0
  0
SCALE
  5
67
102
{ACAD_REACTORS
330
47
102
}
330
47
100
AcDbScale
 70
     0
300
6" = 1'-0"
140
6.0
141
12.0
290
     0
  0
SCALE
  5
68
102
{ACAD_REACTORS
330
47
102
}
330
47
100
AcDbScale
 70
     0
300
1'-0" = 1'-0"
140
12.0
141
12.0
290
     0
  0
TABLESTYLE
  5
6A
102
{ACAD_REACTORS
330
69
102
}
102
{ACAD_XDICTIONARY
360
193
102
}
330
69
100
AcDbTableStyle
  3
Standard
 70
     0
 71
     0
 40
0.06
 41
0.06
280
     0
281
     0
  7
Standard
140
0.18
170
     2
 62
     0
 63
   257
283
     0
 90
        4
 91
        0
  1

274
    -2
284
     1
 64
     0
275
    -2
285
     1
 65
     0
276
    -2
286
     1
 66
     0
277
    -2
287
     1
 67
     0
278
    -2
288
     1
 68
     0
279
    -2
289
     1
 69
     0
  7
Standard
140
0.25
170
     5
 62
     0
 63
   257
283
     0
 90
        4
 91
        0
  1

274
    -2
284
     1
 64
     0
275
    -2
285
     1
 65
     0
276
    -2
286
     1
 66
     0
277
    -2
287
     1
 67
     0
278
    -2
288
     1
 68
     0
279
    -2
289
     1
 69
     0
  7
Standard
140
0.18
170
     5
 62
     0
 63
   257
283
     0
 90
        4
 91
        0
  1

274
    -2
284
     1
 64
     0
275
    -2
285
     1
 65
     0
276
    -2
286
     1
 66
     0
277
    -2
287
     1
 67
     0
278
    -2
288
     1
 68
     0
279
    -2
289
     1
 69
     0
  0
VISUALSTYLE
  5
2F
102
{ACAD_REACTORS
330
2A
102
}
330
2A
100
AcDbVisualStyle
  2
2dWireframe
 70
     4
177
     3
291
     0
 70
    58
 90
        0
176
     1
 90
        2
176
     1
 90
        0
176
     1
 90
        0
176
     1
 40
0.6
176
     1
 40
30.0
176
     1
 62
     7
420
 16777215
176
     1
 90
        1
176
     1
 90
        4
176
     1
 62
     7
176
     1
 62
   257
176
     1
 90
        1
176
     1
 90
        1
176
     1
 40
1.0
176
     1
 90
        0
176
     1
 62
   257
176
     1
 40
1.0
176
     1
 90
        1
176
     1
 90
        6
176
     1
 90
        2
176
     1
 62
     7
176
     1
 90
        5
176
     1
 90
        0
176
     1
 90
        0
176
     1
290
     0
176
     1
 90
        1
176
     1
 40
0.0
176
     1
 90
        0
176
     1
290
     1
176
     1
290
     1
176
     1
290
     0
176
     1
290
     0
176
     1
290
     0
176
     1
290
     0
176
     1
290
     0
176
     1
290
     0
176
     1
290
     0
176
     1
 90
       50
176
     1
 40
0.0
176
     1
 40
1.0
176
     1
 90
        0
176
     1
 62
    18
420
        0
176
     1
 90
       50
176
     1
 90
        3
176
     1
 62
     5
420
      255
176
     1
290
     0
176
     1
 90
       50
176
     1
 90
       50
176
     1
 90
       50
176
     1
290
     0
176
     1
 90
       50
176
     1
 62
   256
176
     0
 40
1.0
176
     0
 90
        2
176
     1
  1
strokes_ogs.tif
176
     1
290
     0
176
     1
 40
1.0
176
     1
 40
1.0
176
     1
  0
VISUALSTYLE
  5
32
102
{ACAD_REACTORS
330
2A
102
}
330
2A
100
AcDbVisualStyle
  2
Basic
 70
     7
177
     3
291
     1
 70
    58
 90
        1
176
     1
 90
        0
176
     1
 90
        1
176
     1
 90
        0
176
     1
 40
0.6
176
     1
 40
30.0
176
     1
 62
     7
420
 16777215
176
     1
 90
        0
176
     1
 90
        4
176
     1
 62
     7
176
     1
 62
   257
176
     1
 90
        1
176
     1
 90
        1
176
     1
 40
1.0
176
     1
 90
        8
176
     1
 62
     7
176
     1
 40
1.0
176
     1
 90
        1
176
     1
 90
        6
176
     1
 90
        2
176
     1
 62
     7
176
     1
 90
        5
176
     1
 90
        0
176
     1
 90
        0
176
     1
290
     0
176
     1
 90
        1
176
     1
 40
0.0
176
     1
 90
        0
176
     1
290
     0
176
     1
290
     1
176
     1
290
     1
176
     1
290
     0
176
     1
290
     0
176
     1
290
     0
176
     1
290
     0
176
     1
290
     0
176
     1
290
     0
176
     1
 90
       50
176
     1
 40
0.0
176
     1
 40
1.0
176
     1
 90
        0
176
     1
 62
    18
420
        0
176
     1
 90
       50
176
     1
 90
        3
176
     1
 62
     5
420
      255
176
     1
290
     0
176
     1
 90
       50
176
     1
 90
       50
176
     1
 90
       50
176
     1
290
     0
176
     1
 90
       50
176
     1
 62
   256
176
     0
 40
1.0
176
     0
 90
        2
176
     1
  1
strokes_ogs.tif
176
     1
290
     0
176
     1
 40
1.0
176
     1
 40
1.0
176
     1
  0
VISUALSTYLE
  5
36
102
{ACAD_REACTORS
330
2A
102
}
330
2A
100
AcDbVisualStyle
  2
Brighten
 70
    12
177
     3
291
     1
 70
    58
 90
        2
176
     1
 90
        2
176
     1
 90
        0
176
     1
 90
        0
176
     1
 40
0.6
176
     1
 40
30.0
176
     1
 62
     7
420
 16777215
176
     1
 90
        1
176
     1
 90
        4
176
     1
 62
     7
176
     1
 62
   257
176
     1
 90
        1
176
     1
 90
        1
176
     1
 40
1.0
176
     1
 90
        8
176
     1
 62
     7
176
     1
 40
1.0
176
     1
 90
        1
176
     1
 90
        6
176
     1
 90
        2
176
     1
 62
     7
176
     1
 90
        5
176
     1
 90
        0
176
     1
 90
        0
176
     1
290
     0
176
     1
 90
        1
176
     1
 40
50.0
176
     1
 90
        0
176
     1
290
     0
176
     1
290
     1
176
     1
290
     1
176
     1
290
     0
176
     1
290
     0
176
     1
290
     0
176
     1
290
     0
176
     1
290
     0
176
     1
290
     0
176
     1
 90
       50
176
     1
 40
0.0
176
     1
 40
1.0
176
     1
 90
        0
176
     1
 62
    18
420
        0
176
     1
 90
       50
176
     1
 90
        3
176
     1
 62
     5
420
      255
176
     1
290
     0
176
     1
 90
       50
176
     1
 90
       50
176
     1
 90
       50
176
     1
290
     0
176
     1
 90
       50
176
     1
 62
   256
176
     0
 40
1.0
176
     0
 90
        2
176
     1
  1
strokes_ogs.tif
176
     1
290
     0
176
     1
 40
1.0
176
     1
 40
1.0
176
     1
  0
VISUALSTYLE
  5
3A
102
{ACAD_REACTORS
330
2A
102
}
330
2A
100
AcDbVisualStyle
  2
ColorChange
 70
    16
177
     3
291
     1
 70
    58
 90
        2
176
     1
 90
        2
176
     1
 90
        3
176
     1
 90
        0
176
     1
 40
0.6
176
     1
 40
30.0
176
     1
 62
     8
420
  8421504
176
     1
 90
        1
176
     1
 90
        4
176
     1
 62
     7
176
     1
 62
   257
176
     1
 90
        1
176
     1
 90
        1
176
     1
 40
1.0
176
     1
 90
        8
176
     1
 62
     8
420
  8421504
176
     1
 40
1.0
176
     1
 90
        1
176
     1
 90
        6
176
     1
 90
        2
176
     1
 62
     7
176
     1
 90
        5
176
     1
 90
        0
176
     1
 90
        0
176
     1
290
     0
176
     1
 90
        1
176
     1
 40
0.0
176
     1
 90
        0
176
     1
290
     0
176
     1
290
     1
176
     1
290
     1
176
     1
290
     0
176
     1
290
     0
176
     1
290
     0
176
     1
290
     0
176
     1
290
     0
176
     1
290
     0
176
     1
 90
       50
176
     1
 40
0.0
176
     1
 40
1.0
176
     1
 90
        0
176
     1
 62
    18
420
        0
176
     1
 90
       50
176
     1
 90
        3
176
     1
 62
     5
420
      255
176
     1
290
     0
176
     1
 90
       50
176
     1
 90
       50
176
     1
 90
       50
176
     1
290
     0
176
     1
 90
       50
176
     1
 62
   256
176
     0
 40
1.0
176
     0
 90
        2
176
     1
  1
strokes_ogs.tif
176
     1
290
     0
176
     1
 40
1.0
176
     1
 40
1.0
176
     1
  0
VISUALSTYLE
  5
34
102
{ACAD_REACTORS
330
2A
102
}
330
2A
100
AcDbVisualStyle
  2
Conceptual
 70
     9
177
     3
291
     0
 70
    58
 90
        3
176
     1
 90
        2
176
     1
 90
        0
176
     1
 90
        0
176
     1
 40
0.6
176
     1
 40
30.0
176
     1
 62
     7
420
 16777215
176
     1
 90
        2
176
     1
 90
        2
176
     1
 62
     7
176
     1
 62
   257
176
     1
 90
        1
176
     1
 90
        1
176
     1
 40
179.0
176
     1
 90
        8
176
     1
 62
     7
176
     1
 40
1.0
176
     1
 90
        1
176
     1
 90
        6
176
     1
 90
        2
176
     1
 62
     7
176
     1
 90
        3
176
     1
 90
        0
176
     1
 90
        0
176
     1
290
     0
176
     1
 90
        1
176
     1
 40
0.0
176
     1
 90
        0
176
     1
290
     0
176
     1
290
     1
176
     1
290
     1
176
     1
290
     0
176
     1
290
     0
176
     1
290
     0
176
     1
290
     0
176
     1
290
     0
176
     1
290
     0
176
     1
 90
       50
176
     1
 40
0.0
176
     1
 40
1.0
176
     1
 90
        0
176
     1
 62
    18
420
        0
176
     1
 90
       50
176
     1
 90
        3
176
     1
 62
     5
420
      255
176
     1
290
     0
176
     1
 90
       50
176
     1
 90
       50
176
     1
 90
       50
176
     1
290
     0
176
     1
 90
       50
176
     1
 62
   256
176
     0
 40
1.0
176
     0
 90
        2
176
     1
  1
strokes_ogs.tif
176
     1
290
     0
176
     1
 40
1.0
176
     1
 40
1.0
176
     1
  0
VISUALSTYLE
  5
35
102
{ACAD_REACTORS
330
2A
102
}
330
2A
100
AcDbVisualStyle
  2
Dim
 70
    11
177
     3
291
     1
 70
    58
 90
        2
176
     1
 90
        2
176
     1
 90
        0
176
     1
 90
        0
176
     1
 40
0.6
176
     1
 40
30.0
176
     1
 62
     7
420
 16777215
176
     1
 90
        1
176
     1
 90
        4
176
     1
 62
     7
176
     1
 62
   257
176
     1
 90
        1
176
     1
 90
        1
176
     1
 40
1.0
176
     1
 90
        8
176
     1
 62
     7
176
     1
 40
1.0
176
     1
 90
        1
176
     1
 90
        6
176
     1
 90
        2
176
     1
 62
     7
176
     1
 90
        5
176
     1
 90
        0
176
     1
 90
        0
176
     1
290
     0
176
     1
 90
        1
176
     1
 40
-50.0
176
     1
 90
        0
176
     1
290
     0
176
     1
290
     1
176
     1
290
     1
176
     1
290
     0
176
     1
290
     0
176
     1
290
     0
176
     1
290
     0
176
     1
290
     0
176
     1
290
     0
176
     1
 90
       50
176
     1
 40
0.0
176
     1
 40
1.0
176
     1
 90
        0
176
     1
 62
    18
420
        0
176
     1
 90
       50
176
     1
 90
        3
176
     1
 62
     5
420
      255
176
     1
290
     0
176
     1
 90
       50
176
     1
 90
       50
176
     1
 90
       50
176
     1
290
     0
176
     1
 90
       50
176
     1
 62
   256
176
     0
 40
1.0
176
     0
 90
        2
176
     1
  1
strokes_ogs.tif
176
     1
290
     0
176
     1
 40
1.0
176
     1
 40
1.0
176
     1
  0
VISUALSTYLE
  5
3D
102
{ACAD_REACTORS
330
2A
102
}
330
2A
100
AcDbVisualStyle
  2
EdgeColorOff
 70
    22
177
     3
291
     1
 70
    58
 90
        2
176
     0
 90
        2
176
     0
 90
        0
176
     0
 90
        0
176
     0
 40
0.6
176
     0
 40
30.0
176
     0
 62
     7
420
 16777215
176
     0
 90
        1
176
     0
 90
        4
176
     0
 62
     7
176
     0
 62
   257
176
     0
 90
        1
176
     0
 90
        1
176
     0
 40
1.0
176
     0
 90
        8
176
     2
 62
     7
176
     0
 40
1.0
176
     0
 90
        1
176
     0
 90
        6
176
     0
 90
        2
176
     0
 62
     7
176
     0
 90
        5
176
     0
 90
        0
176
     0
 90
        0
176
     0
290
     0
176
     0
 90
        1
176
     0
 40
0.0
176
     0
 90
        0
176
     0
290
     0
176
     0
290
     1
176
     0
290
     1
176
     0
290
     0
176
     0
290
     0
176
     0
290
     0
176
     0
290
     0
176
     0
290
     0
176
     0
290
     0
176
     0
 90
       50
176
     0
 40
0.0
176
     0
 40
1.0
176
     0
 90
        0
176
     0
 62
    18
420
        0
176
     0
 90
       50
176
     0
 90
        3
176
     0
 62
     5
420
      255
176
     0
290
     0
176
     0
 90
       50
176
     0
 90
       50
176
     0
 90
       50
176
     0
290
     0
176
     0
 90
       50
176
     0
 62
   256
176
     0
 40
1.0
176
     0
 90
        2
176
     0
  1
strokes_ogs.tif
176
     0
290
     0
176
     0
 40
1.0
176
     0
 40
1.0
176
     0
  0
VISUALSTYLE
  5
39
102
{ACAD_REACTORS
330
2A
102
}
330
2A
100
AcDbVisualStyle
  2
Facepattern
 70
    15
177
     3
291
     1
 70
    58
 90
        2
176
     1
 90
        2
176
     1
 90
        0
176
     1
 90
        0
176
     1
 40
0.6
176
     1
 40
30.0
176
     1
 62
     7
420
 16777215
176
     1
 90
        1
176
     1
 90
        4
176
     1
 62
     7
176
     1
 62
   257
176
     1
 90
        1
176
     1
 90
        1
176
     1
 40
1.0
176
     1
 90
        8
176
     1
 62
     7
176
     1
 40
1.0
176
     1
 90
        1
176
     1
 90
        6
176
     1
 90
        2
176
     1
 62
     7
176
     1
 90
        5
176
     1
 90
        0
176
     1
 90
        0
176
     1
290
     0
176
     1
 90
        1
176
     1
 40
0.0
176
     1
 90
        0
176
     1
290
     0
176
     1
290
     1
176
     1
290
     1
176
     1
290
     0
176
     1
290
     0
176
     1
290
     0
176
     1
290
     0
176
     1
290
     0
176
     1
290
     0
176
     1
 90
       50
176
     1
 40
0.0
176
     1
 40
1.0
176
     1
 90
        0
176
     1
 62
    18
420
        0
176
     1
 90
       50
176
     1
 90
        3
176
     1
 62
     5
420
      255
176
     1
290
     0
176
     1
 90
       50
176
     1
 90
       50
176
     1
 90
       50
176
     1
290
     0
176
     1
 90
       50
176
     1
 62
   256
176
     0
 40
1.0
176
     0
 90
        2
176
     1
  1
strokes_ogs.tif
176
     1
290
     0
176
     1
 40
1.0
176
     1
 40
1.0
176
     1
  0
VISUALSTYLE
  5
2B
102
{ACAD_REACTORS
330
2A
102
}
330
2A
100
AcDbVisualStyle
  2
Flat
 70
     0
177
     3
291
     1
 70
    58
 90
        2
176
     1
 90
        1
176
     1
 90
        1
176
     1
 90
        2
176
     1
 40
0.6
176
     1
 40
30.0
176
     1
 62
     7
420
 16777215
176
     1
 90
        0
176
     1
 90
        0
176
     1
 62
     7
176
     1
 62
   257
176
     1
 90
        1
176
     1
 90
        1
176
     1
 40
1.0
176
     1
 90
        8
176
     1
 62
     7
176
     1
 40
1.0
176
     1
 90
        1
176
     1
 90
        6
176
     1
 90
        2
176
     1
 62
     7
176
     1
 90
        5
176
     1
 90
        0
176
     1
 90
        0
176
     1
290
     0
176
     1
 90
       13
176
     1
 40
0.0
176
     1
 90
        0
176
     1
290
     0
176
     1
290
     1
176
     1
290
     1
176
     1
290
     0
176
     1
290
     0
176
     1
290
     0
176
     1
290
     0
176
     1
290
     0
176
     1
290
     0
176
     1
 90
       50
176
     1
 40
0.0
176
     1
 40
1.0
176
     1
 90
        0
176
     1
 62
    18
420
        0
176
     1
 90
       50
176
     1
 90
        3
176
     1
 62
     5
420
      255
176
     1
290
     0
176
     1
 90
       50
176
     1
 90
       50
176
     1
 90
       50
176
     1
290
     0
176
     1
 90
       50
176
     1
 62
   256
176
     0
 40
1.0
176
     0
 90
        2
176
     1
  1
strokes_ogs.tif
176
     1
290
     0
176
     1
 40
1.0
176
     1
 40
1.0
176
     1
  0
VISUALSTYLE
  5
2C
102
{ACAD_REACTORS
330
2A
102
}
330
2A
100
AcDbVisualStyle
  2
FlatWithEdges
 70
     1
177
     3
291
     1
 70
    58
 90
        2
176
     1
 90
        1
176
     1
 90
        1
176
     1
 90
        2
176
     1
 40
0.6
176
     1
 40
30.0
176
     1
 62
     7
420
 16777215
176
     1
 90
        1
176
     1
 90
        0
176
     1
 62
     7
176
     1
 62
   257
176
     1
 90
        1
176
     1
 90
        1
176
     1
 40
1.0
176
     1
 90
        0
176
     1
 62
   257
176
     1
 40
1.0
176
     1
 90
        1
176
     1
 90
        6
176
     1
 90
        2
176
     1
 62
     7
176
     1
 90
        5
176
     1
 90
        0
176
     1
 90
        0
176
     1
290
     0
176
     1
 90
       13
176
     1
 40
0.0
176
     1
 90
        0
176
     1
290
     0
176
     1
290
     1
176
     1
290
     1
176
     1
290
     0
176
     1
290
     0
176
     1
290
     0
176
     1
290
     0
176
     1
290
     0
176
     1
290
     0
176
     1
 90
       50
176
     1
 40
0.0
176
     1
 40
1.0
176
     1
 90
        0
176
     1
 62
    18
420
        0
176
     1
 90
       50
176
     1
 90
        3
176
     1
 62
     5
420
      255
176
     1
290
     0
176
     1
 90
       50
176
     1
 90
       50
176
     1
 90
       50
176
     1
290
     0
176
     1
 90
       50
176
     1
 62
   256
176
     0
 40
1.0
176
     0
 90
        2
176
     1
  1
strokes_ogs.tif
176
     1
290
     0
176
     1
 40
1.0
176
     1
 40
1.0
176
     1
  0
VISUALSTYLE
  5
2D
102
{ACAD_REACTORS
330
2A
102
}
330
2A
100
AcDbVisualStyle
  2
Gouraud
 70
     2
177
     3
291
     1
 70
    58
 90
        2
176
     1
 90
        2
176
     1
 90
        1
176
     1
 90
        2
176
     1
 40
0.6
176
     1
 40
30.0
176
     1
 62
     7
420
 16777215
176
     1
 90
        0
176
     1
 90
        0
176
     1
 62
     7
176
     1
 62
   257
176
     1
 90
        1
176
     1
 90
        1
176
     1
 40
1.0
176
     1
 90
        0
176
     1
 62
     7
176
     1
 40
1.0
176
     1
 90
        1
176
     1
 90
        6
176
     1
 90
        2
176
     1
 62
     7
176
     1
 90
        5
176
     1
 90
        0
176
     1
 90
        0
176
     1
290
     0
176
     1
 90
       13
176
     1
 40
0.0
176
     1
 90
        0
176
     1
290
     0
176
     1
290
     1
176
     1
290
     1
176
     1
290
     0
176
     1
290
     0
176
     1
290
     0
176
     1
290
     0
176
     1
290
     0
176
     1
290
     0
176
     1
 90
       50
176
     1
 40
0.0
176
     1
 40
1.0
176
     1
 90
        0
176
     1
 62
    18
420
        0
176
     1
 90
       50
176
     1
 90
        3
176
     1
 62
     5
420
      255
176
     1
290
     0
176
     1
 90
       50
176
     1
 90
       50
176
     1
 90
       50
176
     1
290
     0
176
     1
 90
       50
176
     1
 62
   256
176
     0
 40
1.0
176
     0
 90
        2
176
     1
  1
strokes_ogs.tif
176
     1
290
     0
176
     1
 40
1.0
176
     1
 40
1.0
176
     1
  0
VISUALSTYLE
  5
2E
102
{ACAD_REACTORS
330
2A
102
}
330
2A
100
AcDbVisualStyle
  2
GouraudWithEdges
 70
     3
177
     3
291
     1
 70
    58
 90
        2
176
     1
 90
        2
176
     1
 90
        1
176
     1
 90
        2
176
     1
 40
0.6
176
     1
 40
30.0
176
     1
 62
     7
420
 16777215
176
     1
 90
        1
176
     1
 90
        0
176
     1
 62
     7
176
     1
 62
   257
176
     1
 90
        1
176
     1
 90
        1
176
     1
 40
1.0
176
     1
 90
        0
176
     1
 62
   257
176
     1
 40
1.0
176
     1
 90
        1
176
     1
 90
        6
176
     1
 90
        2
176
     1
 62
     7
176
     1
 90
        5
176
     1
 90
        0
176
     1
 90
        0
176
     1
290
     0
176
     1
 90
       13
176
     1
 40
0.0
176
     1
 90
        0
176
     1
290
     0
176
     1
290
     1
176
     1
290
     1
176
     1
290
     0
176
     1
290
     0
176
     1
290
     0
176
     1
290
     0
176
     1
290
     0
176
     1
290
     0
176
     1
 90
       50
176
     1
 40
0.0
176
     1
 40
1.0
176
     1
 90
        0
176
     1
 62
    18
420
        0
176
     1
 90
       50
176
     1
 90
        3
176
     1
 62
     5
420
      255
176
     1
290
     0
176
     1
 90
       50
176
     1
 90
       50
176
     1
 90
       50
176
     1
290
     0
176
     1
 90
       50
176
     1
 62
   256
176
     0
 40
1.0
176
     0
 90
        2
176
     1
  1
strokes_ogs.tif
176
     1
290
     0
176
     1
 40
1.0
176
     1
 40
1.0
176
     1
  0
VISUALSTYLE
  5
31
102
{ACAD_REACTORS
330
2A
102
}
330
2A
100
AcDbVisualStyle
  2
Hidden
 70
     6
177
     3
291
     0
 70
    58
 90
        1
176
     1
 90
        2
176
     1
 90
        2
176
     1
 90
        0
176
     1
 40
0.6
176
     1
 40
30.0
176
     1
 62
     7
420
 16777215
176
     1
 90
        2
176
     1
 90
        2
176
     1
 62
     7
176
     1
 62
   257
176
     1
 90
        2
176
     1
 90
        1
176
     1
 40
40.0
176
     1
 90
        0
176
     1
 62
   257
176
     1
 40
1.0
176
     1
 90
        1
176
     1
 90
        6
176
     1
 90
        2
176
     1
 62
     7
176
     1
 90
        3
176
     1
 90
        0
176
     1
 90
        0
176
     1
290
     0
176
     1
 90
        1
176
     1
 40
0.0
176
     1
 90
        0
176
     1
290
     0
176
     1
290
     1
176
     1
290
     1
176
     1
290
     0
176
     1
290
     0
176
     1
290
     0
176
     1
290
     0
176
     1
290
     0
176
     1
290
     0
176
     1
 90
       50
176
     1
 40
0.0
176
     1
 40
1.0
176
     1
 90
        0
176
     1
 62
    18
420
        0
176
     1
 90
       50
176
     1
 90
        3
176
     1
 62
     5
420
      255
176
     1
290
     0
176
     1
 90
       50
176
     1
 90
       50
176
     1
 90
       50
176
     1
290
     0
176
     1
 90
       50
176
     1
 62
   256
176
     0
 40
1.0
176
     0
 90
        2
176
     1
  1
strokes_ogs.tif
176
     1
290
     0
176
     1
 40
1.0
176
     1
 40
1.0
176
     1
  0
VISUALSTYLE
  5
3B
102
{ACAD_REACTORS
330
2A
102
}
330
2A
100
AcDbVisualStyle
  2
JitterOff
 70
    20
177
     3
291
     1
 70
    58
 90
        2
176
     0
 90
        2
176
     0
 90
        0
176
     0
 90
        0
176
     0
 40
0.6
176
     0
 40
30.0
176
     0
 62
     7
420
 16777215
176
     0
 90
        1
176
     0
 90
        4
176
     0
 62
     7
176
     0
 62
   257
176
     0
 90
        1
176
     0
 90
        1
176
     0
 40
1.0
176
     0
 90
       10
176
     2
 62
     7
176
     0
 40
1.0
176
     0
 90
        1
176
     0
 90
        6
176
     0
 90
        2
176
     0
 62
     7
176
     0
 90
        5
176
     0
 90
        0
176
     0
 90
        0
176
     0
290
     0
176
     0
 90
        1
176
     0
 40
0.0
176
     0
 90
        0
176
     0
290
     0
176
     0
290
     1
176
     0
290
     1
176
     0
290
     0
176
     0
290
     0
176
     0
290
     0
176
     0
290
     0
176
     0
290
     0
176
     0
290
     0
176
     0
 90
       50
176
     0
 40
0.0
176
     0
 40
1.0
176
     0
 90
        0
176
     0
 62
    18
420
        0
176
     0
 90
       50
176
     0
 90
        3
176
     0
 62
     5
420
      255
176
     0
290
     0
176
     0
 90
       50
176
     0
 90
       50
176
     0
 90
       50
176
     0
290
     0
176
     0
 90
       50
176
     0
 62
   256
176
     0
 40
1.0
176
     0
 90
        2
176
     0
  1
strokes_ogs.tif
176
     0
290
     0
176
     0
 40
1.0
176
     0
 40
1.0
176
     0
  0
VISUALSTYLE
  5
38
102
{ACAD_REACTORS
330
2A
102
}
330
2A
100
AcDbVisualStyle
  2
Linepattern
 70
    14
177
     3
291
     1
 70
    58
 90
        2
176
     1
 90
        2
176
     1
 90
        0
176
     1
 90
        0
176
     1
 40
0.6
176
     1
 40
30.0
176
     1
 62
     7
420
 16777215
176
     1
 90
        1
176
     1
 90
        4
176
     1
 62
     7
176
     1
 62
   257
176
     1
 90
        7
176
     1
 90
        7
176
     1
 40
1.0
176
     1
 90
        8
176
     1
 62
     7
176
     1
 40
1.0
176
     1
 90
        1
176
     1
 90
        6
176
     1
 90
        2
176
     1
 62
     7
176
     1
 90
        5
176
     1
 90
        0
176
     1
 90
        0
176
     1
290
     0
176
     1
 90
        1
176
     1
 40
0.0
176
     1
 90
        0
176
     1
290
     0
176
     1
290
     1
176
     1
290
     1
176
     1
290
     0
176
     1
290
     0
176
     1
290
     0
176
     1
290
     0
176
     1
290
     0
176
     1
290
     0
176
     1
 90
       50
176
     1
 40
0.0
176
     1
 40
1.0
176
     1
 90
        0
176
     1
 62
    18
420
        0
176
     1
 90
       50
176
     1
 90
        3
176
     1
 62
     5
420
      255
176
     1
290
     0
176
     1
 90
       50
176
     1
 90
       50
176
     1
 90
       50
176
     1
290
     0
176
     1
 90
       50
176
     1
 62
   256
176
     0
 40
1.0
176
     0
 90
        2
176
     1
  1
strokes_ogs.tif
176
     1
290
     0
176
     1
 40
1.0
176
     1
 40
1.0
176
     1
  0
VISUALSTYLE
  5
3C
102
{ACAD_REACTORS
330
2A
102
}
330
2A
100
AcDbVisualStyle
  2
OverhangOff
 70
    21
177
     3
291
     1
 70
    58
 90
        2
176
     0
 90
        2
176
     0
 90
        0
176
     0
 90
        0
176
     0
 40
0.6
176
     0
 40
30.0
176
     0
 62
     7
420
 16777215
176
     0
 90
        1
176
     0
 90
        4
176
     0
 62
     7
176
     0
 62
   257
176
     0
 90
        1
176
     0
 90
        1
176
     0
 40
1.0
176
     0
 90
        9
176
     2
 62
     7
176
     0
 40
1.0
176
     0
 90
        1
176
     0
 90
        6
176
     0
 90
        2
176
     0
 62
     7
176
     0
 90
        5
176
     0
 90
        0
176
     0
 90
        0
176
     0
290
     0
176
     0
 90
        1
176
     0
 40
0.0
176
     0
 90
        0
176
     0
290
     0
176
     0
290
     1
176
     0
290
     1
176
     0
290
     0
176
     0
290
     0
176
     0
290
     0
176
     0
290
     0
176
     0
290
     0
176
     0
290
     0
176
     0
 90
       50
176
     0
 40
0.0
176
     0
 40
1.0
176
     0
 90
        0
176
     0
 62
    18
420
        0
176
     0
 90
       50
176
     0
 90
        3
176
     0
 62
     5
420
      255
176
     0
290
     0
176
     0
 90
       50
176
     0
 90
       50
176
     0
 90
       50
176
     0
290
     0
176
     0
 90
       50
176
     0
 62
   256
176
     0
 40
1.0
176
     0
 90
        2
176
     0
  1
strokes_ogs.tif
176
     0
290
     0
176
     0
 40
1.0
176
     0
 40
1.0
176
     0
  0
VISUALSTYLE
  5
33
102
{ACAD_REACTORS
330
2A
102
}
330
2A
100
AcDbVisualStyle
  2
Realistic
 70
     8
177
     3
291
     0
 70
    58
 90
        2
176
     1
 90
        3
176
     1
 90
        0
176
     1
 90
        2
176
     1
 40
0.6
176
     1
 40
30.0
176
     1
 62
     7
420
 16777215
176
     1
 90
        0
176
     1
 90
        0
176
     1
 62
     7
176
     1
 62
   257
176
     1
 90
        1
176
     1
 90
        1
176
     1
 40
1.0
176
     1
 90
        8
176
     1
 62
   257
176
     1
 40
1.0
176
     1
 90
        1
176
     1
 90
        6
176
     1
 90
        2
176
     1
 62
     7
176
     1
 90
        3
176
     1
 90
        0
176
     1
 90
        0
176
     1
290
     0
176
     1
 90
       13
176
     1
 40
0.0
176
     1
 90
        0
176
     1
290
     0
176
     1
290
     1
176
     1
290
     1
176
     1
290
     0
176
     1
290
     0
176
     1
290
     0
176
     1
290
     0
176
     1
290
     0
176
     1
290
     0
176
     1
 90
       50
176
     1
 40
0.0
176
     1
 40
1.0
176
     1
 90
        0
176
     1
 62
    18
420
        0
176
     1
 90
       50
176
     1
 90
        3
176
     1
 62
     5
420
      255
176
     1
290
     0
176
     1
 90
       50
176
     1
 90
       50
176
     1
 90
       50
176
     1
290
     0
176
     1
 90
       50
176
     1
 62
   256
176
     0
 40
1.0
176
     0
 90
        2
176
     1
  1
strokes_ogs.tif
176
     1
290
     0
176
     1
 40
1.0
176
     1
 40
1.0
176
     1
  0
VISUALSTYLE
  5
42
102
{ACAD_REACTORS
330
2A
102
}
330
2A
100
AcDbVisualStyle
  2
Shaded
 70
    27
177
     3
291
     0
 70
    58
 90
        2
176
     1
 90
        2
176
     1
 90
        1
176
     1
 90
        2
176
     1
 40
0.6
176
     1
 40
30.0
176
     1
 62
     7
420
 16777215
176
     1
 90
        0
176
     1
 90
        4
176
     1
 62
     7
176
     1
 62
   257
176
     1
 90
        1
176
     1
 90
        1
176
     1
 40
1.0
176
     1
 90
        8
176
     1
 62
   257
176
     1
 40
1.0
176
     1
 90
        1
176
     1
 90
        6
176
     1
 90
        2
176
     1
 62
     8
420
  7895160
176
     1
 90
        3
176
     1
 90
        0
176
     1
 90
        0
176
     1
290
     0
176
     1
 90
        5
176
     1
 40
0.0
176
     1
 90
        0
176
     1
290
     0
176
     1
290
     1
176
     1
290
     1
176
     1
290
     0
176
     1
290
     0
176
     1
290
     0
176
     1
290
     0
176
     1
290
     0
176
     1
290
     0
176
     1
 90
       50
176
     1
 40
0.0
176
     1
 40
1.0
176
     1
 90
        0
176
     1
 62
    18
420
        0
176
     1
 90
       50
176
     1
 90
        3
176
     1
 62
     5
420
      255
176
     1
290
     0
176
     1
 90
       50
176
     1
 90
       50
176
     1
 90
       50
176
     1
290
     0
176
     1
 90
       50
176
     1
 62
   256
176
     0
 40
1.0
176
     0
 90
        2
176
     1
  1
strokes_ogs.tif
176
     1
290
     0
176
     1
 40
1.0
176
     1
 40
1.0
176
     1
  0
VISUALSTYLE
  5
41
102
{ACAD_REACTORS
330
2A
102
}
330
2A
100
AcDbVisualStyle
  2
Shaded with edges
 70
    26
177
     3
291
     0
 70
    58
 90
        2
176
     1
 90
        2
176
     1
 90
        1
176
     1
 90
        2
176
     1
 40
0.6
176
     1
 40
30.0
176
     1
 62
     7
420
 16777215
176
     1
 90
        1
176
     1
 90
       10
176
     1
 62
     7
176
     1
 62
   257
176
     1
 90
        2
176
     1
 90
        1
176
     1
 40
1.0
176
     1
 90
        8
176
     1
 62
   257
176
     1
 40
1.0
176
     1
 90
        1
176
     1
 90
        6
176
     1
 90
        2
176
     1
 62
     7
176
     1
 90
        3
176
     1
 90
        0
176
     1
 90
        0
176
     1
290
     0
176
     1
 90
        5
176
     1
 40
0.0
176
     1
 90
        0
176
     1
290
     0
176
     1
290
     1
176
     1
290
     1
176
     1
290
     0
176
     1
290
     0
176
     1
290
     0
176
     1
290
     0
176
     1
290
     0
176
     1
290
     0
176
     1
 90
       50
176
     1
 40
0.0
176
     1
 40
1.0
176
     1
 90
        0
176
     1
 62
    18
420
        0
176
     1
 90
       50
176
     1
 90
        3
176
     1
 62
     5
420
      255
176
     1
290
     0
176
     1
 90
       50
176
     1
 90
       50
176
     1
 90
       50
176
     1
290
     0
176
     1
 90
       50
176
     1
 62
   256
176
     0
 40
1.0
176
     0
 90
        2
176
     1
  1
strokes_ogs.tif
176
     1
290
     0
176
     1
 40
1.0
176
     1
 40
1.0
176
     1
  0
VISUALSTYLE
  5
3E
102
{ACAD_REACTORS
330
2A
102
}
330
2A
100
AcDbVisualStyle
  2
Shades of Gray
 70
    23
177
     3
291
     0
 70
    58
 90
        2
176
     1
 90
        2
176
     1
 90
        3
176
     1
 90
        0
176
     1
 40
0.6
176
     1
 40
30.0
176
     1
 62
     7
420
 16777215
176
     1
 90
        2
176
     1
 90
        2
176
     1
 62
     7
176
     1
 62
     7
176
     1
 90
        1
176
     1
 90
        1
176
     1
 40
40.0
176
     1
 90
        8
176
     1
 62
     7
176
     1
 40
1.0
176
     1
 90
        1
176
     1
 90
        6
176
     1
 90
        2
176
     1
 62
     7
176
     1
 90
        3
176
     1
 90
        0
176
     1
 90
        0
176
     1
290
     0
176
     1
 90
        1
176
     1
 40
0.0
176
     1
 90
        0
176
     1
290
     0
176
     1
290
     1
176
     1
290
     1
176
     1
290
     0
176
     1
290
     0
176
     1
290
     0
176
     1
290
     0
176
     1
290
     0
176
     1
290
     0
176
     1
 90
       50
176
     1
 40
0.0
176
     1
 40
1.0
176
     1
 90
        0
176
     1
 62
    18
420
        0
176
     1
 90
       50
176
     1
 90
        3
176
     1
 62
     5
420
      255
176
     1
290
     0
176
     1
 90
       50
176
     1
 90
       50
176
     1
 90
       50
176
     1
290
     0
176
     1
 90
       50
176
     1
 62
   256
176
     0
 40
1.0
176
     0
 90
        2
176
     1
  1
strokes_ogs.tif
176
     1
290
     0
176
     1
 40
1.0
176
     1
 40
1.0
176
     1
  0
VISUALSTYLE
  5
3F
102
{ACAD_REACTORS
330
2A
102
}
330
2A
100
AcDbVisualStyle
  2
Sketchy
 70
    24
177
     3
291
     0
 70
    58
 90
        1
176
     1
 90
        2
176
     1
 90
        2
176
     1
 90
        0
176
     1
 40
0.6
176
     1
 40
30.0
176
     1
 62
     7
420
 16777215
176
     1
 90
        2
176
     1
 90
        2
176
     1
 62
     7
176
     1
 62
     7
176
     1
 90
        1
176
     1
 90
        1
176
     1
 40
40.0
176
     1
 90
       11
176
     1
 62
     7
176
     1
 40
1.0
176
     1
 90
        1
176
     1
 90
        6
176
     1
 90
        2
176
     1
 62
     7
176
     1
 90
        6
176
     1
 90
        0
176
     1
 90
        0
176
     1
290
     0
176
     1
 90
        1
176
     1
 40
0.0
176
     1
 90
        0
176
     1
290
     0
176
     1
290
     1
176
     1
290
     1
176
     1
290
     0
176
     1
290
     0
176
     1
290
     0
176
     1
290
     0
176
     1
290
     0
176
     1
290
     0
176
     1
 90
       50
176
     1
 40
0.0
176
     1
 40
1.0
176
     1
 90
        0
176
     1
 62
    18
420
        0
176
     1
 90
       50
176
     1
 90
        3
176
     1
 62
     5
420
      255
176
     1
290
     0
176
     1
 90
       50
176
     1
 90
       50
176
     1
 90
       50
176
     1
290
     0
176
     1
 90
       50
176
     1
 62
   256
176
     0
 40
1.0
176
     0
 90
        2
176
     1
  1
strokes_ogs.tif
176
     1
290
     0
176
     1
 40
1.0
176
     1
 40
1.0
176
     1
  0
VISUALSTYLE
  5
37
102
{ACAD_REACTORS
330
2A
102
}
330
2A
100
AcDbVisualStyle
  2
Thicken
 70
    13
177
     3
291
     1
 70
    58
 90
        2
176
     1
 90
        2
176
     1
 90
        0
176
     1
 90
        0
176
     1
 40
0.6
176
     1
 40
30.0
176
     1
 62
     7
420
 16777215
176
     1
 90
        1
176
     1
 90
        4
176
     1
 62
     7
176
     1
 62
   257
176
     1
 90
        1
176
     1
 90
        1
176
     1
 40
1.0
176
     1
 90
       12
176
     1
 62
     7
176
     1
 40
1.0
176
     1
 90
        1
176
     1
 90
        6
176
     1
 90
        2
176
     1
 62
     7
176
     1
 90
        5
176
     1
 90
        0
176
     1
 90
        0
176
     1
290
     0
176
     1
 90
        1
176
     1
 40
0.0
176
     1
 90
        0
176
     1
290
     0
176
     1
290
     1
176
     1
290
     1
176
     1
290
     0
176
     1
290
     0
176
     1
290
     0
176
     1
290
     0
176
     1
290
     0
176
     1
290
     0
176
     1
 90
       50
176
     1
 40
0.0
176
     1
 40
1.0
176
     1
 90
        0
176
     1
 62
    18
420
        0
176
     1
 90
       50
176
     1
 90
        3
176
     1
 62
     5
420
      255
176
     1
290
     0
176
     1
 90
       50
176
     1
 90
       50
176
     1
 90
       50
176
     1
290
     0
176
     1
 90
       50
176
     1
 62
   256
176
     0
 40
1.0
176
     0
 90
        2
176
     1
  1
strokes_ogs.tif
176
     1
290
     0
176
     1
 40
1.0
176
     1
 40
1.0
176
     1
  0
VISUALSTYLE
  5
30
102
{ACAD_REACTORS
330
2A
102
}
330
2A
100
AcDbVisualStyle
  2
Wireframe
 70
     5
177
     3
291
     0
 70
    58
 90
        0
176
     1
 90
        2
176
     1
 90
        0
176
     1
 90
        0
176
     1
 40
0.6
176
     1
 40
30.0
176
     1
 62
     7
420
 16777215
176
     1
 90
        1
176
     1
 90
        4
176
     1
 62
     7
176
     1
 62
   257
176
     1
 90
        1
176
     1
 90
        1
176
     1
 40
1.0
176
     1
 90
        0
176
     1
 62
   257
176
     1
 40
1.0
176
     1
 90
        1
176
     1
 90
        6
176
     1
 90
        2
176
     1
 62
     7
176
     1
 90
        3
176
     1
 90
        0
176
     1
 90
        0
176
     1
290
     0
176
     1
 90
        1
176
     1
 40
0.0
176
     1
 90
        0
176
     1
290
     0
176
     1
290
     1
176
     1
290
     1
176
     1
290
     0
176
     1
290
     0
176
     1
290
     0
176
     1
290
     0
176
     1
290
     0
176
     1
290
     0
176
     1
 90
       50
176
     1
 40
0.0
176
     1
 40
1.0
176
     1
 90
        0
176
     1
 62
    18
420
        0
176
     1
 90
       50
176
     1
 90
        3
176
     1
 62
     5
420
      255
176
     1
290
     0
176
     1
 90
       50
176
     1
 90
       50
176
     1
 90
       50
176
     1
290
     0
176
     1
 90
       50
176
     1
 62
   256
176
     0
 40
1.0
176
     0
 90
        2
176
     1
  1
strokes_ogs.tif
176
     1
290
     0
176
     1
 40
1.0
176
     1
 40
1.0
176
     1
  0
VISUALSTYLE
  5
40
102
{ACAD_REACTORS
330
2A
102
}
330
2A
100
AcDbVisualStyle
  2
X-Ray
 70
    25
177
     3
291
     0
 70
    58
 90
        2
176
     1
 90
        2
176
     1
 90
        1
176
     1
 90
        1
176
     1
 40
0.5
176
     1
 40
30.0
176
     1
 62
     7
420
 16777215
176
     1
 90
        1
176
     1
 90
        0
176
     1
 62
     7
176
     1
 62
   257
176
     1
 90
        1
176
     1
 90
        1
176
     1
 40
1.0
176
     1
 90
        8
176
     1
 62
     7
176
     1
 40
1.0
176
     1
 90
        1
176
     1
 90
        6
176
     1
 90
        2
176
     1
 62
     7
176
     1
 90
        3
176
     1
 90
        0
176
     1
 90
        0
176
     1
290
     0
176
     1
 90
       13
176
     1
 40
0.0
176
     1
 90
        0
176
     1
290
     0
176
     1
290
     1
176
     1
290
     1
176
     1
290
     0
176
     1
290
     0
176
     1
290
     0
176
     1
290
     0
176
     1
290
     0
176
     1
290
     0
176
     1
 90
       50
176
     1
 40
0.0
176
     1
 40
1.0
176
     1
 90
        0
176
     1
 62
    18
420
        0
176
     1
 90
       50
176
     1
 90
        3
176
     1
 62
     5
420
      255
176
     1
290
     0
176
     1
 90
       50
176
     1
 90
       50
176
     1
 90
       50
176
     1
290
     0
176
     1
 90
       50
176
     1
 62
   256
176
     0
 40
1.0
176
     0
 90
        2
176
     1
  1
strokes_ogs.tif
176
     1
290
     0
176
     1
 40
1.0
176
     1
 40
1.0
176
     1
  0
DICTIONARYVAR
  5
192
102
{ACAD_REACTORS
330
191
102
}
330
191
100
DictionaryVariables
280
     0
  1
1:1
  0
DICTIONARYVAR
  5
197
102
{ACAD_REACTORS
330
191
102
}
330
191
100
DictionaryVariables
280
     0
  1
Standard
  0
DICTIONARYVAR
  5
196
102
{ACAD_REACTORS
330
191
102
}
330
191
100
DictionaryVariables
280
     0
  1
Standard
  0
DICTIONARY
  5
193
330
6A
100
AcDbDictionary
280
     1
281
     1
  3
ACAD_ROUNDTRIP_2008_TABLESTYLE_CELLSTYLEMAP
360
194
  0
CELLSTYLEMAP
  5
194
102
{ACAD_REACTORS
330
193
102
}
330
193
100
AcDbCellStyleMap
 90
        3
300
CELLSTYLE
  1
TABLEFORMAT_BEGIN
 90
        5
170
     1
 91
        0
 92
    32768
 62
   257
 93
        1
300
CONTENTFORMAT
  1
CONTENTFORMAT_BEGIN
 90
        0
 91
        0
 92
        4
 93
        0
300

 40
0.0
140
1.0
 94
        5
 62
     0
340
11
144
0.25
309
CONTENTFORMAT_END
171
     1
301
MARGIN
  1
CELLMARGIN_BEGIN
 40
0.06
 40
0.06
 40
0.06
 40
0.06
 40
0.06
 40
0.06
309
CELLMARGIN_END
 94
        6
 95
        1
302
GRIDFORMAT
  1
GRIDFORMAT_BEGIN
 90
        0
 91
        1
 62
     0
 92
       -2
340
14
 93
        0
 40
0.045
309
GRIDFORMAT_END
 95
        2
302
GRIDFORMAT
  1
GRIDFORMAT_BEGIN
 90
        0
 91
        1
 62
     0
 92
       -2
340
14
 93
        0
 40
0.045
309
GRIDFORMAT_END
 95
        4
302
GRIDFORMAT
  1
GRIDFORMAT_BEGIN
 90
        0
 91
        1
 62
     0
 92
       -2
340
14
 93
        0
 40
0.045
309
GRIDFORMAT_END
 95
        8
302
GRIDFORMAT
  1
GRIDFORMAT_BEGIN
 90
        0
 91
        1
 62
     0
 92
       -2
340
14
 93
        0
 40
0.045
309
GRIDFORMAT_END
 95
       16
302
GRIDFORMAT
  1
GRIDFORMAT_BEGIN
 90
        0
 91
        1
 62
     0
 92
       -2
340
14
 93
        0
 40
0.045
309
GRIDFORMAT_END
 95
       32
302
GRIDFORMAT
  1
GRIDFORMAT_BEGIN
 90
        0
 91
        1
 62
     0
 92
       -2
340
14
 93
        0
 40
0.045
309
GRIDFORMAT_END
309
TABLEFORMAT_END
  1
CELLSTYLE_BEGIN
 90
        1
 91
        1
300
_TITLE
309
CELLSTYLE_END
300
CELLSTYLE
  1
TABLEFORMAT_BEGIN
 90
        5
170
     1
 91
        0
 92
        0
 62
   257
 93
        1
300
CONTENTFORMAT
  1
CONTENTFORMAT_BEGIN
 90
        0
 91
        0
 92
        4
 93
        0
300

 40
0.0
140
1.0
 94
        5
 62
     0
340
11
144
0.18
309
CONTENTFORMAT_END
171
     1
301
MARGIN
  1
CELLMARGIN_BEGIN
 40
0.06
 40
0.06
 40
0.06
 40
0.06
 40
0.06
 40
0.06
309
CELLMARGIN_END
 94
        6
 95
        1
302
GRIDFORMAT
  1
GRIDFORMAT_BEGIN
 90
        0
 91
        1
 62
     0
 92
       -2
340
14
 93
        0
 40
0.045
309
GRIDFORMAT_END
 95
        2
302
GRIDFORMAT
  1
GRIDFORMAT_BEGIN
 90
        0
 91
        1
 62
     0
 92
       -2
340
14
 93
        0
 40
0.045
309
GRIDFORMAT_END
 95
        4
302
GRIDFORMAT
  1
GRIDFORMAT_BEGIN
 90
        0
 91
        1
 62
     0
 92
       -2
340
14
 93
        0
 40
0.045
309
GRIDFORMAT_END
 95
        8
302
GRIDFORMAT
  1
GRIDFORMAT_BEGIN
 90
        0
 91
        1
 62
     0
 92
       -2
340
14
 93
        0
 40
0.045
309
GRIDFORMAT_END
 95
       16
302
GRIDFORMAT
  1
GRIDFORMAT_BEGIN
 90
        0
 91
        1
 62
     0
 92
       -2
340
14
 93
        0
 40
0.045
309
GRIDFORMAT_END
 95
       32
302
GRIDFORMAT
  1
GRIDFORMAT_BEGIN
 90
        0
 91
        1
 62
     0
 92
       -2
340
14
 93
        0
 40
0.045
309
GRIDFORMAT_END
309
TABLEFORMAT_END
  1
CELLSTYLE_BEGIN
 90
        2
 91
        1
300
_HEADER
309
CELLSTYLE_END
300
CELLSTYLE
  1
TABLEFORMAT_BEGIN
 90
        5
170
     1
 91
        0
 92
        0
 62
   257
 93
        1
300
CONTENTFORMAT
  1
CONTENTFORMAT_BEGIN
 90
        0
 91
        0
 92
        4
 93
        0
300

 40
0.0
140
1.0
 94
        2
 62
     0
340
11
144
0.18
309
CONTENTFORMAT_END
171
     1
301
MARGIN
  1
CELLMARGIN_BEGIN
 40
0.06
 40
0.06
 40
0.06
 40
0.06
 40
0.06
 40
0.06
309
CELLMARGIN_END
 94
        6
 95
        1
302
GRIDFORMAT
  1
GRIDFORMAT_BEGIN
 90
        0
 91
        1
 62
     0
 92
       -2
340
14
 93
        0
 40
0.045
309
GRIDFORMAT_END
 95
        2
302
GRIDFORMAT
  1
GRIDFORMAT_BEGIN
 90
        0
 91
        1
 62
     0
 92
       -2
340
14
 93
        0
 40
0.045
309
GRIDFORMAT_END
 95
        4
302
GRIDFORMAT
  1
GRIDFORMAT_BEGIN
 90
        0
 91
        1
 62
     0
 92
       -2
340
14
 93
        0
 40
0.045
309
GRIDFORMAT_END
 95
        8
302
GRIDFORMAT
  1
GRIDFORMAT_BEGIN
 90
        0
 91
        1
 62
     0
 92
       -2
340
14
 93
        0
 40
0.045
309
GRIDFORMAT_END
 95
       16
302
GRIDFORMAT
  1
GRIDFORMAT_BEGIN
 90
        0
 91
        1
 62
     0
 92
       -2
340
14
 93
        0
 40
0.045
309
GRIDFORMAT_END
 95
       32
302
GRIDFORMAT
  1
GRIDFORMAT_BEGIN
 90
        0
 91
        1
 62
     0
 92
       -2
340
14
 93
        0
 40
0.045
309
GRIDFORMAT_END
309
TABLEFORMAT_END
  1
CELLSTYLE_BEGIN
 90
        3
 91
        2
300
_DATA
309
CELLSTYLE_END
  0
ENDSEC
  0
EOF