0
SECTION
  2
HEADER
  9
$ACADVER
  1
AC1027
  9
$ACADMAINTVER
 70
     8
  9
$DWGCODEPAGE
  3
ANSI_1252
  9
$REQUIREDVERSIONS
160
                 0
  9
$COMMENTS
  1
File was created by Cadenas
  9
$CUSTOMPROPERTYTAG
  1
NN
  9
$CUSTOMPROPERTY
  1
Set Screw Intermediate Duty Two-Bolt Flange Inch Bore
  9
$CUSTOMPROPERTYTAG
  1
NT
  9
$CUSTOMPROPERTY
  1

  9
$CUSTOMPROPERTYTAG
  1
NB
  9
$CUSTOMPROPERTY
  1
123611
  9
$CUSTOMPROPERTYTAG
  1
NBSYN
  9
$CUSTOMPROPERTY
  1
$PN.
  9
$CUSTOMPROPERTYTAG
  1
LINA
  9
$CUSTOMPROPERTY
  1
123611
  9
$CUSTOMPROPERTYTAG
  1
RS
  9
$CUSTOMPROPERTY
  1
205
  9
$CUSTOMPROPERTYTAG
  1
SS
  9
$CUSTOMPROPERTY
  1
1
  9
$CUSTOMPROPERTYTAG
  1
PN
  9
$CUSTOMPROPERTY
  1
123611
  9
$CUSTOMPROPERTYTAG
  1
DESCRIPTION
  9
$CUSTOMPROPERTY
  1
F2B-VSC-100
  9
$CUSTOMPROPERTYTAG
  1
LF
  9
$CUSTOMPROPERTY
  1
RE-LUBE
  9
$CUSTOMPROPERTYTAG
  1
WEIGHT
  9
$CUSTOMPROPERTY
  1
1.4
  9
$CUSTOMPROPERTYTAG
  1
A
  9
$CUSTOMPROPERTY
  1
1.34
  9
$CUSTOMPROPERTYTAG
  1
B
  9
$CUSTOMPROPERTY
  1
4.88
  9
$CUSTOMPROPERTYTAG
  1
C
  9
$CUSTOMPROPERTY
  1
1.37
  9
$CUSTOMPROPERTYTAG
  1
D
  9
$CUSTOMPROPERTY
  1
3.89
  9
$CUSTOMPROPERTYTAG
  1
F
  9
$CUSTOMPROPERTY
  1
7/16
  9
$CUSTOMPROPERTYTAG
  1
H
  9
$CUSTOMPROPERTY
  1
0.52
  9
$CUSTOMPROPERTYTAG
  1
J
  9
$CUSTOMPROPERTY
  1
0.42
  9
$CUSTOMPROPERTYTAG
  1
L
  9
$CUSTOMPROPERTY
  1
1.32
  9
$CUSTOMPROPERTYTAG
  1
M
  9
$CUSTOMPROPERTY
  1
2.75
  9
$CUSTOMPROPERTYTAG
  1
N
  9
$CUSTOMPROPERTY
  1
1.44
  9
$CUSTOMPROPERTYTAG
  1
COMPANY
  9
$CUSTOMPROPERTY
  1
baldor
  9
$INSBASE
 10
0.0
 20
0.0
 30
0.0
  9
$EXTMIN
 10
1.000000000000000E+20
 20
1.000000000000000E+20
 30
1.000000000000000E+20
  9
$EXTMAX
 10
-1.000000000000000E+20
 20
-1.000000000000000E+20
 30
-1.000000000000000E+20
  9
$LIMMIN
 10
0.0
 20
0.0
  9
$LIMMAX
 10
12.0
 20
9.0
  9
$ORTHOMODE
 70
     0
  9
$REGENMODE
 70
     1
  9
$FILLMODE
 70
     1
  9
$QTEXTMODE
 70
     0
  9
$MIRRTEXT
 70
     1
  9
$LTSCALE
 40
1.0
  9
$ATTMODE
 70
     1
  9
$TEXTSIZE
 40
0.2
  9
$TRACEWID
 40
0.05
  9
$TEXTSTYLE
  7
Standard
  9
$CLAYER
  8
0
  9
$CELTYPE
  6
ByLayer
  9
$CECOLOR
 62
   256
  9
$CELTSCALE
 40
1.0
  9
$DISPSILH
 70
     0
  9
$DIMSCALE
 40
1.0
  9
$DIMASZ
 40
0.18
  9
$DIMEXO
 40
0.0625
  9
$DIMDLI
 40
0.38
  9
$DIMRND
 40
0.0
  9
$DIMDLE
 40
0.0
  9
$DIMEXE
 40
0.18
  9
$DIMTP
 40
0.0
  9
$DIMTM
 40
0.0
  9
$DIMTXT
 40
0.18
  9
$DIMCEN
 40
0.09
  9
$DIMTSZ
 40
0.0
  9
$DIMTOL
 70
     0
  9
$DIMLIM
 70
     0
  9
$DIMTIH
 70
     1
  9
$DIMTOH
 70
     1
  9
$DIMSE1
 70
     0
  9
$DIMSE2
 70
     0
  9
$DIMTAD
 70
     0
  9
$DIMZIN
 70
     0
  9
$DIMBLK
  1

  9
$DIMASO
 70
     1
  9
$DIMSHO
 70
     1
  9
$DIMPOST
  1

  9
$DIMAPOST
  1

  9
$DIMALT
 70
     0
  9
$DIMALTD
 70
     2
  9
$DIMALTF
 40
25.4
  9
$DIMLFAC
 40
1.0
  9
$DIMTOFL
 70
     0
  9
$DIMTVP
 40
0.0
  9
$DIMTIX
 70
     0
  9
$DIMSOXD
 70
     0
  9
$DIMSAH
 70
     0
  9
$DIMBLK1
  1

  9
$DIMBLK2
  1

  9
$DIMSTYLE
  2
Standard
  9
$DIMCLRD
 70
     0
  9
$DIMCLRE
 70
     0
  9
$DIMCLRT
 70
     0
  9
$DIMTFAC
 40
1.0
  9
$DIMGAP
 40
0.09
  9
$DIMJUST
 70
     0
  9
$DIMSD1
 70
     0
  9
$DIMSD2
 70
     0
  9
$DIMTOLJ
 70
     1
  9
$DIMTZIN
 70
     0
  9
$DIMALTZ
 70
     0
  9
$DIMALTTZ
 70
     0
  9
$DIMUPT
 70
     0
  9
$DIMDEC
 70
     4
  9
$DIMTDEC
 70
     4
  9
$DIMALTU
 70
     2
  9
$DIMALTTD
 70
     2
  9
$DIMTXSTY
  7
Standard
  9
$DIMAUNIT
 70
     0
  9
$DIMADEC
 70
     0
  9
$DIMALTRND
 40
0.0
  9
$DIMAZIN
 70
     0
  9
$DIMDSEP
 70
    46
  9
$DIMATFIT
 70
     3
  9
$DIMFRAC
 70
     0
  9
$DIMLDRBLK
  1

  9
$DIMLUNIT
 70
     2
  9
$DIMLWD
 70
    -2
  9
$DIMLWE
 70
    -2
  9
$DIMTMOVE
 70
     0
  9
$DIMFXL
 40
1.0
  9
$DIMFXLON
 70
     0
  9
$DIMJOGANG
 40
0.7853981633974483
  9
$DIMTFILL
 70
     0
  9
$DIMTFILLCLR
 70
     0
  9
$DIMARCSYM
 70
     0
  9
$DIMLTYPE
  6

  9
$DIMLTEX1
  6

  9
$DIMLTEX2
  6

  9
$DIMTXTDIRECTION
 70
     0
  9
$LUNITS
 70
     2
  9
$LUPREC
 70
     4
  9
$SKETCHINC
 40
0.1
  9
$FILLETRAD
 40
0.5
  9
$AUNITS
 70
     0
  9
$AUPREC
 70
     0
  9
$MENU
  1
.
  9
$ELEVATION
 40
0.0
  9
$PELEVATION
 40
0.0
  9
$THICKNESS
 40
0.0
  9
$LIMCHECK
 70
     0
  9
$CHAMFERA
 40
0.0
  9
$CHAMFERB
 40
0.0
  9
$CHAMFERC
 40
0.0
  9
$CHAMFERD
 40
0.0
  9
$SKPOLY
 70
     0
  9
$TDCREATE
 40
2458168.965689838
  9
$TDUCREATE
 40
2458168.924023171
  9
$TDUPDATE
 40
2458168.965690023
  9
$TDUUPDATE
 40
2458168.924023356
  9
$TDINDWG
 40
0.0000000116
  9
$TDUSRTIMER
 40
0.0000000116
  9
$USRTIMER
 70
     1
  9
$ANGBASE
 50
0.0
  9
$ANGDIR
 70
     0
  9
$PDMODE
 70
     0
  9
$PDSIZE
 40
0.0
  9
$PLINEWID
 40
0.0
  9
$SPLFRAME
 70
     0
  9
$SPLINETYPE
 70
     6
  9
$SPLINESEGS
 70
     8
  9
$HANDSEED
  5
1A9
  9
$SURFTAB1
 70
     6
  9
$SURFTAB2
 70
     6
  9
$SURFTYPE
 70
     6
  9
$SURFU
 70
     6
  9
$SURFV
 70
     6
  9
$UCSBASE
  2

  9
$UCSNAME
  2

  9
$UCSORG
 10
0.0
 20
0.0
 30
0.0
  9
$UCSXDIR
 10
1.0
 20
0.0
 30
0.0
  9
$UCSYDIR
 10
0.0
 20
1.0
 30
0.0
  9
$UCSORTHOREF
  2

  9
$UCSORTHOVIEW
 70
     0
  9
$UCSORGTOP
 10
0.0
 20
0.0
 30
0.0
  9
$UCSORGBOTTOM
 10
0.0
 20
0.0
 30
0.0
  9
$UCSORGLEFT
 10
0.0
 20
0.0
 30
0.0
  9
$UCSORGRIGHT
 10
0.0
 20
0.0
 30
0.0
  9
$UCSORGFRONT
 10
0.0
 20
0.0
 30
0.0
  9
$UCSORGBACK
 10
0.0
 20
0.0
 30
0.0
  9
$PUCSBASE
  2

  9
$PUCSNAME
  2

  9
$PUCSORG
 10
0.0
 20
0.0
 30
0.0
  9
$PUCSXDIR
 10
1.0
 20
0.0
 30
0.0
  9
$PUCSYDIR
 10
0.0
 20
1.0
 30
0.0
  9
$PUCSORTHOREF
  2

  9
$PUCSORTHOVIEW
 70
     0
  9
$PUCSORGTOP
 10
0.0
 20
0.0
 30
0.0
  9
$PUCSORGBOTTOM
 10
0.0
 20
0.0
 30
0.0
  9
$PUCSORGLEFT
 10
0.0
 20
0.0
 30
0.0
  9
$PUCSORGRIGHT
 10
0.0
 20
0.0
 30
0.0
  9
$PUCSORGFRONT
 10
0.0
 20
0.0
 30
0.0
  9
$PUCSORGBACK
 10
0.0
 20
0.0
 30
0.0
  9
$USERI1
 70
     0
  9
$USERI2
 70
     0
  9
$USERI3
 70
     0
  9
$USERI4
 70
     0
  9
$USERI5
 70
     0
  9
$USERR1
 40
0.0
  9
$USERR2
 40
0.0
  9
$USERR3
 40
0.0
  9
$USERR4
 40
0.0
  9
$USERR5
 40
0.0
  9
$WORLDVIEW
 70
     1
  9
$SHADEDGE
 70
     3
  9
$SHADEDIF
 70
    70
  9
$TILEMODE
 70
     1
  9
$MAXACTVP
 70
    64
  9
$PINSBASE
 10
0.0
 20
0.0
 30
0.0
  9
$PLIMCHECK
 70
     0
  9
$PEXTMIN
 10
1.000000000000000E+20
 20
1.000000000000000E+20
 30
1.000000000000000E+20
  9
$PEXTMAX
 10
-1.000000000000000E+20
 20
-1.000000000000000E+20
 30
-1.000000000000000E+20
  9
$PLIMMIN
 10
0.0
 20
0.0
  9
$PLIMMAX
 10
12.0
 20
9.0
  9
$UNITMODE
 70
     0
  9
$VISRETAIN
 70
     1
  9
$PLINEGEN
 70
     0
  9
$PSLTSCALE
 70
     1
  9
$TREEDEPTH
 70
  3020
  9
$CMLSTYLE
  2
Standard
  9
$CMLJUST
 70
     0
  9
$CMLSCALE
 40
1.0
  9
$PROXYGRAPHICS
 70
     1
  9
$MEASUREMENT
 70
     0
  9
$CELWEIGHT
370
    -1
  9
$ENDCAPS
280
     0
  9
$JOINSTYLE
280
     0
  9
$LWDISPLAY
290
     0
  9
$INSUNITS
 70
     1
  9
$HYPERLINKBASE
  1

  9
$STYLESHEET
  1

  9
$XEDIT
290
     1
  9
$CEPSNTYPE
380
     0
  9
$PSTYLEMODE
290
     1
  9
$FINGERPRINTGUID
  2
{7248FFF1-8BD4-453E-B2C8-081556DA6BBD}
  9
$VERSIONGUID
  2
{FAEB1C32-E019-11D5-929B-00C0DF256EC4}
  9
$EXTNAMES
290
     1
  9
$PSVPSCALE
 40
0.0
  9
$OLESTARTUP
290
     0
  9
$SORTENTS
280
   127
  9
$INDEXCTL
280
     0
  9
$HIDETEXT
280
     1
  9
$XCLIPFRAME
280
     2
  9
$HALOGAP
280
     0
  9
$OBSCOLOR
 70
   257
  9
$OBSLTYPE
280
     0
  9
$INTERSECTIONDISPLAY
280
     0
  9
$INTERSECTIONCOLOR
 70
   257
  9
$DIMASSOC
280
     2
  9
$PROJECTNAME
  1

  9
$CAMERADISPLAY
290
     0
  9
$LENSLENGTH
 40
50.0
  9
$CAMERAHEIGHT
 40
0.0
  9
$STEPSPERSEC
 40
2.0
  9
$STEPSIZE
 40
6.0
  9
$3DDWFPREC
 40
2.0
  9
$PSOLWIDTH
 40
0.25
  9
$PSOLHEIGHT
 40
4.0
  9
$LOFTANG1
 40
1.570796326794897
  9
$LOFTANG2
 40
1.570796326794897
  9
$LOFTMAG1
 40
0.0
  9
$LOFTMAG2
 40
0.0
  9
$LOFTPARAM
 70
     7
  9
$LOFTNORMALS
280
     1
  9
$LATITUDE
 40
37.795
  9
$LONGITUDE
 40
-122.394
  9
$NORTHDIRECTION
 40
0.0
  9
$TIMEZONE
 70
 -8000
  9
$LIGHTGLYPHDISPLAY
280
     1
  9
$TILEMODELIGHTSYNCH
280
     1
  9
$CMATERIAL
347
44
  9
$SOLIDHIST
280
     0
  9
$SHOWHIST
280
     1
  9
$DWFFRAME
280
     2
  9
$DGNFRAME
280
     2
  9
$REALWORLDSCALE
290
     1
  9
$INTERFERECOLOR
 62
   256
  9
$CSHADOW
280
     0
  9
$SHADOWPLANELOCATION
 40
0.0
  0
ENDSEC
  0
SECTION
  2
CLASSES
  0
CLASS
  1
ACDBDICTIONARYWDFLT
  2
AcDbDictionaryWithDefault
  3
ObjectDBX Classes
 90
        0
 91
        4
280
     0
281
     0
  0
CLASS
  1
VISUALSTYLE
  2
AcDbVisualStyle
  3
ObjectDBX Classes
 90
     4095
 91
        4
280
     0
281
     0
  0
CLASS
  1
MATERIAL
  2
AcDbMaterial
  3
ObjectDBX Classes
 90
     1153
 91
        4
280
     0
281
     0
  0
CLASS
  1
SCALE
  2
AcDbScale
  3
ObjectDBX Classes
 90
     1153
 91
        4
280
     0
281
     0
  0
CLASS
  1
TABLESTYLE
  2
AcDbTableStyle
  3
ObjectDBX Classes
 90
     4095
 91
        4
280
     0
281
     0
  0
CLASS
  1
MLEADERSTYLE
  2
AcDbMLeaderStyle
  3
ACDB_MLEADERSTYLE_CLASS
 90
     4095
 91
        4
280
     0
281
     0
  0
CLASS
  1
SUN
  2
AcDbSun
  3
SCENEOE
 90
     1153
 91
        4
280
     0
281
     0
  0
CLASS
  1
DICTIONARYVAR
  2
AcDbDictionaryVar
  3
ObjectDBX Classes
 90
        0
 91
        4
280
     0
281
     0
  0
CLASS
  1
CELLSTYLEMAP
  2
AcDbCellStyleMap
  3
ObjectDBX Classes
 90
     1152
 91
        4
280
     0
281
     0
  0
ENDSEC
  0
SECTION
  2
TABLES
  0
TABLE
  2
VPORT
  5
8
330
0
100
AcDbSymbolTable
 70
     1
  0
VPORT
  5
29
330
8
100
AcDbSymbolTableRecord
100
AcDbViewportTableRecord
  2
*Active
 70
     0
 10
0.0
 20
0.0
 11
1.0
 21
1.0
 12
-0.6947499999999991
 22
0.0
 13
0.0
 23
0.0
 14
0.5
 24
0.5
 15
0.5
 25
0.5
 16
0.0
 26
0.0
 36
1.0
 17
0.0
 27
0.0
 37
0.0
 40
4.977600000000001
 41
0.3042008196721305
 42
50.0
 43
0.0
 44
0.0
 50
0.0
 51
0.0
 71
     0
 72
   100
 73
     1
 74
     3
 75
     0
 76
     0
 77
     0
 78
     0
281
     0
 65
     1
110
0.0
120
0.0
130
0.0
111
1.0
121
0.0
131
0.0
112
0.0
122
1.0
132
0.0
 79
     0
146
0.0
348
2F
 60
     3
 61
     5
292
     1
282
     1
141
0.0
142
0.0
 63
   250
361
6D
  0
ENDTAB
  0
TABLE
  2
LTYPE
  5
5
330
0
100
AcDbSymbolTable
 70
     3
  0
LTYPE
  5
14
330
5
100
AcDbSymbolTableRecord
100
AcDbLinetypeTableRecord
  2
ByBlock
 70
     0
  3

 72
    65
 73
     0
 40
0.0
  0
LTYPE
  5
15
330
5
100
AcDbSymbolTableRecord
100
AcDbLinetypeTableRecord
  2
ByLayer
 70
     0
  3

 72
    65
 73
     0
 40
0.0
  0
LTYPE
  5
16
330
5
100
AcDbSymbolTableRecord
100
AcDbLinetypeTableRecord
  2
Continuous
 70
     0
  3
Solid line
 72
    65
 73
     0
 40
0.0
  0
LTYPE
  5
9B
330
5
100
AcDbSymbolTableRecord
100
AcDbLinetypeTableRecord
  2
Dashed
 70
     0
  3

 72
    65
 73
     2
 40
2.0
 49
1.0
 74
     0
 49
-1.0
 74
     0
  0
LTYPE
  5
129
330
5
100
AcDbSymbolTableRecord
100
AcDbLinetypeTableRecord
  2
Center
 70
     0
  3

 72
    65
 73
     4
 40
1.5
 49
0.45
 74
     0
 49
-0.5
 74
     0
 49
0.05
 74
     0
 49
-0.5
 74
     0
  0
ENDTAB
  0
TABLE
  2
LAYER
  5
2
330
0
100
AcDbSymbolTable
 70
     7
  0
LAYER
  5
10
330
2
100
AcDbSymbolTableRecord
100
AcDbLayerTableRecord
  2
0
 70
     0
 62
     7
  6
Continuous
370
    -3
390
F
347
46
348
0
  0
LAYER
  5
72
330
2
100
AcDbSymbolTableRecord
100
AcDbLayerTableRecord
  2
AM_6
 70
     0
 62
    -2
  6
Continuous
370
    35
390
F
347
46
348
0
  0
LAYER
  5
9C
330
2
100
AcDbSymbolTableRecord
100
AcDbLayerTableRecord
  2
AM_9
 70
     0
 62
     6
  6
Dashed
370
    25
390
F
347
46
348
0
  0
LAYER
  5
C7
330
2
100
AcDbSymbolTableRecord
100
AcDbLayerTableRecord
  2
AM_4
 70
     0
 62
     7
  6
Continuous
370
    50
390
F
347
46
348
0
  0
LAYER
  5
126
330
2
100
AcDbSymbolTableRecord
100
AcDbLayerTableRecord
  2
AM_5
 70
     0
 62
     3
  6
Continuous
370
    25
390
F
347
46
348
0
  0
LAYER
  5
12A
330
2
100
AcDbSymbolTableRecord
100
AcDbLayerTableRecord
  2
AM_7
 70
     0
 62
     7
  6
Center
370
    25
390
F
347
46
348
0
  0
LAYER
  5
19C
330
2
100
AcDbSymbolTableRecord
100
AcDbLayerTableRecord
  2
ConnectionPoints
 70
     0
 62
     7
  6
Continuous
370
    50
390
F
347
46
348
0
  0
ENDTAB
  0
TABLE
  2
STYLE
  5
3
330
0
100
AcDbSymbolTable
 70
     1
  0
STYLE
  5
11
330
3
100
AcDbSymbolTableRecord
100
AcDbTextStyleTableRecord
  2
Standard
 70
     0
 40
0.0
 41
1.0
 50
0.0
 71
     0
 42
0.2
  3
txt
  4

  0
ENDTAB
  0
TABLE
  2
VIEW
  5
6
330
0
100
AcDbSymbolTable
 70
     0
  0
ENDTAB
  0
TABLE
  2
UCS
  5
7
330
0
100
AcDbSymbolTable
 70
     0
  0
ENDTAB
  0
TABLE
  2
APPID
  5
9
330
0
100
AcDbSymbolTable
 70
     1
  0
APPID
  5
12
330
9
100
AcDbSymbolTableRecord
100
AcDbRegAppTableRecord
  2
ACAD
 70
     0
  0
ENDTAB
  0
TABLE
  2
DIMSTYLE
  5
A
330
0
100
AcDbSymbolTable
 70
     1
100
AcDbDimStyleTable
  0
DIMSTYLE
105
27
330
A
100
AcDbSymbolTableRecord
100
AcDbDimStyleTableRecord
  2
Standard
 70
     0
178
     0
340
11
  0
ENDTAB
  0
TABLE
  2
BLOCK_RECORD
  5
1
330
0
100
AcDbSymbolTable
 70
     5
  0
BLOCK_RECORD
  5
1F
330
1
100
AcDbSymbolTableRecord
100
AcDbBlockTableRecord
  2
*Model_Space
340
22
 70
     0
280
     1
281
     0
  0
BLOCK_RECORD
  5
1B
330
1
100
AcDbSymbolTableRecord
100
AcDbBlockTableRecord
  2
*Paper_Space
340
1E
 70
     0
280
     1
281
     0
  0
BLOCK_RECORD
  5
23
330
1
100
AcDbSymbolTableRecord
100
AcDbBlockTableRecord
  2
*Paper_Space0
340
26
 70
     0
280
     1
281
     0
  0
BLOCK_RECORD
  5
6E
330
1
100
AcDbSymbolTableRecord
100
AcDbBlockTableRecord
  2
1_123611_2
340
0
102
{BLKREFS
331
6F
102
}
 70
     0
280
     1
281
     0
  0
BLOCK_RECORD
  5
89
330
1
100
AcDbSymbolTableRecord
100
AcDbBlockTableRecord
  2
2_405020c_Inch_0_in_123611_2
340
0
102
{BLKREFS
331
8A
102
}
 70
     0
280
     1
281
     0
  0
BLOCK_RECORD
  5
E6
330
1
100
AcDbSymbolTableRecord
100
AcDbBlockTableRecord
  2
3_389926_0_in_123611_2
340
0
102
{BLKREFS
331
E7
102
}
 70
     0
280
     1
281
     0
  0
BLOCK_RECORD
  5
13F
330
1
100
AcDbSymbolTableRecord
100
AcDbBlockTableRecord
  2
4_123611vsc_0_in_123611_2
340
0
102
{BLKREFS
331
140
102
}
 70
     0
280
     1
281
     0
  0
ENDTAB
  0
ENDSEC
  0
SECTION
  2
BLOCKS
  0
BLOCK
  5
20
330
1F
100
AcDbEntity
  8
0
100
AcDbBlockBegin
  2
*Model_Space
 70
     0
 10
0.0
 20
0.0
 30
0.0
  3
*Model_Space
  1

  0
ENDBLK
  5
21
330
1F
100
AcDbEntity
  8
0
100
AcDbBlockEnd
  0
BLOCK
  5
1C
330
1B
100
AcDbEntity
 67
     1
  8
0
100
AcDbBlockBegin
  2
*Paper_Space
 70
     0
 10
0.0
 20
0.0
 30
0.0
  3
*Paper_Space
  1

  0
ENDBLK
  5
1D
330
1B
100
AcDbEntity
 67
     1
  8
0
100
AcDbBlockEnd
  0
BLOCK
  5
24
330
23
100
AcDbEntity
  8
0
100
AcDbBlockBegin
  2
*Paper_Space0
 70
     0
 10
0.0
 20
0.0
 30
0.0
  3
*Paper_Space0
  1

  0
ENDBLK
  5
25
330
23
100
AcDbEntity
  8
0
100
AcDbBlockEnd
  0
BLOCK
  5
70
330
6E
100
AcDbEntity
  8
0
100
AcDbBlockBegin
  2
1_123611_2
 70
     2
 10
0.0
 20
0.0
 30
0.0
  3
1_123611_2
  1

  0
ATTDEF
  5
73
330
6E
100
AcDbEntity
  8
AM_6
100
AcDbText
 10
5.0475
 20
2.44
 30
0.0
 40
0.5
  1
Set Screw Intermediate Duty Two-Bolt Flange Inch Bore
100
AcDbAttributeDefinition
  3

  2
NN
 70
     8
280
     0
  0
ATTDEF
  5
74
330
6E
100
AcDbEntity
  8
AM_6
100
AcDbText
 10
5.0475
 20
1.94
 30
0.0
 40
0.5
  1

100
AcDbAttributeDefinition
  3

  2
NT
 70
     8
280
     0
  0
ATTDEF
  5
75
330
6E
100
AcDbEntity
  8
AM_6
100
AcDbText
 10
5.0475
 20
1.44
 30
0.0
 40
0.5
  1
123611
100
AcDbAttributeDefinition
  3

  2
NB
 70
     8
280
     0
  0
ATTDEF
  5
76
330
6E
100
AcDbEntity
  8
AM_6
100
AcDbText
 10
5.0475
 20
0.9400000000000004
 30
0.0
 40
0.5
  1
$PN.
100
AcDbAttributeDefinition
  3

  2
NBSYN
 70
     8
280
     0
  0
ATTDEF
  5
77
330
6E
100
AcDbEntity
  8
AM_6
100
AcDbText
 10
5.0475
 20
0.4400000000000004
 30
0.0
 40
0.5
  1
123611
100
AcDbAttributeDefinition
  3

  2
LINA
 70
     8
280
     0
  0
ATTDEF
  5
78
330
6E
100
AcDbEntity
  8
AM_6
100
AcDbText
 10
5.0475
 20
-0.0599999999999996
 30
0.0
 40
0.5
  1
205
100
AcDbAttributeDefinition
  3

  2
RS
 70
     8
280
     0
  0
ATTDEF
  5
79
330
6E
100
AcDbEntity
  8
AM_6
100
AcDbText
 10
5.0475
 20
-0.5599999999999996
 30
0.0
 40
0.5
  1
1
100
AcDbAttributeDefinition
  3

  2
SS
 70
     8
280
     0
  0
ATTDEF
  5
7A
330
6E
100
AcDbEntity
  8
AM_6
100
AcDbText
 10
5.0475
 20
-1.06
 30
0.0
 40
0.5
  1
123611
100
AcDbAttributeDefinition
  3

  2
PN
 70
     8
280
     0
  0
ATTDEF
  5
7B
330
6E
100
AcDbEntity
  8
AM_6
100
AcDbText
 10
5.0475
 20
-1.56
 30
0.0
 40
0.5
  1
F2B-VSC-100
100
AcDbAttributeDefinition
  3

  2
DESCRIPTION
 70
     8
280
     0
  0
ATTDEF
  5
7C
330
6E
100
AcDbEntity
  8
AM_6
100
AcDbText
 10
5.0475
 20
-2.06
 30
0.0
 40
0.5
  1
RE-LUBE
100
AcDbAttributeDefinition
  3

  2
LF
 70
     8
280
     0
  0
ATTDEF
  5
7D
330
6E
100
AcDbEntity
  8
AM_6
100
AcDbText
 10
5.0475
 20
-2.56
 30
0.0
 40
0.5
  1
1.4
100
AcDbAttributeDefinition
  3

  2
WEIGHT
 70
     8
280
     0
  0
ATTDEF
  5
7E
330
6E
100
AcDbEntity
  8
AM_6
100
AcDbText
 10
5.0475
 20
-3.06
 30
0.0
 40
0.5
  1
1.34
100
AcDbAttributeDefinition
  3

  2
A
 70
     8
280
     0
  0
ATTDEF
  5
7F
330
6E
100
AcDbEntity
  8
AM_6
100
AcDbText
 10
5.0475
 20
-3.56
 30
0.0
 40
0.5
  1
4.88
100
AcDbAttributeDefinition
  3

  2
B
 70
     8
280
     0
  0
ATTDEF
  5
80
330
6E
100
AcDbEntity
  8
AM_6
100
AcDbText
 10
5.0475
 20
-4.06
 30
0.0
 40
0.5
  1
1.37
100
AcDbAttributeDefinition
  3

  2
C
 70
     8
280
     0
  0
ATTDEF
  5
81
330
6E
100
AcDbEntity
  8
AM_6
100
AcDbText
 10
5.0475
 20
-4.56
 30
0.0
 40
0.5
  1
3.89
100
AcDbAttributeDefinition
  3

  2
D
 70
     8
280
     0
  0
ATTDEF
  5
82
330
6E
100
AcDbEntity
  8
AM_6
100
AcDbText
 10
5.0475
 20
-5.06
 30
0.0
 40
0.5
  1
7/16
100
AcDbAttributeDefinition
  3

  2
F
 70
     8
280
     0
  0
ATTDEF
  5
83
330
6E
100
AcDbEntity
  8
AM_6
100
AcDbText
 10
5.0475
 20
-5.56
 30
0.0
 40
0.5
  1
0.52
100
AcDbAttributeDefinition
  3

  2
H
 70
     8
280
     0
  0
ATTDEF
  5
84
330
6E
100
AcDbEntity
  8
AM_6
100
AcDbText
 10
5.0475
 20
-6.06
 30
0.0
 40
0.5
  1
0.42
100
AcDbAttributeDefinition
  3

  2
J
 70
     8
280
     0
  0
ATTDEF
  5
85
330
6E
100
AcDbEntity
  8
AM_6
100
AcDbText
 10
5.0475
 20
-6.56
 30
0.0
 40
0.5
  1
1.32
100
AcDbAttributeDefinition
  3

  2
L
 70
     8
280
     0
  0
ATTDEF
  5
86
330
6E
100
AcDbEntity
  8
AM_6
100
AcDbText
 10
5.0475
 20
-7.06
 30
0.0
 40
0.5
  1
2.75
100
AcDbAttributeDefinition
  3

  2
M
 70
     8
280
     0
  0
ATTDEF
  5
87
330
6E
100
AcDbEntity
  8
AM_6
100
AcDbText
 10
5.0475
 20
-7.56
 30
0.0
 40
0.5
  1
1.44
100
AcDbAttributeDefinition
  3

  2
N
 70
     8
280
     0
  0
ATTDEF
  5
88
330
6E
100
AcDbEntity
  8
AM_6
100
AcDbText
 10
5.0475
 20
-8.059999999999999
 30
0.0
 40
0.5
  1
baldor
100
AcDbAttributeDefinition
  3

  2
COMPANY
 70
     8
280
     0
  0
INSERT
  5
8A
330
6E
100
AcDbEntity
  8
0
100
AcDbBlockReference
  2
2_405020c_Inch_0_in_123611_2
 10
0.0
 20
0.0
 30
0.0
  0
INSERT
  5
E7
330
6E
100
AcDbEntity
  8
0
100
AcDbBlockReference
  2
3_389926_0_in_123611_2
 10
0.0
 20
0.0
 30
0.0
  0
INSERT
  5
140
330
6E
100
AcDbEntity
  8
0
100
AcDbBlockReference
  2
4_123611vsc_0_in_123611_2
 10
0.0
 20
0.0
 30
0.0
  0
ENDBLK
  5
71
330
6E
100
AcDbEntity
  8
0
100
AcDbBlockEnd
  0
BLOCK
  5
8B
330
89
100
AcDbEntity
  8
0
100
AcDbBlockBegin
  2
2_405020c_Inch_0_in_123611_2
 70
     2
 10
0.0
 20
0.0
 30
0.0
  3
2_405020c_Inch_0_in_123611_2
  1

  0
ATTDEF
  5
8D
330
89
100
AcDbEntity
  8
AM_6
100
AcDbText
 10
4.499075297389709
 20
1.414439366277065
 30
0.0
 40
0.5
  1
405020C -Inch
100
AcDbAttributeDefinition
  3

  2
NN
 70
     8
280
     0
  0
ATTDEF
  5
8E
330
89
100
AcDbEntity
  8
AM_6
100
AcDbText
 10
4.499075297389709
 20
0.9144393662770653
 30
0.0
 40
0.5
  1
Grease fitting
100
AcDbAttributeDefinition
  3

  2
NT
 70
     8
280
     0
  0
ATTDEF
  5
8F
330
89
100
AcDbEntity
  8
AM_6
100
AcDbText
 10
4.499075297389709
 20
0.4144393662770653
 30
0.0
 40
0.5
  1
405020c-Inch
100
AcDbAttributeDefinition
  3

  2
NB
 70
     8
280
     0
  0
ATTDEF
  5
90
330
89
100
AcDbEntity
  8
AM_6
100
AcDbText
 10
4.499075297389709
 20
-0.0855606337229347
 30
0.0
 40
0.5
  1
$MN.-Inch
100
AcDbAttributeDefinition
  3

  2
NBSYN
 70
     8
280
     0
  0
ATTDEF
  5
91
330
89
100
AcDbEntity
  8
AM_6
100
AcDbText
 10
4.499075297389709
 20
-0.5855606337229347
 30
0.0
 40
0.5
  1
405020c
100
AcDbAttributeDefinition
  3

  2
LINA
 70
     8
280
     0
  0
ATTDEF
  5
92
330
89
100
AcDbEntity
  8
AM_6
100
AcDbText
 10
4.499075297389709
 20
-1.085560633722935
 30
0.0
 40
0.5
  1
405020c
100
AcDbAttributeDefinition
  3

  2
MN
 70
     8
280
     0
  0
ATTDEF
  5
93
330
89
100
AcDbEntity
  8
AM_6
100
AcDbText
 10
4.499075297389709
 20
-1.585560633722935
 30
0.0
 40
0.5
  1
0.230
100
AcDbAttributeDefinition
  3

  2
NDR
 70
     8
280
     0
  0
ATTDEF
  5
94
330
89
100
AcDbEntity
  8
AM_6
100
AcDbText
 10
4.499075297389709
 20
-2.085560633722935
 30
0.0
 40
0.5
  1
0.210
100
AcDbAttributeDefinition
  3

  2
KDR
 70
     8
280
     0
  0
ATTDEF
  5
95
330
89
100
AcDbEntity
  8
AM_6
100
AcDbText
 10
4.499075297389709
 20
-2.585560633722935
 30
0.0
 40
0.5
  1
0.157
100
AcDbAttributeDefinition
  3

  2
BZE
 70
     8
280
     0
  0
ATTDEF
  5
96
330
89
100
AcDbEntity
  8
AM_6
100
AcDbText
 10
4.499075297389709
 20
-3.085560633722935
 30
0.0
 40
0.5
  1
9/32
100
AcDbAttributeDefinition
  3

  2
WAF
 70
     8
280
     0
  0
ATTDEF
  5
97
330
89
100
AcDbEntity
  8
AM_6
100
AcDbText
 10
4.499075297389709
 20
-3.585560633722935
 30
0.0
 40
0.5
  1
0.2813
100
AcDbAttributeDefinition
  3

  2
WAF1
 70
     8
280
     0
  0
ATTDEF
  5
98
330
89
100
AcDbEntity
  8
AM_6
100
AcDbText
 10
4.499075297389709
 20
-4.085560633722935
 30
0.0
 40
0.5
  1
0.545
100
AcDbAttributeDefinition
  3

  2
BL
 70
     8
280
     0
  0
ATTDEF
  5
99
330
89
100
AcDbEntity
  8
AM_6
100
AcDbText
 10
4.499075297389709
 20
-4.585560633722935
 30
0.0
 40
0.5
  1
0.200
100
AcDbAttributeDefinition
  3

  2
TL
 70
     8
280
     0
  0
ATTDEF
  5
9A
330
89
100
AcDbEntity
  8
AM_6
100
AcDbText
 10
4.499075297389709
 20
-5.085560633722935
 30
0.0
 40
0.5
  1
baldor
100
AcDbAttributeDefinition
  3

  2
COMPANY
 70
     8
280
     0
  0
ELLIPSE
  5
9D
330
89
100
AcDbEntity
  8
AM_9
100
AcDbEllipse
 10
-0.6633333333333334
 20
0.9646647449745065
 30
0.0
 11
0.1000886227036577
 21
0.0
 31
0.0
210
0.0
220
0.0
230
1.0
 40
0.7071067811865474
 41
0.0
 42
6.283185307179586
  0
LINE
  5
9E
330
89
100
AcDbEntity
  8
AM_9
100
AcDbLine
 10
-0.5821290179718125
 20
1.248558542784162
 30
0.0
 11
-0.5821290179718125
 21
1.209663249266349
 31
0.0
  0
LINE
  5
9F
330
89
100
AcDbEntity
  8
AM_9
100
AcDbLine
 10
-0.7445376486948543
 20
1.248558542784162
 30
0.0
 11
-0.7445376486948543
 21
1.209663249266349
 31
0.0
  0
LWPOLYLINE
  5
A0
330
89
100
AcDbEntity
  8
AM_9
100
AcDbPolyline
 90
        4
 70
     0
 43
0.0
 10
-0.7445376486948543
 20
1.209663249266349
 10
-0.7256350851772366
 20
1.208038028609762
 10
-0.6945761589541538
 20
1.206190212428736
 10
-0.6633333333333334
 20
1.205540669985704
  0
LWPOLYLINE
  5
A1
330
89
100
AcDbEntity
  8
AM_9
100
AcDbPolyline
 90
        3
 70
     0
 43
0.0
 10
-0.6633333333333334
 20
1.205540669985704
 10
-0.622731175652573
 20
1.206628819260617
 10
-0.5821290179718125
 20
1.209663249266349
  0
LWPOLYLINE
  5
A2
330
89
100
AcDbEntity
  8
AM_9
100
AcDbPolyline
 90
        3
 70
     0
 43
0.0
 10
-0.5821290179718125
 20
1.209663249266349
 10
-0.5619192182484248
 20
1.1818865838805
 10
-0.5415268602910521
 20
1.15581338559876
  0
LWPOLYLINE
  5
A3
330
89
100
AcDbEntity
  8
AM_9
100
AcDbPolyline
 90
        3
 70
     0
 43
0.0
 10
-0.7851398063756148
 20
1.15581338559876
 10
-0.7648387275352345
 20
1.181765177067146
 10
-0.7445376486948543
 20
1.209663249266349
  0
LWPOLYLINE
  5
A4
330
89
100
AcDbEntity
  8
AM_9
100
AcDbPolyline
 90
        3
 70
     0
 43
0.0
 10
-0.5515133590003056
 20
1.214917400159358
 10
-0.5618279391314324
 20
1.226729330596422
 10
-0.5821290179718125
 20
1.248558542784162
  0
LINE
  5
A5
330
89
100
AcDbEntity
  8
AM_9
100
AcDbLine
 10
-0.660574839763123
 20
1.25267599734745
 30
0.0
 11
-0.6633333333333334
 21
1.252681122064807
 31
0.0
  0
LWPOLYLINE
  5
A6
330
89
100
AcDbEntity
  8
AM_9
100
AcDbPolyline
 90
        3
 70
     0
 43
0.0
 10
-0.5821290179718125
 20
1.248558542784162
 10
-0.6225486174185879
 20
1.251583359606941
 10
-0.6590366046035715
 20
1.252668690027537
  0
LWPOLYLINE
  5
A7
330
89
100
AcDbEntity
  8
AM_9
100
AcDbPolyline
 90
        3
 70
     0
 43
0.0
 10
-0.7445376486948543
 20
1.248558542784162
 10
-0.7647474484182419
 20
1.226831511043871
 10
-0.7751523260150153
 20
1.214918550130345
  0
LWPOLYLINE
  5
A8
330
89
100
AcDbEntity
  8
AM_9
100
AcDbPolyline
 90
        4
 70
     0
 43
0.0
 10
-0.6633333333333334
 20
1.252681122064807
 10
-0.694484209255285
 20
1.252035352129725
 10
-0.7256350851772366
 20
1.250183763440749
 10
-0.7445376486948543
 20
1.248558542784162
  0
LWPOLYLINE
  5
A9
330
89
100
AcDbEntity
  8
AM_9
100
AcDbPolyline
 90
        3
 70
     0
 43
0.0
 10
-0.8257419640563751
 20
1.110208680492461
 10
-0.8055321643329875
 20
1.131935712232752
 10
-0.7851398063756148
 20
1.15581338559876
  0
LWPOLYLINE
  5
AA
330
89
100
AcDbEntity
  8
AM_9
100
AcDbPolyline
 90
        3
 70
     0
 43
0.0
 10
-0.5415268602910521
 20
1.15581338559876
 10
-0.5212257814506719
 20
1.132037892680201
 10
-0.5009247026102917
 20
1.110208680492461
  0
LINE
  5
AB
330
89
100
AcDbEntity
  8
AM_9
100
AcDbLine
 10
-0.5529710064891147
 20
0.969527487436792
 30
0.0
 11
-0.547046344241439
 21
1.103515113295
 31
0.0
  0
LINE
  5
AC
330
89
100
AcDbEntity
  8
AM_9
100
AcDbLine
 10
-0.7796203224252277
 20
1.103515113295
 30
0.0
 11
-0.773695660177552
 21
0.969527487436792
 31
0.0
  0
LINE
  5
AD
330
89
100
AcDbEntity
  8
AM_9
100
AcDbLine
 10
-0.8257419640563751
 20
1.138672834422547
 30
0.0
 11
-0.8257419640563751
 21
1.110208680492461
 31
0.0
  0
LWPOLYLINE
  5
AE
330
89
100
AcDbEntity
  8
AM_9
100
AcDbPolyline
 90
        3
 70
     0
 43
0.0
 10
-0.7851398063756148
 20
1.056358816824872
 10
-0.805440885215995
 20
1.082310608293257
 10
-0.8257419640563751
 20
1.110208680492461
  0
LWPOLYLINE
  5
AF
330
89
100
AcDbEntity
  8
AM_9
100
AcDbPolyline
 90
        3
 70
     0
 43
0.0
 10
-0.7445376486948543
 20
1.010754111718573
 10
-0.7647474484182419
 20
1.032481143458865
 10
-0.7851398063756148
 20
1.056358816824872
  0
LWPOLYLINE
  5
B0
330
89
100
AcDbEntity
  8
AM_9
100
AcDbPolyline
 90
        3
 70
     0
 43
0.0
 10
-0.5415268602910521
 20
1.056358816824872
 10
-0.5618279391314324
 20
1.032583323906314
 10
-0.5821290179718125
 20
1.010754111718573
  0
LWPOLYLINE
  5
B1
330
89
100
AcDbEntity
  8
AM_9
100
AcDbPolyline
 90
        3
 70
     0
 43
0.0
 10
-0.5009247026102917
 20
1.110208680492461
 10
-0.5211345023336794
 20
1.082432015106612
 10
-0.5415268602910521
 20
1.056358816824872
  0
LINE
  5
B2
330
89
100
AcDbEntity
  8
AM_9
100
AcDbLine
 10
-0.5009247026102917
 20
1.138672834422547
 30
0.0
 11
-0.5009247026102917
 21
1.110208680492461
 31
0.0
  0
LINE
  5
B3
330
89
100
AcDbEntity
  8
AM_9
100
AcDbLine
 10
-0.7445376486948543
 20
1.039218265648658
 30
0.0
 11
-0.7445376486948543
 21
1.010754111718573
 31
0.0
  0
LWPOLYLINE
  5
B4
330
89
100
AcDbEntity
  8
AM_9
100
AcDbPolyline
 90
        4
 70
     0
 43
0.0
 10
-0.6633333333333334
 20
1.006631532437928
 10
-0.694484209255285
 20
1.00727730237301
 10
-0.7256350851772365
 20
1.009128891061986
 10
-0.7445376486948543
 20
1.010754111718573
  0
LWPOLYLINE
  5
B5
330
89
100
AcDbEntity
  8
AM_9
100
AcDbPolyline
 90
        3
 70
     0
 43
0.0
 10
-0.5821290179718125
 20
1.010754111718573
 10
-0.6225486174185879
 20
1.007729294895794
 10
-0.6633333333333334
 20
1.006631532437928
  0
LINE
  5
B6
330
89
100
AcDbEntity
  8
AM_9
100
AcDbLine
 10
-0.5821290179718125
 20
1.039218265648658
 30
0.0
 11
-0.5821290179718125
 21
1.010754111718573
 31
0.0
  0
ELLIPSE
  5
B7
330
89
100
AcDbEntity
  8
AM_9
100
AcDbEllipse
 10
-0.6633333333333339
 20
1.153226553290918
 30
0.0
 11
-0.1406500000000012
 21
1.722465723000766E-17
 31
0.0
210
0.0
220
0.0
230
1.0
 40
0.7071067811865465
 41
3.798906696793622
 42
5.625871263975751
  0
ELLIPSE
  5
B8
330
89
100
AcDbEntity
  8
AM_9
100
AcDbEllipse
 10
-0.6633333333333337
 20
1.175373526176453
 30
0.0
 11
-0.1093294505797712
 21
1.338899617050555E-17
 31
0.0
210
0.0
220
0.0
230
1.0
 40
0.707106781186538
 41
5.366738720311964
 42
5.928986666165889
  0
ELLIPSE
  5
B9
330
89
100
AcDbEntity
  8
AM_9
100
AcDbEllipse
 10
-0.663333333333334
 20
1.175373526176452
 30
0.0
 11
-0.1093294505797721
 21
1.338899617050566E-17
 31
0.0
210
0.0
220
0.0
230
1.0
 40
0.7071067811865404
 41
3.495791294603496
 42
4.123928142212277
  0
ELLIPSE
  5
BA
330
89
100
AcDbEntity
  8
AM_9
100
AcDbEllipse
 10
-0.6633333333333868
 20
1.175373526176299
 30
0.0
 11
-0.1093294505799199
 21
1.629135779715184E-9
 31
0.0
210
0.0
220
0.0
230
1.0
 40
0.7071067811870158
 41
4.294614975553557
 42
5.068800419899062
  0
LWPOLYLINE
  5
BB
330
89
100
AcDbEntity
  8
AM_9
100
AcDbPolyline
 90
       15
 70
     0
 43
0.0
 10
-0.7580181229724322
 20
1.200373526176451
 10
-0.757975764641447
 20
1.201749708403122
 10
-0.7573800217347745
 20
1.205735067614554
 10
-0.7561964770741513
 20
1.20948732562427
 10
-0.7544275617658348
 20
1.213252490932541
 10
-0.7520373624618185
 20
1.217090462472605
 10
-0.7486376436725308
 20
1.221397779141237
 10
-0.7444743177401245
 20
1.225665432566503
 10
-0.7395442078505838
 20
1.229841961178823
 10
-0.7338554516681733
 20
1.233864850406022
 10
-0.727434879366143
 20
1.237663200553584
 10
-0.7203282025154569
 20
1.241164341306395
 10
-0.7126007012165398
 20
1.244297957738761
 10
-0.7043244698120777
 20
1.247003460963317
 10
-0.697326050206324
 20
1.248832597990653
  0
LINE
  5
BC
330
89
100
AcDbEntity
  8
AM_9
100
AcDbLine
 10
-0.5734887339450314
 20
1.185370383934669
 30
0.0
 11
-0.5752336931500984
 21
1.182814130048533
 31
0.0
  0
LWPOLYLINE
  5
BD
330
89
100
AcDbEntity
  8
AM_9
100
AcDbPolyline
 90
       17
 70
     0
 43
0.0
 10
-0.6284730897459166
 20
1.248627145825291
 10
-0.6212590566549091
 20
1.246684186677281
 10
-0.6130465463296894
 20
1.243920277902768
 10
-0.6054056960866513
 20
1.240741288865411
 10
-0.5984126588732751
 20
1.237215390995251
 10
-0.5921293073618246
 20
1.233419015775064
 10
-0.5866006481154254
 20
1.229434524474712
 10
-0.5818580729419816
 20
1.225352131946162
 10
-0.5779060775089786
 20
1.221257616104326
 10
-0.5747255975703421
 20
1.217227433812481
 10
-0.5722751777879304
 20
1.213318437657751
 10
-0.5704956480520305
 20
1.209551823704283
 10
-0.5693227241222732
 20
1.205885718277084
 10
-0.568720081297693
 20
1.202162319327052
 10
-0.5687728599307493
 20
1.19801461595515
 10
-0.5695117452856726
 20
1.194129594495853
 10
-0.5704713792206045
 20
1.191256703200648
  0
LWPOLYLINE
  5
BE
330
89
100
AcDbEntity
  8
AM_9
100
AcDbPolyline
 90
        6
 70
     0
 43
0.0
 10
-0.7541140513982564
 20
1.18693167264514
 10
-0.7548176743106613
 20
1.188229330390063
 10
-0.7564650158275172
 20
1.191968584200838
 10
-0.7575174671304218
 20
1.195628281223513
 10
-0.7579969778957503
 20
1.199401343436342
 10
-0.7580181229724322
 20
1.200373526176451
  0
LWPOLYLINE
  5
BF
330
89
100
AcDbEntity
  8
AM_9
100
AcDbPolyline
 90
        3
 70
     0
 43
0.0
 10
-0.7513719362607638
 20
1.182731236739754
 10
-0.7525131474944661
 20
1.184349997346324
 10
-0.7541140513982564
 20
1.18693167264514
  0
ELLIPSE
  5
C0
330
89
100
AcDbEntity
  8
AM_9
100
AcDbEllipse
 10
-0.6633333333333334
 20
1.215315338112957
 30
0.0
 11
-0.09936940028726637
 21
1.216924179949928E-17
 31
0.0
210
0.0
220
0.0
230
1.0
 40
0.7071067811865466
 41
2.662490606914362
 42
6.283185307179586
  0
ELLIPSE
  5
C1
330
89
100
AcDbEntity
  8
AM_9
100
AcDbEllipse
 10
-0.6633333333333336
 20
1.292402910282711
 30
0.0
 11
-0.1319517646676798
 21
1.615943062421189E-17
 31
0.0
210
0.0
220
0.0
230
1.0
 40
0.7071067811865483
 41
3.579974428543796
 42
5.838262390413152
  0
ELLIPSE
  5
C2
330
89
100
AcDbEntity
  8
AM_9
100
AcDbEllipse
 10
-0.6633333333334764
 20
1.263646666817209
 30
0.0
 11
-0.1312419113467307
 21
1.607249866447544E-17
 31
0.0
210
0.0
220
0.0
230
1.0
 40
0.7071067811859433
 41
2.653137018980324
 42
6.771469182322818
  0
ELLIPSE
  5
C3
330
89
100
AcDbEntity
  8
AM_9
100
AcDbEllipse
 10
-0.6633333333333334
 20
1.339267486955897
 30
0.0
 11
-0.1038190510530388
 21
1.271416685626196E-17
 31
0.0
210
0.0
220
0.0
230
1.0
 40
0.7071067811865461
 41
3.619268989454932
 42
5.844803532225585
  0
ELLIPSE
  5
C4
330
89
100
AcDbEntity
  8
AM_9
100
AcDbEllipse
 10
-0.6633333333333324
 20
1.106086101211817
 30
0.0
 11
-0.1406500000000021
 21
1.722465723000777E-17
 31
0.0
210
0.0
220
0.0
230
1.0
 40
0.7071067811865483
 41
0.0
 42
6.283185307179586
  0
ELLIPSE
  5
C5
330
89
100
AcDbEntity
  8
AM_9
100
AcDbEllipse
 10
-0.6633333333333334
 20
1.106086101211816
 30
0.0
 11
-0.1163438171532771
 21
1.424800832773458E-17
 31
0.0
210
0.0
220
0.0
230
1.0
 40
0.7071067811865471
 41
0.0
 42
6.283185307179586
  0
ELLIPSE
  5
C6
330
89
100
AcDbEntity
  8
AM_9
100
AcDbEllipse
 10
-0.6633333333333334
 20
0.9719674870532921
 30
0.0
 11
-0.1104162595939893
 21
1.352209188856022E-17
 31
0.0
210
0.0
220
0.0
230
1.0
 40
0.7071067811865674
 41
0.0
 42
6.283185307179586
  0
LINE
  5
C8
330
89
100
AcDbEntity
  8
AM_4
100
AcDbLine
 10
-0.5415268602910521
 20
1.202953837677863
 30
0.0
 11
-0.5515133590003056
 21
1.214917400159358
 31
0.0
  0
LINE
  5
C9
330
89
100
AcDbEntity
  8
AM_4
100
AcDbLine
 10
-0.7751523260150153
 20
1.214918550130345
 30
0.0
 11
-0.7851398063756148
 21
1.202953837677863
 31
0.0
  0
LWPOLYLINE
  5
CA
330
89
100
AcDbEntity
  8
AM_4
100
AcDbPolyline
 90
        3
 70
     0
 43
0.0
 10
-0.5009247026102917
 20
1.149103974010274
 10
-0.5211345023336793
 20
1.176880639396123
 10
-0.5415268602910521
 20
1.202953837677863
  0
LWPOLYLINE
  5
CB
330
89
100
AcDbEntity
  8
AM_4
100
AcDbPolyline
 90
        3
 70
     0
 43
0.0
 10
-0.7851398063756148
 20
1.202953837677863
 10
-0.805440885215995
 20
1.177002046209478
 10
-0.8257419640563751
 20
1.149103974010274
  0
LINE
  5
CC
330
89
100
AcDbEntity
  8
AM_4
100
AcDbLine
 10
-0.8257419640563751
 20
1.149103974010274
 30
0.0
 11
-0.8257419640563751
 21
1.138672834422547
 31
0.0
  0
LWPOLYLINE
  5
CD
330
89
100
AcDbEntity
  8
AM_4
100
AcDbPolyline
 90
        3
 70
     0
 43
0.0
 10
-0.8257419640563751
 20
1.149103974010274
 10
-0.8055321643329875
 20
1.127376942269983
 10
-0.7851398063756148
 20
1.103499268903975
  0
LWPOLYLINE
  5
CE
330
89
100
AcDbEntity
  8
AM_4
100
AcDbPolyline
 90
        3
 70
     0
 43
0.0
 10
-0.7851398063756148
 20
1.103499268903975
 10
-0.7648387275352345
 20
1.07754747743559
 10
-0.7445376486948543
 20
1.049649405236387
  0
LINE
  5
CF
330
89
100
AcDbEntity
  8
AM_4
100
AcDbLine
 10
-0.5009247026102917
 20
1.149103974010274
 30
0.0
 11
-0.5009247026102917
 21
1.138672834422547
 31
0.0
  0
LWPOLYLINE
  5
D0
330
89
100
AcDbEntity
  8
AM_4
100
AcDbPolyline
 90
        3
 70
     0
 43
0.0
 10
-0.5415268602910521
 20
1.103499268903975
 10
-0.5212257814506719
 20
1.127274761822534
 10
-0.5009247026102917
 20
1.149103974010274
  0
LWPOLYLINE
  5
D1
330
89
100
AcDbEntity
  8
AM_4
100
AcDbPolyline
 90
        3
 70
     0
 43
0.0
 10
-0.5821290179718125
 20
1.049649405236387
 10
-0.5619192182484248
 20
1.077426070622235
 10
-0.5415268602910521
 20
1.103499268903975
  0
LINE
  5
D2
330
89
100
AcDbEntity
  8
AM_4
100
AcDbLine
 10
-0.7445376486948543
 20
1.049649405236387
 30
0.0
 11
-0.7445376486948543
 21
1.039218265648658
 31
0.0
  0
LINE
  5
D3
330
89
100
AcDbEntity
  8
AM_4
100
AcDbLine
 10
-0.5821290179718125
 20
1.049649405236387
 30
0.0
 11
-0.5821290179718125
 21
1.039218265648658
 31
0.0
  0
LWPOLYLINE
  5
D4
330
89
100
AcDbEntity
  8
AM_4
100
AcDbPolyline
 90
        3
 70
     0
 43
0.0
 10
-0.6633333333333334
 20
1.053771984517031
 10
-0.622731175652573
 20
1.052683835242118
 10
-0.5821290179718125
 20
1.049649405236387
  0
LWPOLYLINE
  5
D5
330
89
100
AcDbEntity
  8
AM_4
100
AcDbPolyline
 90
        4
 70
     0
 43
0.0
 10
-0.7445376486948543
 20
1.049649405236387
 10
-0.7256350851772365
 20
1.051274625892973
 10
-0.6945761589541537
 20
1.053122442074
 10
-0.6633333333333334
 20
1.053771984517031
  0
ELLIPSE
  5
D6
330
89
100
AcDbEntity
  8
AM_4
100
AcDbEllipse
 10
-0.6633333333333332
 20
1.15322655329092
 30
0.0
 11
-0.1406500000000005
 21
1.722465723000758E-17
 31
0.0
210
0.0
220
0.0
230
1.0
 40
0.707106781186553
 41
5.625871263975773
 42
10.0820920039732
  0
ELLIPSE
  5
D7
330
89
100
AcDbEntity
  8
AM_4
100
AcDbEllipse
 10
-0.6633333333333367
 20
1.175373526176456
 30
0.0
 11
-0.109329450579768
 21
1.629135779712921E-9
 31
0.0
210
0.0
220
0.0
230
1.0
 40
0.7071067811865459
 41
5.928986685971804
 42
9.778976621588916
  0
LINE
  5
D8
330
89
100
AcDbEntity
  8
AM_4
100
AcDbLine
 10
-0.5754289147700411
 20
1.182550334599296
 30
0.0
 11
-0.5472337707443263
 21
1.220372362313338
 31
0.0
  0
LINE
  5
D9
330
89
100
AcDbEntity
  8
AM_4
100
AcDbLine
 10
-0.7794328959223404
 20
1.220372362313338
 30
0.0
 11
-0.7512377518966257
 21
1.182550334599296
 31
0.0
  0
ELLIPSE
  5
DA
330
89
100
AcDbEntity
  8
AM_4
100
AcDbEllipse
 10
-0.6633333333333334
 20
1.215315338112957
 30
0.0
 11
-0.09936940028726626
 21
1.216924179949927E-17
 31
0.0
210
0.0
220
0.0
230
1.0
 40
0.7071067811865474
 41
0.48511224647378
 42
2.656480407116015
  0
LWPOLYLINE
  5
DB
330
89
100
AcDbEntity
  8
AM_4
100
AcDbPolyline
 90
        8
 70
     0
 43
0.0
 10
-0.7992598553283914
 20
1.278588478753939
 10
-0.7989648176299017
 20
1.27118655889277
 10
-0.7977163742717588
 20
1.261702251101271
 10
-0.7955131830977963
 20
1.252399800291445
 10
-0.792380320912194
 20
1.243333528690255
 10
-0.7883419983333975
 20
1.23455306288759
 10
-0.7834213241159937
 20
1.226105193724436
 10
-0.7791849053007103
 20
1.220041027864657
  0
LWPOLYLINE
  5
DC
330
89
100
AcDbEntity
  8
AM_4
100
AcDbPolyline
 90
       14
 70
     0
 43
0.0
 10
-0.5474929794639375
 20
1.220026102114066
 10
-0.5424827439674802
 20
1.227300241695924
 10
-0.5374417879480198
 20
1.236291890959764
 10
-0.5334179405705642
 20
1.245573510993128
 10
-0.5304223500217357
 20
1.255057761029868
 10
-0.5284545260171581
 20
1.264661718115095
 10
-0.5275054236447801
 20
1.274307454751887
 10
-0.5275599257386223
 20
1.283922333238885
 10
-0.5285987755189142
 20
1.29343861055115
 10
-0.5305977908834145
 20
1.30278517045824
 10
-0.5335318456054697
 20
1.311906813434733
 10
-0.537376493759625
 20
1.320753072565134
 10
-0.5421084158354504
 20
1.32927670168628
 10
-0.5440324741254502
 20
1.332268970769137
  0
LWPOLYLINE
  5
DD
330
89
100
AcDbEntity
  8
AM_4
100
AcDbPolyline
 90
        7
 70
     0
 43
0.0
 10
-0.7868007362110773
 20
1.325475434177292
 10
-0.7882209813865965
 20
1.322855887730398
 10
-0.7924660461860319
 20
1.313629401716722
 10
-0.7956841604069099
 20
1.304181754489027
 10
-0.7978735812085719
 20
1.294596889648825
 10
-0.79904173446468
 20
1.284953844230522
 10
-0.7992598553283914
 20
1.278588478753939
  0
LWPOLYLINE
  5
DE
330
89
100
AcDbEntity
  8
AM_4
100
AcDbPolyline
 90
        3
 70
     0
 43
0.0
 10
-0.7823439130905763
 20
1.332701661647517
 10
-0.7829630862622715
 20
1.331773055764677
 10
-0.7863601896966408
 20
1.326252339096046
  0
ELLIPSE
  5
DF
330
89
100
AcDbEntity
  8
AM_4
100
AcDbEllipse
 10
-0.6633333333333333
 20
1.263646666817433
 30
0.0
 11
-0.1312419113468906
 21
1.607249866449502E-17
 31
0.0
210
0.0
220
0.0
230
1.0
 40
0.7071067811865471
 41
0.4882838751444956
 42
2.653137018978035
  0
ELLIPSE
  5
E0
330
89
100
AcDbEntity
  8
AM_4
100
AcDbEllipse
 10
-0.6633333333333334
 20
1.350037940721175
 30
0.0
 11
0.08080642971672802
 21
0.0
 31
0.0
210
0.0
220
0.0
230
1.0
 40
0.7071067811865462
 41
0.0
 42
6.283185307179586
  0
LWPOLYLINE
  5
E1
330
89
100
AcDbEntity
  8
AM_4
100
AcDbPolyline
 90
       24
 70
     0
 43
0.0
 10
-0.5696270208064431
 20
1.370871173540501
 10
-0.5724900872350536
 20
1.374849645651422
 10
-0.5781222342166229
 20
1.381431264832799
 10
-0.5845759142124496
 20
1.387570063161349
 10
-0.5918002173876286
 20
1.393203756953475
 10
-0.5997283275148106
 20
1.398271257983176
 10
-0.6082793048131975
 20
1.402717263812405
 10
-0.6173624879672328
 20
1.406495686736967
 10
-0.6268824382428686
 20
1.409570925083602
 10
-0.6367399657051805
 20
1.411916687442223
 10
-0.646841397860711
 20
1.413516327813693
 10
-0.6570948425495856
 20
1.414359201220489
 10
-0.6674097898891934
 20
1.414439366277065
 10
-0.6776967477426353
 20
1.413754791996162
 10
-0.6878651480529065
 20
1.412307218458645
 10
-0.6978264447262548
 20
1.410101763798715
 10
-0.7074922020962092
 20
1.407146875894653
 10
-0.7167730211035475
 20
1.403454944407499
 10
-0.7255775547280743
 20
1.39904369044954
 10
-0.7338080318381529
 20
1.393941172279653
 10
-0.7413665338919322
 20
1.388187134741191
 10
-0.7481569392838494
 20
1.381836613969371
 10
-0.754090289638429
 20
1.37496181965926
 10
-0.7572326381422534
 20
1.370583007612741
  0
ELLIPSE
  5
E2
330
89
100
AcDbEntity
  8
AM_4
100
AcDbEllipse
 10
-0.6633333333333363
 20
1.292402910282709
 30
0.0
 11
-0.1319517646676771
 21
1.615943062421156E-17
 31
0.0
210
0.0
220
0.0
230
1.0
 40
0.7071067811865491
 41
5.844803532225553
 42
9.863159735723393
  0
ELLIPSE
  5
E3
330
89
100
AcDbEntity
  8
AM_4
100
AcDbEllipse
 10
-0.6633333333333375
 20
1.339267486955898
 30
0.0
 11
-0.1038190510530349
 21
1.271416685626148E-17
 31
0.0
210
0.0
220
0.0
230
1.0
 40
0.7071067811865469
 41
5.84480353222557
 42
9.863159735723361
  0
LINE
  5
E4
330
89
100
AcDbEntity
  8
AM_4
100
AcDbLine
 10
-0.7573352283634237
 20
1.37042867348903
 30
0.0
 11
-0.7828077053827334
 21
1.332008103264922
 31
0.0
  0
LINE
  5
E5
330
89
100
AcDbEntity
  8
AM_4
100
AcDbLine
 10
-0.5438589612839334
 20
1.332008103264922
 30
0.0
 11
-0.5693314383032431
 21
1.37042867348903
 31
0.0
  0
ENDBLK
  5
8C
330
89
100
AcDbEntity
  8
0
100
AcDbBlockEnd
  0
BLOCK
  5
E8
330
E6
100
AcDbEntity
  8
0
100
AcDbBlockBegin
  2
3_389926_0_in_123611_2
 70
     2
 10
0.0
 20
0.0
 30
0.0
  3
3_389926_0_in_123611_2
  1

  0
ATTDEF
  5
EA
330
E6
100
AcDbEntity
  8
AM_6
100
AcDbText
 10
4.97
 20
1.023071041524577
 30
0.0
 40
0.5
  1
Set Screw Intermediate Duty Insert Inch Bore
100
AcDbAttributeDefinition
  3

  2
NN
 70
     8
280
     0
  0
ATTDEF
  5
EB
330
E6
100
AcDbEntity
  8
AM_6
100
AcDbText
 10
4.97
 20
0.5230710415245772
 30
0.0
 40
0.5
  1
VSC Intermediate Duty Bearing Inserts
100
AcDbAttributeDefinition
  3

  2
NT
 70
     8
280
     0
  0
ATTDEF
  5
EC
330
E6
100
AcDbEntity
  8
AM_6
100
AcDbText
 10
4.97
 20
0.0230710415245772
 30
0.0
 40
0.5
  1
389926
100
AcDbAttributeDefinition
  3

  2
NB
 70
     8
280
     0
  0
ATTDEF
  5
ED
330
E6
100
AcDbEntity
  8
AM_6
100
AcDbText
 10
4.97
 20
-0.4769289584754228
 30
0.0
 40
0.5
  1
$PN.
100
AcDbAttributeDefinition
  3

  2
NBSYN
 70
     8
280
     0
  0
ATTDEF
  5
EE
330
E6
100
AcDbEntity
  8
AM_6
100
AcDbText
 10
4.97
 20
-0.9769289584754228
 30
0.0
 40
0.5
  1
389926
100
AcDbAttributeDefinition
  3

  2
LINA
 70
     8
280
     0
  0
ATTDEF
  5
EF
330
E6
100
AcDbEntity
  8
AM_6
100
AcDbText
 10
4.97
 20
-1.476928958475423
 30
0.0
 40
0.5
  1
205
100
AcDbAttributeDefinition
  3

  2
SERIES
 70
     8
280
     0
  0
ATTDEF
  5
F0
330
E6
100
AcDbEntity
  8
AM_6
100
AcDbText
 10
4.97
 20
-1.976928958475423
 30
0.0
 40
0.5
  1
1
100
AcDbAttributeDefinition
  3

  2
SS
 70
     8
280
     0
  0
ATTDEF
  5
F1
330
E6
100
AcDbEntity
  8
AM_6
100
AcDbText
 10
4.97
 20
-2.476928958475423
 30
0.0
 40
0.5
  1
389926
100
AcDbAttributeDefinition
  3

  2
PN
 70
     8
280
     0
  0
ATTDEF
  5
F2
330
E6
100
AcDbEntity
  8
AM_6
100
AcDbText
 10
4.97
 20
-2.976928958475423
 30
0.0
 40
0.5
  1
INS-VSC-100
100
AcDbAttributeDefinition
  3

  2
DESCRIPTION
 70
     8
280
     0
  0
ATTDEF
  5
F3
330
E6
100
AcDbEntity
  8
AM_6
100
AcDbText
 10
4.97
 20
-3.476928958475423
 30
0.0
 40
0.5
  1
0.25
100
AcDbAttributeDefinition
  3

  2
WEIGHT
 70
     8
280
     0
  0
ATTDEF
  5
F4
330
E6
100
AcDbEntity
  8
AM_6
100
AcDbText
 10
4.97
 20
-3.976928958475423
 30
0.0
 40
0.5
  1
1.34
100
AcDbAttributeDefinition
  3

  2
A
 70
     8
280
     0
  0
ATTDEF
  5
F5
330
E6
100
AcDbEntity
  8
AM_6
100
AcDbText
 10
4.97
 20
-4.476928958475423
 30
0.0
 40
0.5
  1
0.59
100
AcDbAttributeDefinition
  3

  2
C
 70
     8
280
     0
  0
ATTDEF
  5
F6
330
E6
100
AcDbEntity
  8
AM_6
100
AcDbText
 10
4.97
 20
-4.976928958475423
 30
0.0
 40
0.5
  1
2.0472
100
AcDbAttributeDefinition
  3

  2
D
 70
     8
280
     0
  0
ATTDEF
  5
F7
330
E6
100
AcDbEntity
  8
AM_6
100
AcDbText
 10
4.97
 20
-5.476928958475423
 30
0.0
 40
0.5
  1
0.160
100
AcDbAttributeDefinition
  3

  2
J
 70
     8
280
     0
  0
ATTDEF
  5
F8
330
E6
100
AcDbEntity
  8
AM_6
100
AcDbText
 10
4.97
 20
-5.976928958475423
 30
0.0
 40
0.5
  1
1.32
100
AcDbAttributeDefinition
  3

  2
L
 70
     8
280
     0
  0
ATTDEF
  5
F9
330
E6
100
AcDbEntity
  8
AM_6
100
AcDbText
 10
4.97
 20
-6.476928958475423
 30
0.0
 40
0.5
  1
1/4-28
100
AcDbAttributeDefinition
  3

  2
N
 70
     8
280
     0
  0
ATTDEF
  5
FA
330
E6
100
AcDbEntity
  8
AM_6
100
AcDbText
 10
4.97
 20
-6.976928958475423
 30
0.0
 40
0.5
  1
0.56
100
AcDbAttributeDefinition
  3

  2
W
 70
     8
280
     0
  0
ATTDEF
  5
FB
330
E6
100
AcDbEntity
  8
AM_6
100
AcDbText
 10
4.97
 20
-7.476928958475423
 30
0.0
 40
0.5
  1
0.78
100
AcDbAttributeDefinition
  3

  2
Y
 70
     8
280
     0
  0
ATTDEF
  5
FC
330
E6
100
AcDbEntity
  8
AM_6
100
AcDbText
 10
4.97
 20
-7.976928958475423
 30
0.0
 40
0.5
  1
baldor
100
AcDbAttributeDefinition
  3

  2
COMPANY
 70
     8
280
     0
  0
CIRCLE
  5
FD
330
E6
100
AcDbEntity
  8
AM_9
100
AcDbCircle
 10
-0.4300000000000001
 20
0.0
 30
0.0
 40
0.0296969696969725
  0
LINE
  5
FE
330
E6
100
AcDbEntity
  8
AM_9
100
AcDbLine
 10
-1.01435
 20
0.5000000000000001
 30
0.0
 11
-1.01435
 21
0.6406500000000002
 31
0.0
  0
LINE
  5
FF
330
E6
100
AcDbEntity
  8
AM_9
100
AcDbLine
 10
-1.22565
 20
0.6406500000000002
 30
0.0
 11
-1.22565
 21
0.5000000000000001
 31
0.0
  0
LINE
  5
100
330
E6
100
AcDbEntity
  8
AM_9
100
AcDbLine
 10
-1.22565
 20
0.6406500000000002
 30
0.0
 11
-1.01435
 21
0.6406500000000002
 31
0.0
  0
LINE
  5
101
330
E6
100
AcDbEntity
  8
AM_9
100
AcDbLine
 10
-1.01435
 20
0.6406500000000002
 30
0.0
 11
-0.9950000000000002
 21
0.6599999999999999
 31
0.0
  0
LINE
  5
102
330
E6
100
AcDbEntity
  8
AM_9
100
AcDbLine
 10
-1.245
 20
0.6599999999999999
 30
0.0
 11
-1.22565
 21
0.6406500000000002
 31
0.0
  0
LWPOLYLINE
  5
103
330
E6
100
AcDbEntity
  8
AM_9
100
AcDbPolyline
 90
       20
 70
     0
 43
0.0
 10
-1.22565
 20
0.5000000000000001
 10
-1.224229267700534
 20
0.4997017287796686
 10
-1.21984584859451
 20
0.4988058449753348
 10
-1.212883193966083
 20
0.4974589080731605
 10
-1.203154145388111
 20
0.4957344948611375
 10
-1.191283693872297
 20
0.4938820127440151
 10
-1.17704326286663
 20
0.4920284659839016
 10
-1.161435581171643
 20
0.4904640505552185
 10
-1.144122742074358
 20
0.4893056142996788
 10
-1.126855968357173
 20
0.4887587153208776
 10
-1.108870439958561
 20
0.4888373396199558
 10
-1.092001766169321
 20
0.4895119800348481
 10
-1.075451198261692
 20
0.4907368676147321
 10
-1.060460548639154
 20
0.492324104395012
 10
-1.046723283874237
 20
0.494173607779873
 10
-1.035128538937616
 20
0.4960254453179432
 10
-1.025640119411743
 20
0.4977367422288918
 10
-1.01905091194631
 20
0.499027850804814
 10
-1.015200863036942
 20
0.4998209045330156
 10
-1.014350000001184
 20
0.4999999999997499
  0
LINE
  5
104
330
E6
100
AcDbEntity
  8
AM_9
100
AcDbLine
 10
-1.3436
 20
-0.4999999999999999
 30
0.0
 11
-0.0366
 21
-0.4999999999999999
 31
0.0
  0
LINE
  5
105
330
E6
100
AcDbEntity
  8
AM_9
100
AcDbLine
 10
-0.0366
 20
0.5000000000000001
 30
0.0
 11
-1.01435
 21
0.5000000000000001
 31
0.0
  0
LINE
  5
106
330
E6
100
AcDbEntity
  8
AM_9
100
AcDbLine
 10
-1.225649999999999
 20
0.5000000000000001
 30
0.0
 11
-1.3436
 21
0.5000000000000001
 31
0.0
  0
LINE
  5
107
330
E6
100
AcDbEntity
  8
AM_9
100
AcDbLine
 10
-0.0366
 20
-0.4999999999999999
 30
0.0
 11
-0.03
 21
-0.5066
 31
0.0
  0
LINE
  5
108
330
E6
100
AcDbEntity
  8
AM_9
100
AcDbLine
 10
-0.03
 20
0.5066000000000002
 30
0.0
 11
-0.0366
 21
0.5000000000000001
 31
0.0
  0
LINE
  5
109
330
E6
100
AcDbEntity
  8
AM_9
100
AcDbLine
 10
-1.3436
 20
0.5
 30
0.0
 11
-1.37
 21
0.5264
 31
0.0
  0
LINE
  5
10A
330
E6
100
AcDbEntity
  8
AM_9
100
AcDbLine
 10
-1.37
 20
-0.5263999999999999
 30
0.0
 11
-1.3436
 21
-0.4999999999999998
 31
0.0
  0
LWPOLYLINE
  5
10B
330
E6
100
AcDbEntity
  8
AM_9
100
AcDbPolyline
 90
        4
 70
     0
 43
0.0
 10
-1.220277165816432
 20
0.2409873385346041
 10
-1.22285635000048
 20
0.2329364694988436
 10
-1.225426335056166
 20
0.2175164013297504
 10
-1.225649999746728
 20
0.2113157609365761
  0
LINE
  5
10C
330
E6
100
AcDbEntity
  8
AM_9
100
AcDbLine
 10
-1.01435
 20
0.21129336075581
 30
0.0
 11
-1.01435
 21
0.2707503893841792
 31
0.0
  0
LINE
  5
10D
330
E6
100
AcDbEntity
  8
AM_9
100
AcDbLine
 10
-1.22565
 20
0.2707503893841792
 30
0.0
 11
-1.22565
 21
0.21127687809271
 31
0.0
  0
LWPOLYLINE
  5
10E
330
E6
100
AcDbEntity
  8
AM_9
100
AcDbPolyline
 90
       21
 70
     0
 43
0.0
 10
-1.225649999746728
 20
0.2113157609365761
 10
-1.22506416365523
 20
0.2011873892256576
 10
-1.221873611539222
 20
0.185606072505638
 10
-1.215792857838437
 20
0.1700826280212766
 10
-1.207264274827778
 20
0.1558291055426589
 10
-1.19609001934326
 20
0.1425981083522078
 10
-1.182903341948206
 20
0.1313119107920401
 10
-1.167510858310411
 20
0.1219885514528917
 10
-1.151150551364748
 20
0.1154624265144583
 10
-1.133361763082747
 20
0.1116326661079669
 10
-1.116029008785267
 20
0.1108610955252634
 10
-1.098302745700516
 20
0.1130310524423706
 10
-1.081864592776615
 20
0.1178699097759575
 10
-1.066040581043442
 20
0.1254721431765425
 10
-1.051911790574367
 20
0.1353185185031696
 10
-1.039307596181985
 20
0.1475281240387678
 10
-1.029091894891721
 20
0.16129467075159
 10
-1.021211558392844
 20
0.1767710436876586
 10
-1.016370465342104
 20
0.1924938355524128
 10
-1.014380759583279
 20
0.2089960009643508
 10
-1.014350000497354
 20
0.2112998399214241
  0
LWPOLYLINE
  5
10F
330
E6
100
AcDbEntity
  8
AM_9
100
AcDbPolyline
 90
        4
 70
     0
 43
0.0
 10
-1.014350000497354
 20
0.2112998399214241
 10
-1.015375405274183
 20
0.224526113152596
 10
-1.019309896525054
 20
0.2398698823759589
 10
-1.019883231734102
 20
0.2414084833597347
  0
LINE
  5
110
330
E6
100
AcDbEntity
  8
AM_9
100
AcDbLine
 10
-0.295
 20
-0.6599999999999997
 30
0.0
 11
-0.1039999999999999
 21
-0.6599999999999997
 31
0.0
  0
LINE
  5
111
330
E6
100
AcDbEntity
  8
AM_9
100
AcDbLine
 10
-0.104
 20
0.6599999999999999
 30
0.0
 11
-0.295
 21
0.6599999999999999
 31
0.0
  0
LINE
  5
112
330
E6
100
AcDbEntity
  8
AM_9
100
AcDbLine
 10
-0.95
 20
-0.6599999999999997
 30
0.0
 11
-0.885
 21
-0.6599999999999997
 31
0.0
  0
LINE
  5
113
330
E6
100
AcDbEntity
  8
AM_9
100
AcDbLine
 10
-0.885
 20
0.6599999999999999
 30
0.0
 11
-0.95
 21
0.6599999999999999
 31
0.0
  0
LINE
  5
114
330
E6
100
AcDbEntity
  8
AM_9
100
AcDbLine
 10
-0.782
 20
-0.9702666666666666
 30
0.0
 11
-0.7180000000000001
 21
-0.9702666666666666
 31
0.0
  0
LINE
  5
115
330
E6
100
AcDbEntity
  8
AM_9
100
AcDbLine
 10
-0.7180000000000001
 20
0.9702666666666669
 30
0.0
 11
-0.782
 21
0.9702666666666669
 31
0.0
  0
LINE
  5
116
330
E6
100
AcDbEntity
  8
AM_9
100
AcDbLine
 10
-0.295
 20
0.9560865860370599
 30
0.0
 11
-0.295
 21
-0.9560865860370596
 31
0.0
  0
ARC
  5
117
330
E6
100
AcDbEntity
  8
AM_9
100
AcDbCircle
 10
-0.3270000000000001
 20
-0.9560865860370598
 30
0.0
 40
0.032
100
AcDbArc
 50
285.3804988373586
 51
0.0
  0
ARC
  5
118
330
E6
100
AcDbEntity
  8
AM_9
100
AcDbCircle
 10
-0.327
 20
0.95608658603706
 30
0.0
 40
0.032
100
AcDbArc
 50
0.0
 51
74.61950116264151
  0
LINE
  5
119
330
E6
100
AcDbEntity
  8
AM_9
100
AcDbLine
 10
-0.885
 20
0.9560865860370599
 30
0.0
 11
-0.885
 21
-0.9560865860370596
 31
0.0
  0
ARC
  5
11A
330
E6
100
AcDbEntity
  8
AM_9
100
AcDbCircle
 10
-0.8530000000000002
 20
-0.9560865860370598
 30
0.0
 40
0.0319999999999998
100
AcDbArc
 50
180.0
 51
254.6195040508824
  0
ARC
  5
11B
330
E6
100
AcDbEntity
  8
AM_9
100
AcDbCircle
 10
-0.8530000000000005
 20
0.9560865860370603
 30
0.0
 40
0.0319999999999995
100
AcDbArc
 50
105.3804959491172
 51
180.0
  0
ARC
  5
11C
330
E6
100
AcDbEntity
  8
AM_9
100
AcDbCircle
 10
-0.5900000000000853
 20
0.0000000000003657
 30
0.0
 40
1.023599999999625
100
AcDbArc
 50
100.8111968128517
 51
105.3804959491185
  0
ARC
  5
11D
330
E6
100
AcDbEntity
  8
AM_9
100
AcDbCircle
 10
-0.5899999999643473
 20
0.0000000001533874
 30
0.0
 40
1.023600000157226
100
AcDbArc
 50
254.6195040512334
 51
259.1888031867963
  0
LINE
  5
11E
330
E6
100
AcDbEntity
  8
AM_9
100
AcDbLine
 10
-0.8614872932634128
 20
0.9869405299188528
 30
0.0
 11
-0.8614872932634128
 21
-0.986940529918724
 31
0.0
  0
LINE
  5
11F
330
E6
100
AcDbEntity
  8
AM_9
100
AcDbLine
 10
-0.782
 20
1.005431728164573
 30
0.0
 11
-0.782
 21
-1.005431728164444
 31
0.0
  0
LWPOLYLINE
  5
120
330
E6
100
AcDbEntity
  8
AM_9
100
AcDbPolyline
 90
        5
 70
     0
 43
0.0
 10
-0.5084790748393627
 20
-0.0280264028516495
 10
-0.5119487166025771
 20
-0.0151126402575171
 10
-0.5133157021418
 20
-0.0014295001176374
 10
-0.5122659412824555
 20
0.0132744454557198
 10
-0.5084790748393598
 20
0.0280264028516576
  0
LWPOLYLINE
  5
121
330
E6
100
AcDbEntity
  8
AM_9
100
AcDbPolyline
 90
       34
 70
     0
 43
0.0
 10
-0.5084790748393627
 20
-0.0280264028516495
 10
-0.5027052947769601
 20
-0.0407062469307167
 10
-0.4949280819929617
 20
-0.0522378082729405
 10
-0.4852995569618808
 20
-0.0623301990593488
 10
-0.4741555580514484
 20
-0.0706734118152676
 10
-0.4616860474770161
 20
-0.0770655677473123
 10
-0.4483461908989432
 20
-0.0812887552121741
 10
-0.4343449217118153
 20
-0.0832117747367513
 10
-0.4202231837590908
 20
-0.0827578292890571
 10
-0.4063010457646393
 20
-0.0798836170070012
 10
-0.3930502627558635
 20
-0.0746937839584693
 10
-0.3808912360042813
 20
-0.0673150793055321
 10
-0.3701334473324628
 20
-0.0579693049479655
 10
-0.3611974993051385
 20
-0.0470020046122546
 10
-0.3542187848793983
 20
-0.0346648507755377
 10
-0.3494879251183824
 20
-0.0214661347541255
 10
-0.3470185045260378
 20
-0.0076495655660969
 10
-0.3469101439646755
 20
0.0062536263610554
 10
-0.3490972608708483
 20
0.0199797709157447
 10
-0.3535308702094411
 20
0.0330991214359626
 10
-0.3600503183554322
 20
0.0452933381665431
 10
-0.3685433189603075
 20
0.0562688842041388
 10
-0.3787072157525755
 20
0.0656772009801909
 10
-0.3904103437640896
 20
0.0733196640009522
 10
-0.4031979568497922
 20
0.0789056077057875
 10
-0.4168901865611784
 20
0.0822874280795051
 10
-0.4309473062296759
 20
0.0833279488248238
 10
-0.4450820115748665
 20
0.0819486193418308
 10
-0.4587918678296922
 20
0.0782014884214027
 10
-0.4716722701450618
 20
0.072155531047588
 10
-0.4833656420803303
 20
0.0640043177434095
 10
-0.493433395009865
 20
0.0540294318845793
 10
-0.5016939140580486
 20
0.0424785490745905
 10
-0.5084790748393598
 20
0.0280264028516576
  0
ARC
  5
122
330
E6
100
AcDbEntity
  8
AM_9
100
AcDbCircle
 10
-0.5899999999999991
 20
0.000000000000012
 30
0.0
 40
1.023599999999988
100
AcDbArc
 50
74.6195039605894
 51
97.18357665371084
  0
ARC
  5
123
330
E6
100
AcDbEntity
  8
AM_9
100
AcDbCircle
 10
-0.5900000000000165
 20
0.0000000000002376
 30
0.0
 40
1.023600000000225
100
AcDbArc
 50
262.8164233462919
 51
285.3804960394079
  0
LINE
  5
124
330
E6
100
AcDbEntity
  8
AM_9
100
AcDbLine
 10
-0.7179999999999999
 20
1.015565340093881
 30
0.0
 11
-0.7179999999999999
 21
-1.015565340093872
 31
0.0
  0
LINE
  5
125
330
E6
100
AcDbEntity
  8
AM_9
100
AcDbLine
 10
-0.3185127051812613
 20
0.9869405294910143
 30
0.0
 11
-0.3185127051812613
 21
-0.9869405294910051
 31
0.0
  0
LINE
  5
127
330
E6
100
AcDbEntity
  8
AM_5
100
AcDbLine
 10
-0.995
 20
0.6599999999999999
 30
0.0
 11
-0.995
 21
0.5000000000000001
 31
0.0
  0
LINE
  5
128
330
E6
100
AcDbEntity
  8
AM_5
100
AcDbLine
 10
-1.245
 20
0.6599999999999999
 30
0.0
 11
-1.245
 21
0.5000000000000001
 31
0.0
  0
LINE
  5
12B
330
E6
100
AcDbEntity
  8
AM_7
100
AcDbLine
 10
-0.4300000000000001
 20
-0.0311818181818211
 30
0.0
 11
-0.4300000000000001
 21
0.0311818181818212
 31
0.0
  0
LINE
  5
12C
330
E6
100
AcDbEntity
  8
AM_7
100
AcDbLine
 10
-1.12
 20
0.6702727272727276
 30
0.0
 11
-1.12
 21
0.4442727272727273
 31
0.0
  0
LWPOLYLINE
  5
12D
330
E6
100
AcDbEntity
  8
AM_4
100
AcDbPolyline
 90
        9
 70
     0
 43
0.0
 10
-1.12
 20
0.3022894536183211
 10
-1.137262841306829
 20
0.3011314123068449
 10
-1.154525682613657
 20
0.2975470776831757
 10
-1.170329684409255
 20
0.2918187623118907
 10
-1.185151668840382
 20
0.2837425544569219
 10
-1.197964903649611
 20
0.2737676400012525
 10
-1.208920635506614
 20
0.2616365475115204
 10
-1.217180813976277
 20
0.2481451813812316
 10
-1.220277165816432
 20
0.2409873385346041
  0
LWPOLYLINE
  5
12E
330
E6
100
AcDbEntity
  8
AM_4
100
AcDbPolyline
 90
        9
 70
     0
 43
0.0
 10
-1.019883231734102
 20
0.2414084833597347
 10
-1.025825121497119
 20
0.2537367700499248
 10
-1.035098464027601
 20
0.2666184711019583
 10
-1.04659650954602
 20
0.2777213139973524
 10
-1.06050386098865
 20
0.287187984347109
 10
-1.075873967471956
 20
0.2943781760550858
 10
-1.093018055679241
 20
0.2994287033857288
 10
-1.106272971589782
 20
0.3015592521218248
 10
-1.12
 20
0.3022894536183211
  0
LINE
  5
12F
330
E6
100
AcDbEntity
  8
AM_4
100
AcDbLine
 10
-1.37
 20
-0.6335999999999999
 30
0.0
 11
-1.3436
 21
-0.6599999999999999
 31
0.0
  0
LINE
  5
130
330
E6
100
AcDbEntity
  8
AM_4
100
AcDbLine
 10
-1.3436
 20
0.6600000000000003
 30
0.0
 11
-1.37
 21
0.6336000000000002
 31
0.0
  0
LINE
  5
131
330
E6
100
AcDbEntity
  8
AM_4
100
AcDbLine
 10
-1.37
 20
0.6336000000000002
 30
0.0
 11
-1.37
 21
-0.6335999999999999
 31
0.0
  0
LINE
  5
132
330
E6
100
AcDbEntity
  8
AM_4
100
AcDbLine
 10
-0.1039999999999999
 20
-0.6599999999999997
 30
0.0
 11
-0.0366000000000001
 21
-0.6599999999999997
 31
0.0
  0
LINE
  5
133
330
E6
100
AcDbEntity
  8
AM_4
100
AcDbLine
 10
-0.0366000000000001
 20
0.6599999999999999
 30
0.0
 11
-0.104
 21
0.6599999999999999
 31
0.0
  0
LWPOLYLINE
  5
134
330
E6
100
AcDbEntity
  8
AM_4
100
AcDbPolyline
 90
       39
 70
     0
 43
0.0
 10
-1.024055407120959
 20
0.2105361936389873
 10
-1.0370317071144
 20
0.1987561761977079
 10
-1.051658125002272
 20
0.188815757970766
 10
-1.070208979745291
 20
0.1798693218239588
 10
-1.090000885198194
 20
0.1738239559802216
 10
-1.111699735902054
 20
0.1707776601920823
 10
-1.133623275450607
 20
0.1711909751242489
 10
-1.155636514517231
 20
0.1752234707482682
 10
-1.176630016052454
 20
0.1827520830942803
 10
-1.195804176056843
 20
0.1935300767472772
 10
-1.21271047748194
 20
0.2072673942122902
 10
-1.22609761242399
 20
0.2228103964863268
 10
-1.236274164179546
 20
0.2402166844461855
 10
-1.242282805328798
 20
0.2572715568247275
 10
-1.244903074861399
 20
0.2748315768611914
 10
-1.244140598963848
 20
0.2909377931604831
 10
-1.240416043387656
 20
0.3065031707141562
 10
-1.2339572993268
 20
0.3209038028930741
 10
-1.225017089964768
 20
0.3340697150608685
 10
-1.213196442759125
 20
0.3463461454217335
 10
-1.199321826405186
 20
0.3568046260261357
 10
-1.182359850443778
 20
0.365935485134904
 10
-1.163903117761976
 20
0.3726826851524933
 10
-1.143007839928124
 20
0.3771684468967243
 10
-1.121505676854642
 20
0.37881171128386
 10
-1.099244351364749
 20
0.3774755900741086
 10
-1.077567255716661
 20
0.3731005417532187
 10
-1.057073942050125
 20
0.3656768420949267
 10
-1.038436191627209
 20
0.3553292783067675
 10
-1.022790340329972
 20
0.3426075882723607
 10
-1.010099692896513
 20
0.3274919606585077
 10
-1.001548030059514
 20
0.3116401978609086
 10
-0.9964200541492312
 20
0.2944473422512653
 10
-0.9950189388150076
 20
0.278052053585006
 10
-0.9967527842300927
 20
0.2614748246252641
 10
-1.001342856105015
 20
0.2458609257599671
 10
-1.008567934748168
 20
0.230969637247716
 10
-1.015689564004381
 20
0.2203648507611805
 10
-1.024055406724675
 20
0.2105361930766609
  0
LINE
  5
135
330
E6
100
AcDbEntity
  8
AM_4
100
AcDbLine
 10
-1.3436
 20
-0.6599999999999997
 30
0.0
 11
-0.95
 21
-0.6599999999999997
 31
0.0
  0
LINE
  5
136
330
E6
100
AcDbEntity
  8
AM_4
100
AcDbLine
 10
-0.95
 20
0.6599999999999999
 30
0.0
 11
-0.9950000000000003
 21
0.6599999999999999
 31
0.0
  0
LINE
  5
137
330
E6
100
AcDbEntity
  8
AM_4
100
AcDbLine
 10
-1.245
 20
0.6599999999999999
 30
0.0
 11
-1.3436
 21
0.6599999999999999
 31
0.0
  0
LINE
  5
138
330
E6
100
AcDbEntity
  8
AM_4
100
AcDbLine
 10
-1.3436
 20
0.6599999999999999
 30
0.0
 11
-1.3436
 21
-0.6599999999999997
 31
0.0
  0
LWPOLYLINE
  5
139
330
E6
100
AcDbEntity
  8
AM_4
100
AcDbPolyline
 90
       20
 70
     0
 43
0.0
 10
-0.9950000000004624
 20
0.6599999999999263
 10
-0.996249756610686
 20
0.6598019390335168
 10
-1.000282631277136
 20
0.6591757258076677
 10
-1.007158070958154
 20
0.6581538115453918
 10
-1.016565831600954
 20
0.6568495390984829
 10
-1.028487419546029
 20
0.6553543878708507
 10
-1.043130960470689
 20
0.6537617954432968
 10
-1.0599323890258
 20
0.6522698129324517
 10
-1.079133102594434
 20
0.6510085418237492
 10
-1.099890667555468
 20
0.6501825611726804
 10
-1.121635947149528
 20
0.6499200415270334
 10
-1.143943793108339
 20
0.6502928978105621
 10
-1.165266847114755
 20
0.6512555129556515
 10
-1.185888618921202
 20
0.6527459020569482
 10
-1.203690676170619
 20
0.6544700435937486
 10
-1.219491154051067
 20
0.6563354341713299
 10
-1.231051106928021
 20
0.6578971364840798
 10
-1.239605245758702
 20
0.6591585980244781
 10
-1.243895495350832
 20
0.6598248614147643
 10
-1.244999999999265
 20
0.659999999999883
  0
LINE
  5
13A
330
E6
100
AcDbEntity
  8
AM_4
100
AcDbLine
 10
-0.03
 20
0.6534000000000001
 30
0.0
 11
-0.0366000000000001
 21
0.6600000000000003
 31
0.0
  0
LINE
  5
13B
330
E6
100
AcDbEntity
  8
AM_4
100
AcDbLine
 10
-0.0366000000000001
 20
-0.6599999999999999
 30
0.0
 11
-0.03
 21
-0.6533999999999998
 31
0.0
  0
LINE
  5
13C
330
E6
100
AcDbEntity
  8
AM_4
100
AcDbLine
 10
-0.0366000000000001
 20
0.6600000000000003
 30
0.0
 11
-0.0366000000000001
 21
-0.6599999999999999
 31
0.0
  0
LINE
  5
13D
330
E6
100
AcDbEntity
  8
AM_4
100
AcDbLine
 10
-0.03
 20
0.6534000000000001
 30
0.0
 11
-0.03
 21
-0.6533999999999998
 31
0.0
  0
ELLIPSE
  5
13E
330
E6
100
AcDbEntity
  8
AM_4
100
AcDbEllipse
 10
-1.12
 20
0.2707503893841791
 30
0.0
 11
0.10565
 21
0.0
 31
0.0
210
0.0
220
0.0
230
1.0
 40
0.9063077870366496
 41
0.0
 42
6.283185307179586
  0
ENDBLK
  5
E9
330
E6
100
AcDbEntity
  8
0
100
AcDbBlockEnd
  0
BLOCK
  5
141
330
13F
100
AcDbEntity
  8
0
100
AcDbBlockBegin
  2
4_123611vsc_0_in_123611_2
 70
     2
 10
0.0
 20
0.0
 30
0.0
  3
4_123611vsc_0_in_123611_2
  1

  0
ATTDEF
  5
143
330
13F
100
AcDbEntity
  8
AM_6
100
AcDbText
 10
5.0475
 20
2.44
 30
0.0
 40
0.5
  1
F2B-VSC -Inch - housing
100
AcDbAttributeDefinition
  3

  2
NN
 70
     8
280
     0
  0
ATTDEF
  5
144
330
13F
100
AcDbEntity
  8
AM_6
100
AcDbText
 10
5.0475
 20
1.94
 30
0.0
 40
0.5
  1
VSC Intermediate Duty 2-Bolt Flange Bearings
100
AcDbAttributeDefinition
  3

  2
NT
 70
     8
280
     0
  0
ATTDEF
  5
145
330
13F
100
AcDbEntity
  8
AM_6
100
AcDbText
 10
5.0475
 20
1.44
 30
0.0
 40
0.5
  1
123611vsc
100
AcDbAttributeDefinition
  3

  2
NB
 70
     8
280
     0
  0
ATTDEF
  5
146
330
13F
100
AcDbEntity
  8
AM_6
100
AcDbText
 10
5.0475
 20
0.9400000000000004
 30
0.0
 40
0.5
  1
$PN.
100
AcDbAttributeDefinition
  3

  2
NBSYN
 70
     8
280
     0
  0
ATTDEF
  5
147
330
13F
100
AcDbEntity
  8
AM_6
100
AcDbText
 10
5.0475
 20
0.4400000000000004
 30
0.0
 40
0.5
  1
123611vsc
100
AcDbAttributeDefinition
  3

  2
LINA
 70
     8
280
     0
  0
ATTDEF
  5
148
330
13F
100
AcDbEntity
  8
AM_6
100
AcDbText
 10
5.0475
 20
-0.0599999999999996
 30
0.0
 40
0.5
  1
205
100
AcDbAttributeDefinition
  3

  2
RS
 70
     8
280
     0
  0
ATTDEF
  5
149
330
13F
100
AcDbEntity
  8
AM_6
100
AcDbText
 10
5.0475
 20
-0.5599999999999996
 30
0.0
 40
0.5
  1
1
100
AcDbAttributeDefinition
  3

  2
SS
 70
     8
280
     0
  0
ATTDEF
  5
14A
330
13F
100
AcDbEntity
  8
AM_6
100
AcDbText
 10
5.0475
 20
-1.06
 30
0.0
 40
0.5
  1
123611vsc
100
AcDbAttributeDefinition
  3

  2
PN
 70
     8
280
     0
  0
ATTDEF
  5
14B
330
13F
100
AcDbEntity
  8
AM_6
100
AcDbText
 10
5.0475
 20
-1.56
 30
0.0
 40
0.5
  1
F2B-VSC-100
100
AcDbAttributeDefinition
  3

  2
DESCRIPTION
 70
     8
280
     0
  0
ATTDEF
  5
14C
330
13F
100
AcDbEntity
  8
AM_6
100
AcDbText
 10
5.0475
 20
-2.06
 30
0.0
 40
0.5
  1
RE-LUBE
100
AcDbAttributeDefinition
  3

  2
LF
 70
     8
280
     0
  0
ATTDEF
  5
14D
330
13F
100
AcDbEntity
  8
AM_6
100
AcDbText
 10
5.0475
 20
-2.56
 30
0.0
 40
0.5
  1
1.4
100
AcDbAttributeDefinition
  3

  2
WEIGHT
 70
     8
280
     0
  0
ATTDEF
  5
14E
330
13F
100
AcDbEntity
  8
AM_6
100
AcDbText
 10
5.0475
 20
-3.06
 30
0.0
 40
0.5
  1
1.34
100
AcDbAttributeDefinition
  3

  2
A
 70
     8
280
     0
  0
ATTDEF
  5
14F
330
13F
100
AcDbEntity
  8
AM_6
100
AcDbText
 10
5.0475
 20
-3.56
 30
0.0
 40
0.5
  1
4.88
100
AcDbAttributeDefinition
  3

  2
B
 70
     8
280
     0
  0
ATTDEF
  5
150
330
13F
100
AcDbEntity
  8
AM_6
100
AcDbText
 10
5.0475
 20
-4.06
 30
0.0
 40
0.5
  1
1.37
100
AcDbAttributeDefinition
  3

  2
C
 70
     8
280
     0
  0
ATTDEF
  5
151
330
13F
100
AcDbEntity
  8
AM_6
100
AcDbText
 10
5.0475
 20
-4.56
 30
0.0
 40
0.5
  1
3.89
100
AcDbAttributeDefinition
  3

  2
D
 70
     8
280
     0
  0
ATTDEF
  5
152
330
13F
100
AcDbEntity
  8
AM_6
100
AcDbText
 10
5.0475
 20
-5.06
 30
0.0
 40
0.5
  1
7/16
100
AcDbAttributeDefinition
  3

  2
F
 70
     8
280
     0
  0
ATTDEF
  5
153
330
13F
100
AcDbEntity
  8
AM_6
100
AcDbText
 10
5.0475
 20
-5.56
 30
0.0
 40
0.5
  1
0.52
100
AcDbAttributeDefinition
  3

  2
H
 70
     8
280
     0
  0
ATTDEF
  5
154
330
13F
100
AcDbEntity
  8
AM_6
100
AcDbText
 10
5.0475
 20
-6.06
 30
0.0
 40
0.5
  1
0.42
100
AcDbAttributeDefinition
  3

  2
J
 70
     8
280
     0
  0
ATTDEF
  5
155
330
13F
100
AcDbEntity
  8
AM_6
100
AcDbText
 10
5.0475
 20
-6.56
 30
0.0
 40
0.5
  1
1.32
100
AcDbAttributeDefinition
  3

  2
L
 70
     8
280
     0
  0
ATTDEF
  5
156
330
13F
100
AcDbEntity
  8
AM_6
100
AcDbText
 10
5.0475
 20
-7.06
 30
0.0
 40
0.5
  1
2.75
100
AcDbAttributeDefinition
  3

  2
M
 70
     8
280
     0
  0
ATTDEF
  5
157
330
13F
100
AcDbEntity
  8
AM_6
100
AcDbText
 10
5.0475
 20
-7.56
 30
0.0
 40
0.5
  1
1.44
100
AcDbAttributeDefinition
  3

  2
N
 70
     8
280
     0
  0
ATTDEF
  5
158
330
13F
100
AcDbEntity
  8
AM_6
100
AcDbText
 10
5.0475
 20
-8.059999999999999
 30
0.0
 40
0.5
  1
baldor
100
AcDbAttributeDefinition
  3

  2
COMPANY
 70
     8
280
     0
  0
LINE
  5
159
330
13F
100
AcDbEntity
  8
AM_9
100
AcDbLine
 10
-0.0000000000000001
 20
1.405876703203185
 30
0.0
 11
-0.1040000000000001
 21
1.405876703203184
 31
0.0
  0
LINE
  5
15A
330
13F
100
AcDbEntity
  8
AM_9
100
AcDbLine
 10
-0.52
 20
-2.16375
 30
0.0
 11
0.0
 21
-2.16375
 31
0.0
  0
LINE
  5
15B
330
13F
100
AcDbEntity
  8
AM_9
100
AcDbLine
 10
0.0
 20
-1.72625
 30
0.0
 11
-0.52
 21
-1.72625
 31
0.0
  0
LINE
  5
15C
330
13F
100
AcDbEntity
  8
AM_9
100
AcDbLine
 10
-0.52
 20
1.72625
 30
0.0
 11
0.0
 21
1.72625
 31
0.0
  0
LINE
  5
15D
330
13F
100
AcDbEntity
  8
AM_9
100
AcDbLine
 10
0.0
 20
2.16375
 30
0.0
 11
-0.52
 21
2.16375
 31
0.0
  0
LINE
  5
15E
330
13F
100
AcDbEntity
  8
AM_9
100
AcDbLine
 10
-0.6175000000000002
 20
-0.9526762094226982
 30
0.0
 11
-0.104
 21
-0.9526762094226982
 31
0.0
  0
LINE
  5
15F
330
13F
100
AcDbEntity
  8
AM_9
100
AcDbLine
 10
-0.6175000000000002
 20
-1.0736
 30
0.0
 11
-0.104
 21
-1.0736
 31
0.0
  0
LINE
  5
160
330
13F
100
AcDbEntity
  8
AM_9
100
AcDbLine
 10
-0.6175000000000002
 20
-1.0736
 30
0.0
 11
-0.6175000000000002
 21
-0.8959531014511868
 31
0.0
  0
LINE
  5
161
330
13F
100
AcDbEntity
  8
AM_9
100
AcDbLine
 10
-0.6175000000000002
 20
0.8959531014511868
 30
0.0
 11
-0.6175000000000002
 21
1.0736
 31
0.0
  0
LINE
  5
162
330
13F
100
AcDbEntity
  8
AM_9
100
AcDbLine
 10
-0.6175000000000002
 20
0.9526762094226979
 30
0.0
 11
-0.104
 21
0.9526762094226979
 31
0.0
  0
LINE
  5
163
330
13F
100
AcDbEntity
  8
AM_9
100
AcDbLine
 10
-0.104
 20
1.0736
 30
0.0
 11
-0.6175000000000002
 21
1.0736
 31
0.0
  0
LINE
  5
164
330
13F
100
AcDbEntity
  8
AM_9
100
AcDbLine
 10
-0.104
 20
-1.376
 30
0.0
 11
0.0
 21
-1.376
 31
0.0
  0
LINE
  5
165
330
13F
100
AcDbEntity
  8
AM_9
100
AcDbLine
 10
0.0
 20
1.376
 30
0.0
 11
-0.104
 21
1.376
 31
0.0
  0
LINE
  5
166
330
13F
100
AcDbEntity
  8
AM_9
100
AcDbLine
 10
-0.8979999999999999
 20
1.375000000000003
 30
0.0
 11
-0.4679999999999999
 21
1.374802058250097
 31
0.0
  0
LINE
  5
167
330
13F
100
AcDbEntity
  8
AM_9
100
AcDbLine
 10
-0.52
 20
1.170847660184398
 30
0.0
 11
-0.5199999999999999
 21
1.449855121310205
 31
0.0
  0
LINE
  5
168
330
13F
100
AcDbEntity
  8
AM_9
100
AcDbLine
 10
-0.104
 20
1.225653104361909
 30
0.0
 11
0.0
 21
1.225653104361909
 31
0.0
  0
LINE
  5
169
330
13F
100
AcDbEntity
  8
AM_9
100
AcDbLine
 10
-0.104
 20
-1.225653108052198
 30
0.0
 11
0.0
 21
-1.225653108052198
 31
0.0
  0
LINE
  5
16A
330
13F
100
AcDbEntity
  8
AM_9
100
AcDbLine
 10
-0.468
 20
0.6221079691516709
 30
0.0
 11
-0.4679999999999999
 21
1.447238325454337
 31
0.0
  0
LINE
  5
16B
330
13F
100
AcDbEntity
  8
AM_9
100
AcDbLine
 10
-0.6175000000000002
 20
0.8959531014511868
 30
0.0
 11
-0.104
 21
0.8959531014511868
 31
0.0
  0
LINE
  5
16C
330
13F
100
AcDbEntity
  8
AM_9
100
AcDbLine
 10
-0.104
 20
-0.8959531014511868
 30
0.0
 11
-0.6175000000000002
 21
-0.8959531014511868
 31
0.0
  0
LINE
  5
16D
330
13F
100
AcDbEntity
  8
AM_9
100
AcDbLine
 10
-0.824
 20
-1.0236
 30
0.0
 11
-0.6175000000000002
 21
-1.0236
 31
0.0
  0
LINE
  5
16E
330
13F
100
AcDbEntity
  8
AM_9
100
AcDbLine
 10
-0.6175000000000002
 20
1.0236
 30
0.0
 11
-0.824
 21
1.0236
 31
0.0
  0
LINE
  5
16F
330
13F
100
AcDbEntity
  8
AM_9
100
AcDbLine
 10
-0.9500000000000001
 20
-1.1236
 30
0.0
 11
-0.824
 21
-1.1236
 31
0.0
  0
LINE
  5
170
330
13F
100
AcDbEntity
  8
AM_9
100
AcDbLine
 10
-0.824
 20
1.1236
 30
0.0
 11
-0.9500000000000001
 21
1.1236
 31
0.0
  0
LINE
  5
171
330
13F
100
AcDbEntity
  8
AM_9
100
AcDbLine
 10
-0.824
 20
1.1236
 30
0.0
 11
-0.824
 21
-1.1236
 31
0.0
  0
LINE
  5
172
330
13F
100
AcDbEntity
  8
AM_9
100
AcDbLine
 10
-0.468
 20
0.6221079691516709
 30
0.0
 11
-0.104
 21
0.6221079691516734
 31
0.0
  0
LINE
  5
173
330
13F
100
AcDbEntity
  8
AM_9
100
AcDbLine
 10
-0.52
 20
1.259695199603174
 30
0.0
 11
-0.8979999999999999
 21
1.259695199603174
 31
0.0
  0
LINE
  5
174
330
13F
100
AcDbEntity
  8
AM_9
100
AcDbLine
 10
-0.468
 20
1.170847660184398
 30
0.0
 11
-0.52
 21
1.170847660184398
 31
0.0
  0
LWPOLYLINE
  5
175
330
13F
100
AcDbEntity
  8
AM_9
100
AcDbPolyline
 90
       11
 70
     0
 43
0.0
 10
-0.9500000000000001
 20
1.220091889736738
 10
-0.9499284856652269
 20
1.222174392736185
 10
-0.9486068452832038
 20
1.229219543341441
 10
-0.945519314840521
 20
1.236204000102555
 10
-0.9409686200507688
 20
1.242426504897543
 10
-0.9347242319915137
 20
1.248155160571564
 10
-0.927788304586992
 20
1.252570898237209
 10
-0.9195655942291495
 20
1.256138663334166
 10
-0.9114981370263827
 20
1.258341628712923
 10
-0.9027291695178505
 20
1.259531571452207
 10
-0.8979999999999999
 20
1.259695199603174
  0
ARC
  5
176
330
13F
100
AcDbEntity
  8
AM_9
100
AcDbCircle
 10
-0.8979999999999997
 20
1.323
 30
0.0
 40
0.0520000000000005
100
AcDbArc
 50
90.0
 51
180.0
  0
LINE
  5
177
330
13F
100
AcDbEntity
  8
AM_9
100
AcDbLine
 10
-0.8979999999999999
 20
0.5511742048542534
 30
0.0
 11
-0.8979999999999999
 21
1.375
 31
0.0
  0
LINE
  5
178
330
13F
100
AcDbEntity
  8
AM_7
100
AcDbLine
 10
0.026
 20
1.945
 30
0.0
 11
-0.546
 21
1.945
 31
0.0
  0
LINE
  5
179
330
13F
100
AcDbEntity
  8
AM_7
100
AcDbLine
 10
0.026
 20
-1.945
 30
0.0
 11
-0.546
 21
-1.945
 31
0.0
  0
LINE
  5
17A
330
13F
100
AcDbEntity
  8
AM_7
100
AcDbLine
 10
-1.437
 20
0.0000000000000001
 30
0.0
 11
0.0475
 21
0.0
 31
0.0
  0
LINE
  5
17B
330
13F
100
AcDbEntity
  8
AM_4
100
AcDbLine
 10
-0.52
 20
-2.44
 30
0.0
 11
0.0
 21
-2.44
 31
0.0
  0
LINE
  5
17C
330
13F
100
AcDbEntity
  8
AM_4
100
AcDbLine
 10
-0.5199999999999999
 20
1.449855121310205
 30
0.0
 11
-0.52
 21
2.44
 31
0.0
  0
LINE
  5
17D
330
13F
100
AcDbEntity
  8
AM_4
100
AcDbLine
 10
0.0
 20
2.44
 30
0.0
 11
-0.52
 21
2.44
 31
0.0
  0
LINE
  5
17E
330
13F
100
AcDbEntity
  8
AM_4
100
AcDbLine
 10
-0.468
 20
2.07337424637085
 30
0.0
 11
-0.52
 21
2.07337424637085
 31
0.0
  0
LINE
  5
17F
330
13F
100
AcDbEntity
  8
AM_4
100
AcDbLine
 10
-0.52
 20
-2.44
 30
0.0
 11
-0.5199999999999999
 21
-1.170847660184398
 31
0.0
  0
LINE
  5
180
330
13F
100
AcDbEntity
  8
AM_4
100
AcDbLine
 10
-0.468
 20
-2.073374246370851
 30
0.0
 11
-0.52
 21
-2.073374246370851
 31
0.0
  0
LINE
  5
181
330
13F
100
AcDbEntity
  8
AM_4
100
AcDbLine
 10
-0.4679999999999999
 20
1.447238325454337
 30
0.0
 11
-0.468
 21
2.140885065668444
 31
0.0
  0
LINE
  5
182
330
13F
100
AcDbEntity
  8
AM_4
100
AcDbLine
 10
-0.52
 20
2.168958868894601
 30
0.0
 11
0.0
 21
2.168958868894601
 31
0.0
  0
LINE
  5
183
330
13F
100
AcDbEntity
  8
AM_4
100
AcDbLine
 10
-0.468
 20
2.140885065668444
 30
0.0
 11
-0.52
 21
2.140885065668441
 31
0.0
  0
LINE
  5
184
330
13F
100
AcDbEntity
  8
AM_4
100
AcDbLine
 10
-0.104
 20
1.421533291645563
 30
0.0
 11
0.0000000000000001
 21
1.421533291645563
 31
0.0
  0
LINE
  5
185
330
13F
100
AcDbEntity
  8
AM_4
100
AcDbLine
 10
-0.104
 20
1.20971881006887
 30
0.0
 11
0.0
 21
1.20971881006887
 31
0.0
  0
LINE
  5
186
330
13F
100
AcDbEntity
  8
AM_4
100
AcDbLine
 10
0.0
 20
1.20971881006887
 30
0.0
 11
0.0
 21
2.44
 31
0.0
  0
LINE
  5
187
330
13F
100
AcDbEntity
  8
AM_4
100
AcDbLine
 10
0.0
 20
-2.44
 30
0.0
 11
0.0
 21
-1.20971881006887
 31
0.0
  0
LINE
  5
188
330
13F
100
AcDbEntity
  8
AM_4
100
AcDbLine
 10
0.0
 20
-1.20971881006887
 30
0.0
 11
-0.104
 21
-1.20971881006887
 31
0.0
  0
LINE
  5
189
330
13F
100
AcDbEntity
  8
AM_4
100
AcDbLine
 10
-0.104
 20
1.446938717322874
 30
0.0
 11
0.0
 21
1.446938717322874
 31
0.0
  0
LINE
  5
18A
330
13F
100
AcDbEntity
  8
AM_4
100
AcDbLine
 10
0.0
 20
1.447238325454337
 30
0.0
 11
-0.4679999999999999
 21
1.447238325454337
 31
0.0
  0
LINE
  5
18B
330
13F
100
AcDbEntity
  8
AM_4
100
AcDbLine
 10
-0.4679999999999999
 20
1.449855121310205
 30
0.0
 11
-0.9500000000000001
 21
1.449855121310205
 31
0.0
  0
LINE
  5
18C
330
13F
100
AcDbEntity
  8
AM_4
100
AcDbLine
 10
-0.468
 20
-2.140885065668441
 30
0.0
 11
-0.4679999999999999
 21
-0.6221079691516712
 31
0.0
  0
LINE
  5
18D
330
13F
100
AcDbEntity
  8
AM_4
100
AcDbLine
 10
0.0000000000000001
 20
-1.405876703203186
 30
0.0
 11
-0.104
 21
-1.405876703203186
 31
0.0
  0
LINE
  5
18E
330
13F
100
AcDbEntity
  8
AM_4
100
AcDbLine
 10
-0.52
 20
-2.14088506566844
 30
0.0
 11
-0.468
 21
-2.140885065668441
 31
0.0
  0
LINE
  5
18F
330
13F
100
AcDbEntity
  8
AM_4
100
AcDbLine
 10
-0.52
 20
-2.168958868894601
 30
0.0
 11
0.0
 21
-2.168958868894601
 31
0.0
  0
LINE
  5
190
330
13F
100
AcDbEntity
  8
AM_4
100
AcDbLine
 10
-0.4679999999999999
 20
-1.170847660184398
 30
0.0
 11
-0.5199999999999999
 21
-1.170847660184398
 31
0.0
  0
LINE
  5
191
330
13F
100
AcDbEntity
  8
AM_4
100
AcDbLine
 10
-0.4679999999999999
 20
-0.6221079691516712
 30
0.0
 11
-0.1039999999999999
 21
-0.6221079691516714
 31
0.0
  0
LINE
  5
192
330
13F
100
AcDbEntity
  8
AM_4
100
AcDbLine
 10
-0.8979999999999999
 20
-1.375000000000003
 30
0.0
 11
-0.52
 21
-1.375000000000003
 31
0.0
  0
LINE
  5
193
330
13F
100
AcDbEntity
  8
AM_4
100
AcDbLine
 10
-0.9500000000000001
 20
1.449855121310205
 30
0.0
 11
-0.9500000000000001
 21
-1.323
 31
0.0
  0
LINE
  5
194
330
13F
100
AcDbEntity
  8
AM_4
100
AcDbLine
 10
-0.8979999999999998
 20
0.5511742048542534
 30
0.0
 11
-0.8979999999999999
 21
-1.375
 31
0.0
  0
ARC
  5
195
330
13F
100
AcDbEntity
  8
AM_4
100
AcDbCircle
 10
-0.8979999999999997
 20
-1.323
 30
0.0
 40
0.0520000000000004
100
AcDbArc
 50
180.0
 51
270.0
  0
LINE
  5
196
330
13F
100
AcDbEntity
  8
AM_4
100
AcDbLine
 10
-0.9500000000000001
 20
1.419394226553606
 30
0.0
 11
-0.104
 21
1.419394226553606
 31
0.0
  0
LINE
  5
197
330
13F
100
AcDbEntity
  8
AM_4
100
AcDbLine
 10
-0.104
 20
-1.405876703203186
 30
0.0
 11
-0.104
 21
1.446938717322874
 31
0.0
  0
LINE
  5
198
330
13F
100
AcDbEntity
  8
AM_4
100
AcDbLine
 10
-0.8979999999999998
 20
0.5511742048542534
 30
0.0
 11
-0.104
 21
0.5511742048542534
 31
0.0
  0
LWPOLYLINE
  5
199
330
13F
100
AcDbEntity
  8
AM_4
100
AcDbPolyline
 90
       11
 70
     0
 43
0.0
 10
-0.8979999999999998
 20
0.5511742048542534
 10
-0.9062772417051297
 20
0.5506666391093785
 10
-0.9143160194567377
 20
0.5491799473963934
 10
-0.9218784110671444
 20
0.5467598209696396
 10
-0.9287885580573155
 20
0.5435050123128654
 10
-0.9350336738714499
 20
0.5393930906724699
 10
-0.9402946939343939
 20
0.5346401926154019
 10
-0.9446990499404521
 20
0.5290147981640655
 10
-0.9478089905250365
 20
0.5229709376993037
 10
-0.9494492960835076
 20
0.5173234738121192
 10
-0.95
 20
0.5115708949878168
  0
LINE
  5
19A
330
13F
100
AcDbEntity
  8
AM_4
100
AcDbLine
 10
-0.95
 20
0.7108732318046856
 30
0.0
 11
-0.104
 21
0.7108732318046855
 31
0.0
  0
LINE
  5
19B
330
13F
100
AcDbEntity
  8
AM_4
100
AcDbLine
 10
-0.95
 20
0.857951442291487
 30
0.0
 11
-0.104
 21
0.8579514422914871
 31
0.0
  0
ENDBLK
  5
142
330
13F
100
AcDbEntity
  8
0
100
AcDbBlockEnd
  0
ENDSEC
  0
SECTION
  2
ENTITIES
  0
INSERT
  5
6F
330
1F
100
AcDbEntity
  8
0
100
AcDbBlockReference
  2
1_123611_2
 10
0.0
 20
0.0
 30
0.0
  0
POINT
  5
19D
330
1F
100
AcDbEntity
  8
ConnectionPoints
100
AcDbPoint
 10
-1.37
 20
0.0000000000000001
 30
0.0000000000000001
  0
POINT
  5
19E
330
1F
100
AcDbEntity
  8
ConnectionPoints
100
AcDbPoint
 10
-0.6633333333333333
 20
1.106086101211816
 30
1.106086101211816
  0
POINT
  5
19F
330
1F
100
AcDbEntity
  8
ConnectionPoints
100
AcDbPoint
 10
-1.37
 20
0.0
 30
0.0000000000000001
  0
ENDSEC
  0
SECTION
  2
OBJECTS
  0
DICTIONARY
  5
C
330
0
100
AcDbDictionary
281
     1
  3
ACAD_DETAILVIEWSTYLE
350
1A7
  3
ACAD_GROUP
350
D
  3
ACAD_LAYOUT
350
1A
  3
ACAD_MATERIAL
350
43
  3
ACAD_MLEADERSTYLE
350
6B
  3
ACAD_MLINESTYLE
350
17
  3
ACAD_PLOTSETTINGS
350
19
  3
ACAD_PLOTSTYLENAME
350
E
  3
ACAD_SCALELIST
350
47
  3
ACAD_SECTIONVIEWSTYLE
350
1A8
  3
ACAD_TABLESTYLE
350
69
  3
ACAD_VISUALSTYLE
350
2A
  3
ACDB_RECOMPOSE_DATA
350
1A4
  3
AcDbVariableDictionary
350
1A0
  0
SUN
  5
6D
330
29
100
AcDbSun
 90
        1
290
     0
 63
     7
421
 16777215
 40
1.0
291
     1
 91
  2455826
 92
 54000000
292
     0
 70
     2
 71
   256
280
     1
  0
DICTIONARY
  5
1A7
102
{ACAD_REACTORS
330
C
102
}
330
C
100
AcDbDictionary
281
     1
  0
DICTIONARY
  5
D
102
{ACAD_REACTORS
330
C
102
}
330
C
100
AcDbDictionary
281
     1
  0
DICTIONARY
  5
1A
102
{ACAD_REACTORS
330
C
102
}
330
C
100
AcDbDictionary
281
     1
  3
Layout1
350
1E
  3
Layout2
350
26
  3
Model
350
22
  0
DICTIONARY
  5
43
102
{ACAD_REACTORS
330
C
102
}
330
C
100
AcDbDictionary
281
     1
  3
ByBlock
350
45
  3
ByLayer
350
44
  3
Global
350
46
  0
DICTIONARY
  5
6B
102
{ACAD_REACTORS
330
C
102
}
330
C
100
AcDbDictionary
281
     1
  3
Standard
350
6C
  0
DICTIONARY
  5
17
102
{ACAD_REACTORS
330
C
102
}
330
C
100
AcDbDictionary
281
     1
  3
Standard
350
18
  0
DICTIONARY
  5
19
102
{ACAD_REACTORS
330
C
102
}
330
C
100
AcDbDictionary
281
     1
  0
ACDBDICTIONARYWDFLT
  5
E
102
{ACAD_REACTORS
330
C
102
}
330
C
100
AcDbDictionary
281
     1
  3
Normal
350
F
100
AcDbDictionaryWithDefault
340
F
  0
DICTIONARY
  5
47
102
{ACAD_REACTORS
330
C
102
}
330
C
100
AcDbDictionary
281
     1
  3
A0
350
48
  3
A1
350
49
  3
A2
350
4A
  3
A3
350
4B
  3
A4
350
4C
  3
A5
350
4D
  3
A6
350
4E
  3
A7
350
4F
  3
A8
350
50
  3
A9
350
51
  3
B0
350
52
  3
B1
350
53
  3
B2
350
54
  3
B3
350
55
  3
B4
350
56
  3
B5
350
57
  3
B6
350
58
  3
B7
350
59
  3
B8
350
5A
  3
B9
350
5B
  3
C0
350
5C
  3
C1
350
5D
  3
C2
350
5E
  3
C3
350
5F
  3
C4
350
60
  3
C5
350
61
  3
C6
350
62
  3
C7
350
63
  3
C8
350
64
  3
C9
350
65
  3
D0
350
66
  3
D1
350
67
  3
D2
350
68
  0
DICTIONARY
  5
1A8
102
{ACAD_REACTORS
330
C
102
}
330
C
100
AcDbDictionary
281
     1
  0
DICTIONARY
  5
69
102
{ACAD_REACTORS
330
C
102
}
330
C
100
AcDbDictionary
281
     1
  3
Standard
350
6A
  0
DICTIONARY
  5
2A
102
{ACAD_REACTORS
330
C
102
}
330
C
100
AcDbDictionary
281
     1
  3
2dWireframe
350
2F
  3
Basic
350
32
  3
Brighten
350
36
  3
ColorChange
350
3A
  3
Conceptual
350
34
  3
Dim
350
35
  3
EdgeColorOff
350
3D
  3
Facepattern
350
39
  3
Flat
350
2B
  3
FlatWithEdges
350
2C
  3
Gouraud
350
2D
  3
GouraudWithEdges
350
2E
  3
Hidden
350
31
  3
JitterOff
350
3B
  3
Linepattern
350
38
  3
OverhangOff
350
3C
  3
Realistic
350
33
  3
Shaded
350
42
  3
Shaded with edges
350
41
  3
Shades of Gray
350
3E
  3
Sketchy
350
3F
  3
Thicken
350
37
  3
Wireframe
350
30
  3
X-Ray
350
40
  0
XRECORD
  5
1A4
102
{ACAD_REACTORS
330
C
102
}
330
C
100
AcDbXrecord
280
     1
 90
        1
330
6A
  0
DICTIONARY
  5
1A0
102
{ACAD_REACTORS
330
C
102
}
330
C
100
AcDbDictionary
281
     1
  3
CANNOSCALE
350
1A1
  3
CMLEADERSTYLE
350
1A6
  3
CTABLESTYLE
350
1A5
  0
LAYOUT
  5
1E
102
{ACAD_REACTORS
330
1A
102
}
330
1A
100
AcDbPlotSettings
  1

  2
none_device
  4

  6

 40
0.0
 41
0.0
 42
0.0
 43
0.0
 44
0.0
 45
0.0
 46
0.0
 47
0.0
 48
0.0
 49
0.0
140
0.0
141
0.0
142
1.0
143
1.0
 70
   688
 72
     0
 73
     0
 74
     5
  7

 75
    16
 76
     0
 77
     2
 78
   300
147
1.0
148
0.0
149
0.0
100
AcDbLayout
  1
Layout1
 70
     1
 71
     1
 10
0.0
 20
0.0
 11
12.0
 21
9.0
 12
0.0
 22
0.0
 32
0.0
 14
1.000000000000000E+20
 24
1.000000000000000E+20
 34
1.000000000000000E+20
 15
-1.000000000000000E+20
 25
-1.000000000000000E+20
 35
-1.000000000000000E+20
146
0.0
 13
0.0
 23
0.0
 33
0.0
 16
1.0
 26
0.0
 36
0.0
 17
0.0
 27
1.0
 37
0.0
 76
     0
330
1B
  0
LAYOUT
  5
26
102
{ACAD_REACTORS
330
1A
102
}
330
1A
100
AcDbPlotSettings
  1

  2
none_device
  4

  6

 40
0.0
 41
0.0
 42
0.0
 43
0.0
 44
0.0
 45
0.0
 46
0.0
 47
0.0
 48
0.0
 49
0.0
140
0.0
141
0.0
142
1.0
143
1.0
 70
   688
 72
     0
 73
     0
 74
     5
  7

 75
    16
 76
     0
 77
     2
 78
   300
147
1.0
148
0.0
149
0.0
100
AcDbLayout
  1
Layout2
 70
     1
 71
     2
 10
0.0
 20
0.0
 11
0.0
 21
0.0
 12
0.0
 22
0.0
 32
0.0
 14
0.0
 24
0.0
 34
0.0
 15
0.0
 25
0.0
 35
0.0
146
0.0
 13
0.0
 23
0.0
 33
0.0
 16
1.0
 26
0.0
 36
0.0
 17
0.0
 27
1.0
 37
0.0
 76
     0
330
23
  0
LAYOUT
  5
22
102
{ACAD_REACTORS
330
1A
102
}
330
1A
100
AcDbPlotSettings
  1

  2
none_device
  4
Letter_(8.50_x_11.00_Inches)
  6

 40
6.35
 41
6.35
 42
6.35000508
 43
6.35000508
 44
215.9
 45
279.4
 46
0.0
 47
0.0
 48
0.0
 49
0.0
140
0.0
141
0.0
142
1.0
143
1.0
 70
  1712
 72
     0
 73
     0
 74
     0
  7

 75
     0
 76
     0
 77
     2
 78
   300
147
1.0
148
0.0
149
0.0
100
AcDbLayout
  1
Model
 70
     1
 71
     0
 10
0.0
 20
0.0
 11
12.0
 21
9.0
 12
0.0
 22
0.0
 32
0.0
 14
1.000000000000000E+20
 24
1.000000000000000E+20
 34
1.000000000000000E+20
 15
-1.000000000000000E+20
 25
-1.000000000000000E+20
 35
-1.000000000000000E+20
146
0.0
 13
0.0
 23
0.0
 33
0.0
 16
1.0
 26
0.0
 36
0.0
 17
0.0
 27
1.0
 37
0.0
 76
     0
330
1F
331
29
  0
MATERIAL
  5
45
102
{ACAD_REACTORS
330
43
102
}
330
43
100
AcDbMaterial
  1
ByBlock
 72
     1
 94
      127
  0
MATERIAL
  5
44
102
{ACAD_REACTORS
330
43
102
}
330
43
100
AcDbMaterial
  1
ByLayer
 72
     1
 94
      127
  0
MATERIAL
  5
46
102
{ACAD_REACTORS
330
43
102
}
330
43
100
AcDbMaterial
  1
Global
 72
     1
 94
      127
  0
MLEADERSTYLE
  5
6C
102
{ACAD_REACTORS
330
6B
102
}
330
6B
100
AcDbMLeaderStyle
179
     2
170
     2
171
     1
172
     0
 90
        2
 40
0.0
 41
0.0
173
     1
 91
-1056964608
340
14
 92
       -2
290
     1
 42
0.09
291
     1
 43
0.36
  3
Standard
341
0
 44
0.18
300

342
11
174
     1
178
     6
175
     1
176
     0
 93
-1056964608
 45
0.18
292
     0
297
     0
 46
0.18
343
0
 94
-1056964608
 47
1.0
 49
1.0
140
1.0
293
     1
141
0.0
294
     1
177
     0
142
1.0
295
     0
296
     0
143
0.125
271
     0
272
     9
273
     9
298
     0
  0
MLINESTYLE
  5
18
102
{ACAD_REACTORS
330
17
102
}
330
17
100
AcDbMlineStyle
  2
Standard
 70
     0
  3

 62
   256
 51
90.0
 52
90.0
 71
     2
 49
0.5
 62
   256
  6
BYLAYER
 49
-0.5
 62
   256
  6
BYLAYER
  0
ACDBPLACEHOLDER
  5
F
102
{ACAD_REACTORS
330
E
102
}
330
E
  0
SCALE
  5
48
102
{ACAD_REACTORS
330
47
102
}
330
47
100
AcDbScale
 70
     0
300
1:1
140
1.0
141
1.0
290
     1
  0
SCALE
  5
49
102
{ACAD_REACTORS
330
47
102
}
330
47
100
AcDbScale
 70
     0
300
1:2
140
1.0
141
2.0
290
     0
  0
SCALE
  5
4A
102
{ACAD_REACTORS
330
47
102
}
330
47
100
AcDbScale
 70
     0
300
1:4
140
1.0
141
4.0
290
     0
  0
SCALE
  5
4B
102
{ACAD_REACTORS
330
47
102
}
330
47
100
AcDbScale
 70
     0
300
1:5
140
1.0
141
5.0
290
     0
  0
SCALE
  5
4C
102
{ACAD_REACTORS
330
47
102
}
330
47
100
AcDbScale
 70
     0
300
1:8
140
1.0
141
8.0
290
     0
  0
SCALE
  5
4D
102
{ACAD_REACTORS
330
47
102
}
330
47
100
AcDbScale
 70
     0
300
1:10
140
1.0
141
10.0
290
     0
  0
SCALE
  5
4E
102
{ACAD_REACTORS
330
47
102
}
330
47
100
AcDbScale
 70
     0
300
1:16
140
1.0
141
16.0
290
     0
  0
SCALE
  5
4F
102
{ACAD_REACTORS
330
47
102
}
330
47
100
AcDbScale
 70
     0
300
1:20
140
1.0
141
20.0
290
     0
  0
SCALE
  5
50
102
{ACAD_REACTORS
330
47
102
}
330
47
100
AcDbScale
 70
     0
300
1:30
140
1.0
141
30.0
290
     0
  0
SCALE
  5
51
102
{ACAD_REACTORS
330
47
102
}
330
47
100
AcDbScale
 70
     0
300
1:40
140
1.0
141
40.0
290
     0
  0
SCALE
  5
52
102
{ACAD_REACTORS
330
47
102
}
330
47
100
AcDbScale
 70
     0
300
1:50
140
1.0
141
50.0
290
     0
  0
SCALE
  5
53
102
{ACAD_REACTORS
330
47
102
}
330
47
100
AcDbScale
 70
     0
300
1:100
140
1.0
141
100.0
290
     0
  0
SCALE
  5
54
102
{ACAD_REACTORS
330
47
102
}
330
47
100
AcDbScale
 70
     0
300
2:1
140
2.0
141
1.0
290
     0
  0
SCALE
  5
55
102
{ACAD_REACTORS
330
47
102
}
330
47
100
AcDbScale
 70
     0
300
4:1
140
4.0
141
1.0
290
     0
  0
SCALE
  5
56
102
{ACAD_REACTORS
330
47
102
}
330
47
100
AcDbScale
 70
     0
300
8:1
140
8.0
141
1.0
290
     0
  0
SCALE
  5
57
102
{ACAD_REACTORS
330
47
102
}
330
47
100
AcDbScale
 70
     0
300
10:1
140
10.0
141
1.0
290
     0
  0
SCALE
  5
58
102
{ACAD_REACTORS
330
47
102
}
330
47
100
AcDbScale
 70
     0
300
100:1
140
100.0
141
1.0
290
     0
  0
SCALE
  5
59
102
{ACAD_REACTORS
330
47
102
}
330
47
100
AcDbScale
 70
     0
300
1/128" = 1'-0"
140
0.0078125
141
12.0
290
     0
  0
SCALE
  5
5A
102
{ACAD_REACTORS
330
47
102
}
330
47
100
AcDbScale
 70
     0
300
1/64" = 1'-0"
140
0.015625
141
12.0
290
     0
  0
SCALE
  5
5B
102
{ACAD_REACTORS
330
47
102
}
330
47
100
AcDbScale
 70
     0
300
1/32" = 1'-0"
140
0.03125
141
12.0
290
     0
  0
SCALE
  5
5C
102
{ACAD_REACTORS
330
47
102
}
330
47
100
AcDbScale
 70
     0
300
1/16" = 1'-0"
140
0.0625
141
12.0
290
     0
  0
SCALE
  5
5D
102
{ACAD_REACTORS
330
47
102
}
330
47
100
AcDbScale
 70
     0
300
3/32" = 1'-0"
140
0.09375
141
12.0
290
     0
  0
SCALE
  5
5E
102
{ACAD_REACTORS
330
47
102
}
330
47
100
AcDbScale
 70
     0
300
1/8" = 1'-0"
140
0.125
141
12.0
290
     0
  0
SCALE
  5
5F
102
{ACAD_REACTORS
330
47
102
}
330
47
100
AcDbScale
 70
     0
300
3/16" = 1'-0"
140
0.1875
141
12.0
290
     0
  0
SCALE
  5
60
102
{ACAD_REACTORS
330
47
102
}
330
47
100
AcDbScale
 70
     0
300
1/4" = 1'-0"
140
0.25
141
12.0
290
     0
  0
SCALE
  5
61
102
{ACAD_REACTORS
330
47
102
}
330
47
100
AcDbScale
 70
     0
300
3/8" = 1'-0"
140
0.375
141
12.0
290
     0
  0
SCALE
  5
62
102
{ACAD_REACTORS
330
47
102
}
330
47
100
AcDbScale
 70
     0
300
1/2" = 1'-0"
140
0.5
141
12.0
290
     0
  0
SCALE
  5
63
102
{ACAD_REACTORS
330
47
102
}
330
47
100
AcDbScale
 70
     0
300
3/4" = 1'-0"
140
0.75
141
12.0
290
     0
  0
SCALE
  5
64
102
{ACAD_REACTORS
330
47
102
}
330
47
100
AcDbScale
 70
     0
300
1" = 1'-0"
140
1.0
141
12.0
290
     0
  0
SCALE
  5
65
102
{ACAD_REACTORS
330
47
102
}
330
47
100
AcDbScale
 70
     0
300
1-1/2" = 1'-0"
140
1.5
141
12.0
290
     0
  0
SCALE
  5
66
102
{ACAD_REACTORS
330
47
102
}
330
47
100
AcDbScale
 70
     0
300
3" = 1'-0"
140
3.0
141
12.0
290
     0
  0
SCALE
  5
67
102
{ACAD_REACTORS
330
47
102
}
330
47
100
AcDbScale
 70
     0
300
6" = 1'-0"
140
6.0
141
12.0
290
     0
  0
SCALE
  5
68
102
{ACAD_REACTORS
330
47
102
}
330
47
100
AcDbScale
 70
     0
300
1'-0" = 1'-0"
140
12.0
141
12.0
290
     0
  0
TABLESTYLE
  5
6A
102
{ACAD_REACTORS
330
69
102
}
102
{ACAD_XDICTIONARY
360
1A2
102
}
330
69
100
AcDbTableStyle
  3
Standard
 70
     0
 71
     0
 40
0.06
 41
0.06
280
     0
281
     0
  7
Standard
140
0.18
170
     2
 62
     0
 63
   257
283
     0
 90
        4
 91
        0
  1

274
    -2
284
     1
 64
     0
275
    -2
285
     1
 65
     0
276
    -2
286
     1
 66
     0
277
    -2
287
     1
 67
     0
278
    -2
288
     1
 68
     0
279
    -2
289
     1
 69
     0
  7
Standard
140
0.25
170
     5
 62
     0
 63
   257
283
     0
 90
        4
 91
        0
  1

274
    -2
284
     1
 64
     0
275
    -2
285
     1
 65
     0
276
    -2
286
     1
 66
     0
277
    -2
287
     1
 67
     0
278
    -2
288
     1
 68
     0
279
    -2
289
     1
 69
     0
  7
Standard
140
0.18
170
     5
 62
     0
 63
   257
283
     0
 90
        4
 91
        0
  1

274
    -2
284
     1
 64
     0
275
    -2
285
     1
 65
     0
276
    -2
286
     1
 66
     0
277
    -2
287
     1
 67
     0
278
    -2
288
     1
 68
     0
279
    -2
289
     1
 69
     0
  0
VISUALSTYLE
  5
2F
102
{ACAD_REACTORS
330
2A
102
}
330
2A
100
AcDbVisualStyle
  2
2dWireframe
 70
     4
177
     3
291
     0
 70
    58
 90
        0
176
     1
 90
        2
176
     1
 90
        0
176
     1
 90
        0
176
     1
 40
0.6
176
     1
 40
30.0
176
     1
 62
     7
420
 16777215
176
     1
 90
        1
176
     1
 90
        4
176
     1
 62
     7
176
     1
 62
   257
176
     1
 90
        1
176
     1
 90
        1
176
     1
 40
1.0
176
     1
 90
        0
176
     1
 62
   257
176
     1
 40
1.0
176
     1
 90
        1
176
     1
 90
        6
176
     1
 90
        2
176
     1
 62
     7
176
     1
 90
        5
176
     1
 90
        0
176
     1
 90
        0
176
     1
290
     0
176
     1
 90
        1
176
     1
 40
0.0
176
     1
 90
        0
176
     1
290
     1
176
     1
290
     1
176
     1
290
     0
176
     1
290
     0
176
     1
290
     0
176
     1
290
     0
176
     1
290
     0
176
     1
290
     0
176
     1
290
     0
176
     1
 90
       50
176
     1
 40
0.0
176
     1
 40
1.0
176
     1
 90
        0
176
     1
 62
    18
420
        0
176
     1
 90
       50
176
     1
 90
        3
176
     1
 62
     5
420
      255
176
     1
290
     0
176
     1
 90
       50
176
     1
 90
       50
176
     1
 90
       50
176
     1
290
     0
176
     1
 90
       50
176
     1
 62
   256
176
     0
 40
1.0
176
     0
 90
        2
176
     1
  1
strokes_ogs.tif
176
     1
290
     0
176
     1
 40
1.0
176
     1
 40
1.0
176
     1
  0
VISUALSTYLE
  5
32
102
{ACAD_REACTORS
330
2A
102
}
330
2A
100
AcDbVisualStyle
  2
Basic
 70
     7
177
     3
291
     1
 70
    58
 90
        1
176
     1
 90
        0
176
     1
 90
        1
176
     1
 90
        0
176
     1
 40
0.6
176
     1
 40
30.0
176
     1
 62
     7
420
 16777215
176
     1
 90
        0
176
     1
 90
        4
176
     1
 62
     7
176
     1
 62
   257
176
     1
 90
        1
176
     1
 90
        1
176
     1
 40
1.0
176
     1
 90
        8
176
     1
 62
     7
176
     1
 40
1.0
176
     1
 90
        1
176
     1
 90
        6
176
     1
 90
        2
176
     1
 62
     7
176
     1
 90
        5
176
     1
 90
        0
176
     1
 90
        0
176
     1
290
     0
176
     1
 90
        1
176
     1
 40
0.0
176
     1
 90
        0
176
     1
290
     0
176
     1
290
     1
176
     1
290
     1
176
     1
290
     0
176
     1
290
     0
176
     1
290
     0
176
     1
290
     0
176
     1
290
     0
176
     1
290
     0
176
     1
 90
       50
176
     1
 40
0.0
176
     1
 40
1.0
176
     1
 90
        0
176
     1
 62
    18
420
        0
176
     1
 90
       50
176
     1
 90
        3
176
     1
 62
     5
420
      255
176
     1
290
     0
176
     1
 90
       50
176
     1
 90
       50
176
     1
 90
       50
176
     1
290
     0
176
     1
 90
       50
176
     1
 62
   256
176
     0
 40
1.0
176
     0
 90
        2
176
     1
  1
strokes_ogs.tif
176
     1
290
     0
176
     1
 40
1.0
176
     1
 40
1.0
176
     1
  0
VISUALSTYLE
  5
36
102
{ACAD_REACTORS
330
2A
102
}
330
2A
100
AcDbVisualStyle
  2
Brighten
 70
    12
177
     3
291
     1
 70
    58
 90
        2
176
     1
 90
        2
176
     1
 90
        0
176
     1
 90
        0
176
     1
 40
0.6
176
     1
 40
30.0
176
     1
 62
     7
420
 16777215
176
     1
 90
        1
176
     1
 90
        4
176
     1
 62
     7
176
     1
 62
   257
176
     1
 90
        1
176
     1
 90
        1
176
     1
 40
1.0
176
     1
 90
        8
176
     1
 62
     7
176
     1
 40
1.0
176
     1
 90
        1
176
     1
 90
        6
176
     1
 90
        2
176
     1
 62
     7
176
     1
 90
        5
176
     1
 90
        0
176
     1
 90
        0
176
     1
290
     0
176
     1
 90
        1
176
     1
 40
50.0
176
     1
 90
        0
176
     1
290
     0
176
     1
290
     1
176
     1
290
     1
176
     1
290
     0
176
     1
290
     0
176
     1
290
     0
176
     1
290
     0
176
     1
290
     0
176
     1
290
     0
176
     1
 90
       50
176
     1
 40
0.0
176
     1
 40
1.0
176
     1
 90
        0
176
     1
 62
    18
420
        0
176
     1
 90
       50
176
     1
 90
        3
176
     1
 62
     5
420
      255
176
     1
290
     0
176
     1
 90
       50
176
     1
 90
       50
176
     1
 90
       50
176
     1
290
     0
176
     1
 90
       50
176
     1
 62
   256
176
     0
 40
1.0
176
     0
 90
        2
176
     1
  1
strokes_ogs.tif
176
     1
290
     0
176
     1
 40
1.0
176
     1
 40
1.0
176
     1
  0
VISUALSTYLE
  5
3A
102
{ACAD_REACTORS
330
2A
102
}
330
2A
100
AcDbVisualStyle
  2
ColorChange
 70
    16
177
     3
291
     1
 70
    58
 90
        2
176
     1
 90
        2
176
     1
 90
        3
176
     1
 90
        0
176
     1
 40
0.6
176
     1
 40
30.0
176
     1
 62
     8
420
  8421504
176
     1
 90
        1
176
     1
 90
        4
176
     1
 62
     7
176
     1
 62
   257
176
     1
 90
        1
176
     1
 90
        1
176
     1
 40
1.0
176
     1
 90
        8
176
     1
 62
     8
420
  8421504
176
     1
 40
1.0
176
     1
 90
        1
176
     1
 90
        6
176
     1
 90
        2
176
     1
 62
     7
176
     1
 90
        5
176
     1
 90
        0
176
     1
 90
        0
176
     1
290
     0
176
     1
 90
        1
176
     1
 40
0.0
176
     1
 90
        0
176
     1
290
     0
176
     1
290
     1
176
     1
290
     1
176
     1
290
     0
176
     1
290
     0
176
     1
290
     0
176
     1
290
     0
176
     1
290
     0
176
     1
290
     0
176
     1
 90
       50
176
     1
 40
0.0
176
     1
 40
1.0
176
     1
 90
        0
176
     1
 62
    18
420
        0
176
     1
 90
       50
176
     1
 90
        3
176
     1
 62
     5
420
      255
176
     1
290
     0
176
     1
 90
       50
176
     1
 90
       50
176
     1
 90
       50
176
     1
290
     0
176
     1
 90
       50
176
     1
 62
   256
176
     0
 40
1.0
176
     0
 90
        2
176
     1
  1
strokes_ogs.tif
176
     1
290
     0
176
     1
 40
1.0
176
     1
 40
1.0
176
     1
  0
VISUALSTYLE
  5
34
102
{ACAD_REACTORS
330
2A
102
}
330
2A
100
AcDbVisualStyle
  2
Conceptual
 70
     9
177
     3
291
     0
 70
    58
 90
        3
176
     1
 90
        2
176
     1
 90
        0
176
     1
 90
        0
176
     1
 40
0.6
176
     1
 40
30.0
176
     1
 62
     7
420
 16777215
176
     1
 90
        2
176
     1
 90
        2
176
     1
 62
     7
176
     1
 62
   257
176
     1
 90
        1
176
     1
 90
        1
176
     1
 40
179.0
176
     1
 90
        8
176
     1
 62
     7
176
     1
 40
1.0
176
     1
 90
        1
176
     1
 90
        6
176
     1
 90
        2
176
     1
 62
     7
176
     1
 90
        3
176
     1
 90
        0
176
     1
 90
        0
176
     1
290
     0
176
     1
 90
        1
176
     1
 40
0.0
176
     1
 90
        0
176
     1
290
     0
176
     1
290
     1
176
     1
290
     1
176
     1
290
     0
176
     1
290
     0
176
     1
290
     0
176
     1
290
     0
176
     1
290
     0
176
     1
290
     0
176
     1
 90
       50
176
     1
 40
0.0
176
     1
 40
1.0
176
     1
 90
        0
176
     1
 62
    18
420
        0
176
     1
 90
       50
176
     1
 90
        3
176
     1
 62
     5
420
      255
176
     1
290
     0
176
     1
 90
       50
176
     1
 90
       50
176
     1
 90
       50
176
     1
290
     0
176
     1
 90
       50
176
     1
 62
   256
176
     0
 40
1.0
176
     0
 90
        2
176
     1
  1
strokes_ogs.tif
176
     1
290
     0
176
     1
 40
1.0
176
     1
 40
1.0
176
     1
  0
VISUALSTYLE
  5
35
102
{ACAD_REACTORS
330
2A
102
}
330
2A
100
AcDbVisualStyle
  2
Dim
 70
    11
177
     3
291
     1
 70
    58
 90
        2
176
     1
 90
        2
176
     1
 90
        0
176
     1
 90
        0
176
     1
 40
0.6
176
     1
 40
30.0
176
     1
 62
     7
420
 16777215
176
     1
 90
        1
176
     1
 90
        4
176
     1
 62
     7
176
     1
 62
   257
176
     1
 90
        1
176
     1
 90
        1
176
     1
 40
1.0
176
     1
 90
        8
176
     1
 62
     7
176
     1
 40
1.0
176
     1
 90
        1
176
     1
 90
        6
176
     1
 90
        2
176
     1
 62
     7
176
     1
 90
        5
176
     1
 90
        0
176
     1
 90
        0
176
     1
290
     0
176
     1
 90
        1
176
     1
 40
-50.0
176
     1
 90
        0
176
     1
290
     0
176
     1
290
     1
176
     1
290
     1
176
     1
290
     0
176
     1
290
     0
176
     1
290
     0
176
     1
290
     0
176
     1
290
     0
176
     1
290
     0
176
     1
 90
       50
176
     1
 40
0.0
176
     1
 40
1.0
176
     1
 90
        0
176
     1
 62
    18
420
        0
176
     1
 90
       50
176
     1
 90
        3
176
     1
 62
     5
420
      255
176
     1
290
     0
176
     1
 90
       50
176
     1
 90
       50
176
     1
 90
       50
176
     1
290
     0
176
     1
 90
       50
176
     1
 62
   256
176
     0
 40
1.0
176
     0
 90
        2
176
     1
  1
strokes_ogs.tif
176
     1
290
     0
176
     1
 40
1.0
176
     1
 40
1.0
176
     1
  0
VISUALSTYLE
  5
3D
102
{ACAD_REACTORS
330
2A
102
}
330
2A
100
AcDbVisualStyle
  2
EdgeColorOff
 70
    22
177
     3
291
     1
 70
    58
 90
        2
176
     0
 90
        2
176
     0
 90
        0
176
     0
 90
        0
176
     0
 40
0.6
176
     0
 40
30.0
176
     0
 62
     7
420
 16777215
176
     0
 90
        1
176
     0
 90
        4
176
     0
 62
     7
176
     0
 62
   257
176
     0
 90
        1
176
     0
 90
        1
176
     0
 40
1.0
176
     0
 90
        8
176
     2
 62
     7
176
     0
 40
1.0
176
     0
 90
        1
176
     0
 90
        6
176
     0
 90
        2
176
     0
 62
     7
176
     0
 90
        5
176
     0
 90
        0
176
     0
 90
        0
176
     0
290
     0
176
     0
 90
        1
176
     0
 40
0.0
176
     0
 90
        0
176
     0
290
     0
176
     0
290
     1
176
     0
290
     1
176
     0
290
     0
176
     0
290
     0
176
     0
290
     0
176
     0
290
     0
176
     0
290
     0
176
     0
290
     0
176
     0
 90
       50
176
     0
 40
0.0
176
     0
 40
1.0
176
     0
 90
        0
176
     0
 62
    18
420
        0
176
     0
 90
       50
176
     0
 90
        3
176
     0
 62
     5
420
      255
176
     0
290
     0
176
     0
 90
       50
176
     0
 90
       50
176
     0
 90
       50
176
     0
290
     0
176
     0
 90
       50
176
     0
 62
   256
176
     0
 40
1.0
176
     0
 90
        2
176
     0
  1
strokes_ogs.tif
176
     0
290
     0
176
     0
 40
1.0
176
     0
 40
1.0
176
     0
  0
VISUALSTYLE
  5
39
102
{ACAD_REACTORS
330
2A
102
}
330
2A
100
AcDbVisualStyle
  2
Facepattern
 70
    15
177
     3
291
     1
 70
    58
 90
        2
176
     1
 90
        2
176
     1
 90
        0
176
     1
 90
        0
176
     1
 40
0.6
176
     1
 40
30.0
176
     1
 62
     7
420
 16777215
176
     1
 90
        1
176
     1
 90
        4
176
     1
 62
     7
176
     1
 62
   257
176
     1
 90
        1
176
     1
 90
        1
176
     1
 40
1.0
176
     1
 90
        8
176
     1
 62
     7
176
     1
 40
1.0
176
     1
 90
        1
176
     1
 90
        6
176
     1
 90
        2
176
     1
 62
     7
176
     1
 90
        5
176
     1
 90
        0
176
     1
 90
        0
176
     1
290
     0
176
     1
 90
        1
176
     1
 40
0.0
176
     1
 90
        0
176
     1
290
     0
176
     1
290
     1
176
     1
290
     1
176
     1
290
     0
176
     1
290
     0
176
     1
290
     0
176
     1
290
     0
176
     1
290
     0
176
     1
290
     0
176
     1
 90
       50
176
     1
 40
0.0
176
     1
 40
1.0
176
     1
 90
        0
176
     1
 62
    18
420
        0
176
     1
 90
       50
176
     1
 90
        3
176
     1
 62
     5
420
      255
176
     1
290
     0
176
     1
 90
       50
176
     1
 90
       50
176
     1
 90
       50
176
     1
290
     0
176
     1
 90
       50
176
     1
 62
   256
176
     0
 40
1.0
176
     0
 90
        2
176
     1
  1
strokes_ogs.tif
176
     1
290
     0
176
     1
 40
1.0
176
     1
 40
1.0
176
     1
  0
VISUALSTYLE
  5
2B
102
{ACAD_REACTORS
330
2A
102
}
330
2A
100
AcDbVisualStyle
  2
Flat
 70
     0
177
     3
291
     1
 70
    58
 90
        2
176
     1
 90
        1
176
     1
 90
        1
176
     1
 90
        2
176
     1
 40
0.6
176
     1
 40
30.0
176
     1
 62
     7
420
 16777215
176
     1
 90
        0
176
     1
 90
        0
176
     1
 62
     7
176
     1
 62
   257
176
     1
 90
        1
176
     1
 90
        1
176
     1
 40
1.0
176
     1
 90
        8
176
     1
 62
     7
176
     1
 40
1.0
176
     1
 90
        1
176
     1
 90
        6
176
     1
 90
        2
176
     1
 62
     7
176
     1
 90
        5
176
     1
 90
        0
176
     1
 90
        0
176
     1
290
     0
176
     1
 90
       13
176
     1
 40
0.0
176
     1
 90
        0
176
     1
290
     0
176
     1
290
     1
176
     1
290
     1
176
     1
290
     0
176
     1
290
     0
176
     1
290
     0
176
     1
290
     0
176
     1
290
     0
176
     1
290
     0
176
     1
 90
       50
176
     1
 40
0.0
176
     1
 40
1.0
176
     1
 90
        0
176
     1
 62
    18
420
        0
176
     1
 90
       50
176
     1
 90
        3
176
     1
 62
     5
420
      255
176
     1
290
     0
176
     1
 90
       50
176
     1
 90
       50
176
     1
 90
       50
176
     1
290
     0
176
     1
 90
       50
176
     1
 62
   256
176
     0
 40
1.0
176
     0
 90
        2
176
     1
  1
strokes_ogs.tif
176
     1
290
     0
176
     1
 40
1.0
176
     1
 40
1.0
176
     1
  0
VISUALSTYLE
  5
2C
102
{ACAD_REACTORS
330
2A
102
}
330
2A
100
AcDbVisualStyle
  2
FlatWithEdges
 70
     1
177
     3
291
     1
 70
    58
 90
        2
176
     1
 90
        1
176
     1
 90
        1
176
     1
 90
        2
176
     1
 40
0.6
176
     1
 40
30.0
176
     1
 62
     7
420
 16777215
176
     1
 90
        1
176
     1
 90
        0
176
     1
 62
     7
176
     1
 62
   257
176
     1
 90
        1
176
     1
 90
        1
176
     1
 40
1.0
176
     1
 90
        0
176
     1
 62
   257
176
     1
 40
1.0
176
     1
 90
        1
176
     1
 90
        6
176
     1
 90
        2
176
     1
 62
     7
176
     1
 90
        5
176
     1
 90
        0
176
     1
 90
        0
176
     1
290
     0
176
     1
 90
       13
176
     1
 40
0.0
176
     1
 90
        0
176
     1
290
     0
176
     1
290
     1
176
     1
290
     1
176
     1
290
     0
176
     1
290
     0
176
     1
290
     0
176
     1
290
     0
176
     1
290
     0
176
     1
290
     0
176
     1
 90
       50
176
     1
 40
0.0
176
     1
 40
1.0
176
     1
 90
        0
176
     1
 62
    18
420
        0
176
     1
 90
       50
176
     1
 90
        3
176
     1
 62
     5
420
      255
176
     1
290
     0
176
     1
 90
       50
176
     1
 90
       50
176
     1
 90
       50
176
     1
290
     0
176
     1
 90
       50
176
     1
 62
   256
176
     0
 40
1.0
176
     0
 90
        2
176
     1
  1
strokes_ogs.tif
176
     1
290
     0
176
     1
 40
1.0
176
     1
 40
1.0
176
     1
  0
VISUALSTYLE
  5
2D
102
{ACAD_REACTORS
330
2A
102
}
330
2A
100
AcDbVisualStyle
  2
Gouraud
 70
     2
177
     3
291
     1
 70
    58
 90
        2
176
     1
 90
        2
176
     1
 90
        1
176
     1
 90
        2
176
     1
 40
0.6
176
     1
 40
30.0
176
     1
 62
     7
420
 16777215
176
     1
 90
        0
176
     1
 90
        0
176
     1
 62
     7
176
     1
 62
   257
176
     1
 90
        1
176
     1
 90
        1
176
     1
 40
1.0
176
     1
 90
        0
176
     1
 62
     7
176
     1
 40
1.0
176
     1
 90
        1
176
     1
 90
        6
176
     1
 90
        2
176
     1
 62
     7
176
     1
 90
        5
176
     1
 90
        0
176
     1
 90
        0
176
     1
290
     0
176
     1
 90
       13
176
     1
 40
0.0
176
     1
 90
        0
176
     1
290
     0
176
     1
290
     1
176
     1
290
     1
176
     1
290
     0
176
     1
290
     0
176
     1
290
     0
176
     1
290
     0
176
     1
290
     0
176
     1
290
     0
176
     1
 90
       50
176
     1
 40
0.0
176
     1
 40
1.0
176
     1
 90
        0
176
     1
 62
    18
420
        0
176
     1
 90
       50
176
     1
 90
        3
176
     1
 62
     5
420
      255
176
     1
290
     0
176
     1
 90
       50
176
     1
 90
       50
176
     1
 90
       50
176
     1
290
     0
176
     1
 90
       50
176
     1
 62
   256
176
     0
 40
1.0
176
     0
 90
        2
176
     1
  1
strokes_ogs.tif
176
     1
290
     0
176
     1
 40
1.0
176
     1
 40
1.0
176
     1
  0
VISUALSTYLE
  5
2E
102
{ACAD_REACTORS
330
2A
102
}
330
2A
100
AcDbVisualStyle
  2
GouraudWithEdges
 70
     3
177
     3
291
     1
 70
    58
 90
        2
176
     1
 90
        2
176
     1
 90
        1
176
     1
 90
        2
176
     1
 40
0.6
176
     1
 40
30.0
176
     1
 62
     7
420
 16777215
176
     1
 90
        1
176
     1
 90
        0
176
     1
 62
     7
176
     1
 62
   257
176
     1
 90
        1
176
     1
 90
        1
176
     1
 40
1.0
176
     1
 90
        0
176
     1
 62
   257
176
     1
 40
1.0
176
     1
 90
        1
176
     1
 90
        6
176
     1
 90
        2
176
     1
 62
     7
176
     1
 90
        5
176
     1
 90
        0
176
     1
 90
        0
176
     1
290
     0
176
     1
 90
       13
176
     1
 40
0.0
176
     1
 90
        0
176
     1
290
     0
176
     1
290
     1
176
     1
290
     1
176
     1
290
     0
176
     1
290
     0
176
     1
290
     0
176
     1
290
     0
176
     1
290
     0
176
     1
290
     0
176
     1
 90
       50
176
     1
 40
0.0
176
     1
 40
1.0
176
     1
 90
        0
176
     1
 62
    18
420
        0
176
     1
 90
       50
176
     1
 90
        3
176
     1
 62
     5
420
      255
176
     1
290
     0
176
     1
 90
       50
176
     1
 90
       50
176
     1
 90
       50
176
     1
290
     0
176
     1
 90
       50
176
     1
 62
   256
176
     0
 40
1.0
176
     0
 90
        2
176
     1
  1
strokes_ogs.tif
176
     1
290
     0
176
     1
 40
1.0
176
     1
 40
1.0
176
     1
  0
VISUALSTYLE
  5
31
102
{ACAD_REACTORS
330
2A
102
}
330
2A
100
AcDbVisualStyle
  2
Hidden
 70
     6
177
     3
291
     0
 70
    58
 90
        1
176
     1
 90
        2
176
     1
 90
        2
176
     1
 90
        0
176
     1
 40
0.6
176
     1
 40
30.0
176
     1
 62
     7
420
 16777215
176
     1
 90
        2
176
     1
 90
        2
176
     1
 62
     7
176
     1
 62
   257
176
     1
 90
        2
176
     1
 90
        1
176
     1
 40
40.0
176
     1
 90
        0
176
     1
 62
   257
176
     1
 40
1.0
176
     1
 90
        1
176
     1
 90
        6
176
     1
 90
        2
176
     1
 62
     7
176
     1
 90
        3
176
     1
 90
        0
176
     1
 90
        0
176
     1
290
     0
176
     1
 90
        1
176
     1
 40
0.0
176
     1
 90
        0
176
     1
290
     0
176
     1
290
     1
176
     1
290
     1
176
     1
290
     0
176
     1
290
     0
176
     1
290
     0
176
     1
290
     0
176
     1
290
     0
176
     1
290
     0
176
     1
 90
       50
176
     1
 40
0.0
176
     1
 40
1.0
176
     1
 90
        0
176
     1
 62
    18
420
        0
176
     1
 90
       50
176
     1
 90
        3
176
     1
 62
     5
420
      255
176
     1
290
     0
176
     1
 90
       50
176
     1
 90
       50
176
     1
 90
       50
176
     1
290
     0
176
     1
 90
       50
176
     1
 62
   256
176
     0
 40
1.0
176
     0
 90
        2
176
     1
  1
strokes_ogs.tif
176
     1
290
     0
176
     1
 40
1.0
176
     1
 40
1.0
176
     1
  0
VISUALSTYLE
  5
3B
102
{ACAD_REACTORS
330
2A
102
}
330
2A
100
AcDbVisualStyle
  2
JitterOff
 70
    20
177
     3
291
     1
 70
    58
 90
        2
176
     0
 90
        2
176
     0
 90
        0
176
     0
 90
        0
176
     0
 40
0.6
176
     0
 40
30.0
176
     0
 62
     7
420
 16777215
176
     0
 90
        1
176
     0
 90
        4
176
     0
 62
     7
176
     0
 62
   257
176
     0
 90
        1
176
     0
 90
        1
176
     0
 40
1.0
176
     0
 90
       10
176
     2
 62
     7
176
     0
 40
1.0
176
     0
 90
        1
176
     0
 90
        6
176
     0
 90
        2
176
     0
 62
     7
176
     0
 90
        5
176
     0
 90
        0
176
     0
 90
        0
176
     0
290
     0
176
     0
 90
        1
176
     0
 40
0.0
176
     0
 90
        0
176
     0
290
     0
176
     0
290
     1
176
     0
290
     1
176
     0
290
     0
176
     0
290
     0
176
     0
290
     0
176
     0
290
     0
176
     0
290
     0
176
     0
290
     0
176
     0
 90
       50
176
     0
 40
0.0
176
     0
 40
1.0
176
     0
 90
        0
176
     0
 62
    18
420
        0
176
     0
 90
       50
176
     0
 90
        3
176
     0
 62
     5
420
      255
176
     0
290
     0
176
     0
 90
       50
176
     0
 90
       50
176
     0
 90
       50
176
     0
290
     0
176
     0
 90
       50
176
     0
 62
   256
176
     0
 40
1.0
176
     0
 90
        2
176
     0
  1
strokes_ogs.tif
176
     0
290
     0
176
     0
 40
1.0
176
     0
 40
1.0
176
     0
  0
VISUALSTYLE
  5
38
102
{ACAD_REACTORS
330
2A
102
}
330
2A
100
AcDbVisualStyle
  2
Linepattern
 70
    14
177
     3
291
     1
 70
    58
 90
        2
176
     1
 90
        2
176
     1
 90
        0
176
     1
 90
        0
176
     1
 40
0.6
176
     1
 40
30.0
176
     1
 62
     7
420
 16777215
176
     1
 90
        1
176
     1
 90
        4
176
     1
 62
     7
176
     1
 62
   257
176
     1
 90
        7
176
     1
 90
        7
176
     1
 40
1.0
176
     1
 90
        8
176
     1
 62
     7
176
     1
 40
1.0
176
     1
 90
        1
176
     1
 90
        6
176
     1
 90
        2
176
     1
 62
     7
176
     1
 90
        5
176
     1
 90
        0
176
     1
 90
        0
176
     1
290
     0
176
     1
 90
        1
176
     1
 40
0.0
176
     1
 90
        0
176
     1
290
     0
176
     1
290
     1
176
     1
290
     1
176
     1
290
     0
176
     1
290
     0
176
     1
290
     0
176
     1
290
     0
176
     1
290
     0
176
     1
290
     0
176
     1
 90
       50
176
     1
 40
0.0
176
     1
 40
1.0
176
     1
 90
        0
176
     1
 62
    18
420
        0
176
     1
 90
       50
176
     1
 90
        3
176
     1
 62
     5
420
      255
176
     1
290
     0
176
     1
 90
       50
176
     1
 90
       50
176
     1
 90
       50
176
     1
290
     0
176
     1
 90
       50
176
     1
 62
   256
176
     0
 40
1.0
176
     0
 90
        2
176
     1
  1
strokes_ogs.tif
176
     1
290
     0
176
     1
 40
1.0
176
     1
 40
1.0
176
     1
  0
VISUALSTYLE
  5
3C
102
{ACAD_REACTORS
330
2A
102
}
330
2A
100
AcDbVisualStyle
  2
OverhangOff
 70
    21
177
     3
291
     1
 70
    58
 90
        2
176
     0
 90
        2
176
     0
 90
        0
176
     0
 90
        0
176
     0
 40
0.6
176
     0
 40
30.0
176
     0
 62
     7
420
 16777215
176
     0
 90
        1
176
     0
 90
        4
176
     0
 62
     7
176
     0
 62
   257
176
     0
 90
        1
176
     0
 90
        1
176
     0
 40
1.0
176
     0
 90
        9
176
     2
 62
     7
176
     0
 40
1.0
176
     0
 90
        1
176
     0
 90
        6
176
     0
 90
        2
176
     0
 62
     7
176
     0
 90
        5
176
     0
 90
        0
176
     0
 90
        0
176
     0
290
     0
176
     0
 90
        1
176
     0
 40
0.0
176
     0
 90
        0
176
     0
290
     0
176
     0
290
     1
176
     0
290
     1
176
     0
290
     0
176
     0
290
     0
176
     0
290
     0
176
     0
290
     0
176
     0
290
     0
176
     0
290
     0
176
     0
 90
       50
176
     0
 40
0.0
176
     0
 40
1.0
176
     0
 90
        0
176
     0
 62
    18
420
        0
176
     0
 90
       50
176
     0
 90
        3
176
     0
 62
     5
420
      255
176
     0
290
     0
176
     0
 90
       50
176
     0
 90
       50
176
     0
 90
       50
176
     0
290
     0
176
     0
 90
       50
176
     0
 62
   256
176
     0
 40
1.0
176
     0
 90
        2
176
     0
  1
strokes_ogs.tif
176
     0
290
     0
176
     0
 40
1.0
176
     0
 40
1.0
176
     0
  0
VISUALSTYLE
  5
33
102
{ACAD_REACTORS
330
2A
102
}
330
2A
100
AcDbVisualStyle
  2
Realistic
 70
     8
177
     3
291
     0
 70
    58
 90
        2
176
     1
 90
        3
176
     1
 90
        0
176
     1
 90
        2
176
     1
 40
0.6
176
     1
 40
30.0
176
     1
 62
     7
420
 16777215
176
     1
 90
        0
176
     1
 90
        0
176
     1
 62
     7
176
     1
 62
   257
176
     1
 90
        1
176
     1
 90
        1
176
     1
 40
1.0
176
     1
 90
        8
176
     1
 62
   257
176
     1
 40
1.0
176
     1
 90
        1
176
     1
 90
        6
176
     1
 90
        2
176
     1
 62
     7
176
     1
 90
        3
176
     1
 90
        0
176
     1
 90
        0
176
     1
290
     0
176
     1
 90
       13
176
     1
 40
0.0
176
     1
 90
        0
176
     1
290
     0
176
     1
290
     1
176
     1
290
     1
176
     1
290
     0
176
     1
290
     0
176
     1
290
     0
176
     1
290
     0
176
     1
290
     0
176
     1
290
     0
176
     1
 90
       50
176
     1
 40
0.0
176
     1
 40
1.0
176
     1
 90
        0
176
     1
 62
    18
420
        0
176
     1
 90
       50
176
     1
 90
        3
176
     1
 62
     5
420
      255
176
     1
290
     0
176
     1
 90
       50
176
     1
 90
       50
176
     1
 90
       50
176
     1
290
     0
176
     1
 90
       50
176
     1
 62
   256
176
     0
 40
1.0
176
     0
 90
        2
176
     1
  1
strokes_ogs.tif
176
     1
290
     0
176
     1
 40
1.0
176
     1
 40
1.0
176
     1
  0
VISUALSTYLE
  5
42
102
{ACAD_REACTORS
330
2A
102
}
330
2A
100
AcDbVisualStyle
  2
Shaded
 70
    27
177
     3
291
     0
 70
    58
 90
        2
176
     1
 90
        2
176
     1
 90
        1
176
     1
 90
        2
176
     1
 40
0.6
176
     1
 40
30.0
176
     1
 62
     7
420
 16777215
176
     1
 90
        0
176
     1
 90
        4
176
     1
 62
     7
176
     1
 62
   257
176
     1
 90
        1
176
     1
 90
        1
176
     1
 40
1.0
176
     1
 90
        8
176
     1
 62
   257
176
     1
 40
1.0
176
     1
 90
        1
176
     1
 90
        6
176
     1
 90
        2
176
     1
 62
     8
420
  7895160
176
     1
 90
        3
176
     1
 90
        0
176
     1
 90
        0
176
     1
290
     0
176
     1
 90
        5
176
     1
 40
0.0
176
     1
 90
        0
176
     1
290
     0
176
     1
290
     1
176
     1
290
     1
176
     1
290
     0
176
     1
290
     0
176
     1
290
     0
176
     1
290
     0
176
     1
290
     0
176
     1
290
     0
176
     1
 90
       50
176
     1
 40
0.0
176
     1
 40
1.0
176
     1
 90
        0
176
     1
 62
    18
420
        0
176
     1
 90
       50
176
     1
 90
        3
176
     1
 62
     5
420
      255
176
     1
290
     0
176
     1
 90
       50
176
     1
 90
       50
176
     1
 90
       50
176
     1
290
     0
176
     1
 90
       50
176
     1
 62
   256
176
     0
 40
1.0
176
     0
 90
        2
176
     1
  1
strokes_ogs.tif
176
     1
290
     0
176
     1
 40
1.0
176
     1
 40
1.0
176
     1
  0
VISUALSTYLE
  5
41
102
{ACAD_REACTORS
330
2A
102
}
330
2A
100
AcDbVisualStyle
  2
Shaded with edges
 70
    26
177
     3
291
     0
 70
    58
 90
        2
176
     1
 90
        2
176
     1
 90
        1
176
     1
 90
        2
176
     1
 40
0.6
176
     1
 40
30.0
176
     1
 62
     7
420
 16777215
176
     1
 90
        1
176
     1
 90
       10
176
     1
 62
     7
176
     1
 62
   257
176
     1
 90
        2
176
     1
 90
        1
176
     1
 40
1.0
176
     1
 90
        8
176
     1
 62
   257
176
     1
 40
1.0
176
     1
 90
        1
176
     1
 90
        6
176
     1
 90
        2
176
     1
 62
     7
176
     1
 90
        3
176
     1
 90
        0
176
     1
 90
        0
176
     1
290
     0
176
     1
 90
        5
176
     1
 40
0.0
176
     1
 90
        0
176
     1
290
     0
176
     1
290
     1
176
     1
290
     1
176
     1
290
     0
176
     1
290
     0
176
     1
290
     0
176
     1
290
     0
176
     1
290
     0
176
     1
290
     0
176
     1
 90
       50
176
     1
 40
0.0
176
     1
 40
1.0
176
     1
 90
        0
176
     1
 62
    18
420
        0
176
     1
 90
       50
176
     1
 90
        3
176
     1
 62
     5
420
      255
176
     1
290
     0
176
     1
 90
       50
176
     1
 90
       50
176
     1
 90
       50
176
     1
290
     0
176
     1
 90
       50
176
     1
 62
   256
176
     0
 40
1.0
176
     0
 90
        2
176
     1
  1
strokes_ogs.tif
176
     1
290
     0
176
     1
 40
1.0
176
     1
 40
1.0
176
     1
  0
VISUALSTYLE
  5
3E
102
{ACAD_REACTORS
330
2A
102
}
330
2A
100
AcDbVisualStyle
  2
Shades of Gray
 70
    23
177
     3
291
     0
 70
    58
 90
        2
176
     1
 90
        2
176
     1
 90
        3
176
     1
 90
        0
176
     1
 40
0.6
176
     1
 40
30.0
176
     1
 62
     7
420
 16777215
176
     1
 90
        2
176
     1
 90
        2
176
     1
 62
     7
176
     1
 62
     7
176
     1
 90
        1
176
     1
 90
        1
176
     1
 40
40.0
176
     1
 90
        8
176
     1
 62
     7
176
     1
 40
1.0
176
     1
 90
        1
176
     1
 90
        6
176
     1
 90
        2
176
     1
 62
     7
176
     1
 90
        3
176
     1
 90
        0
176
     1
 90
        0
176
     1
290
     0
176
     1
 90
        1
176
     1
 40
0.0
176
     1
 90
        0
176
     1
290
     0
176
     1
290
     1
176
     1
290
     1
176
     1
290
     0
176
     1
290
     0
176
     1
290
     0
176
     1
290
     0
176
     1
290
     0
176
     1
290
     0
176
     1
 90
       50
176
     1
 40
0.0
176
     1
 40
1.0
176
     1
 90
        0
176
     1
 62
    18
420
        0
176
     1
 90
       50
176
     1
 90
        3
176
     1
 62
     5
420
      255
176
     1
290
     0
176
     1
 90
       50
176
     1
 90
       50
176
     1
 90
       50
176
     1
290
     0
176
     1
 90
       50
176
     1
 62
   256
176
     0
 40
1.0
176
     0
 90
        2
176
     1
  1
strokes_ogs.tif
176
     1
290
     0
176
     1
 40
1.0
176
     1
 40
1.0
176
     1
  0
VISUALSTYLE
  5
3F
102
{ACAD_REACTORS
330
2A
102
}
330
2A
100
AcDbVisualStyle
  2
Sketchy
 70
    24
177
     3
291
     0
 70
    58
 90
        1
176
     1
 90
        2
176
     1
 90
        2
176
     1
 90
        0
176
     1
 40
0.6
176
     1
 40
30.0
176
     1
 62
     7
420
 16777215
176
     1
 90
        2
176
     1
 90
        2
176
     1
 62
     7
176
     1
 62
     7
176
     1
 90
        1
176
     1
 90
        1
176
     1
 40
40.0
176
     1
 90
       11
176
     1
 62
     7
176
     1
 40
1.0
176
     1
 90
        1
176
     1
 90
        6
176
     1
 90
        2
176
     1
 62
     7
176
     1
 90
        6
176
     1
 90
        0
176
     1
 90
        0
176
     1
290
     0
176
     1
 90
        1
176
     1
 40
0.0
176
     1
 90
        0
176
     1
290
     0
176
     1
290
     1
176
     1
290
     1
176
     1
290
     0
176
     1
290
     0
176
     1
290
     0
176
     1
290
     0
176
     1
290
     0
176
     1
290
     0
176
     1
 90
       50
176
     1
 40
0.0
176
     1
 40
1.0
176
     1
 90
        0
176
     1
 62
    18
420
        0
176
     1
 90
       50
176
     1
 90
        3
176
     1
 62
     5
420
      255
176
     1
290
     0
176
     1
 90
       50
176
     1
 90
       50
176
     1
 90
       50
176
     1
290
     0
176
     1
 90
       50
176
     1
 62
   256
176
     0
 40
1.0
176
     0
 90
        2
176
     1
  1
strokes_ogs.tif
176
     1
290
     0
176
     1
 40
1.0
176
     1
 40
1.0
176
     1
  0
VISUALSTYLE
  5
37
102
{ACAD_REACTORS
330
2A
102
}
330
2A
100
AcDbVisualStyle
  2
Thicken
 70
    13
177
     3
291
     1
 70
    58
 90
        2
176
     1
 90
        2
176
     1
 90
        0
176
     1
 90
        0
176
     1
 40
0.6
176
     1
 40
30.0
176
     1
 62
     7
420
 16777215
176
     1
 90
        1
176
     1
 90
        4
176
     1
 62
     7
176
     1
 62
   257
176
     1
 90
        1
176
     1
 90
        1
176
     1
 40
1.0
176
     1
 90
       12
176
     1
 62
     7
176
     1
 40
1.0
176
     1
 90
        1
176
     1
 90
        6
176
     1
 90
        2
176
     1
 62
     7
176
     1
 90
        5
176
     1
 90
        0
176
     1
 90
        0
176
     1
290
     0
176
     1
 90
        1
176
     1
 40
0.0
176
     1
 90
        0
176
     1
290
     0
176
     1
290
     1
176
     1
290
     1
176
     1
290
     0
176
     1
290
     0
176
     1
290
     0
176
     1
290
     0
176
     1
290
     0
176
     1
290
     0
176
     1
 90
       50
176
     1
 40
0.0
176
     1
 40
1.0
176
     1
 90
        0
176
     1
 62
    18
420
        0
176
     1
 90
       50
176
     1
 90
        3
176
     1
 62
     5
420
      255
176
     1
290
     0
176
     1
 90
       50
176
     1
 90
       50
176
     1
 90
       50
176
     1
290
     0
176
     1
 90
       50
176
     1
 62
   256
176
     0
 40
1.0
176
     0
 90
        2
176
     1
  1
strokes_ogs.tif
176
     1
290
     0
176
     1
 40
1.0
176
     1
 40
1.0
176
     1
  0
VISUALSTYLE
  5
30
102
{ACAD_REACTORS
330
2A
102
}
330
2A
100
AcDbVisualStyle
  2
Wireframe
 70
     5
177
     3
291
     0
 70
    58
 90
        0
176
     1
 90
        2
176
     1
 90
        0
176
     1
 90
        0
176
     1
 40
0.6
176
     1
 40
30.0
176
     1
 62
     7
420
 16777215
176
     1
 90
        1
176
     1
 90
        4
176
     1
 62
     7
176
     1
 62
   257
176
     1
 90
        1
176
     1
 90
        1
176
     1
 40
1.0
176
     1
 90
        0
176
     1
 62
   257
176
     1
 40
1.0
176
     1
 90
        1
176
     1
 90
        6
176
     1
 90
        2
176
     1
 62
     7
176
     1
 90
        3
176
     1
 90
        0
176
     1
 90
        0
176
     1
290
     0
176
     1
 90
        1
176
     1
 40
0.0
176
     1
 90
        0
176
     1
290
     0
176
     1
290
     1
176
     1
290
     1
176
     1
290
     0
176
     1
290
     0
176
     1
290
     0
176
     1
290
     0
176
     1
290
     0
176
     1
290
     0
176
     1
 90
       50
176
     1
 40
0.0
176
     1
 40
1.0
176
     1
 90
        0
176
     1
 62
    18
420
        0
176
     1
 90
       50
176
     1
 90
        3
176
     1
 62
     5
420
      255
176
     1
290
     0
176
     1
 90
       50
176
     1
 90
       50
176
     1
 90
       50
176
     1
290
     0
176
     1
 90
       50
176
     1
 62
   256
176
     0
 40
1.0
176
     0
 90
        2
176
     1
  1
strokes_ogs.tif
176
     1
290
     0
176
     1
 40
1.0
176
     1
 40
1.0
176
     1
  0
VISUALSTYLE
  5
40
102
{ACAD_REACTORS
330
2A
102
}
330
2A
100
AcDbVisualStyle
  2
X-Ray
 70
    25
177
     3
291
     0
 70
    58
 90
        2
176
     1
 90
        2
176
     1
 90
        1
176
     1
 90
        1
176
     1
 40
0.5
176
     1
 40
30.0
176
     1
 62
     7
420
 16777215
176
     1
 90
        1
176
     1
 90
        0
176
     1
 62
     7
176
     1
 62
   257
176
     1
 90
        1
176
     1
 90
        1
176
     1
 40
1.0
176
     1
 90
        8
176
     1
 62
     7
176
     1
 40
1.0
176
     1
 90
        1
176
     1
 90
        6
176
     1
 90
        2
176
     1
 62
     7
176
     1
 90
        3
176
     1
 90
        0
176
     1
 90
        0
176
     1
290
     0
176
     1
 90
       13
176
     1
 40
0.0
176
     1
 90
        0
176
     1
290
     0
176
     1
290
     1
176
     1
290
     1
176
     1
290
     0
176
     1
290
     0
176
     1
290
     0
176
     1
290
     0
176
     1
290
     0
176
     1
290
     0
176
     1
 90
       50
176
     1
 40
0.0
176
     1
 40
1.0
176
     1
 90
        0
176
     1
 62
    18
420
        0
176
     1
 90
       50
176
     1
 90
        3
176
     1
 62
     5
420
      255
176
     1
290
     0
176
     1
 90
       50
176
     1
 90
       50
176
     1
 90
       50
176
     1
290
     0
176
     1
 90
       50
176
     1
 62
   256
176
     0
 40
1.0
176
     0
 90
        2
176
     1
  1
strokes_ogs.tif
176
     1
290
     0
176
     1
 40
1.0
176
     1
 40
1.0
176
     1
  0
DICTIONARYVAR
  5
1A1
102
{ACAD_REACTORS
330
1A0
102
}
330
1A0
100
DictionaryVariables
280
     0
  1
1:1
  0
DICTIONARYVAR
  5
1A6
102
{ACAD_REACTORS
330
1A0
102
}
330
1A0
100
DictionaryVariables
280
     0
  1
Standard
  0
DICTIONARYVAR
  5
1A5
102
{ACAD_REACTORS
330
1A0
102
}
330
1A0
100
DictionaryVariables
280
     0
  1
Standard
  0
DICTIONARY
  5
1A2
330
6A
100
AcDbDictionary
280
     1
281
     1
  3
ACAD_ROUNDTRIP_2008_TABLESTYLE_CELLSTYLEMAP
360
1A3
  0
CELLSTYLEMAP
  5
1A3
102
{ACAD_REACTORS
330
1A2
102
}
330
1A2
100
AcDbCellStyleMap
 90
        3
300
CELLSTYLE
  1
TABLEFORMAT_BEGIN
 90
        5
170
     1
 91
        0
 92
    32768
 62
   257
 93
        1
300
CONTENTFORMAT
  1
CONTENTFORMAT_BEGIN
 90
        0
 91
        0
 92
        4
 93
        0
300

 40
0.0
140
1.0
 94
        5
 62
     0
340
11
144
0.25
309
CONTENTFORMAT_END
171
     1
301
MARGIN
  1
CELLMARGIN_BEGIN
 40
0.06
 40
0.06
 40
0.06
 40
0.06
 40
0.06
 40
0.06
309
CELLMARGIN_END
 94
        6
 95
        1
302
GRIDFORMAT
  1
GRIDFORMAT_BEGIN
 90
        0
 91
        1
 62
     0
 92
       -2
340
14
 93
        0
 40
0.045
309
GRIDFORMAT_END
 95
        2
302
GRIDFORMAT
  1
GRIDFORMAT_BEGIN
 90
        0
 91
        1
 62
     0
 92
       -2
340
14
 93
        0
 40
0.045
309
GRIDFORMAT_END
 95
        4
302
GRIDFORMAT
  1
GRIDFORMAT_BEGIN
 90
        0
 91
        1
 62
     0
 92
       -2
340
14
 93
        0
 40
0.045
309
GRIDFORMAT_END
 95
        8
302
GRIDFORMAT
  1
GRIDFORMAT_BEGIN
 90
        0
 91
        1
 62
     0
 92
       -2
340
14
 93
        0
 40
0.045
309
GRIDFORMAT_END
 95
       16
302
GRIDFORMAT
  1
GRIDFORMAT_BEGIN
 90
        0
 91
        1
 62
     0
 92
       -2
340
14
 93
        0
 40
0.045
309
GRIDFORMAT_END
 95
       32
302
GRIDFORMAT
  1
GRIDFORMAT_BEGIN
 90
        0
 91
        1
 62
     0
 92
       -2
340
14
 93
        0
 40
0.045
309
GRIDFORMAT_END
309
TABLEFORMAT_END
  1
CELLSTYLE_BEGIN
 90
        1
 91
        1
300
_TITLE
309
CELLSTYLE_END
300
CELLSTYLE
  1
TABLEFORMAT_BEGIN
 90
        5
170
     1
 91
        0
 92
        0
 62
   257
 93
        1
300
CONTENTFORMAT
  1
CONTENTFORMAT_BEGIN
 90
        0
 91
        0
 92
        4
 93
        0
300

 40
0.0
140
1.0
 94
        5
 62
     0
340
11
144
0.18
309
CONTENTFORMAT_END
171
     1
301
MARGIN
  1
CELLMARGIN_BEGIN
 40
0.06
 40
0.06
 40
0.06
 40
0.06
 40
0.06
 40
0.06
309
CELLMARGIN_END
 94
        6
 95
        1
302
GRIDFORMAT
  1
GRIDFORMAT_BEGIN
 90
        0
 91
        1
 62
     0
 92
       -2
340
14
 93
        0
 40
0.045
309
GRIDFORMAT_END
 95
        2
302
GRIDFORMAT
  1
GRIDFORMAT_BEGIN
 90
        0
 91
        1
 62
     0
 92
       -2
340
14
 93
        0
 40
0.045
309
GRIDFORMAT_END
 95
        4
302
GRIDFORMAT
  1
GRIDFORMAT_BEGIN
 90
        0
 91
        1
 62
     0
 92
       -2
340
14
 93
        0
 40
0.045
309
GRIDFORMAT_END
 95
        8
302
GRIDFORMAT
  1
GRIDFORMAT_BEGIN
 90
        0
 91
        1
 62
     0
 92
       -2
340
14
 93
        0
 40
0.045
309
GRIDFORMAT_END
 95
       16
302
GRIDFORMAT
  1
GRIDFORMAT_BEGIN
 90
        0
 91
        1
 62
     0
 92
       -2
340
14
 93
        0
 40
0.045
309
GRIDFORMAT_END
 95
       32
302
GRIDFORMAT
  1
GRIDFORMAT_BEGIN
 90
        0
 91
        1
 62
     0
 92
       -2
340
14
 93
        0
 40
0.045
309
GRIDFORMAT_END
309
TABLEFORMAT_END
  1
CELLSTYLE_BEGIN
 90
        2
 91
        1
300
_HEADER
309
CELLSTYLE_END
300
CELLSTYLE
  1
TABLEFORMAT_BEGIN
 90
        5
170
     1
 91
        0
 92
        0
 62
   257
 93
        1
300
CONTENTFORMAT
  1
CONTENTFORMAT_BEGIN
 90
        0
 91
        0
 92
        4
 93
        0
300

 40
0.0
140
1.0
 94
        2
 62
     0
340
11
144
0.18
309
CONTENTFORMAT_END
171
     1
301
MARGIN
  1
CELLMARGIN_BEGIN
 40
0.06
 40
0.06
 40
0.06
 40
0.06
 40
0.06
 40
0.06
309
CELLMARGIN_END
 94
        6
 95
        1
302
GRIDFORMAT
  1
GRIDFORMAT_BEGIN
 90
        0
 91
        1
 62
     0
 92
       -2
340
14
 93
        0
 40
0.045
309
GRIDFORMAT_END
 95
        2
302
GRIDFORMAT
  1
GRIDFORMAT_BEGIN
 90
        0
 91
        1
 62
     0
 92
       -2
340
14
 93
        0
 40
0.045
309
GRIDFORMAT_END
 95
        4
302
GRIDFORMAT
  1
GRIDFORMAT_BEGIN
 90
        0
 91
        1
 62
     0
 92
       -2
340
14
 93
        0
 40
0.045
309
GRIDFORMAT_END
 95
        8
302
GRIDFORMAT
  1
GRIDFORMAT_BEGIN
 90
        0
 91
        1
 62
     0
 92
       -2
340
14
 93
        0
 40
0.045
309
GRIDFORMAT_END
 95
       16
302
GRIDFORMAT
  1
GRIDFORMAT_BEGIN
 90
        0
 91
        1
 62
     0
 92
       -2
340
14
 93
        0
 40
0.045
309
GRIDFORMAT_END
 95
       32
302
GRIDFORMAT
  1
GRIDFORMAT_BEGIN
 90
        0
 91
        1
 62
     0
 92
       -2
340
14
 93
        0
 40
0.045
309
GRIDFORMAT_END
309
TABLEFORMAT_END
  1
CELLSTYLE_BEGIN
 90
        3
 91
        2
300
_DATA
309
CELLSTYLE_END
  0
ENDSEC
  0
EOF