0
SECTION
  2
HEADER
  9
$ACADVER
  1
AC1027
  9
$ACADMAINTVER
 70
     8
  9
$DWGCODEPAGE
  3
ANSI_1252
  9
$REQUIREDVERSIONS
160
                 0
  9
$COMMENTS
  1
File was created by Cadenas
  9
$CUSTOMPROPERTYTAG
  1
NN
  9
$CUSTOMPROPERTY
  1
Set Screw Intermediate Duty Low Backing Height Two-Bolt Pillow Block Inch Bore
  9
$CUSTOMPROPERTYTAG
  1
NT
  9
$CUSTOMPROPERTY
  1
VSCB Intermediate  Duty Pillow Blocks
  9
$CUSTOMPROPERTYTAG
  1
NB
  9
$CUSTOMPROPERTY
  1
123595
  9
$CUSTOMPROPERTYTAG
  1
NBSYN
  9
$CUSTOMPROPERTY
  1
$PN.
  9
$CUSTOMPROPERTYTAG
  1
LINA
  9
$CUSTOMPROPERTY
  1
123595
  9
$CUSTOMPROPERTYTAG
  1
RS
  9
$CUSTOMPROPERTY
  1
204
  9
$CUSTOMPROPERTYTAG
  1
SS
  9
$CUSTOMPROPERTY
  1
3/4
  9
$CUSTOMPROPERTYTAG
  1
PN
  9
$CUSTOMPROPERTY
  1
123595
  9
$CUSTOMPROPERTYTAG
  1
DESCRIPTION
  9
$CUSTOMPROPERTY
  1
P2B-VSCB-012
  9
$CUSTOMPROPERTYTAG
  1
LF
  9
$CUSTOMPROPERTY
  1
RE-LUBE
  9
$CUSTOMPROPERTYTAG
  1
WEIGHT
  9
$CUSTOMPROPERTY
  1
1.4
  9
$CUSTOMPROPERTYTAG
  1
A
  9
$CUSTOMPROPERTY
  1
1.23
  9
$CUSTOMPROPERTYTAG
  1
B
  9
$CUSTOMPROPERTY
  1
5.25
  9
$CUSTOMPROPERTYTAG
  1
C
  9
$CUSTOMPROPERTY
  1
1.34
  9
$CUSTOMPROPERTYTAG
  1
DMIN
  9
$CUSTOMPROPERTY
  1
3.38
  9
$CUSTOMPROPERTYTAG
  1
DMAX
  9
$CUSTOMPROPERTY
  1
4.19
  9
$CUSTOMPROPERTYTAG
  1
F
  9
$CUSTOMPROPERTY
  1
3/8
  9
$CUSTOMPROPERTYTAG
  1
G
  9
$CUSTOMPROPERTY
  1
0.85
  9
$CUSTOMPROPERTYTAG
  1
H
  9
$CUSTOMPROPERTY
  1
0.47
  9
$CUSTOMPROPERTYTAG
  1
J
  9
$CUSTOMPROPERTY
  1
2.49
  9
$CUSTOMPROPERTYTAG
  1
L
  9
$CUSTOMPROPERTY
  1
1.12
  9
$CUSTOMPROPERTYTAG
  1
M
  9
$CUSTOMPROPERTY
  1
1.25
  9
$CUSTOMPROPERTYTAG
  1
R
  9
$CUSTOMPROPERTY
  1
0.50
  9
$CUSTOMPROPERTYTAG
  1
S
  9
$CUSTOMPROPERTY
  1
0.73
  9
$CUSTOMPROPERTYTAG
  1
U
  9
$CUSTOMPROPERTY
  1
2.25
  9
$CUSTOMPROPERTYTAG
  1
V
  9
$CUSTOMPROPERTY
  1
4.50
  9
$CUSTOMPROPERTYTAG
  1
W
  9
$CUSTOMPROPERTY
  1
0.50
  9
$CUSTOMPROPERTYTAG
  1
X
  9
$CUSTOMPROPERTY
  1
0.12
  9
$CUSTOMPROPERTYTAG
  1
COMPANY
  9
$CUSTOMPROPERTY
  1
baldor
  9
$INSBASE
 10
0.0
 20
0.0
 30
0.0
  9
$EXTMIN
 10
1.000000000000000E+20
 20
1.000000000000000E+20
 30
1.000000000000000E+20
  9
$EXTMAX
 10
-1.000000000000000E+20
 20
-1.000000000000000E+20
 30
-1.000000000000000E+20
  9
$LIMMIN
 10
0.0
 20
0.0
  9
$LIMMAX
 10
12.0
 20
9.0
  9
$ORTHOMODE
 70
     0
  9
$REGENMODE
 70
     1
  9
$FILLMODE
 70
     1
  9
$QTEXTMODE
 70
     0
  9
$MIRRTEXT
 70
     1
  9
$LTSCALE
 40
1.0
  9
$ATTMODE
 70
     1
  9
$TEXTSIZE
 40
0.2
  9
$TRACEWID
 40
0.05
  9
$TEXTSTYLE
  7
Standard
  9
$CLAYER
  8
0
  9
$CELTYPE
  6
ByLayer
  9
$CECOLOR
 62
   256
  9
$CELTSCALE
 40
1.0
  9
$DISPSILH
 70
     0
  9
$DIMSCALE
 40
1.0
  9
$DIMASZ
 40
0.18
  9
$DIMEXO
 40
0.0625
  9
$DIMDLI
 40
0.38
  9
$DIMRND
 40
0.0
  9
$DIMDLE
 40
0.0
  9
$DIMEXE
 40
0.18
  9
$DIMTP
 40
0.0
  9
$DIMTM
 40
0.0
  9
$DIMTXT
 40
0.18
  9
$DIMCEN
 40
0.09
  9
$DIMTSZ
 40
0.0
  9
$DIMTOL
 70
     0
  9
$DIMLIM
 70
     0
  9
$DIMTIH
 70
     1
  9
$DIMTOH
 70
     1
  9
$DIMSE1
 70
     0
  9
$DIMSE2
 70
     0
  9
$DIMTAD
 70
     0
  9
$DIMZIN
 70
     0
  9
$DIMBLK
  1

  9
$DIMASO
 70
     1
  9
$DIMSHO
 70
     1
  9
$DIMPOST
  1

  9
$DIMAPOST
  1

  9
$DIMALT
 70
     0
  9
$DIMALTD
 70
     2
  9
$DIMALTF
 40
25.4
  9
$DIMLFAC
 40
1.0
  9
$DIMTOFL
 70
     0
  9
$DIMTVP
 40
0.0
  9
$DIMTIX
 70
     0
  9
$DIMSOXD
 70
     0
  9
$DIMSAH
 70
     0
  9
$DIMBLK1
  1

  9
$DIMBLK2
  1

  9
$DIMSTYLE
  2
Standard
  9
$DIMCLRD
 70
     0
  9
$DIMCLRE
 70
     0
  9
$DIMCLRT
 70
     0
  9
$DIMTFAC
 40
1.0
  9
$DIMGAP
 40
0.09
  9
$DIMJUST
 70
     0
  9
$DIMSD1
 70
     0
  9
$DIMSD2
 70
     0
  9
$DIMTOLJ
 70
     1
  9
$DIMTZIN
 70
     0
  9
$DIMALTZ
 70
     0
  9
$DIMALTTZ
 70
     0
  9
$DIMUPT
 70
     0
  9
$DIMDEC
 70
     4
  9
$DIMTDEC
 70
     4
  9
$DIMALTU
 70
     2
  9
$DIMALTTD
 70
     2
  9
$DIMTXSTY
  7
Standard
  9
$DIMAUNIT
 70
     0
  9
$DIMADEC
 70
     0
  9
$DIMALTRND
 40
0.0
  9
$DIMAZIN
 70
     0
  9
$DIMDSEP
 70
    46
  9
$DIMATFIT
 70
     3
  9
$DIMFRAC
 70
     0
  9
$DIMLDRBLK
  1

  9
$DIMLUNIT
 70
     2
  9
$DIMLWD
 70
    -2
  9
$DIMLWE
 70
    -2
  9
$DIMTMOVE
 70
     0
  9
$DIMFXL
 40
1.0
  9
$DIMFXLON
 70
     0
  9
$DIMJOGANG
 40
0.7853981633974483
  9
$DIMTFILL
 70
     0
  9
$DIMTFILLCLR
 70
     0
  9
$DIMARCSYM
 70
     0
  9
$DIMLTYPE
  6

  9
$DIMLTEX1
  6

  9
$DIMLTEX2
  6

  9
$DIMTXTDIRECTION
 70
     0
  9
$LUNITS
 70
     2
  9
$LUPREC
 70
     4
  9
$SKETCHINC
 40
0.1
  9
$FILLETRAD
 40
0.5
  9
$AUNITS
 70
     0
  9
$AUPREC
 70
     0
  9
$MENU
  1
.
  9
$ELEVATION
 40
0.0
  9
$PELEVATION
 40
0.0
  9
$THICKNESS
 40
0.0
  9
$LIMCHECK
 70
     0
  9
$CHAMFERA
 40
0.0
  9
$CHAMFERB
 40
0.0
  9
$CHAMFERC
 40
0.0
  9
$CHAMFERD
 40
0.0
  9
$SKPOLY
 70
     0
  9
$TDCREATE
 40
2458168.998178912
  9
$TDUCREATE
 40
2458168.956512245
  9
$TDUPDATE
 40
2458168.998179086
  9
$TDUUPDATE
 40
2458168.956512419
  9
$TDINDWG
 40
0.0000000116
  9
$TDUSRTIMER
 40
0.0000000116
  9
$USRTIMER
 70
     1
  9
$ANGBASE
 50
0.0
  9
$ANGDIR
 70
     0
  9
$PDMODE
 70
     0
  9
$PDSIZE
 40
0.0
  9
$PLINEWID
 40
0.0
  9
$SPLFRAME
 70
     0
  9
$SPLINETYPE
 70
     6
  9
$SPLINESEGS
 70
     8
  9
$HANDSEED
  5
198
  9
$SURFTAB1
 70
     6
  9
$SURFTAB2
 70
     6
  9
$SURFTYPE
 70
     6
  9
$SURFU
 70
     6
  9
$SURFV
 70
     6
  9
$UCSBASE
  2

  9
$UCSNAME
  2

  9
$UCSORG
 10
0.0
 20
0.0
 30
0.0
  9
$UCSXDIR
 10
1.0
 20
0.0
 30
0.0
  9
$UCSYDIR
 10
0.0
 20
1.0
 30
0.0
  9
$UCSORTHOREF
  2

  9
$UCSORTHOVIEW
 70
     0
  9
$UCSORGTOP
 10
0.0
 20
0.0
 30
0.0
  9
$UCSORGBOTTOM
 10
0.0
 20
0.0
 30
0.0
  9
$UCSORGLEFT
 10
0.0
 20
0.0
 30
0.0
  9
$UCSORGRIGHT
 10
0.0
 20
0.0
 30
0.0
  9
$UCSORGFRONT
 10
0.0
 20
0.0
 30
0.0
  9
$UCSORGBACK
 10
0.0
 20
0.0
 30
0.0
  9
$PUCSBASE
  2

  9
$PUCSNAME
  2

  9
$PUCSORG
 10
0.0
 20
0.0
 30
0.0
  9
$PUCSXDIR
 10
1.0
 20
0.0
 30
0.0
  9
$PUCSYDIR
 10
0.0
 20
1.0
 30
0.0
  9
$PUCSORTHOREF
  2

  9
$PUCSORTHOVIEW
 70
     0
  9
$PUCSORGTOP
 10
0.0
 20
0.0
 30
0.0
  9
$PUCSORGBOTTOM
 10
0.0
 20
0.0
 30
0.0
  9
$PUCSORGLEFT
 10
0.0
 20
0.0
 30
0.0
  9
$PUCSORGRIGHT
 10
0.0
 20
0.0
 30
0.0
  9
$PUCSORGFRONT
 10
0.0
 20
0.0
 30
0.0
  9
$PUCSORGBACK
 10
0.0
 20
0.0
 30
0.0
  9
$USERI1
 70
     0
  9
$USERI2
 70
     0
  9
$USERI3
 70
     0
  9
$USERI4
 70
     0
  9
$USERI5
 70
     0
  9
$USERR1
 40
0.0
  9
$USERR2
 40
0.0
  9
$USERR3
 40
0.0
  9
$USERR4
 40
0.0
  9
$USERR5
 40
0.0
  9
$WORLDVIEW
 70
     1
  9
$SHADEDGE
 70
     3
  9
$SHADEDIF
 70
    70
  9
$TILEMODE
 70
     1
  9
$MAXACTVP
 70
    64
  9
$PINSBASE
 10
0.0
 20
0.0
 30
0.0
  9
$PLIMCHECK
 70
     0
  9
$PEXTMIN
 10
1.000000000000000E+20
 20
1.000000000000000E+20
 30
1.000000000000000E+20
  9
$PEXTMAX
 10
-1.000000000000000E+20
 20
-1.000000000000000E+20
 30
-1.000000000000000E+20
  9
$PLIMMIN
 10
0.0
 20
0.0
  9
$PLIMMAX
 10
12.0
 20
9.0
  9
$UNITMODE
 70
     0
  9
$VISRETAIN
 70
     1
  9
$PLINEGEN
 70
     0
  9
$PSLTSCALE
 70
     1
  9
$TREEDEPTH
 70
  3020
  9
$CMLSTYLE
  2
Standard
  9
$CMLJUST
 70
     0
  9
$CMLSCALE
 40
1.0
  9
$PROXYGRAPHICS
 70
     1
  9
$MEASUREMENT
 70
     0
  9
$CELWEIGHT
370
    -1
  9
$ENDCAPS
280
     0
  9
$JOINSTYLE
280
     0
  9
$LWDISPLAY
290
     0
  9
$INSUNITS
 70
     1
  9
$HYPERLINKBASE
  1

  9
$STYLESHEET
  1

  9
$XEDIT
290
     1
  9
$CEPSNTYPE
380
     0
  9
$PSTYLEMODE
290
     1
  9
$FINGERPRINTGUID
  2
{9869944E-BDDB-400E-921D-463E1502A04B}
  9
$VERSIONGUID
  2
{FAEB1C32-E019-11D5-929B-00C0DF256EC4}
  9
$EXTNAMES
290
     1
  9
$PSVPSCALE
 40
0.0
  9
$OLESTARTUP
290
     0
  9
$SORTENTS
280
   127
  9
$INDEXCTL
280
     0
  9
$HIDETEXT
280
     1
  9
$XCLIPFRAME
280
     2
  9
$HALOGAP
280
     0
  9
$OBSCOLOR
 70
   257
  9
$OBSLTYPE
280
     0
  9
$INTERSECTIONDISPLAY
280
     0
  9
$INTERSECTIONCOLOR
 70
   257
  9
$DIMASSOC
280
     2
  9
$PROJECTNAME
  1

  9
$CAMERADISPLAY
290
     0
  9
$LENSLENGTH
 40
50.0
  9
$CAMERAHEIGHT
 40
0.0
  9
$STEPSPERSEC
 40
2.0
  9
$STEPSIZE
 40
6.0
  9
$3DDWFPREC
 40
2.0
  9
$PSOLWIDTH
 40
0.25
  9
$PSOLHEIGHT
 40
4.0
  9
$LOFTANG1
 40
1.570796326794897
  9
$LOFTANG2
 40
1.570796326794897
  9
$LOFTMAG1
 40
0.0
  9
$LOFTMAG2
 40
0.0
  9
$LOFTPARAM
 70
     7
  9
$LOFTNORMALS
280
     1
  9
$LATITUDE
 40
37.795
  9
$LONGITUDE
 40
-122.394
  9
$NORTHDIRECTION
 40
0.0
  9
$TIMEZONE
 70
 -8000
  9
$LIGHTGLYPHDISPLAY
280
     1
  9
$TILEMODELIGHTSYNCH
280
     1
  9
$CMATERIAL
347
44
  9
$SOLIDHIST
280
     0
  9
$SHOWHIST
280
     1
  9
$DWFFRAME
280
     2
  9
$DGNFRAME
280
     2
  9
$REALWORLDSCALE
290
     1
  9
$INTERFERECOLOR
 62
   256
  9
$CSHADOW
280
     0
  9
$SHADOWPLANELOCATION
 40
0.0
  0
ENDSEC
  0
SECTION
  2
CLASSES
  0
CLASS
  1
ACDBDICTIONARYWDFLT
  2
AcDbDictionaryWithDefault
  3
ObjectDBX Classes
 90
        0
 91
        4
280
     0
281
     0
  0
CLASS
  1
VISUALSTYLE
  2
AcDbVisualStyle
  3
ObjectDBX Classes
 90
     4095
 91
        4
280
     0
281
     0
  0
CLASS
  1
MATERIAL
  2
AcDbMaterial
  3
ObjectDBX Classes
 90
     1153
 91
        4
280
     0
281
     0
  0
CLASS
  1
SCALE
  2
AcDbScale
  3
ObjectDBX Classes
 90
     1153
 91
        4
280
     0
281
     0
  0
CLASS
  1
TABLESTYLE
  2
AcDbTableStyle
  3
ObjectDBX Classes
 90
     4095
 91
        4
280
     0
281
     0
  0
CLASS
  1
MLEADERSTYLE
  2
AcDbMLeaderStyle
  3
ACDB_MLEADERSTYLE_CLASS
 90
     4095
 91
        4
280
     0
281
     0
  0
CLASS
  1
SUN
  2
AcDbSun
  3
SCENEOE
 90
     1153
 91
        4
280
     0
281
     0
  0
CLASS
  1
DICTIONARYVAR
  2
AcDbDictionaryVar
  3
ObjectDBX Classes
 90
        0
 91
        4
280
     0
281
     0
  0
CLASS
  1
CELLSTYLEMAP
  2
AcDbCellStyleMap
  3
ObjectDBX Classes
 90
     1152
 91
        4
280
     0
281
     0
  0
ENDSEC
  0
SECTION
  2
TABLES
  0
TABLE
  2
VPORT
  5
8
330
0
100
AcDbSymbolTable
 70
     1
  0
VPORT
  5
29
330
8
100
AcDbSymbolTableRecord
100
AcDbViewportTableRecord
  2
*Active
 70
     0
 10
0.0
 20
0.0
 11
1.0
 21
1.0
 12
-0.0272499999999987
 22
-0.0049999999999999
 13
0.0
 23
0.0
 14
0.5
 24
0.5
 15
0.5
 25
0.5
 16
0.0
 26
0.0
 36
1.0
 17
0.0
 27
0.0
 37
0.0
 40
2.5398
 41
0.6138554216867474
 42
50.0
 43
0.0
 44
0.0
 50
0.0
 51
0.0
 71
     0
 72
   100
 73
     1
 74
     3
 75
     0
 76
     0
 77
     0
 78
     0
281
     0
 65
     1
110
0.0
120
0.0
130
0.0
111
1.0
121
0.0
131
0.0
112
0.0
122
1.0
132
0.0
 79
     0
146
0.0
348
2F
 60
     3
 61
     5
292
     1
282
     1
141
0.0
142
0.0
 63
   250
361
6D
  0
ENDTAB
  0
TABLE
  2
LTYPE
  5
5
330
0
100
AcDbSymbolTable
 70
     3
  0
LTYPE
  5
14
330
5
100
AcDbSymbolTableRecord
100
AcDbLinetypeTableRecord
  2
ByBlock
 70
     0
  3

 72
    65
 73
     0
 40
0.0
  0
LTYPE
  5
15
330
5
100
AcDbSymbolTableRecord
100
AcDbLinetypeTableRecord
  2
ByLayer
 70
     0
  3

 72
    65
 73
     0
 40
0.0
  0
LTYPE
  5
16
330
5
100
AcDbSymbolTableRecord
100
AcDbLinetypeTableRecord
  2
Continuous
 70
     0
  3
Solid line
 72
    65
 73
     0
 40
0.0
  0
LTYPE
  5
A2
330
5
100
AcDbSymbolTableRecord
100
AcDbLinetypeTableRecord
  2
Dashed
 70
     0
  3

 72
    65
 73
     2
 40
2.0
 49
1.0
 74
     0
 49
-1.0
 74
     0
  0
LTYPE
  5
131
330
5
100
AcDbSymbolTableRecord
100
AcDbLinetypeTableRecord
  2
Center
 70
     0
  3

 72
    65
 73
     4
 40
1.5
 49
0.45
 74
     0
 49
-0.5
 74
     0
 49
0.05
 74
     0
 49
-0.5
 74
     0
  0
ENDTAB
  0
TABLE
  2
LAYER
  5
2
330
0
100
AcDbSymbolTable
 70
     7
  0
LAYER
  5
10
330
2
100
AcDbSymbolTableRecord
100
AcDbLayerTableRecord
  2
0
 70
     0
 62
     7
  6
Continuous
370
    -3
390
F
347
46
348
0
  0
LAYER
  5
72
330
2
100
AcDbSymbolTableRecord
100
AcDbLayerTableRecord
  2
AM_6
 70
     0
 62
    -2
  6
Continuous
370
    35
390
F
347
46
348
0
  0
LAYER
  5
A3
330
2
100
AcDbSymbolTableRecord
100
AcDbLayerTableRecord
  2
AM_9
 70
     0
 62
     6
  6
Dashed
370
    25
390
F
347
46
348
0
  0
LAYER
  5
BF
330
2
100
AcDbSymbolTableRecord
100
AcDbLayerTableRecord
  2
AM_4
 70
     0
 62
     7
  6
Continuous
370
    50
390
F
347
46
348
0
  0
LAYER
  5
12E
330
2
100
AcDbSymbolTableRecord
100
AcDbLayerTableRecord
  2
AM_5
 70
     0
 62
     3
  6
Continuous
370
    25
390
F
347
46
348
0
  0
LAYER
  5
132
330
2
100
AcDbSymbolTableRecord
100
AcDbLayerTableRecord
  2
AM_7
 70
     0
 62
     7
  6
Center
370
    25
390
F
347
46
348
0
  0
LAYER
  5
18B
330
2
100
AcDbSymbolTableRecord
100
AcDbLayerTableRecord
  2
ConnectionPoints
 70
     0
 62
     7
  6
Continuous
370
    50
390
F
347
46
348
0
  0
ENDTAB
  0
TABLE
  2
STYLE
  5
3
330
0
100
AcDbSymbolTable
 70
     1
  0
STYLE
  5
11
330
3
100
AcDbSymbolTableRecord
100
AcDbTextStyleTableRecord
  2
Standard
 70
     0
 40
0.0
 41
1.0
 50
0.0
 71
     0
 42
0.2
  3
txt
  4

  0
ENDTAB
  0
TABLE
  2
VIEW
  5
6
330
0
100
AcDbSymbolTable
 70
     0
  0
ENDTAB
  0
TABLE
  2
UCS
  5
7
330
0
100
AcDbSymbolTable
 70
     0
  0
ENDTAB
  0
TABLE
  2
APPID
  5
9
330
0
100
AcDbSymbolTable
 70
     1
  0
APPID
  5
12
330
9
100
AcDbSymbolTableRecord
100
AcDbRegAppTableRecord
  2
ACAD
 70
     0
  0
ENDTAB
  0
TABLE
  2
DIMSTYLE
  5
A
330
0
100
AcDbSymbolTable
 70
     1
100
AcDbDimStyleTable
  0
DIMSTYLE
105
27
330
A
100
AcDbSymbolTableRecord
100
AcDbDimStyleTableRecord
  2
Standard
 70
     0
178
     0
340
11
  0
ENDTAB
  0
TABLE
  2
BLOCK_RECORD
  5
1
330
0
100
AcDbSymbolTable
 70
     5
  0
BLOCK_RECORD
  5
1F
330
1
100
AcDbSymbolTableRecord
100
AcDbBlockTableRecord
  2
*Model_Space
340
22
 70
     0
280
     1
281
     0
  0
BLOCK_RECORD
  5
1B
330
1
100
AcDbSymbolTableRecord
100
AcDbBlockTableRecord
  2
*Paper_Space
340
1E
 70
     0
280
     1
281
     0
  0
BLOCK_RECORD
  5
23
330
1
100
AcDbSymbolTableRecord
100
AcDbBlockTableRecord
  2
*Paper_Space0
340
26
 70
     0
280
     1
281
     0
  0
BLOCK_RECORD
  5
6E
330
1
100
AcDbSymbolTableRecord
100
AcDbBlockTableRecord
  2
1_123595_2
340
0
102
{BLKREFS
331
6F
102
}
 70
     0
280
     1
281
     0
  0
BLOCK_RECORD
  5
90
330
1
100
AcDbSymbolTableRecord
100
AcDbBlockTableRecord
  2
2_405020c_Inch_0_in_123595_2
340
0
102
{BLKREFS
331
91
102
}
 70
     0
280
     1
281
     0
  0
BLOCK_RECORD
  5
DC
330
1
100
AcDbSymbolTableRecord
100
AcDbBlockTableRecord
  2
3_389925_0_in_123595_2
340
0
102
{BLKREFS
331
DD
102
}
 70
     0
280
     1
281
     0
  0
BLOCK_RECORD
  5
144
330
1
100
AcDbSymbolTableRecord
100
AcDbBlockTableRecord
  2
4_123595vscb_0_in_123595_2
340
0
102
{BLKREFS
331
145
102
}
 70
     0
280
     1
281
     0
  0
ENDTAB
  0
ENDSEC
  0
SECTION
  2
BLOCKS
  0
BLOCK
  5
20
330
1F
100
AcDbEntity
  8
0
100
AcDbBlockBegin
  2
*Model_Space
 70
     0
 10
0.0
 20
0.0
 30
0.0
  3
*Model_Space
  1

  0
ENDBLK
  5
21
330
1F
100
AcDbEntity
  8
0
100
AcDbBlockEnd
  0
BLOCK
  5
1C
330
1B
100
AcDbEntity
 67
     1
  8
0
100
AcDbBlockBegin
  2
*Paper_Space
 70
     0
 10
0.0
 20
0.0
 30
0.0
  3
*Paper_Space
  1

  0
ENDBLK
  5
1D
330
1B
100
AcDbEntity
 67
     1
  8
0
100
AcDbBlockEnd
  0
BLOCK
  5
24
330
23
100
AcDbEntity
  8
0
100
AcDbBlockBegin
  2
*Paper_Space0
 70
     0
 10
0.0
 20
0.0
 30
0.0
  3
*Paper_Space0
  1

  0
ENDBLK
  5
25
330
23
100
AcDbEntity
  8
0
100
AcDbBlockEnd
  0
BLOCK
  5
70
330
6E
100
AcDbEntity
  8
0
100
AcDbBlockBegin
  2
1_123595_2
 70
     2
 10
0.0
 20
0.0
 30
0.0
  3
1_123595_2
  1

  0
ATTDEF
  5
73
330
6E
100
AcDbEntity
  8
AM_6
100
AcDbText
 10
5.737
 20
1.24
 30
0.0
 40
0.5
  1
Set Screw Intermediate Duty Low Backing Height Two-Bolt Pillow Block Inch Bore
100
AcDbAttributeDefinition
  3

  2
NN
 70
     8
280
     0
  0
ATTDEF
  5
74
330
6E
100
AcDbEntity
  8
AM_6
100
AcDbText
 10
5.737
 20
0.74
 30
0.0
 40
0.5
  1
VSCB Intermediate  Duty Pillow Blocks
100
AcDbAttributeDefinition
  3

  2
NT
 70
     8
280
     0
  0
ATTDEF
  5
75
330
6E
100
AcDbEntity
  8
AM_6
100
AcDbText
 10
5.737
 20
0.24
 30
0.0
 40
0.5
  1
123595
100
AcDbAttributeDefinition
  3

  2
NB
 70
     8
280
     0
  0
ATTDEF
  5
76
330
6E
100
AcDbEntity
  8
AM_6
100
AcDbText
 10
5.737
 20
-0.26
 30
0.0
 40
0.5
  1
$PN.
100
AcDbAttributeDefinition
  3

  2
NBSYN
 70
     8
280
     0
  0
ATTDEF
  5
77
330
6E
100
AcDbEntity
  8
AM_6
100
AcDbText
 10
5.737
 20
-0.76
 30
0.0
 40
0.5
  1
123595
100
AcDbAttributeDefinition
  3

  2
LINA
 70
     8
280
     0
  0
ATTDEF
  5
78
330
6E
100
AcDbEntity
  8
AM_6
100
AcDbText
 10
5.737
 20
-1.26
 30
0.0
 40
0.5
  1
204
100
AcDbAttributeDefinition
  3

  2
RS
 70
     8
280
     0
  0
ATTDEF
  5
79
330
6E
100
AcDbEntity
  8
AM_6
100
AcDbText
 10
5.737
 20
-1.76
 30
0.0
 40
0.5
  1
3/4
100
AcDbAttributeDefinition
  3

  2
SS
 70
     8
280
     0
  0
ATTDEF
  5
7A
330
6E
100
AcDbEntity
  8
AM_6
100
AcDbText
 10
5.737
 20
-2.26
 30
0.0
 40
0.5
  1
123595
100
AcDbAttributeDefinition
  3

  2
PN
 70
     8
280
     0
  0
ATTDEF
  5
7B
330
6E
100
AcDbEntity
  8
AM_6
100
AcDbText
 10
5.737
 20
-2.76
 30
0.0
 40
0.5
  1
P2B-VSCB-012
100
AcDbAttributeDefinition
  3

  2
DESCRIPTION
 70
     8
280
     0
  0
ATTDEF
  5
7C
330
6E
100
AcDbEntity
  8
AM_6
100
AcDbText
 10
5.737
 20
-3.26
 30
0.0
 40
0.5
  1
RE-LUBE
100
AcDbAttributeDefinition
  3

  2
LF
 70
     8
280
     0
  0
ATTDEF
  5
7D
330
6E
100
AcDbEntity
  8
AM_6
100
AcDbText
 10
5.737
 20
-3.76
 30
0.0
 40
0.5
  1
1.4
100
AcDbAttributeDefinition
  3

  2
WEIGHT
 70
     8
280
     0
  0
ATTDEF
  5
7E
330
6E
100
AcDbEntity
  8
AM_6
100
AcDbText
 10
5.737
 20
-4.26
 30
0.0
 40
0.5
  1
1.23
100
AcDbAttributeDefinition
  3

  2
A
 70
     8
280
     0
  0
ATTDEF
  5
7F
330
6E
100
AcDbEntity
  8
AM_6
100
AcDbText
 10
5.737
 20
-4.76
 30
0.0
 40
0.5
  1
5.25
100
AcDbAttributeDefinition
  3

  2
B
 70
     8
280
     0
  0
ATTDEF
  5
80
330
6E
100
AcDbEntity
  8
AM_6
100
AcDbText
 10
5.737
 20
-5.26
 30
0.0
 40
0.5
  1
1.34
100
AcDbAttributeDefinition
  3

  2
C
 70
     8
280
     0
  0
ATTDEF
  5
81
330
6E
100
AcDbEntity
  8
AM_6
100
AcDbText
 10
5.737
 20
-5.76
 30
0.0
 40
0.5
  1
3.38
100
AcDbAttributeDefinition
  3

  2
DMIN
 70
     8
280
     0
  0
ATTDEF
  5
82
330
6E
100
AcDbEntity
  8
AM_6
100
AcDbText
 10
5.737
 20
-6.26
 30
0.0
 40
0.5
  1
4.19
100
AcDbAttributeDefinition
  3

  2
DMAX
 70
     8
280
     0
  0
ATTDEF
  5
83
330
6E
100
AcDbEntity
  8
AM_6
100
AcDbText
 10
5.737
 20
-6.76
 30
0.0
 40
0.5
  1
3/8
100
AcDbAttributeDefinition
  3

  2
F
 70
     8
280
     0
  0
ATTDEF
  5
84
330
6E
100
AcDbEntity
  8
AM_6
100
AcDbText
 10
5.737
 20
-7.26
 30
0.0
 40
0.5
  1
0.85
100
AcDbAttributeDefinition
  3

  2
G
 70
     8
280
     0
  0
ATTDEF
  5
85
330
6E
100
AcDbEntity
  8
AM_6
100
AcDbText
 10
5.737
 20
-7.76
 30
0.0
 40
0.5
  1
0.47
100
AcDbAttributeDefinition
  3

  2
H
 70
     8
280
     0
  0
ATTDEF
  5
86
330
6E
100
AcDbEntity
  8
AM_6
100
AcDbText
 10
5.737
 20
-8.26
 30
0.0
 40
0.5
  1
2.49
100
AcDbAttributeDefinition
  3

  2
J
 70
     8
280
     0
  0
ATTDEF
  5
87
330
6E
100
AcDbEntity
  8
AM_6
100
AcDbText
 10
5.737
 20
-8.76
 30
0.0
 40
0.5
  1
1.12
100
AcDbAttributeDefinition
  3

  2
L
 70
     8
280
     0
  0
ATTDEF
  5
88
330
6E
100
AcDbEntity
  8
AM_6
100
AcDbText
 10
5.737
 20
-9.26
 30
0.0
 40
0.5
  1
1.25
100
AcDbAttributeDefinition
  3

  2
M
 70
     8
280
     0
  0
ATTDEF
  5
89
330
6E
100
AcDbEntity
  8
AM_6
100
AcDbText
 10
5.737
 20
-9.76
 30
0.0
 40
0.5
  1
0.50
100
AcDbAttributeDefinition
  3

  2
R
 70
     8
280
     0
  0
ATTDEF
  5
8A
330
6E
100
AcDbEntity
  8
AM_6
100
AcDbText
 10
5.737
 20
-10.26
 30
0.0
 40
0.5
  1
0.73
100
AcDbAttributeDefinition
  3

  2
S
 70
     8
280
     0
  0
ATTDEF
  5
8B
330
6E
100
AcDbEntity
  8
AM_6
100
AcDbText
 10
5.737
 20
-10.76
 30
0.0
 40
0.5
  1
2.25
100
AcDbAttributeDefinition
  3

  2
U
 70
     8
280
     0
  0
ATTDEF
  5
8C
330
6E
100
AcDbEntity
  8
AM_6
100
AcDbText
 10
5.737
 20
-11.26
 30
0.0
 40
0.5
  1
4.50
100
AcDbAttributeDefinition
  3

  2
V
 70
     8
280
     0
  0
ATTDEF
  5
8D
330
6E
100
AcDbEntity
  8
AM_6
100
AcDbText
 10
5.737
 20
-11.76
 30
0.0
 40
0.5
  1
0.50
100
AcDbAttributeDefinition
  3

  2
W
 70
     8
280
     0
  0
ATTDEF
  5
8E
330
6E
100
AcDbEntity
  8
AM_6
100
AcDbText
 10
5.737
 20
-12.26
 30
0.0
 40
0.5
  1
0.12
100
AcDbAttributeDefinition
  3

  2
X
 70
     8
280
     0
  0
ATTDEF
  5
8F
330
6E
100
AcDbEntity
  8
AM_6
100
AcDbText
 10
5.737
 20
-12.76
 30
0.0
 40
0.5
  1
baldor
100
AcDbAttributeDefinition
  3

  2
COMPANY
 70
     8
280
     0
  0
INSERT
  5
91
330
6E
100
AcDbEntity
  8
0
100
AcDbBlockReference
  2
2_405020c_Inch_0_in_123595_2
 10
0.0
 20
0.0
 30
0.0
  0
INSERT
  5
DD
330
6E
100
AcDbEntity
  8
0
100
AcDbBlockReference
  2
3_389925_0_in_123595_2
 10
0.0
 20
0.0
 30
0.0
  0
INSERT
  5
145
330
6E
100
AcDbEntity
  8
0
100
AcDbBlockReference
  2
4_123595vscb_0_in_123595_2
 10
0.0
 20
0.0
 30
0.0
  0
ENDBLK
  5
71
330
6E
100
AcDbEntity
  8
0
100
AcDbBlockEnd
  0
BLOCK
  5
92
330
90
100
AcDbEntity
  8
0
100
AcDbBlockBegin
  2
2_405020c_Inch_0_in_123595_2
 70
     2
 10
0.0
 20
0.0
 30
0.0
  3
2_405020c_Inch_0_in_123595_2
  1

  0
ATTDEF
  5
94
330
90
100
AcDbEntity
  8
AM_6
100
AcDbText
 10
5.14065
 20
1.185225353067187
 30
0.0
 40
0.5
  1
405020C -Inch
100
AcDbAttributeDefinition
  3

  2
NN
 70
     8
280
     0
  0
ATTDEF
  5
95
330
90
100
AcDbEntity
  8
AM_6
100
AcDbText
 10
5.14065
 20
0.6852253530671872
 30
0.0
 40
0.5
  1
Grease fitting
100
AcDbAttributeDefinition
  3

  2
NT
 70
     8
280
     0
  0
ATTDEF
  5
96
330
90
100
AcDbEntity
  8
AM_6
100
AcDbText
 10
5.14065
 20
0.1852253530671872
 30
0.0
 40
0.5
  1
405020c-Inch
100
AcDbAttributeDefinition
  3

  2
NB
 70
     8
280
     0
  0
ATTDEF
  5
97
330
90
100
AcDbEntity
  8
AM_6
100
AcDbText
 10
5.14065
 20
-0.3147746469328128
 30
0.0
 40
0.5
  1
$MN.-Inch
100
AcDbAttributeDefinition
  3

  2
NBSYN
 70
     8
280
     0
  0
ATTDEF
  5
98
330
90
100
AcDbEntity
  8
AM_6
100
AcDbText
 10
5.14065
 20
-0.8147746469328128
 30
0.0
 40
0.5
  1
405020c
100
AcDbAttributeDefinition
  3

  2
LINA
 70
     8
280
     0
  0
ATTDEF
  5
99
330
90
100
AcDbEntity
  8
AM_6
100
AcDbText
 10
5.14065
 20
-1.314774646932813
 30
0.0
 40
0.5
  1
405020c
100
AcDbAttributeDefinition
  3

  2
MN
 70
     8
280
     0
  0
ATTDEF
  5
9A
330
90
100
AcDbEntity
  8
AM_6
100
AcDbText
 10
5.14065
 20
-1.814774646932813
 30
0.0
 40
0.5
  1
0.230
100
AcDbAttributeDefinition
  3

  2
NDR
 70
     8
280
     0
  0
ATTDEF
  5
9B
330
90
100
AcDbEntity
  8
AM_6
100
AcDbText
 10
5.14065
 20
-2.314774646932813
 30
0.0
 40
0.5
  1
0.210
100
AcDbAttributeDefinition
  3

  2
KDR
 70
     8
280
     0
  0
ATTDEF
  5
9C
330
90
100
AcDbEntity
  8
AM_6
100
AcDbText
 10
5.14065
 20
-2.814774646932813
 30
0.0
 40
0.5
  1
0.157
100
AcDbAttributeDefinition
  3

  2
BZE
 70
     8
280
     0
  0
ATTDEF
  5
9D
330
90
100
AcDbEntity
  8
AM_6
100
AcDbText
 10
5.14065
 20
-3.314774646932813
 30
0.0
 40
0.5
  1
9/32
100
AcDbAttributeDefinition
  3

  2
WAF
 70
     8
280
     0
  0
ATTDEF
  5
9E
330
90
100
AcDbEntity
  8
AM_6
100
AcDbText
 10
5.14065
 20
-3.814774646932813
 30
0.0
 40
0.5
  1
0.2813
100
AcDbAttributeDefinition
  3

  2
WAF1
 70
     8
280
     0
  0
ATTDEF
  5
9F
330
90
100
AcDbEntity
  8
AM_6
100
AcDbText
 10
5.14065
 20
-4.314774646932813
 30
0.0
 40
0.5
  1
0.545
100
AcDbAttributeDefinition
  3

  2
BL
 70
     8
280
     0
  0
ATTDEF
  5
A0
330
90
100
AcDbEntity
  8
AM_6
100
AcDbText
 10
5.14065
 20
-4.814774646932813
 30
0.0
 40
0.5
  1
0.200
100
AcDbAttributeDefinition
  3

  2
TL
 70
     8
280
     0
  0
ATTDEF
  5
A1
330
90
100
AcDbEntity
  8
AM_6
100
AcDbText
 10
5.14065
 20
-5.314774646932813
 30
0.0
 40
0.5
  1
baldor
100
AcDbAttributeDefinition
  3

  2
COMPANY
 70
     8
280
     0
  0
LWPOLYLINE
  5
A4
330
90
100
AcDbEntity
  8
AM_9
100
AcDbPolyline
 90
        3
 70
     0
 43
0.0
 10
0.0
 20
0.9957752320594487
 10
0.035004399931699
 20
0.9784599288058408
 10
0.070325
 20
0.9629425917519328
  0
LWPOLYLINE
  5
A5
330
90
100
AcDbEntity
  8
AM_9
100
AcDbPolyline
 90
        3
 70
     0
 43
0.0
 10
-0.070325
 20
0.9629425917519328
 10
-0.0351625
 20
0.9783857715402818
 10
0.0
 20
0.9957752320594487
  0
ELLIPSE
  5
A6
330
90
100
AcDbEntity
  8
AM_9
100
AcDbEllipse
 10
0.0
 20
0.7353910524340097
 30
0.0
 11
0.1000886227036577
 21
0.0
 31
0.0
210
0.0
220
0.0
230
1.0
 40
0.7071067811865474
 41
0.0
 42
6.283185307179586
  0
LWPOLYLINE
  5
A7
330
90
100
AcDbEntity
  8
AM_9
100
AcDbPolyline
 90
        3
 70
     0
 43
0.0
 10
0.070325
 20
1.010083043831036
 10
0.0351625
 20
1.023349925069558
 10
0.0
 20
1.034670525577262
  0
LWPOLYLINE
  5
A8
330
90
100
AcDbEntity
  8
AM_9
100
AcDbPolyline
 90
        3
 70
     0
 43
0.0
 10
0.0
 20
1.034670525577262
 10
-0.0350043999316989
 20
1.023404855969211
 10
-0.070325
 20
1.010083043831036
  0
LWPOLYLINE
  5
A9
330
90
100
AcDbEntity
  8
AM_9
100
AcDbPolyline
 90
        3
 70
     0
 43
0.0
 10
-0.1406499999999999
 20
0.9383551100057064
 10
-0.105645600068301
 20
0.9496207796137573
 10
-0.070325
 20
0.9629425917519328
  0
LINE
  5
AA
330
90
100
AcDbEntity
  8
AM_9
100
AcDbLine
 10
0.0
 20
1.034670525577262
 30
0.0
 11
0.0
 21
0.9957752320594487
 31
0.0
  0
LWPOLYLINE
  5
AB
330
90
100
AcDbEntity
  8
AM_9
100
AcDbPolyline
 90
        3
 70
     0
 43
0.0
 10
0.070325
 20
0.9629425917519328
 10
0.1054875
 20
0.9496757105134107
 10
0.1406500000000001
 20
0.9383551100057064
  0
LWPOLYLINE
  5
AC
330
90
100
AcDbEntity
  8
AM_9
100
AcDbPolyline
 90
        3
 70
     0
 43
0.0
 10
-0.070325
 20
1.010083043831036
 10
-0.1054874999999999
 20
0.9946398640426869
 10
-0.1151895236091904
 20
0.9900170077769
  0
LWPOLYLINE
  5
AD
330
90
100
AcDbEntity
  8
AM_9
100
AcDbPolyline
 90
        3
 70
     0
 43
0.0
 10
0.1151907939395563
 20
0.990016393108019
 10
0.1056456000683011
 20
0.994565706777128
 10
0.070325
 20
1.010083043831036
  0
LINE
  5
AE
330
90
100
AcDbEntity
  8
AM_9
100
AcDbLine
 10
0.1103623268442187
 20
0.7402537948962953
 30
0.0
 11
0.1162868225829307
 21
0.8742376551152494
 31
0.0
  0
LINE
  5
AF
330
90
100
AcDbEntity
  8
AM_9
100
AcDbLine
 10
-0.1162868225829306
 20
0.8742376551152494
 30
0.0
 11
-0.1103623268442186
 21
0.7402537948962953
 31
0.0
  0
ELLIPSE
  5
B0
330
90
100
AcDbEntity
  8
AM_9
100
AcDbEllipse
 10
-0.0000000000000004
 20
0.9239528607504222
 30
0.0
 11
-0.1406500000000006
 21
1.722465723000760E-17
 31
0.0
210
0.0
220
0.0
230
1.0
 40
0.7071067811865477
 41
3.798906696793619
 42
4.576952508972371
  0
ELLIPSE
  5
B1
330
90
100
AcDbEntity
  8
AM_9
100
AcDbEllipse
 10
0.0000000000000018
 20
0.9239528607503726
 30
0.0
 11
-0.1406500000000351
 21
1.722465723001182E-17
 31
0.0
210
0.0
220
0.0
230
1.0
 40
0.7071067811867249
 41
4.702331340189216
 42
5.625871263975493
  0
ELLIPSE
  5
B2
330
90
100
AcDbEntity
  8
AM_9
100
AcDbEllipse
 10
-0.0000000000000004
 20
0.9460998336359558
 30
0.0
 11
-0.1093294505797707
 21
1.629135779712961E-9
 31
0.0
210
0.0
220
0.0
230
1.0
 40
0.7071067811865408
 41
5.286332546138599
 42
5.928986685971774
  0
ELLIPSE
  5
B3
330
90
100
AcDbEntity
  8
AM_9
100
AcDbEllipse
 10
0.0000000000000002
 20
0.9460998336359543
 30
0.0
 11
-0.109329450579771
 21
1.338899617050554E-17
 31
0.0
210
0.0
220
0.0
230
1.0
 40
0.707106781186551
 41
3.495791294603505
 42
4.71238898038469
  0
LWPOLYLINE
  5
B4
330
90
100
AcDbEntity
  8
AM_9
100
AcDbPolyline
 90
        3
 70
     0
 43
0.0
 10
0.0921400333757284
 20
0.9602959685772581
 10
0.0902191913529821
 20
0.9567020722194388
 10
0.088038070347632
 20
0.9534568225959783
  0
LWPOLYLINE
  5
B5
330
90
100
AcDbEntity
  8
AM_9
100
AcDbPolyline
 90
       22
 70
     0
 43
0.0
 10
0.0000000000000001
 20
1.02340742952431
 10
0.0048026018328524
 20
1.023332799322312
 10
0.0144491645321293
 20
1.022728811877036
 10
0.023927256695336
 20
1.021529456396556
 10
0.0331208001328408
 20
1.019759519974835
 10
0.0419221337241944
 20
1.017455948585591
 10
0.050230760073107
 20
1.014667610611336
 10
0.057955779167856
 20
1.011454671504023
 10
0.0650184909694233
 20
1.007887555000267
 10
0.071355120135208
 20
1.004045309394323
 10
0.0769195476511323
 20
1.000013138890126
 10
0.0816798806822768
 20
0.9958844510240439
 10
0.0856326221951297
 20
0.9917476113683525
 10
0.0887987820486805
 20
0.9876809175091805
 10
0.0912226280716232
 20
0.9837414237107639
 10
0.09296638385722
 20
0.9799475065400254
 10
0.0940959593226747
 20
0.9762487257805882
 10
0.0946429798102444
 20
0.9724670715371233
 10
0.0944968851292564
 20
0.9681984884740308
 10
0.0936677011745303
 20
0.9643164707408144
 10
0.0922487427758754
 20
0.9605336574316209
 10
0.0921400333757284
 20
0.9602959685772581
  0
LWPOLYLINE
  5
B6
330
90
100
AcDbEntity
  8
AM_9
100
AcDbPolyline
 90
       21
 70
     0
 43
0.0
 10
-0.0929457956402913
 20
0.9621984862225106
 10
-0.0936772597287928
 20
0.964348765946991
 10
-0.0944786408859576
 20
0.9680605364126098
 10
-0.0946645560321223
 20
0.9720508263797379
 10
-0.0941205256105926
 20
0.9761394375827287
 10
-0.0929710348011124
 20
0.9799353383833908
 10
-0.0912252815083999
 20
0.9837364737622307
 10
-0.0888472588872858
 20
0.9876109944537868
 10
-0.0854404352465038
 20
0.9919688408532018
 10
-0.0812539511303333
 20
0.9962863554321306
 10
-0.0762841533700834
 20
1.000511489043344
 10
-0.0705390470634814
 20
1.00458019812687
 10
-0.0640461649162542
 20
1.008419427783249
 10
-0.0568527516485195
 20
1.01195420395371
 10
-0.049026403670308
 20
1.01511204267098
 10
-0.0406418617555705
 20
1.017830590523517
 10
-0.0317860974416383
 20
1.020055331526348
 10
-0.0225561387520069
 20
1.021741219669579
 10
-0.013056867053843
 20
1.022853815295786
 10
-0.0033988579059757
 20
1.02337006101135
 10
0.0000000000000001
 20
1.02340742952431
  0
ELLIPSE
  5
B7
330
90
100
AcDbEntity
  8
AM_9
100
AcDbEllipse
 10
0.0000000000000002
 20
0.9860416455724607
 30
0.0
 11
-0.09936940028726619
 21
1.480719463585767E-9
 31
0.0
210
0.0
220
0.0
230
1.0
 40
0.7071067811865466
 41
2.656480425898307
 42
4.712388990921403
  0
ELLIPSE
  5
B8
330
90
100
AcDbEntity
  8
AM_9
100
AcDbEllipse
 10
0.0
 20
1.034372974276936
 30
0.0
 11
-0.1312419113468905
 21
1.607249866449502E-17
 31
0.0
210
0.0
220
0.0
230
1.0
 40
0.7071067811865474
 41
2.654449025843374
 42
6.739441713820451
  0
ELLIPSE
  5
B9
330
90
100
AcDbEntity
  8
AM_9
100
AcDbEllipse
 10
0.0000000000008949
 20
1.03437297427813
 30
0.0
 11
-0.131241911347899
 21
1.607249866461852E-17
 31
0.0
210
0.0
220
0.0
230
1.0
 40
0.7071067811895628
 41
0.4709678410370657
 42
0.4869877923715041
  0
ELLIPSE
  5
BA
330
90
100
AcDbEntity
  8
AM_9
100
AcDbEllipse
 10
-0.0000000000000002
 20
1.063129217742214
 30
0.0
 11
-0.1319517646676804
 21
1.615943062421196E-17
 31
0.0
210
0.0
220
0.0
230
1.0
 40
0.7071067811865452
 41
3.5799744285438
 42
4.71238898038469
  0
ELLIPSE
  5
BB
330
90
100
AcDbEntity
  8
AM_9
100
AcDbEllipse
 10
0.000000000000115
 20
1.109993794415594
 30
0.0
 11
-0.1038190510529092
 21
1.271416685624609E-17
 31
0.0
210
0.0
220
0.0
230
1.0
 40
0.7071067811858697
 41
3.58863263723674
 42
5.837173611694491
  0
ELLIPSE
  5
BC
330
90
100
AcDbEntity
  8
AM_9
100
AcDbEllipse
 10
0.0
 20
0.8768124086713194
 30
0.0
 11
-0.1163438171532772
 21
1.424800832773458E-17
 31
0.0
210
0.0
220
0.0
230
1.0
 40
0.707106781186546
 41
0.0
 42
6.283185307179586
  0
ELLIPSE
  5
BD
330
90
100
AcDbEntity
  8
AM_9
100
AcDbEllipse
 10
-0.0000000000000002
 20
0.7426937945127954
 30
0.0
 11
-0.1104162595939893
 21
1.645330496153854E-9
 31
0.0
210
0.0
220
0.0
230
1.0
 40
0.707106781186548
 41
0.0
 42
6.283185307179586
  0
ELLIPSE
  5
BE
330
90
100
AcDbEntity
  8
AM_9
100
AcDbEllipse
 10
0.0
 20
0.8768124086713192
 30
0.0
 11
-0.1406500000000003
 21
1.722465723000756E-17
 31
0.0
210
0.0
220
0.0
230
1.0
 40
0.7071067811865444
 41
0.0
 42
6.283185307179586
  0
LINE
  5
C0
330
90
100
AcDbEntity
  8
AM_4
100
AcDbLine
 10
-0.1156859638973352
 20
0.9897766153387855
 30
0.0
 11
-0.1406499999999999
 21
0.9772504035235202
 31
0.0
  0
LINE
  5
C1
330
90
100
AcDbEntity
  8
AM_4
100
AcDbLine
 10
0.1406500000000001
 20
0.9772504035235202
 30
0.0
 11
0.1151907939395563
 21
0.990016393108019
 31
0.0
  0
LINE
  5
C2
330
90
100
AcDbEntity
  8
AM_4
100
AcDbLine
 10
-0.1406499999999999
 20
0.9772504035235202
 30
0.0
 11
-0.1406499999999999
 21
0.8235148658982218
 31
0.0
  0
LWPOLYLINE
  5
C3
330
90
100
AcDbEntity
  8
AM_4
100
AcDbPolyline
 90
        3
 70
     0
 43
0.0
 10
-0.070325
 20
0.7906822255907058
 10
-0.1054875
 20
0.8061254053790549
 10
-0.1406499999999999
 20
0.8235148658982218
  0
LWPOLYLINE
  5
C4
330
90
100
AcDbEntity
  8
AM_4
100
AcDbPolyline
 90
        3
 70
     0
 43
0.0
 10
0.0000000000000001
 20
0.7660947438444794
 10
-0.0350043999316989
 20
0.7773604134525304
 10
-0.070325
 20
0.7906822255907058
  0
LWPOLYLINE
  5
C5
330
90
100
AcDbEntity
  8
AM_4
100
AcDbPolyline
 90
        3
 70
     0
 43
0.0
 10
-0.0703249999999999
 20
0.837822677669809
 10
-0.0351624999999999
 20
0.8223794978814599
 10
0.0000000000000001
 20
0.8049900373622932
  0
LWPOLYLINE
  5
C6
330
90
100
AcDbEntity
  8
AM_4
100
AcDbPolyline
 90
        3
 70
     0
 43
0.0
 10
-0.1406499999999999
 20
0.8624101594160354
 10
-0.105645600068301
 20
0.8511444898079844
 10
-0.0703249999999999
 20
0.837822677669809
  0
LINE
  5
C7
330
90
100
AcDbEntity
  8
AM_4
100
AcDbLine
 10
0.0000000000000001
 20
0.8049900373622932
 30
0.0
 11
0.0000000000000001
 21
0.7660947438444794
 31
0.0
  0
LWPOLYLINE
  5
C8
330
90
100
AcDbEntity
  8
AM_4
100
AcDbPolyline
 90
        3
 70
     0
 43
0.0
 10
0.070325
 20
0.7906822255907058
 10
0.0351625
 20
0.7774153443521837
 10
0.0000000000000001
 20
0.7660947438444794
  0
LWPOLYLINE
  5
C9
330
90
100
AcDbEntity
  8
AM_4
100
AcDbPolyline
 90
        3
 70
     0
 43
0.0
 10
0.1406500000000001
 20
0.8235148658982218
 10
0.1056456000683011
 20
0.8061995626446139
 10
0.070325
 20
0.7906822255907058
  0
LINE
  5
CA
330
90
100
AcDbEntity
  8
AM_4
100
AcDbLine
 10
0.1406500000000001
 20
0.9772504035235202
 30
0.0
 11
0.1406500000000001
 21
0.8235148658982218
 31
0.0
  0
LWPOLYLINE
  5
CB
330
90
100
AcDbEntity
  8
AM_4
100
AcDbPolyline
 90
        3
 70
     0
 43
0.0
 10
0.0703250000000001
 20
0.837822677669809
 10
0.1054875000000001
 20
0.851089558908331
 10
0.1406500000000001
 20
0.8624101594160354
  0
LWPOLYLINE
  5
CC
330
90
100
AcDbEntity
  8
AM_4
100
AcDbPolyline
 90
        3
 70
     0
 43
0.0
 10
0.0000000000000001
 20
0.8049900373622932
 10
0.035004399931699
 20
0.822305340615901
 10
0.0703250000000001
 20
0.837822677669809
  0
ELLIPSE
  5
CD
330
90
100
AcDbEntity
  8
AM_4
100
AcDbEllipse
 10
-0.0000000000000003
 20
0.9239528607504228
 30
0.0
 11
-0.1406500000000003
 21
1.722465723000756E-17
 31
0.0
210
0.0
220
0.0
230
1.0
 40
0.7071067811865478
 41
5.62587126397576
 42
10.0820920039732
  0
ELLIPSE
  5
CE
330
90
100
AcDbEntity
  8
AM_4
100
AcDbEllipse
 10
0.0
 20
0.9460998336359545
 30
0.0
 11
-0.1093294505797714
 21
1.338899617050557E-17
 31
0.0
210
0.0
220
0.0
230
1.0
 40
0.707106781186547
 41
5.928986666165877
 42
9.778976601783086
  0
LINE
  5
CF
330
90
100
AcDbEntity
  8
AM_4
100
AcDbLine
 10
0.0879044185632924
 20
0.9532766420587995
 30
0.0
 11
0.1160995625890071
 21
0.9910986697728411
 31
0.0
  0
LINE
  5
D0
330
90
100
AcDbEntity
  8
AM_4
100
AcDbLine
 10
-0.116099562589007
 20
0.9910986697728411
 30
0.0
 11
-0.0879044185632923
 21
0.9532766420587995
 31
0.0
  0
ELLIPSE
  5
D1
330
90
100
AcDbEntity
  8
AM_4
100
AcDbEllipse
 10
0.0
 20
0.9860416455724608
 30
0.0
 11
-0.09936940028726632
 21
1.216924179949928E-17
 31
0.0
210
0.0
220
0.0
230
1.0
 40
0.7071067811865491
 41
0.4851122464737783
 42
2.656480407116015
  0
LWPOLYLINE
  5
D2
330
90
100
AcDbEntity
  8
AM_4
100
AcDbPolyline
 90
       14
 70
     0
 43
0.0
 10
-0.11941839334044
 20
1.102818756133623
 10
-0.1226773941636366
 20
1.09758390304371
 10
-0.1274215445738262
 20
1.088379943822635
 10
-0.1311199930080214
 20
1.078911587509008
 10
-0.1337659634548389
 20
1.069267793727305
 10
-0.135363683688779
 20
1.059532569872057
 10
-0.135925335335314
 20
1.049784499355917
 10
-0.1354686082420722
 20
1.040096481386178
 10
-0.1340156547985023
 20
1.030540391830507
 10
-0.1315925220187762
 20
1.021182661082245
 10
-0.1282251653808653
 20
1.01207794440656
 10
-0.1239384743827188
 20
1.003276542495418
 10
-0.1187562109652369
 20
0.9948262025372306
 10
-0.1159468475689557
 20
0.9908943173834893
  0
LWPOLYLINE
  5
D3
330
90
100
AcDbEntity
  8
AM_4
100
AcDbPolyline
 90
       14
 70
     0
 43
0.0
 10
0.1159347073193167
 20
0.9908781153604024
 10
0.1179842514857829
 20
0.9937076926658083
 10
0.1235768550835713
 20
1.002623334925509
 10
0.1281402227215616
 20
1.011879856619624
 10
0.1316557658882401
 20
1.021384983627819
 10
0.1341188702923386
 20
1.03105056454018
 10
0.1355353472478498
 20
1.040793510408455
 10
0.1359184977059784
 20
1.050536211057647
 10
0.1352867535373154
 20
1.060206772988273
 10
0.1336631794459797
 20
1.069732527316408
 10
0.1310739848396208
 20
1.07905003816632
 10
0.1275449866314321
 20
1.088105518305674
 10
0.1231008527388327
 20
1.09684925346311
 10
0.1192720469816176
 20
1.103038433252258
  0
ELLIPSE
  5
D4
330
90
100
AcDbEntity
  8
AM_4
100
AcDbEllipse
 10
0.0000000000000001
 20
1.034372974276936
 30
0.0
 11
-0.1312419113468906
 21
1.607249866449503E-17
 31
0.0
210
0.0
220
0.0
230
1.0
 40
0.7071067811865468
 41
0.4869877923650883
 42
2.654449025843371
  0
ELLIPSE
  5
D5
330
90
100
AcDbEntity
  8
AM_4
100
AcDbEllipse
 10
0.0000000000000001
 20
1.120764248180678
 30
0.0
 11
0.08080642971672804
 21
0.0
 31
0.0
210
0.0
220
0.0
230
1.0
 40
0.7071067811865461
 41
0.0
 42
6.283185307179586
  0
LWPOLYLINE
  5
D6
330
90
100
AcDbEntity
  8
AM_4
100
AcDbPolyline
 90
       13
 70
     0
 43
0.0
 10
0.0000000000000001
 20
1.185225353067187
 10
-0.0057847672283651
 20
1.185105126064206
 10
-0.0161668332922652
 20
1.184281237081656
 10
-0.0264146270732577
 20
1.182678185641963
 10
-0.0364339673053759
 20
1.180301965132448
 10
-0.0461333979307662
 20
1.177161990749239
 10
-0.055420268016175
 20
1.173271990404697
 10
-0.0641993591094278
 20
1.168651867244024
 10
-0.0723686027065772
 20
1.163333376982427
 10
-0.0798272047691424
 20
1.157360785207191
 10
-0.0864769515776922
 20
1.150795221671035
 10
-0.0922289330211771
 20
1.143715730838627
 10
-0.0936034994423704
 20
1.141749858802347
  0
LWPOLYLINE
  5
D7
330
90
100
AcDbEntity
  8
AM_4
100
AcDbPolyline
 90
       13
 70
     0
 43
0.0
 10
0.0935550527553802
 20
1.141821390549437
 10
0.0927748209939109
 20
1.142950370309621
 10
0.0874068324017865
 20
1.14975495862022
 10
0.081184291046858
 20
1.156130424472908
 10
0.0741538406034322
 20
1.162013259946375
 10
0.0663784391489413
 20
1.167339463411367
 10
0.0579368754604306
 20
1.172049345383488
 10
0.0489199023687727
 20
1.17609177581433
 10
0.03942497439903
 20
1.17942635648423
 10
0.0295537968585936
 20
1.182022889444647
 10
0.019404999721995
 20
1.183861392520658
 10
0.0090739997095837
 20
1.184929192190969
 10
0.0000000000000001
 20
1.185225353067187
  0
LINE
  5
D8
330
90
100
AcDbEntity
  8
AM_4
100
AcDbLine
 10
-0.0940018950300903
 20
1.141154980948533
 30
0.0
 11
-0.1194743720494
 21
1.102734410724425
 31
0.0
  0
LINE
  5
D9
330
90
100
AcDbEntity
  8
AM_4
100
AcDbLine
 10
0.1194743720494001
 20
1.102734410724425
 30
0.0
 11
0.0940018950300905
 21
1.141154980948533
 31
0.0
  0
ELLIPSE
  5
DA
330
90
100
AcDbEntity
  8
AM_4
100
AcDbEllipse
 10
0.0000000000000001
 20
1.063129217742214
 30
0.0
 11
-0.13195176466768
 21
1.615943062421191E-17
 31
0.0
210
0.0
220
0.0
230
1.0
 40
0.7071067811865489
 41
5.844803532225582
 42
9.863159735723384
  0
ELLIPSE
  5
DB
330
90
100
AcDbEntity
  8
AM_4
100
AcDbEllipse
 10
0.0000000000000001
 20
1.1099937944154
 30
0.0
 11
-0.1038190510530391
 21
1.271416685626199E-17
 31
0.0
210
0.0
220
0.0
230
1.0
 40
0.7071067811865487
 41
5.844803532225581
 42
9.863159735723386
  0
ENDBLK
  5
93
330
90
100
AcDbEntity
  8
0
100
AcDbBlockEnd
  0
BLOCK
  5
DE
330
DC
100
AcDbEntity
  8
0
100
AcDbBlockBegin
  2
3_389925_0_in_123595_2
 70
     2
 10
0.0
 20
0.0
 30
0.0
  3
3_389925_0_in_123595_2
  1

  0
ATTDEF
  5
E0
330
DC
100
AcDbEntity
  8
AM_6
100
AcDbText
 10
5.5
 20
0.9244661082685616
 30
0.0
 40
0.5
  1
Set Screw Intermediate Duty Insert Inch Bore
100
AcDbAttributeDefinition
  3

  2
NN
 70
     8
280
     0
  0
ATTDEF
  5
E1
330
DC
100
AcDbEntity
  8
AM_6
100
AcDbText
 10
5.5
 20
0.4244661082685616
 30
0.0
 40
0.5
  1
VSC Intermediate Duty Bearing Inserts
100
AcDbAttributeDefinition
  3

  2
NT
 70
     8
280
     0
  0
ATTDEF
  5
E2
330
DC
100
AcDbEntity
  8
AM_6
100
AcDbText
 10
5.5
 20
-0.0755338917314384
 30
0.0
 40
0.5
  1
389925
100
AcDbAttributeDefinition
  3

  2
NB
 70
     8
280
     0
  0
ATTDEF
  5
E3
330
DC
100
AcDbEntity
  8
AM_6
100
AcDbText
 10
5.5
 20
-0.5755338917314384
 30
0.0
 40
0.5
  1
$PN.
100
AcDbAttributeDefinition
  3

  2
NBSYN
 70
     8
280
     0
  0
ATTDEF
  5
E4
330
DC
100
AcDbEntity
  8
AM_6
100
AcDbText
 10
5.5
 20
-1.075533891731439
 30
0.0
 40
0.5
  1
389925
100
AcDbAttributeDefinition
  3

  2
LINA
 70
     8
280
     0
  0
ATTDEF
  5
E5
330
DC
100
AcDbEntity
  8
AM_6
100
AcDbText
 10
5.5
 20
-1.575533891731439
 30
0.0
 40
0.5
  1
204
100
AcDbAttributeDefinition
  3

  2
SERIES
 70
     8
280
     0
  0
ATTDEF
  5
E6
330
DC
100
AcDbEntity
  8
AM_6
100
AcDbText
 10
5.5
 20
-2.075533891731439
 30
0.0
 40
0.5
  1
3/4
100
AcDbAttributeDefinition
  3

  2
SS
 70
     8
280
     0
  0
ATTDEF
  5
E7
330
DC
100
AcDbEntity
  8
AM_6
100
AcDbText
 10
5.5
 20
-2.575533891731439
 30
0.0
 40
0.5
  1
389925
100
AcDbAttributeDefinition
  3

  2
PN
 70
     8
280
     0
  0
ATTDEF
  5
E8
330
DC
100
AcDbEntity
  8
AM_6
100
AcDbText
 10
5.5
 20
-3.075533891731439
 30
0.0
 40
0.5
  1
INS-VSC-012
100
AcDbAttributeDefinition
  3

  2
DESCRIPTION
 70
     8
280
     0
  0
ATTDEF
  5
E9
330
DC
100
AcDbEntity
  8
AM_6
100
AcDbText
 10
5.5
 20
-3.575533891731439
 30
0.0
 40
0.5
  1
0.25
100
AcDbAttributeDefinition
  3

  2
WEIGHT
 70
     8
280
     0
  0
ATTDEF
  5
EA
330
DC
100
AcDbEntity
  8
AM_6
100
AcDbText
 10
5.5
 20
-4.075533891731439
 30
0.0
 40
0.5
  1
1.23
100
AcDbAttributeDefinition
  3

  2
A
 70
     8
280
     0
  0
ATTDEF
  5
EB
330
DC
100
AcDbEntity
  8
AM_6
100
AcDbText
 10
5.5
 20
-4.575533891731439
 30
0.0
 40
0.5
  1
0.58
100
AcDbAttributeDefinition
  3

  2
C
 70
     8
280
     0
  0
ATTDEF
  5
EC
330
DC
100
AcDbEntity
  8
AM_6
100
AcDbText
 10
5.5
 20
-5.075533891731439
 30
0.0
 40
0.5
  1
1.8504
100
AcDbAttributeDefinition
  3

  2
D
 70
     8
280
     0
  0
ATTDEF
  5
ED
330
DC
100
AcDbEntity
  8
AM_6
100
AcDbText
 10
5.5
 20
-5.575533891731439
 30
0.0
 40
0.5
  1
0.150
100
AcDbAttributeDefinition
  3

  2
J
 70
     8
280
     0
  0
ATTDEF
  5
EE
330
DC
100
AcDbEntity
  8
AM_6
100
AcDbText
 10
5.5
 20
-6.075533891731439
 30
0.0
 40
0.5
  1
1.12
100
AcDbAttributeDefinition
  3

  2
L
 70
     8
280
     0
  0
ATTDEF
  5
EF
330
DC
100
AcDbEntity
  8
AM_6
100
AcDbText
 10
5.5
 20
-6.575533891731439
 30
0.0
 40
0.5
  1
1/4-28
100
AcDbAttributeDefinition
  3

  2
N
 70
     8
280
     0
  0
ATTDEF
  5
F0
330
DC
100
AcDbEntity
  8
AM_6
100
AcDbText
 10
5.5
 20
-7.075533891731439
 30
0.0
 40
0.5
  1
0.50
100
AcDbAttributeDefinition
  3

  2
W
 70
     8
280
     0
  0
ATTDEF
  5
F1
330
DC
100
AcDbEntity
  8
AM_6
100
AcDbText
 10
5.5
 20
-7.575533891731439
 30
0.0
 40
0.5
  1
0.73
100
AcDbAttributeDefinition
  3

  2
Y
 70
     8
280
     0
  0
ATTDEF
  5
F2
330
DC
100
AcDbEntity
  8
AM_6
100
AcDbText
 10
5.5
 20
-8.075533891731439
 30
0.0
 40
0.5
  1
baldor
100
AcDbAttributeDefinition
  3

  2
COMPANY
 70
     8
280
     0
  0
ARC
  5
F3
330
DC
100
AcDbEntity
  8
AM_9
100
AcDbCircle
 10
0.1499999999999742
 20
0.0000000000000003
 30
0.0
 40
0.0833333333333639
100
AcDbArc
 50
357.7048249969972
 51
1.224296318492683
  0
CIRCLE
  5
F4
330
DC
100
AcDbEntity
  8
AM_9
100
AcDbCircle
 10
0.1499999999999999
 20
-0.0000000000000001
 30
0.0
 40
0.0306060606060618
  0
LINE
  5
F5
330
DC
100
AcDbEntity
  8
AM_9
100
AcDbLine
 10
-0.4979870809928859
 20
0.3602590909090909
 30
0.0
 11
-0.4620129190071141
 21
0.3602590909090909
 31
0.0
  0
LINE
  5
F6
330
DC
100
AcDbEntity
  8
AM_9
100
AcDbLine
 10
-0.37435
 20
0.3749999999999999
 30
0.0
 11
-0.37435
 21
0.5406500000000001
 31
0.0
  0
LINE
  5
F7
330
DC
100
AcDbEntity
  8
AM_9
100
AcDbLine
 10
-0.58565
 20
0.5406500000000001
 30
0.0
 11
-0.58565
 21
0.3749999999999999
 31
0.0
  0
LINE
  5
F8
330
DC
100
AcDbEntity
  8
AM_9
100
AcDbLine
 10
-0.58565
 20
0.5406500000000001
 30
0.0
 11
-0.37435
 21
0.5406500000000001
 31
0.0
  0
LINE
  5
F9
330
DC
100
AcDbEntity
  8
AM_9
100
AcDbLine
 10
-0.37435
 20
0.5406500000000001
 30
0.0
 11
-0.3549999999999997
 21
0.5600000000000003
 31
0.0
  0
LINE
  5
FA
330
DC
100
AcDbEntity
  8
AM_9
100
AcDbLine
 10
-0.6050000000000003
 20
0.5600000000000003
 30
0.0
 11
-0.58565
 21
0.5406500000000001
 31
0.0
  0
LWPOLYLINE
  5
FB
330
DC
100
AcDbEntity
  8
AM_9
100
AcDbPolyline
 90
        5
 70
     0
 43
0.0
 10
-0.4979870809928859
 20
0.3602590909090909
 10
-0.4918109741336582
 20
0.3598971675602002
 10
-0.4789825400210901
 20
0.3596241841390797
 10
-0.4657601515762186
 20
0.3600217182161689
 10
-0.4620129190071141
 20
0.3602590909090909
  0
LWPOLYLINE
  5
FC
330
DC
100
AcDbEntity
  8
AM_9
100
AcDbPolyline
 90
       10
 70
     0
 43
0.0
 10
-0.4620129190071141
 20
0.3602590909090909
 10
-0.4451624110118719
 20
0.361492372127692
 10
-0.4288531796425678
 20
0.3634268492182098
 10
-0.4144574787528887
 20
0.365730638026715
 10
-0.4015109873812349
 20
0.3682710993301926
 10
-0.3908231676636532
 20
0.3706960816161197
 10
-0.382409957177382
 20
0.3728094606606978
 10
-0.3770389316336994
 20
0.3742513314593951
 10
-0.3745006588515082
 20
0.3749575822446664
 10
-0.3743500000021079
 20
0.374999999999406
  0
LWPOLYLINE
  5
FD
330
DC
100
AcDbEntity
  8
AM_9
100
AcDbPolyline
 90
        5
 70
     0
 43
0.0
 10
-0.4620129190071141
 20
0.2466055777545996
 10
-0.4706684808282366
 20
0.247855927109889
 10
-0.4833118997225639
 20
0.2482543184075715
 10
-0.4962563472797456
 20
0.2469207883337196
 10
-0.4979870809928859
 20
0.2466055777545996
  0
LWPOLYLINE
  5
FE
330
DC
100
AcDbEntity
  8
AM_9
100
AcDbPolyline
 90
        4
 70
     0
 43
0.0
 10
-0.4979870809928855
 20
0.0578985637979696
 10
-0.4806220573941661
 20
0.0556568584373148
 10
-0.4713227848077606
 20
0.0561735678772629
 10
-0.4620129190071145
 20
0.0578985637979696
  0
LINE
  5
FF
330
DC
100
AcDbEntity
  8
AM_9
100
AcDbLine
 10
-0.7076
 20
-0.3749999999999999
 30
0.0
 11
0.4943999999999999
 21
-0.3749999999999999
 31
0.0
  0
LINE
  5
100
330
DC
100
AcDbEntity
  8
AM_9
100
AcDbLine
 10
0.4943999999999999
 20
0.3749999999999999
 30
0.0
 11
-0.3743499999999998
 21
0.3749999999999999
 31
0.0
  0
LINE
  5
101
330
DC
100
AcDbEntity
  8
AM_9
100
AcDbLine
 10
-0.58565
 20
0.3749999999999999
 30
0.0
 11
-0.7076
 21
0.3749999999999999
 31
0.0
  0
LWPOLYLINE
  5
102
330
DC
100
AcDbEntity
  8
AM_9
100
AcDbPolyline
 90
       10
 70
     0
 43
0.0
 10
-0.585649999997892
 20
0.374999999999406
 10
-0.5850282059626611
 20
0.3748252947010582
 10
-0.5816779669201475
 20
0.3739003696936051
 10
-0.5758058644517917
 20
0.3723463994231112
 10
-0.5672546140845558
 20
0.3702383626517446
 10
-0.556372444470401
 20
0.3678258117293897
 10
-0.5430684322809441
 20
0.3652953663138584
 10
-0.5280077797212095
 20
0.3629983807315952
 10
-0.5110293956977924
 20
0.3611452628754392
 10
-0.4979870809928859
 20
0.3602590909090909
  0
LINE
  5
103
330
DC
100
AcDbEntity
  8
AM_9
100
AcDbLine
 10
0.4943999999999999
 20
-0.3749999999999999
 30
0.0
 11
0.5
 21
-0.3805999999999999
 31
0.0
  0
LINE
  5
104
330
DC
100
AcDbEntity
  8
AM_9
100
AcDbLine
 10
0.5
 20
0.3805999999999999
 30
0.0
 11
0.4943999999999999
 21
0.3749999999999999
 31
0.0
  0
LINE
  5
105
330
DC
100
AcDbEntity
  8
AM_9
100
AcDbLine
 10
-0.7076
 20
0.3749999999999999
 30
0.0
 11
-0.73
 21
0.3974
 31
0.0
  0
LINE
  5
106
330
DC
100
AcDbEntity
  8
AM_9
100
AcDbLine
 10
-0.73
 20
-0.3974
 30
0.0
 11
-0.7076
 21
-0.3749999999999999
 31
0.0
  0
ELLIPSE
  5
107
330
DC
100
AcDbEntity
  8
AM_9
100
AcDbEllipse
 10
-0.48
 20
0.1522520707762881
 30
0.0
 11
0.1056499999999973
 21
0.0
 31
0.0
210
0.0
220
0.0
230
1.0
 40
0.9063077870366408
 41
1.399711340926197
 42
1.741881312663595
  0
LWPOLYLINE
  5
108
330
DC
100
AcDbEntity
  8
AM_9
100
AcDbPolyline
 90
       10
 70
     0
 43
0.0
 10
-0.4620129190071144
 20
0.0578985637979696
 10
-0.4451624110118723
 20
0.0623772428928134
 10
-0.4288531796425681
 20
0.0698079487163701
 10
-0.4144574787528889
 20
0.0794660288215551
 10
-0.401510987381235
 20
0.0915434989531958
 10
-0.3908231676636533
 20
0.1053190570952674
 10
-0.3824099571773821
 20
0.1208746174092245
 10
-0.3770389316336995
 20
0.1367002804695109
 10
-0.3745006588515082
 20
0.1533521916752423
 10
-0.3743500003389613
 20
0.1584741779360618
  0
ELLIPSE
  5
109
330
DC
100
AcDbEntity
  8
AM_9
100
AcDbEllipse
 10
-0.48
 20
0.1522520707762833
 30
0.0
 11
0.105649999999999
 21
0.0
 31
0.0
210
0.0
220
0.0
230
1.0
 40
0.9063077870366458
 41
4.541303994515998
 42
4.883473966253382
  0
LWPOLYLINE
  5
10A
330
DC
100
AcDbEntity
  8
AM_9
100
AcDbPolyline
 90
        4
 70
     0
 43
0.0
 10
-0.5778633260478746
 20
0.193664830265375
 10
-0.5829610683663006
 20
0.1796306138415126
 10
-0.5854993411484918
 20
0.16357565159423
 10
-0.5856499996610387
 20
0.1584895182887454
  0
LINE
  5
10B
330
DC
100
AcDbEntity
  8
AM_9
100
AcDbLine
 10
-0.4979870809928859
 20
0.2466055777545996
 30
0.0
 11
-0.4998355632078096
 21
0.2463417680239501
 31
0.0
  0
LINE
  5
10C
330
DC
100
AcDbEntity
  8
AM_9
100
AcDbLine
 10
-0.3743500000000001
 20
0.1584454936259855
 30
0.0
 11
-0.3743500000000001
 21
0.2284885632101092
 31
0.0
  0
LINE
  5
10D
330
DC
100
AcDbEntity
  8
AM_9
100
AcDbLine
 10
-0.5856499999999999
 20
0.2284885632101092
 30
0.0
 11
-0.5856499999999999
 21
0.1584454936259854
 31
0.0
  0
ELLIPSE
  5
10E
330
DC
100
AcDbEntity
  8
AM_9
100
AcDbEllipse
 10
-0.48
 20
0.2284885632101091
 30
0.0
 11
0.1056499999999999
 21
1.574307680130004E-9
 31
0.0
210
0.0
220
0.0
230
1.0
 40
0.90630778703665
 41
4.348611064633451
 42
6.283187037607677
  0
ELLIPSE
  5
10F
330
DC
100
AcDbEntity
  8
AM_9
100
AcDbEllipse
 10
-0.4799999999999999
 20
0.2284885632101094
 30
0.0
 11
0.1056499999999998
 21
0.0
 31
0.0
210
0.0
220
0.0
230
1.0
 40
0.90630778703665
 41
0.0
 42
1.636200679436741
  0
LWPOLYLINE
  5
110
330
DC
100
AcDbEntity
  8
AM_9
100
AcDbPolyline
 90
       10
 70
     0
 43
0.0
 10
-0.3743500003389613
 20
0.1584741779360618
 10
-0.3749717940373388
 20
0.1687811199750616
 10
-0.3783220330798525
 20
0.1840253715040474
 10
-0.3841941355482082
 20
0.1977206951057833
 10
-0.3927453859154442
 20
0.2104580193131218
 10
-0.4036275555295989
 20
0.2216114427270662
 10
-0.4169315677190557
 20
0.2311993425839412
 10
-0.4319922202787901
 20
0.2387046985451433
 10
-0.4489706043022074
 20
0.2441551406222414
 10
-0.4620129190071141
 20
0.2466055777545996
  0
LWPOLYLINE
  5
111
330
DC
100
AcDbEntity
  8
AM_9
100
AcDbPolyline
 90
       10
 70
     0
 43
0.0
 10
-0.5856499996610387
 20
0.1584895182887454
 10
-0.5850282059626611
 20
0.1480349090309513
 10
-0.5816779669201474
 20
0.1320088771041849
 10
-0.5758058644517917
 20
0.1170000810734233
 10
-0.5672546140845557
 20
0.102480967194084
 10
-0.5563724444704009
 20
0.0892883676258066
 10
-0.543068432280944
 20
0.0775616428830484
 10
-0.5280077797212095
 20
0.0681147908138073
 10
-0.5110293956977923
 20
0.0610980258423708
 10
-0.4979870809928856
 20
0.0578985637979696
  0
LINE
  5
112
330
DC
100
AcDbEntity
  8
AM_9
100
AcDbLine
 10
0.29
 20
-0.56
 30
0.0
 11
0.4944
 21
-0.56
 31
0.0
  0
LINE
  5
113
330
DC
100
AcDbEntity
  8
AM_9
100
AcDbLine
 10
0.4477722772277228
 20
0.56
 30
0.0
 11
0.29
 21
0.56
 31
0.0
  0
LINE
  5
114
330
DC
100
AcDbEntity
  8
AM_9
100
AcDbLine
 10
0.4944
 20
-0.56
 30
0.0
 11
0.5
 21
-0.5544
 31
0.0
  0
LINE
  5
115
330
DC
100
AcDbEntity
  8
AM_9
100
AcDbLine
 10
0.4944
 20
0.2788417910447785
 30
0.0
 11
0.4944
 21
-0.56
 31
0.0
  0
LINE
  5
116
330
DC
100
AcDbEntity
  8
AM_9
100
AcDbLine
 10
0.5
 20
0.2450746268656723
 30
0.0
 11
0.5
 21
-0.5544
 31
0.0
  0
LWPOLYLINE
  5
117
330
DC
100
AcDbEntity
  8
AM_9
100
AcDbPolyline
 90
       16
 70
     0
 43
0.0
 10
-0.4852130608926026
 20
0.3344556775073569
 10
-0.4822284890514217
 20
0.33452216873818
 10
-0.4598204778906074
 20
0.3333017049873028
 10
-0.4379800453564197
 20
0.3290812650301637
 10
-0.4173001194249277
 20
0.321835259487026
 10
-0.3984720814313567
 20
0.3116625493272868
 10
-0.3826670263227689
 20
0.2990877584398053
 10
-0.369857171201223
 20
0.284054651859419
 10
-0.3613532227031329
 20
0.2683888929654317
 10
-0.3563063440110562
 20
0.2513371391634088
 10
-0.3550252804089242
 20
0.235336999645011
 10
-0.3568129028160679
 20
0.2191436804168962
 10
-0.3613426351905088
 20
0.2039899048086445
 10
-0.3683948464069867
 20
0.189522455346148
 10
-0.3754604143309858
 20
0.1790010029214632
 10
-0.3837521487539209
 20
0.1692451706413773
  0
LWPOLYLINE
  5
118
330
DC
100
AcDbEntity
  8
AM_9
100
AcDbPolyline
 90
        9
 70
     0
 43
0.0
 10
-0.3837521487539209
 20
0.1692451706413773
 10
-0.3966849076373765
 20
0.157468230271062
 10
-0.4112495472648284
 20
0.1475198918160308
 10
-0.4297828783841166
 20
0.1385119849721901
 10
-0.4495510307966065
 20
0.1324011200751392
 10
-0.4713670033337098
 20
0.1292719366656115
 10
-0.4934163443812151
 20
0.1296445215491624
 10
-0.5155785500981214
 20
0.1336842497551878
 10
-0.5183759929775005
 20
0.1344536468936415
  0
LINE
  5
119
330
DC
100
AcDbEntity
  8
AM_9
100
AcDbLine
 10
-0.6335148514851485
 20
-0.5600000000000003
 30
0.0
 11
-0.29
 21
-0.5600000000000003
 31
0.0
  0
LINE
  5
11A
330
DC
100
AcDbEntity
  8
AM_9
100
AcDbLine
 10
-0.29
 20
0.5600000000000003
 30
0.0
 11
-0.3549999999999997
 21
0.5600000000000003
 31
0.0
  0
LWPOLYLINE
  5
11B
330
DC
100
AcDbEntity
  8
AM_9
100
AcDbPolyline
 90
       10
 70
     0
 43
0.0
 10
-0.3550000000009293
 20
0.5599999999998306
 10
-0.3561727326609386
 20
0.559786935287238
 10
-0.3600301228628718
 20
0.5590993789662813
 10
-0.3666223279697636
 20
0.5579717290135822
 10
-0.3756899706422768
 20
0.5565192341332637
 10
-0.3871742691540825
 20
0.5548456063943022
 10
-0.4014751146454608
 20
0.5530247067057386
 10
-0.4178940405657829
 20
0.5512998278888449
 10
-0.4369417927892746
 20
0.5497961850580008
 10
-0.4494753509013419
 20
0.5491016090149416
  0
LINE
  5
11C
330
DC
100
AcDbEntity
  8
AM_9
100
AcDbLine
 10
-0.1799999999999999
 20
-0.8752
 30
0.0
 11
-0.12
 21
-0.8752
 31
0.0
  0
LINE
  5
11D
330
DC
100
AcDbEntity
  8
AM_9
100
AcDbLine
 10
-0.12
 20
0.8752
 30
0.0
 11
-0.1799999999999999
 21
0.8752
 31
0.0
  0
LINE
  5
11E
330
DC
100
AcDbEntity
  8
AM_9
100
AcDbLine
 10
-0.29
 20
0.8566113709062415
 30
0.0
 11
-0.29
 21
-0.8566113709062415
 31
0.0
  0
ARC
  5
11F
330
DC
100
AcDbEntity
  8
AM_9
100
AcDbCircle
 10
-0.2599999999999999
 20
-0.8566113704592067
 30
0.0
 40
0.0300000000000001
100
AcDbArc
 50
180.0
 51
253.1158262695214
  0
ARC
  5
120
330
DC
100
AcDbEntity
  8
AM_9
100
AcDbCircle
 10
-0.2599999999999999
 20
0.8566113704592067
 30
0.0
 40
0.03
100
AcDbArc
 50
106.8841737304786
 51
180.0
  0
LINE
  5
121
330
DC
100
AcDbEntity
  8
AM_9
100
AcDbLine
 10
0.29
 20
0.8566113704592067
 30
0.0
 11
0.29
 21
-0.8566113704592067
 31
0.0
  0
ARC
  5
122
330
DC
100
AcDbEntity
  8
AM_9
100
AcDbCircle
 10
0.2600000000000005
 20
-0.8566113704592071
 30
0.0
 40
0.0299999999999994
100
AcDbArc
 50
286.8841697037851
 51
0.0000008537736463
  0
ARC
  5
123
330
DC
100
AcDbEntity
  8
AM_9
100
AcDbCircle
 10
0.2600000000000005
 20
0.8566113704592071
 30
0.0
 40
0.0299999999999995
100
AcDbArc
 50
0.0000008537736463
 51
73.11583029621491
  0
ARC
  5
124
330
DC
100
AcDbEntity
  8
AM_9
100
AcDbCircle
 10
0.0000000000000183
 20
-0.0000000000000769
 30
0.0
 40
0.9252000000000791
100
AcDbArc
 50
101.2185847845106
 51
106.8841737304779
  0
ARC
  5
125
330
DC
100
AcDbEntity
  8
AM_9
100
AcDbCircle
 10
-0.0000000000071561
 20
-0.0000000000286257
 30
0.0
 40
0.9251999999705657
100
AcDbArc
 50
253.1158262694317
 51
258.7814152155798
  0
LINE
  5
126
330
DC
100
AcDbEntity
  8
AM_9
100
AcDbLine
 10
-0.2687131367292226
 20
0.885318185823121
 30
0.0
 11
-0.2687131367292226
 21
-0.8853181858231584
 31
0.0
  0
LINE
  5
127
330
DC
100
AcDbEntity
  8
AM_9
100
AcDbLine
 10
-0.18
 20
0.907521371649175
 30
0.0
 11
-0.18
 21
-0.9075213716492123
 31
0.0
  0
LWPOLYLINE
  5
128
330
DC
100
AcDbEntity
  8
AM_9
100
AcDbPolyline
 90
       19
 70
     0
 43
0.0
 10
0.145000770584598
 20
-0.0831832444047323
 10
0.1319312407861588
 20
-0.0812982016940662
 10
0.1193329139782938
 20
-0.077301921357671
 10
0.1071584623724783
 20
-0.0710341449494621
 10
0.0961785641742322
 20
-0.0628058782084413
 10
0.0866741031457304
 20
-0.0527773590001566
 10
0.0789376421434328
 20
-0.0412925165196977
 10
0.0731693285781949
 20
-0.0285616521037882
 10
0.0695599699860355
 20
-0.0150380217833949
 10
0.0682350619193105
 20
-0.0009957525343558
 10
0.0692311047886079
 20
0.0130744310986187
 10
0.0725671757468328
 20
0.0268144197364344
 10
0.0781216736346134
 20
0.0397955914166032
 10
0.0857521323269642
 20
0.0516044514685302
 10
0.0952295215235974
 20
0.0619471690276995
 10
0.1062340494324605
 20
0.070446066606187
 10
0.1184907339655722
 20
0.0769501532327195
 10
0.1314875638611455
 20
0.0811941088510398
 10
0.1450007705846029
 20
0.0831832444047325
  0
LWPOLYLINE
  5
129
330
DC
100
AcDbEntity
  8
AM_9
100
AcDbPolyline
 90
       20
 70
     0
 43
0.0
 10
0.145000770584598
 20
-0.0831832444047323
 10
0.1591718677565893
 20
-0.0828187243206515
 10
0.1730849667624605
 20
-0.0800720222925669
 10
0.1863642972345116
 20
-0.0749710230825628
 10
0.1986108667094532
 20
-0.0676862473638553
 10
0.2093971487652917
 20
-0.0584375849060444
 10
0.2184870265131096
 20
-0.0474760112460793
 10
0.2255005923213417
 20
-0.0352509711127222
 10
0.2303765446484612
 20
-0.0220012616642579
 10
0.2329122810557694
 20
-0.0082799765374952
 10
0.2331396689129023
 20
0.0056780188004451
 10
0.2310420441018904
 20
0.0193712076913923
 10
0.226726123410449
 20
0.0325199389736478
 10
0.220280426945633
 20
0.0447634184232203
 10
0.2119288926286406
 20
0.0557607093053481
 10
0.20178617888838
 20
0.0652787384362057
 10
0.1902359594837108
 20
0.0729761057392788
 10
0.1774122588613323
 20
0.078687213621596
 10
0.1638337884669205
 20
0.0821770694360521
 10
0.1450007705846029
 20
0.0831832444047325
  0
ARC
  5
12A
330
DC
100
AcDbEntity
  8
AM_9
100
AcDbCircle
 10
-0.0000000000000007
 20
-0.000000000000008
 30
0.0
 40
0.9252000000000079
100
AcDbArc
 50
73.11582640008916
 51
97.45235424469944
  0
ARC
  5
12B
330
DC
100
AcDbEntity
  8
AM_9
100
AcDbCircle
 10
-0.0000000000000185
 20
0.0000000000002255
 30
0.0
 40
0.9252000000002162
100
AcDbArc
 50
262.5476457553034
 51
286.884173599908
  0
LINE
  5
12C
330
DC
100
AcDbEntity
  8
AM_9
100
AcDbLine
 10
-0.12
 20
0.917384891961929
 30
0.0
 11
-0.12
 21
-0.9173848919619239
 31
0.0
  0
LINE
  5
12D
330
DC
100
AcDbEntity
  8
AM_9
100
AcDbLine
 10
0.2687131347117351
 20
0.8853181864354719
 30
0.0
 11
0.2687131347117351
 21
-0.8853181864354667
 31
0.0
  0
LINE
  5
12F
330
DC
100
AcDbEntity
  8
AM_5
100
AcDbLine
 10
-0.355
 20
0.5600000000000003
 30
0.0
 11
-0.355
 21
0.3749999999999999
 31
0.0
  0
LINE
  5
130
330
DC
100
AcDbEntity
  8
AM_5
100
AcDbLine
 10
-0.605
 20
0.5600000000000003
 30
0.0
 11
-0.605
 21
0.3749999999999999
 31
0.0
  0
LINE
  5
133
330
DC
100
AcDbEntity
  8
AM_7
100
AcDbLine
 10
0.1499999999999999
 20
-0.0321363636363649
 30
0.0
 11
0.1499999999999999
 21
0.0321363636363648
 31
0.0
  0
LINE
  5
134
330
DC
100
AcDbEntity
  8
AM_7
100
AcDbLine
 10
-0.48
 20
0.5709545454545455
 30
0.0
 11
-0.48
 21
0.3299545454545455
 31
0.0
  0
LWPOLYLINE
  5
135
330
DC
100
AcDbEntity
  8
AM_4
100
AcDbPolyline
 90
        8
 70
     0
 43
0.0
 10
-0.4998355632078096
 20
0.2463417680239501
 10
-0.514837588988128
 20
0.243169312989441
 10
-0.5311468203574323
 20
0.237373697856628
 10
-0.5455425212471114
 20
0.2296628641947793
 10
-0.5584890126187653
 20
0.219732684743329
 10
-0.5691768323363469
 20
0.2080068101981183
 10
-0.577590042822618
 20
0.1942375550405988
 10
-0.5778633260478746
 20
0.193664830265375
  0
ELLIPSE
  5
136
330
DC
100
AcDbEntity
  8
AM_4
100
AcDbEllipse
 10
-0.4800000000000002
 20
0.2284885632101089
 30
0.0
 11
0.1056499999999997
 21
0.0
 31
0.0
210
0.0
220
0.0
230
1.0
 40
0.90630778703665
 41
3.141592653589793
 42
4.348611078510258
  0
ELLIPSE
  5
137
330
DC
100
AcDbEntity
  8
AM_4
100
AcDbEllipse
 10
-0.4800000000000002
 20
0.2284885632101095
 30
0.0
 11
0.1056499999999997
 21
0.0
 31
0.0
210
0.0
220
0.0
230
1.0
 40
0.9063077870366505
 41
1.636200679436737
 42
3.141592653589793
  0
LINE
  5
138
330
DC
100
AcDbEntity
  8
AM_4
100
AcDbLine
 10
0.4944
 20
0.56
 30
0.0
 11
0.4477722772277228
 21
0.56
 31
0.0
  0
LINE
  5
139
330
DC
100
AcDbEntity
  8
AM_4
100
AcDbLine
 10
0.5
 20
0.5544
 30
0.0
 11
0.4944
 21
0.56
 31
0.0
  0
LINE
  5
13A
330
DC
100
AcDbEntity
  8
AM_4
100
AcDbLine
 10
0.4944
 20
0.56
 30
0.0
 11
0.4944
 21
0.2788417910447785
 31
0.0
  0
LINE
  5
13B
330
DC
100
AcDbEntity
  8
AM_4
100
AcDbLine
 10
0.5
 20
0.5544
 30
0.0
 11
0.5
 21
0.2450746268656723
 31
0.0
  0
LINE
  5
13C
330
DC
100
AcDbEntity
  8
AM_4
100
AcDbLine
 10
-0.73
 20
-0.5376000000000001
 30
0.0
 11
-0.7076
 21
-0.56
 31
0.0
  0
LINE
  5
13D
330
DC
100
AcDbEntity
  8
AM_4
100
AcDbLine
 10
-0.7076
 20
0.56
 30
0.0
 11
-0.73
 21
0.5376000000000001
 31
0.0
  0
LINE
  5
13E
330
DC
100
AcDbEntity
  8
AM_4
100
AcDbLine
 10
-0.73
 20
0.5376000000000001
 30
0.0
 11
-0.73
 21
-0.5376000000000001
 31
0.0
  0
LWPOLYLINE
  5
13F
330
DC
100
AcDbEntity
  8
AM_4
100
AcDbPolyline
 90
       18
 70
     0
 43
0.0
 10
-0.5183759929775005
 20
0.1344536468936415
 10
-0.5367230174932409
 20
0.1412682202514667
 10
-0.5560506126053004
 20
0.1521521601432798
 10
-0.5730909486916286
 20
0.1660437617935548
 10
-0.5865128891867717
 20
0.1817100118777265
 10
-0.5966670704252712
 20
0.1992550326876894
 10
-0.6024978927198319
 20
0.2161540826938227
 10
-0.6049407743763593
 20
0.2335088403185306
 10
-0.6040479496961182
 20
0.2491253111643499
 10
-0.600290938099593
 20
0.2641665979316429
 10
-0.5939126992076563
 20
0.2780271625404268
 10
-0.5851661634686349
 20
0.2906705520383425
 10
-0.5735368984229126
 20
0.3025681270281268
 10
-0.5599252774713024
 20
0.3126985452167175
 10
-0.543079411798909
 20
0.3216719729502831
 10
-0.5247531167090373
 20
0.328320270736578
 10
-0.5038032238504394
 20
0.332817529450698
 10
-0.4852130608926026
 20
0.3344556775073569
  0
LINE
  5
140
330
DC
100
AcDbEntity
  8
AM_4
100
AcDbLine
 10
-0.7076
 20
-0.5600000000000003
 30
0.0
 11
-0.6335148514851485
 21
-0.5600000000000003
 31
0.0
  0
LINE
  5
141
330
DC
100
AcDbEntity
  8
AM_4
100
AcDbLine
 10
-0.6050000000000003
 20
0.5600000000000004
 30
0.0
 11
-0.7076
 21
0.5600000000000003
 31
0.0
  0
LINE
  5
142
330
DC
100
AcDbEntity
  8
AM_4
100
AcDbLine
 10
-0.7076
 20
0.5600000000000003
 30
0.0
 11
-0.7076
 21
-0.5600000000000003
 31
0.0
  0
LWPOLYLINE
  5
143
330
DC
100
AcDbEntity
  8
AM_4
100
AcDbPolyline
 90
       12
 70
     0
 43
0.0
 10
-0.4494753509013419
 20
0.5491016090149416
 10
-0.457576008665126
 20
0.5487780821208874
 10
-0.4793962901665567
 20
0.548398673664283
 10
-0.5018419448917703
 20
0.5487586380433388
 10
-0.523398175555723
 20
0.5498182974510776
 10
-0.5443160346714869
 20
0.5515090210726832
 10
-0.5624777832305131
 20
0.5534985749423796
 10
-0.5786776489954986
 20
0.5556750866128958
 10
-0.5905386686795365
 20
0.5575046303165919
 10
-0.5993791400028166
 20
0.5589958850907375
 10
-0.6037885196500892
 20
0.5597799275426188
 10
-0.6049999999987274
 20
0.559999999999768
  0
ENDBLK
  5
DF
330
DC
100
AcDbEntity
  8
0
100
AcDbBlockEnd
  0
BLOCK
  5
146
330
144
100
AcDbEntity
  8
0
100
AcDbBlockBegin
  2
4_123595vscb_0_in_123595_2
 70
     2
 10
0.0
 20
0.0
 30
0.0
  3
4_123595vscb_0_in_123595_2
  1

  0
ATTDEF
  5
148
330
144
100
AcDbEntity
  8
AM_6
100
AcDbText
 10
5.737
 20
1.24
 30
0.0
 40
0.5
  1
P2B-VSCB -Inch - Body
100
AcDbAttributeDefinition
  3

  2
NN
 70
     8
280
     0
  0
ATTDEF
  5
149
330
144
100
AcDbEntity
  8
AM_6
100
AcDbText
 10
5.737
 20
0.74
 30
0.0
 40
0.5
  1
VSCB Intermediate  Duty Pillow Blocks
100
AcDbAttributeDefinition
  3

  2
NT
 70
     8
280
     0
  0
ATTDEF
  5
14A
330
144
100
AcDbEntity
  8
AM_6
100
AcDbText
 10
5.737
 20
0.24
 30
0.0
 40
0.5
  1
123595vscb
100
AcDbAttributeDefinition
  3

  2
NB
 70
     8
280
     0
  0
ATTDEF
  5
14B
330
144
100
AcDbEntity
  8
AM_6
100
AcDbText
 10
5.737
 20
-0.26
 30
0.0
 40
0.5
  1
$PN.
100
AcDbAttributeDefinition
  3

  2
NBSYN
 70
     8
280
     0
  0
ATTDEF
  5
14C
330
144
100
AcDbEntity
  8
AM_6
100
AcDbText
 10
5.737
 20
-0.76
 30
0.0
 40
0.5
  1
123595vscb
100
AcDbAttributeDefinition
  3

  2
LINA
 70
     8
280
     0
  0
ATTDEF
  5
14D
330
144
100
AcDbEntity
  8
AM_6
100
AcDbText
 10
5.737
 20
-1.26
 30
0.0
 40
0.5
  1
204
100
AcDbAttributeDefinition
  3

  2
RS
 70
     8
280
     0
  0
ATTDEF
  5
14E
330
144
100
AcDbEntity
  8
AM_6
100
AcDbText
 10
5.737
 20
-1.76
 30
0.0
 40
0.5
  1
3/4
100
AcDbAttributeDefinition
  3

  2
SS
 70
     8
280
     0
  0
ATTDEF
  5
14F
330
144
100
AcDbEntity
  8
AM_6
100
AcDbText
 10
5.737
 20
-2.26
 30
0.0
 40
0.5
  1
123595vscb
100
AcDbAttributeDefinition
  3

  2
PN
 70
     8
280
     0
  0
ATTDEF
  5
150
330
144
100
AcDbEntity
  8
AM_6
100
AcDbText
 10
5.737
 20
-2.76
 30
0.0
 40
0.5
  1
P2B-VSCB-012
100
AcDbAttributeDefinition
  3

  2
DESCRIPTION
 70
     8
280
     0
  0
ATTDEF
  5
151
330
144
100
AcDbEntity
  8
AM_6
100
AcDbText
 10
5.737
 20
-3.26
 30
0.0
 40
0.5
  1
RE-LUBE
100
AcDbAttributeDefinition
  3

  2
LF
 70
     8
280
     0
  0
ATTDEF
  5
152
330
144
100
AcDbEntity
  8
AM_6
100
AcDbText
 10
5.737
 20
-3.76
 30
0.0
 40
0.5
  1
1.23
100
AcDbAttributeDefinition
  3

  2
A
 70
     8
280
     0
  0
ATTDEF
  5
153
330
144
100
AcDbEntity
  8
AM_6
100
AcDbText
 10
5.737
 20
-4.26
 30
0.0
 40
0.5
  1
5.25
100
AcDbAttributeDefinition
  3

  2
B
 70
     8
280
     0
  0
ATTDEF
  5
154
330
144
100
AcDbEntity
  8
AM_6
100
AcDbText
 10
5.737
 20
-4.76
 30
0.0
 40
0.5
  1
1.34
100
AcDbAttributeDefinition
  3

  2
C
 70
     8
280
     0
  0
ATTDEF
  5
155
330
144
100
AcDbEntity
  8
AM_6
100
AcDbText
 10
5.737
 20
-5.26
 30
0.0
 40
0.5
  1
3.38
100
AcDbAttributeDefinition
  3

  2
DMIN
 70
     8
280
     0
  0
ATTDEF
  5
156
330
144
100
AcDbEntity
  8
AM_6
100
AcDbText
 10
5.737
 20
-5.76
 30
0.0
 40
0.5
  1
4.19
100
AcDbAttributeDefinition
  3

  2
DMAX
 70
     8
280
     0
  0
ATTDEF
  5
157
330
144
100
AcDbEntity
  8
AM_6
100
AcDbText
 10
5.737
 20
-6.26
 30
0.0
 40
0.5
  1
3/8
100
AcDbAttributeDefinition
  3

  2
F
 70
     8
280
     0
  0
ATTDEF
  5
158
330
144
100
AcDbEntity
  8
AM_6
100
AcDbText
 10
5.737
 20
-6.76
 30
0.0
 40
0.5
  1
0.85
100
AcDbAttributeDefinition
  3

  2
G
 70
     8
280
     0
  0
ATTDEF
  5
159
330
144
100
AcDbEntity
  8
AM_6
100
AcDbText
 10
5.737
 20
-7.26
 30
0.0
 40
0.5
  1
0.47
100
AcDbAttributeDefinition
  3

  2
H
 70
     8
280
     0
  0
ATTDEF
  5
15A
330
144
100
AcDbEntity
  8
AM_6
100
AcDbText
 10
5.737
 20
-7.76
 30
0.0
 40
0.5
  1
2.49
100
AcDbAttributeDefinition
  3

  2
J
 70
     8
280
     0
  0
ATTDEF
  5
15B
330
144
100
AcDbEntity
  8
AM_6
100
AcDbText
 10
5.737
 20
-8.26
 30
0.0
 40
0.5
  1
1.12
100
AcDbAttributeDefinition
  3

  2
L
 70
     8
280
     0
  0
ATTDEF
  5
15C
330
144
100
AcDbEntity
  8
AM_6
100
AcDbText
 10
5.737
 20
-8.76
 30
0.0
 40
0.5
  1
1.25
100
AcDbAttributeDefinition
  3

  2
M
 70
     8
280
     0
  0
ATTDEF
  5
15D
330
144
100
AcDbEntity
  8
AM_6
100
AcDbText
 10
5.737
 20
-9.26
 30
0.0
 40
0.5
  1
0.50
100
AcDbAttributeDefinition
  3

  2
R
 70
     8
280
     0
  0
ATTDEF
  5
15E
330
144
100
AcDbEntity
  8
AM_6
100
AcDbText
 10
5.737
 20
-9.76
 30
0.0
 40
0.5
  1
0.73
100
AcDbAttributeDefinition
  3

  2
S
 70
     8
280
     0
  0
ATTDEF
  5
15F
330
144
100
AcDbEntity
  8
AM_6
100
AcDbText
 10
5.737
 20
-10.26
 30
0.0
 40
0.5
  1
2.25
100
AcDbAttributeDefinition
  3

  2
U
 70
     8
280
     0
  0
ATTDEF
  5
160
330
144
100
AcDbEntity
  8
AM_6
100
AcDbText
 10
5.737
 20
-10.76
 30
0.0
 40
0.5
  1
4.50
100
AcDbAttributeDefinition
  3

  2
V
 70
     8
280
     0
  0
ATTDEF
  5
161
330
144
100
AcDbEntity
  8
AM_6
100
AcDbText
 10
5.737
 20
-11.26
 30
0.0
 40
0.5
  1
0.50
100
AcDbAttributeDefinition
  3

  2
W
 70
     8
280
     0
  0
ATTDEF
  5
162
330
144
100
AcDbEntity
  8
AM_6
100
AcDbText
 10
5.737
 20
-11.76
 30
0.0
 40
0.5
  1
0.12
100
AcDbAttributeDefinition
  3

  2
X
 70
     8
280
     0
  0
ATTDEF
  5
163
330
144
100
AcDbEntity
  8
AM_6
100
AcDbText
 10
5.737
 20
-12.26
 30
0.0
 40
0.5
  1
baldor
100
AcDbAttributeDefinition
  3

  2
COMPANY
 70
     8
280
     0
  0
LINE
  5
164
330
144
100
AcDbEntity
  8
AM_9
100
AcDbLine
 10
-0.536
 20
-0.9252
 30
0.0
 11
0.5360000000000001
 21
-0.9252
 31
0.0
  0
LINE
  5
165
330
144
100
AcDbEntity
  8
AM_9
100
AcDbLine
 10
0.3872069306930695
 20
0.9252
 30
0.0
 11
-0.3872069306930693
 21
0.9252
 31
0.0
  0
LINE
  5
166
330
144
100
AcDbEntity
  8
AM_9
100
AcDbLine
 10
-0.5998095228586877
 20
-0.3567618990285057
 30
0.0
 11
-0.5998095228586877
 21
-1.23825
 31
0.0
  0
LWPOLYLINE
  5
167
330
144
100
AcDbEntity
  8
AM_9
100
AcDbPolyline
 90
        7
 70
     0
 43
0.0
 10
-0.5360000000000001
 20
-0.219068372464078
 10
-0.5363873027281076
 20
-0.1879405806117539
 10
-0.5373317183955416
 20
-0.1565517381741689
 10
-0.5385461618374503
 20
-0.1248619291331539
 10
-0.5397761195910353
 20
-0.0929843093164156
 10
-0.5410902305807203
 20
-0.049694035601248
 10
-0.5416670527272583
 20
-0.0061714821166029
  0
LINE
  5
168
330
144
100
AcDbEntity
  8
AM_9
100
AcDbLine
 10
-0.5360000000000001
 20
-0.219068372464078
 30
0.0
 11
-0.5360000000000001
 21
-0.8739999999999994
 31
0.0
  0
LINE
  5
169
330
144
100
AcDbEntity
  8
AM_9
100
AcDbLine
 10
-0.5998095228586877
 20
-1.23825
 30
0.0
 11
0.5998095238095231
 21
-1.23825
 31
0.0
  0
LINE
  5
16A
330
144
100
AcDbEntity
  8
AM_9
100
AcDbLine
 10
-0.5382538966248769
 20
-1.19125
 30
0.0
 11
0.5382538966248769
 21
-1.19125
 31
0.0
  0
LWPOLYLINE
  5
16B
330
144
100
AcDbEntity
  8
AM_9
100
AcDbPolyline
 90
       11
 70
     0
 43
0.0
 10
-0.5382538966248769
 20
-1.19125
 10
-0.5407005710888414
 20
-1.191809062446131
 10
-0.5440469449952192
 20
-1.193449493375116
 10
-0.5479218750942138
 20
-1.195874294698662
 10
-0.5523915791167081
 20
-1.199023203785726
 10
-0.5600332219626296
 20
-1.204868001559396
 10
-0.568544211370593
 20
-1.21174788050579
 10
-0.5807194572046237
 20
-1.22193504977819
 10
-0.5936685358051245
 20
-1.23298178263706
 10
-0.5995689711300001
 20
-1.238043549406747
 10
-0.5998095238095237
 20
-1.23825
  0
LINE
  5
16C
330
144
100
AcDbEntity
  8
AM_9
100
AcDbLine
 10
0.5998095238095222
 20
-0.3567619047618837
 30
0.0
 11
0.5998095238095231
 21
-1.23825
 31
0.0
  0
LWPOLYLINE
  5
16D
330
144
100
AcDbEntity
  8
AM_9
100
AcDbPolyline
 90
       11
 70
     0
 43
0.0
 10
0.5998095238095231
 20
-1.23825
 10
0.5995689711299832
 20
-1.238043549406767
 10
0.5936685358051237
 20
-1.23298178263706
 10
0.5808992810402821
 20
-1.222085682315875
 10
0.5685442113705929
 20
-1.21174788050579
 10
0.5601416956116132
 20
-1.20495232058014
 10
0.552391579116708
 20
-1.199023203785726
 10
0.547964543507077
 20
-1.195902903996989
 10
0.5440469449952191
 20
-1.193449493375116
 10
0.5407531309251354
 20
-1.191832160385886
 10
0.5382538966248769
 20
-1.19125
  0
LINE
  5
16E
330
144
100
AcDbEntity
  8
AM_9
100
AcDbLine
 10
0.5360000000000001
 20
-0.2190683724640749
 30
0.0
 11
0.5360000000000001
 21
-0.8739999999999993
 31
0.0
  0
LWPOLYLINE
  5
16F
330
144
100
AcDbEntity
  8
AM_9
100
AcDbPolyline
 90
        6
 70
     0
 43
0.0
 10
0.5416670527272582
 20
-0.006171482116601
 10
0.5411749805050734
 20
-0.0458583682799436
 10
0.5400412505798122
 20
-0.0855319241946304
 10
0.538530101361787
 20
-0.1252667489307669
 10
0.5370459756924846
 20
-0.1648422102632298
 10
0.5360000000000001
 20
-0.2190683724640748
  0
LINE
  5
170
330
144
100
AcDbEntity
  8
AM_9
100
AcDbLine
 10
-0.6061904761904758
 20
-0.3952380952380911
 30
0.0
 11
-0.6061904761904763
 21
-1.25
 31
0.0
  0
LINE
  5
171
330
144
100
AcDbEntity
  8
AM_9
100
AcDbLine
 10
0.6061904761904762
 20
-0.3952380952380953
 30
0.0
 11
0.6061904761904762
 21
-1.25
 31
0.0
  0
LINE
  5
172
330
144
100
AcDbEntity
  8
AM_9
100
AcDbLine
 10
-0.5599999999999998
 20
-0.8400000000000001
 30
0.0
 11
-0.4399999999999999
 21
-0.8400000000000001
 31
0.0
  0
LINE
  5
173
330
144
100
AcDbEntity
  8
AM_9
100
AcDbLine
 10
-0.4399999999999999
 20
-0.8400000000000001
 30
0.0
 11
-0.4399999999999999
 21
-0.78
 31
0.0
  0
LINE
  5
174
330
144
100
AcDbEntity
  8
AM_9
100
AcDbLine
 10
-0.5599999999999998
 20
-0.78
 30
0.0
 11
-0.5599999999999998
 21
-0.8400000000000001
 31
0.0
  0
LINE
  5
175
330
144
100
AcDbEntity
  8
AM_9
100
AcDbLine
 10
0.2224999999999999
 20
-0.78
 30
0.0
 11
0.2224999999999999
 21
-1.25
 31
0.0
  0
LINE
  5
176
330
144
100
AcDbEntity
  8
AM_9
100
AcDbLine
 10
-0.2224999999999997
 20
-0.78
 30
0.0
 11
-0.2224999999999997
 21
-1.25
 31
0.0
  0
LINE
  5
177
330
144
100
AcDbEntity
  8
AM_7
100
AcDbLine
 10
-0.5000000000000001
 20
-0.777
 30
0.0
 11
-0.5000000000000001
 21
-0.8430000000000001
 31
0.0
  0
LINE
  5
178
330
144
100
AcDbEntity
  8
AM_7
100
AcDbLine
 10
0.7370000000000001
 20
0.0
 30
0.0
 11
-0.7915
 21
0.0000000000000001
 31
0.0
  0
LINE
  5
179
330
144
100
AcDbEntity
  8
AM_4
100
AcDbLine
 10
0.3350000000000004
 20
1.24
 30
0.0
 11
-0.335
 21
1.24
 31
0.0
  0
LINE
  5
17A
330
144
100
AcDbEntity
  8
AM_4
100
AcDbLine
 10
-0.3749999999999998
 20
-0.4336798451593878
 30
0.0
 11
-0.3749999999999998
 21
-0.78
 31
0.0
  0
LINE
  5
17B
330
144
100
AcDbEntity
  8
AM_4
100
AcDbLine
 10
0.3750000000000001
 20
-0.78
 30
0.0
 11
0.3750000000000001
 21
-0.4336798451593876
 31
0.0
  0
LINE
  5
17C
330
144
100
AcDbEntity
  8
AM_4
100
AcDbLine
 10
-0.4368422410106449
 20
0.6259064870402896
 30
0.0
 11
0.4368422410106453
 21
0.62590648704029
 31
0.0
  0
LWPOLYLINE
  5
17D
330
144
100
AcDbEntity
  8
AM_4
100
AcDbPolyline
 90
       37
 70
     0
 43
0.0
 10
0.3750000000000001
 20
-0.4336798451593876
 10
0.3735730117844047
 20
-0.3777839371526884
 10
0.3693029073795782
 20
-0.3223134307567922
 10
0.3622221848584007
 20
-0.2676904900193793
 10
0.3523847327947158
 20
-0.2143308285016949
 10
0.3398654201387439
 20
-0.1626405454473328
 10
0.3247595264191647
 20
-0.1130130351217834
 10
0.3071820166083722
 20
-0.0658259928445338
 10
0.287266666169617
 20
-0.0214385404996291
 10
0.2651650429449557
 20
0.0198115065987093
 10
0.2410453536324527
 20
0.0576102106846038
 10
0.2150911636316427
 20
0.0916699007964792
 10
0.1875000000000005
 20
0.1217313621267809
 10
0.1584818481527629
 20
0.1475658088031785
 10
0.1282575537471264
 20
0.1689766250871994
 10
0.097057141913446
 20
0.185800861738718
 10
0.0651180666250996
 20
0.1979104761580641
 10
0.0326834035303726
 20
0.2052133068675216
 10
0.0000000000000008
 20
0.2076537749158215
 10
-0.0326834035303709
 20
0.2052133068675216
 10
-0.065118066625098
 20
0.1979104761580645
 10
-0.0970571419134444
 20
0.1858008617387185
 10
-0.1282575537471248
 20
0.1689766250872004
 10
-0.1584818481527614
 20
0.1475658088031795
 10
-0.1874999999999991
 20
0.121731362126782
 10
-0.2150911636316413
 20
0.0916699007964806
 10
-0.2410453536324513
 20
0.0576102106846054
 10
-0.2651650429449544
 20
0.019811506598711
 10
-0.2872666661696159
 20
-0.0214385404996273
 10
-0.3071820166083711
 20
-0.0658259928445318
 10
-0.3247595264191637
 20
-0.1130130351217813
 10
-0.339865420138743
 20
-0.1626405454473307
 10
-0.352384732794715
 20
-0.2143308285016925
 10
-0.3622221848584001
 20
-0.267690490019377
 10
-0.3693029073795776
 20
-0.3223134307567898
 10
-0.3735730117844043
 20
-0.377783937152686
 10
-0.3749999999999998
 20
-0.4336798451593852
  0
LINE
  5
17E
330
144
100
AcDbEntity
  8
AM_4
100
AcDbLine
 10
0.3350000000000002
 20
1.24
 30
0.0
 11
0.6700000000000003
 21
-0.78
 31
0.0
  0
LINE
  5
17F
330
144
100
AcDbEntity
  8
AM_4
100
AcDbLine
 10
0.3750000000000001
 20
-0.7334477498240219
 30
0.0
 11
0.6622797010846768
 21
-0.7334477498240219
 31
0.0
  0
LINE
  5
180
330
144
100
AcDbEntity
  8
AM_4
100
AcDbLine
 10
-0.6699999999999998
 20
-0.78
 30
0.0
 11
-0.335
 21
1.24
 31
0.0
  0
LINE
  5
181
330
144
100
AcDbEntity
  8
AM_4
100
AcDbLine
 10
-0.6622797010846768
 20
-0.7334477498240219
 30
0.0
 11
-0.3749999999999998
 21
-0.7334477498240219
 31
0.0
  0
LINE
  5
182
330
144
100
AcDbEntity
  8
AM_4
100
AcDbLine
 10
-0.6699999999999999
 20
-0.78
 30
0.0
 11
-0.6700000000000003
 21
-1.25
 31
0.0
  0
LINE
  5
183
330
144
100
AcDbEntity
  8
AM_4
100
AcDbLine
 10
-0.5360000000000003
 20
-0.8739999999999994
 30
0.0
 11
-0.5360000000000003
 21
-1.25
 31
0.0
  0
LINE
  5
184
330
144
100
AcDbEntity
  8
AM_4
100
AcDbLine
 10
0.6700000000000003
 20
-1.25
 30
0.0
 11
-0.6700000000000003
 21
-1.25
 31
0.0
  0
LINE
  5
185
330
144
100
AcDbEntity
  8
AM_4
100
AcDbLine
 10
0.6700000000000003
 20
-0.7799999999999999
 30
0.0
 11
0.6700000000000003
 21
-1.25
 31
0.0
  0
LINE
  5
186
330
144
100
AcDbEntity
  8
AM_4
100
AcDbLine
 10
-0.6699999999999999
 20
-0.78
 30
0.0
 11
0.6700000000000003
 21
-0.7799999999999999
 31
0.0
  0
LINE
  5
187
330
144
100
AcDbEntity
  8
AM_4
100
AcDbLine
 10
0.5360000000000003
 20
-0.8739999999999998
 30
0.0
 11
0.5360000000000003
 21
-1.25
 31
0.0
  0
LINE
  5
188
330
144
100
AcDbEntity
  8
AM_4
100
AcDbLine
 10
-0.5360000000000003
 20
-0.8739999999999994
 30
0.0
 11
0.5360000000000003
 21
-0.8739999999999998
 31
0.0
  0
LWPOLYLINE
  5
189
330
144
100
AcDbEntity
  8
AM_4
100
AcDbPolyline
 90
       19
 70
     0
 43
0.0
 10
0.5360000000000004
 20
-0.8739999999999994
 10
0.5363576983793763
 20
-0.8658073601817197
 10
0.5374280712168528
 20
-0.8576770712993081
 10
0.5392029723288279
 20
-0.8496710097603626
 10
0.5416688936461249
 20
-0.8418501065273868
 10
0.5448070680185552
 20
-0.8342738833963739
 10
0.548593612044263
 20
-0.8269999999999996
 10
0.552999707836835
 20
-0.8200838149830014
 10
0.5579918223468163
 20
-0.8135779646894651
 10
0.5635319625684647
 20
-0.8075319625684643
 10
0.5695779646894655
 20
-0.8019918223468159
 10
0.5760838149830018
 20
-0.7969997078368346
 10
0.5830000000000001
 20
-0.7925936120442626
 10
0.5902738833963743
 20
-0.7888070680185548
 10
0.5978501065273872
 20
-0.7856688936461245
 10
0.605671009760363
 20
-0.7832029723288274
 10
0.6136770712993085
 20
-0.7814280712168523
 10
0.6218073601817201
 20
-0.7803576983793757
 10
0.63
 20
-0.7799999999999999
  0
LWPOLYLINE
  5
18A
330
144
100
AcDbEntity
  8
AM_4
100
AcDbPolyline
 90
       19
 70
     0
 43
0.0
 10
-0.63
 20
-0.7799999999999999
 10
-0.6218073601817201
 20
-0.7803576983793757
 10
-0.6136770712993085
 20
-0.7814280712168523
 10
-0.605671009760363
 20
-0.7832029723288274
 10
-0.5978501065273872
 20
-0.7856688936461245
 10
-0.5902738833963743
 20
-0.7888070680185547
 10
-0.5830000000000001
 20
-0.7925936120442626
 10
-0.5760838149830018
 20
-0.7969997078368346
 10
-0.5695779646894654
 20
-0.8019918223468158
 10
-0.5635319625684646
 20
-0.8075319625684643
 10
-0.5579918223468162
 20
-0.813577964689465
 10
-0.5529997078368349
 20
-0.8200838149830014
 10
-0.5485936120442629
 20
-0.8269999999999996
 10
-0.544807068018555
 20
-0.8342738833963739
 10
-0.5416688936461248
 20
-0.8418501065273867
 10
-0.5392029723288279
 20
-0.8496710097603625
 10
-0.5374280712168527
 20
-0.857677071299308
 10
-0.5363576983793762
 20
-0.8658073601817196
 10
-0.5360000000000003
 20
-0.8739999999999993
  0
ENDBLK
  5
147
330
144
100
AcDbEntity
  8
0
100
AcDbBlockEnd
  0
ENDSEC
  0
SECTION
  2
ENTITIES
  0
INSERT
  5
6F
330
1F
100
AcDbEntity
  8
0
100
AcDbBlockReference
  2
1_123595_2
 10
0.0
 20
0.0
 30
0.0
  0
POINT
  5
18C
330
1F
100
AcDbEntity
  8
ConnectionPoints
100
AcDbPoint
 10
-0.73
 20
0.0000000000000001
 30
0.0
  0
POINT
  5
18D
330
1F
100
AcDbEntity
  8
ConnectionPoints
100
AcDbPoint
 10
0.0000000000000001
 20
0.8768124086713193
 30
0.8768124086713188
  0
POINT
  5
18E
330
1F
100
AcDbEntity
  8
ConnectionPoints
100
AcDbPoint
 10
-0.73
 20
0.0
 30
0.0
  0
ENDSEC
  0
SECTION
  2
OBJECTS
  0
DICTIONARY
  5
C
330
0
100
AcDbDictionary
281
     1
  3
ACAD_DETAILVIEWSTYLE
350
196
  3
ACAD_GROUP
350
D
  3
ACAD_LAYOUT
350
1A
  3
ACAD_MATERIAL
350
43
  3
ACAD_MLEADERSTYLE
350
6B
  3
ACAD_MLINESTYLE
350
17
  3
ACAD_PLOTSETTINGS
350
19
  3
ACAD_PLOTSTYLENAME
350
E
  3
ACAD_SCALELIST
350
47
  3
ACAD_SECTIONVIEWSTYLE
350
197
  3
ACAD_TABLESTYLE
350
69
  3
ACAD_VISUALSTYLE
350
2A
  3
ACDB_RECOMPOSE_DATA
350
193
  3
AcDbVariableDictionary
350
18F
  0
SUN
  5
6D
330
29
100
AcDbSun
 90
        1
290
     0
 63
     7
421
 16777215
 40
1.0
291
     1
 91
  2455826
 92
 54000000
292
     0
 70
     2
 71
   256
280
     1
  0
DICTIONARY
  5
196
102
{ACAD_REACTORS
330
C
102
}
330
C
100
AcDbDictionary
281
     1
  0
DICTIONARY
  5
D
102
{ACAD_REACTORS
330
C
102
}
330
C
100
AcDbDictionary
281
     1
  0
DICTIONARY
  5
1A
102
{ACAD_REACTORS
330
C
102
}
330
C
100
AcDbDictionary
281
     1
  3
Layout1
350
1E
  3
Layout2
350
26
  3
Model
350
22
  0
DICTIONARY
  5
43
102
{ACAD_REACTORS
330
C
102
}
330
C
100
AcDbDictionary
281
     1
  3
ByBlock
350
45
  3
ByLayer
350
44
  3
Global
350
46
  0
DICTIONARY
  5
6B
102
{ACAD_REACTORS
330
C
102
}
330
C
100
AcDbDictionary
281
     1
  3
Standard
350
6C
  0
DICTIONARY
  5
17
102
{ACAD_REACTORS
330
C
102
}
330
C
100
AcDbDictionary
281
     1
  3
Standard
350
18
  0
DICTIONARY
  5
19
102
{ACAD_REACTORS
330
C
102
}
330
C
100
AcDbDictionary
281
     1
  0
ACDBDICTIONARYWDFLT
  5
E
102
{ACAD_REACTORS
330
C
102
}
330
C
100
AcDbDictionary
281
     1
  3
Normal
350
F
100
AcDbDictionaryWithDefault
340
F
  0
DICTIONARY
  5
47
102
{ACAD_REACTORS
330
C
102
}
330
C
100
AcDbDictionary
281
     1
  3
A0
350
48
  3
A1
350
49
  3
A2
350
4A
  3
A3
350
4B
  3
A4
350
4C
  3
A5
350
4D
  3
A6
350
4E
  3
A7
350
4F
  3
A8
350
50
  3
A9
350
51
  3
B0
350
52
  3
B1
350
53
  3
B2
350
54
  3
B3
350
55
  3
B4
350
56
  3
B5
350
57
  3
B6
350
58
  3
B7
350
59
  3
B8
350
5A
  3
B9
350
5B
  3
C0
350
5C
  3
C1
350
5D
  3
C2
350
5E
  3
C3
350
5F
  3
C4
350
60
  3
C5
350
61
  3
C6
350
62
  3
C7
350
63
  3
C8
350
64
  3
C9
350
65
  3
D0
350
66
  3
D1
350
67
  3
D2
350
68
  0
DICTIONARY
  5
197
102
{ACAD_REACTORS
330
C
102
}
330
C
100
AcDbDictionary
281
     1
  0
DICTIONARY
  5
69
102
{ACAD_REACTORS
330
C
102
}
330
C
100
AcDbDictionary
281
     1
  3
Standard
350
6A
  0
DICTIONARY
  5
2A
102
{ACAD_REACTORS
330
C
102
}
330
C
100
AcDbDictionary
281
     1
  3
2dWireframe
350
2F
  3
Basic
350
32
  3
Brighten
350
36
  3
ColorChange
350
3A
  3
Conceptual
350
34
  3
Dim
350
35
  3
EdgeColorOff
350
3D
  3
Facepattern
350
39
  3
Flat
350
2B
  3
FlatWithEdges
350
2C
  3
Gouraud
350
2D
  3
GouraudWithEdges
350
2E
  3
Hidden
350
31
  3
JitterOff
350
3B
  3
Linepattern
350
38
  3
OverhangOff
350
3C
  3
Realistic
350
33
  3
Shaded
350
42
  3
Shaded with edges
350
41
  3
Shades of Gray
350
3E
  3
Sketchy
350
3F
  3
Thicken
350
37
  3
Wireframe
350
30
  3
X-Ray
350
40
  0
XRECORD
  5
193
102
{ACAD_REACTORS
330
C
102
}
330
C
100
AcDbXrecord
280
     1
 90
        1
330
6A
  0
DICTIONARY
  5
18F
102
{ACAD_REACTORS
330
C
102
}
330
C
100
AcDbDictionary
281
     1
  3
CANNOSCALE
350
190
  3
CMLEADERSTYLE
350
195
  3
CTABLESTYLE
350
194
  0
LAYOUT
  5
1E
102
{ACAD_REACTORS
330
1A
102
}
330
1A
100
AcDbPlotSettings
  1

  2
none_device
  4

  6

 40
0.0
 41
0.0
 42
0.0
 43
0.0
 44
0.0
 45
0.0
 46
0.0
 47
0.0
 48
0.0
 49
0.0
140
0.0
141
0.0
142
1.0
143
1.0
 70
   688
 72
     0
 73
     0
 74
     5
  7

 75
    16
 76
     0
 77
     2
 78
   300
147
1.0
148
0.0
149
0.0
100
AcDbLayout
  1
Layout1
 70
     1
 71
     1
 10
0.0
 20
0.0
 11
12.0
 21
9.0
 12
0.0
 22
0.0
 32
0.0
 14
1.000000000000000E+20
 24
1.000000000000000E+20
 34
1.000000000000000E+20
 15
-1.000000000000000E+20
 25
-1.000000000000000E+20
 35
-1.000000000000000E+20
146
0.0
 13
0.0
 23
0.0
 33
0.0
 16
1.0
 26
0.0
 36
0.0
 17
0.0
 27
1.0
 37
0.0
 76
     0
330
1B
  0
LAYOUT
  5
26
102
{ACAD_REACTORS
330
1A
102
}
330
1A
100
AcDbPlotSettings
  1

  2
none_device
  4

  6

 40
0.0
 41
0.0
 42
0.0
 43
0.0
 44
0.0
 45
0.0
 46
0.0
 47
0.0
 48
0.0
 49
0.0
140
0.0
141
0.0
142
1.0
143
1.0
 70
   688
 72
     0
 73
     0
 74
     5
  7

 75
    16
 76
     0
 77
     2
 78
   300
147
1.0
148
0.0
149
0.0
100
AcDbLayout
  1
Layout2
 70
     1
 71
     2
 10
0.0
 20
0.0
 11
0.0
 21
0.0
 12
0.0
 22
0.0
 32
0.0
 14
0.0
 24
0.0
 34
0.0
 15
0.0
 25
0.0
 35
0.0
146
0.0
 13
0.0
 23
0.0
 33
0.0
 16
1.0
 26
0.0
 36
0.0
 17
0.0
 27
1.0
 37
0.0
 76
     0
330
23
  0
LAYOUT
  5
22
102
{ACAD_REACTORS
330
1A
102
}
330
1A
100
AcDbPlotSettings
  1

  2
none_device
  4
Letter_(8.50_x_11.00_Inches)
  6

 40
6.35
 41
6.35
 42
6.35000508
 43
6.35000508
 44
215.9
 45
279.4
 46
0.0
 47
0.0
 48
0.0
 49
0.0
140
0.0
141
0.0
142
1.0
143
1.0
 70
  1712
 72
     0
 73
     0
 74
     0
  7

 75
     0
 76
     0
 77
     2
 78
   300
147
1.0
148
0.0
149
0.0
100
AcDbLayout
  1
Model
 70
     1
 71
     0
 10
0.0
 20
0.0
 11
12.0
 21
9.0
 12
0.0
 22
0.0
 32
0.0
 14
1.000000000000000E+20
 24
1.000000000000000E+20
 34
1.000000000000000E+20
 15
-1.000000000000000E+20
 25
-1.000000000000000E+20
 35
-1.000000000000000E+20
146
0.0
 13
0.0
 23
0.0
 33
0.0
 16
1.0
 26
0.0
 36
0.0
 17
0.0
 27
1.0
 37
0.0
 76
     0
330
1F
331
29
  0
MATERIAL
  5
45
102
{ACAD_REACTORS
330
43
102
}
330
43
100
AcDbMaterial
  1
ByBlock
 72
     1
 94
      127
  0
MATERIAL
  5
44
102
{ACAD_REACTORS
330
43
102
}
330
43
100
AcDbMaterial
  1
ByLayer
 72
     1
 94
      127
  0
MATERIAL
  5
46
102
{ACAD_REACTORS
330
43
102
}
330
43
100
AcDbMaterial
  1
Global
 72
     1
 94
      127
  0
MLEADERSTYLE
  5
6C
102
{ACAD_REACTORS
330
6B
102
}
330
6B
100
AcDbMLeaderStyle
179
     2
170
     2
171
     1
172
     0
 90
        2
 40
0.0
 41
0.0
173
     1
 91
-1056964608
340
14
 92
       -2
290
     1
 42
0.09
291
     1
 43
0.36
  3
Standard
341
0
 44
0.18
300

342
11
174
     1
178
     6
175
     1
176
     0
 93
-1056964608
 45
0.18
292
     0
297
     0
 46
0.18
343
0
 94
-1056964608
 47
1.0
 49
1.0
140
1.0
293
     1
141
0.0
294
     1
177
     0
142
1.0
295
     0
296
     0
143
0.125
271
     0
272
     9
273
     9
298
     0
  0
MLINESTYLE
  5
18
102
{ACAD_REACTORS
330
17
102
}
330
17
100
AcDbMlineStyle
  2
Standard
 70
     0
  3

 62
   256
 51
90.0
 52
90.0
 71
     2
 49
0.5
 62
   256
  6
BYLAYER
 49
-0.5
 62
   256
  6
BYLAYER
  0
ACDBPLACEHOLDER
  5
F
102
{ACAD_REACTORS
330
E
102
}
330
E
  0
SCALE
  5
48
102
{ACAD_REACTORS
330
47
102
}
330
47
100
AcDbScale
 70
     0
300
1:1
140
1.0
141
1.0
290
     1
  0
SCALE
  5
49
102
{ACAD_REACTORS
330
47
102
}
330
47
100
AcDbScale
 70
     0
300
1:2
140
1.0
141
2.0
290
     0
  0
SCALE
  5
4A
102
{ACAD_REACTORS
330
47
102
}
330
47
100
AcDbScale
 70
     0
300
1:4
140
1.0
141
4.0
290
     0
  0
SCALE
  5
4B
102
{ACAD_REACTORS
330
47
102
}
330
47
100
AcDbScale
 70
     0
300
1:5
140
1.0
141
5.0
290
     0
  0
SCALE
  5
4C
102
{ACAD_REACTORS
330
47
102
}
330
47
100
AcDbScale
 70
     0
300
1:8
140
1.0
141
8.0
290
     0
  0
SCALE
  5
4D
102
{ACAD_REACTORS
330
47
102
}
330
47
100
AcDbScale
 70
     0
300
1:10
140
1.0
141
10.0
290
     0
  0
SCALE
  5
4E
102
{ACAD_REACTORS
330
47
102
}
330
47
100
AcDbScale
 70
     0
300
1:16
140
1.0
141
16.0
290
     0
  0
SCALE
  5
4F
102
{ACAD_REACTORS
330
47
102
}
330
47
100
AcDbScale
 70
     0
300
1:20
140
1.0
141
20.0
290
     0
  0
SCALE
  5
50
102
{ACAD_REACTORS
330
47
102
}
330
47
100
AcDbScale
 70
     0
300
1:30
140
1.0
141
30.0
290
     0
  0
SCALE
  5
51
102
{ACAD_REACTORS
330
47
102
}
330
47
100
AcDbScale
 70
     0
300
1:40
140
1.0
141
40.0
290
     0
  0
SCALE
  5
52
102
{ACAD_REACTORS
330
47
102
}
330
47
100
AcDbScale
 70
     0
300
1:50
140
1.0
141
50.0
290
     0
  0
SCALE
  5
53
102
{ACAD_REACTORS
330
47
102
}
330
47
100
AcDbScale
 70
     0
300
1:100
140
1.0
141
100.0
290
     0
  0
SCALE
  5
54
102
{ACAD_REACTORS
330
47
102
}
330
47
100
AcDbScale
 70
     0
300
2:1
140
2.0
141
1.0
290
     0
  0
SCALE
  5
55
102
{ACAD_REACTORS
330
47
102
}
330
47
100
AcDbScale
 70
     0
300
4:1
140
4.0
141
1.0
290
     0
  0
SCALE
  5
56
102
{ACAD_REACTORS
330
47
102
}
330
47
100
AcDbScale
 70
     0
300
8:1
140
8.0
141
1.0
290
     0
  0
SCALE
  5
57
102
{ACAD_REACTORS
330
47
102
}
330
47
100
AcDbScale
 70
     0
300
10:1
140
10.0
141
1.0
290
     0
  0
SCALE
  5
58
102
{ACAD_REACTORS
330
47
102
}
330
47
100
AcDbScale
 70
     0
300
100:1
140
100.0
141
1.0
290
     0
  0
SCALE
  5
59
102
{ACAD_REACTORS
330
47
102
}
330
47
100
AcDbScale
 70
     0
300
1/128" = 1'-0"
140
0.0078125
141
12.0
290
     0
  0
SCALE
  5
5A
102
{ACAD_REACTORS
330
47
102
}
330
47
100
AcDbScale
 70
     0
300
1/64" = 1'-0"
140
0.015625
141
12.0
290
     0
  0
SCALE
  5
5B
102
{ACAD_REACTORS
330
47
102
}
330
47
100
AcDbScale
 70
     0
300
1/32" = 1'-0"
140
0.03125
141
12.0
290
     0
  0
SCALE
  5
5C
102
{ACAD_REACTORS
330
47
102
}
330
47
100
AcDbScale
 70
     0
300
1/16" = 1'-0"
140
0.0625
141
12.0
290
     0
  0
SCALE
  5
5D
102
{ACAD_REACTORS
330
47
102
}
330
47
100
AcDbScale
 70
     0
300
3/32" = 1'-0"
140
0.09375
141
12.0
290
     0
  0
SCALE
  5
5E
102
{ACAD_REACTORS
330
47
102
}
330
47
100
AcDbScale
 70
     0
300
1/8" = 1'-0"
140
0.125
141
12.0
290
     0
  0
SCALE
  5
5F
102
{ACAD_REACTORS
330
47
102
}
330
47
100
AcDbScale
 70
     0
300
3/16" = 1'-0"
140
0.1875
141
12.0
290
     0
  0
SCALE
  5
60
102
{ACAD_REACTORS
330
47
102
}
330
47
100
AcDbScale
 70
     0
300
1/4" = 1'-0"
140
0.25
141
12.0
290
     0
  0
SCALE
  5
61
102
{ACAD_REACTORS
330
47
102
}
330
47
100
AcDbScale
 70
     0
300
3/8" = 1'-0"
140
0.375
141
12.0
290
     0
  0
SCALE
  5
62
102
{ACAD_REACTORS
330
47
102
}
330
47
100
AcDbScale
 70
     0
300
1/2" = 1'-0"
140
0.5
141
12.0
290
     0
  0
SCALE
  5
63
102
{ACAD_REACTORS
330
47
102
}
330
47
100
AcDbScale
 70
     0
300
3/4" = 1'-0"
140
0.75
141
12.0
290
     0
  0
SCALE
  5
64
102
{ACAD_REACTORS
330
47
102
}
330
47
100
AcDbScale
 70
     0
300
1" = 1'-0"
140
1.0
141
12.0
290
     0
  0
SCALE
  5
65
102
{ACAD_REACTORS
330
47
102
}
330
47
100
AcDbScale
 70
     0
300
1-1/2" = 1'-0"
140
1.5
141
12.0
290
     0
  0
SCALE
  5
66
102
{ACAD_REACTORS
330
47
102
}
330
47
100
AcDbScale
 70
     0
300
3" = 1'-0"
140
3.0
141
12.0
290
     0
  0
SCALE
  5
67
102
{ACAD_REACTORS
330
47
102
}
330
47
100
AcDbScale
 70
     0
300
6" = 1'-0"
140
6.0
141
12.0
290
     0
  0
SCALE
  5
68
102
{ACAD_REACTORS
330
47
102
}
330
47
100
AcDbScale
 70
     0
300
1'-0" = 1'-0"
140
12.0
141
12.0
290
     0
  0
TABLESTYLE
  5
6A
102
{ACAD_REACTORS
330
69
102
}
102
{ACAD_XDICTIONARY
360
191
102
}
330
69
100
AcDbTableStyle
  3
Standard
 70
     0
 71
     0
 40
0.06
 41
0.06
280
     0
281
     0
  7
Standard
140
0.18
170
     2
 62
     0
 63
   257
283
     0
 90
        4
 91
        0
  1

274
    -2
284
     1
 64
     0
275
    -2
285
     1
 65
     0
276
    -2
286
     1
 66
     0
277
    -2
287
     1
 67
     0
278
    -2
288
     1
 68
     0
279
    -2
289
     1
 69
     0
  7
Standard
140
0.25
170
     5
 62
     0
 63
   257
283
     0
 90
        4
 91
        0
  1

274
    -2
284
     1
 64
     0
275
    -2
285
     1
 65
     0
276
    -2
286
     1
 66
     0
277
    -2
287
     1
 67
     0
278
    -2
288
     1
 68
     0
279
    -2
289
     1
 69
     0
  7
Standard
140
0.18
170
     5
 62
     0
 63
   257
283
     0
 90
        4
 91
        0
  1

274
    -2
284
     1
 64
     0
275
    -2
285
     1
 65
     0
276
    -2
286
     1
 66
     0
277
    -2
287
     1
 67
     0
278
    -2
288
     1
 68
     0
279
    -2
289
     1
 69
     0
  0
VISUALSTYLE
  5
2F
102
{ACAD_REACTORS
330
2A
102
}
330
2A
100
AcDbVisualStyle
  2
2dWireframe
 70
     4
177
     3
291
     0
 70
    58
 90
        0
176
     1
 90
        2
176
     1
 90
        0
176
     1
 90
        0
176
     1
 40
0.6
176
     1
 40
30.0
176
     1
 62
     7
420
 16777215
176
     1
 90
        1
176
     1
 90
        4
176
     1
 62
     7
176
     1
 62
   257
176
     1
 90
        1
176
     1
 90
        1
176
     1
 40
1.0
176
     1
 90
        0
176
     1
 62
   257
176
     1
 40
1.0
176
     1
 90
        1
176
     1
 90
        6
176
     1
 90
        2
176
     1
 62
     7
176
     1
 90
        5
176
     1
 90
        0
176
     1
 90
        0
176
     1
290
     0
176
     1
 90
        1
176
     1
 40
0.0
176
     1
 90
        0
176
     1
290
     1
176
     1
290
     1
176
     1
290
     0
176
     1
290
     0
176
     1
290
     0
176
     1
290
     0
176
     1
290
     0
176
     1
290
     0
176
     1
290
     0
176
     1
 90
       50
176
     1
 40
0.0
176
     1
 40
1.0
176
     1
 90
        0
176
     1
 62
    18
420
        0
176
     1
 90
       50
176
     1
 90
        3
176
     1
 62
     5
420
      255
176
     1
290
     0
176
     1
 90
       50
176
     1
 90
       50
176
     1
 90
       50
176
     1
290
     0
176
     1
 90
       50
176
     1
 62
   256
176
     0
 40
1.0
176
     0
 90
        2
176
     1
  1
strokes_ogs.tif
176
     1
290
     0
176
     1
 40
1.0
176
     1
 40
1.0
176
     1
  0
VISUALSTYLE
  5
32
102
{ACAD_REACTORS
330
2A
102
}
330
2A
100
AcDbVisualStyle
  2
Basic
 70
     7
177
     3
291
     1
 70
    58
 90
        1
176
     1
 90
        0
176
     1
 90
        1
176
     1
 90
        0
176
     1
 40
0.6
176
     1
 40
30.0
176
     1
 62
     7
420
 16777215
176
     1
 90
        0
176
     1
 90
        4
176
     1
 62
     7
176
     1
 62
   257
176
     1
 90
        1
176
     1
 90
        1
176
     1
 40
1.0
176
     1
 90
        8
176
     1
 62
     7
176
     1
 40
1.0
176
     1
 90
        1
176
     1
 90
        6
176
     1
 90
        2
176
     1
 62
     7
176
     1
 90
        5
176
     1
 90
        0
176
     1
 90
        0
176
     1
290
     0
176
     1
 90
        1
176
     1
 40
0.0
176
     1
 90
        0
176
     1
290
     0
176
     1
290
     1
176
     1
290
     1
176
     1
290
     0
176
     1
290
     0
176
     1
290
     0
176
     1
290
     0
176
     1
290
     0
176
     1
290
     0
176
     1
 90
       50
176
     1
 40
0.0
176
     1
 40
1.0
176
     1
 90
        0
176
     1
 62
    18
420
        0
176
     1
 90
       50
176
     1
 90
        3
176
     1
 62
     5
420
      255
176
     1
290
     0
176
     1
 90
       50
176
     1
 90
       50
176
     1
 90
       50
176
     1
290
     0
176
     1
 90
       50
176
     1
 62
   256
176
     0
 40
1.0
176
     0
 90
        2
176
     1
  1
strokes_ogs.tif
176
     1
290
     0
176
     1
 40
1.0
176
     1
 40
1.0
176
     1
  0
VISUALSTYLE
  5
36
102
{ACAD_REACTORS
330
2A
102
}
330
2A
100
AcDbVisualStyle
  2
Brighten
 70
    12
177
     3
291
     1
 70
    58
 90
        2
176
     1
 90
        2
176
     1
 90
        0
176
     1
 90
        0
176
     1
 40
0.6
176
     1
 40
30.0
176
     1
 62
     7
420
 16777215
176
     1
 90
        1
176
     1
 90
        4
176
     1
 62
     7
176
     1
 62
   257
176
     1
 90
        1
176
     1
 90
        1
176
     1
 40
1.0
176
     1
 90
        8
176
     1
 62
     7
176
     1
 40
1.0
176
     1
 90
        1
176
     1
 90
        6
176
     1
 90
        2
176
     1
 62
     7
176
     1
 90
        5
176
     1
 90
        0
176
     1
 90
        0
176
     1
290
     0
176
     1
 90
        1
176
     1
 40
50.0
176
     1
 90
        0
176
     1
290
     0
176
     1
290
     1
176
     1
290
     1
176
     1
290
     0
176
     1
290
     0
176
     1
290
     0
176
     1
290
     0
176
     1
290
     0
176
     1
290
     0
176
     1
 90
       50
176
     1
 40
0.0
176
     1
 40
1.0
176
     1
 90
        0
176
     1
 62
    18
420
        0
176
     1
 90
       50
176
     1
 90
        3
176
     1
 62
     5
420
      255
176
     1
290
     0
176
     1
 90
       50
176
     1
 90
       50
176
     1
 90
       50
176
     1
290
     0
176
     1
 90
       50
176
     1
 62
   256
176
     0
 40
1.0
176
     0
 90
        2
176
     1
  1
strokes_ogs.tif
176
     1
290
     0
176
     1
 40
1.0
176
     1
 40
1.0
176
     1
  0
VISUALSTYLE
  5
3A
102
{ACAD_REACTORS
330
2A
102
}
330
2A
100
AcDbVisualStyle
  2
ColorChange
 70
    16
177
     3
291
     1
 70
    58
 90
        2
176
     1
 90
        2
176
     1
 90
        3
176
     1
 90
        0
176
     1
 40
0.6
176
     1
 40
30.0
176
     1
 62
     8
420
  8421504
176
     1
 90
        1
176
     1
 90
        4
176
     1
 62
     7
176
     1
 62
   257
176
     1
 90
        1
176
     1
 90
        1
176
     1
 40
1.0
176
     1
 90
        8
176
     1
 62
     8
420
  8421504
176
     1
 40
1.0
176
     1
 90
        1
176
     1
 90
        6
176
     1
 90
        2
176
     1
 62
     7
176
     1
 90
        5
176
     1
 90
        0
176
     1
 90
        0
176
     1
290
     0
176
     1
 90
        1
176
     1
 40
0.0
176
     1
 90
        0
176
     1
290
     0
176
     1
290
     1
176
     1
290
     1
176
     1
290
     0
176
     1
290
     0
176
     1
290
     0
176
     1
290
     0
176
     1
290
     0
176
     1
290
     0
176
     1
 90
       50
176
     1
 40
0.0
176
     1
 40
1.0
176
     1
 90
        0
176
     1
 62
    18
420
        0
176
     1
 90
       50
176
     1
 90
        3
176
     1
 62
     5
420
      255
176
     1
290
     0
176
     1
 90
       50
176
     1
 90
       50
176
     1
 90
       50
176
     1
290
     0
176
     1
 90
       50
176
     1
 62
   256
176
     0
 40
1.0
176
     0
 90
        2
176
     1
  1
strokes_ogs.tif
176
     1
290
     0
176
     1
 40
1.0
176
     1
 40
1.0
176
     1
  0
VISUALSTYLE
  5
34
102
{ACAD_REACTORS
330
2A
102
}
330
2A
100
AcDbVisualStyle
  2
Conceptual
 70
     9
177
     3
291
     0
 70
    58
 90
        3
176
     1
 90
        2
176
     1
 90
        0
176
     1
 90
        0
176
     1
 40
0.6
176
     1
 40
30.0
176
     1
 62
     7
420
 16777215
176
     1
 90
        2
176
     1
 90
        2
176
     1
 62
     7
176
     1
 62
   257
176
     1
 90
        1
176
     1
 90
        1
176
     1
 40
179.0
176
     1
 90
        8
176
     1
 62
     7
176
     1
 40
1.0
176
     1
 90
        1
176
     1
 90
        6
176
     1
 90
        2
176
     1
 62
     7
176
     1
 90
        3
176
     1
 90
        0
176
     1
 90
        0
176
     1
290
     0
176
     1
 90
        1
176
     1
 40
0.0
176
     1
 90
        0
176
     1
290
     0
176
     1
290
     1
176
     1
290
     1
176
     1
290
     0
176
     1
290
     0
176
     1
290
     0
176
     1
290
     0
176
     1
290
     0
176
     1
290
     0
176
     1
 90
       50
176
     1
 40
0.0
176
     1
 40
1.0
176
     1
 90
        0
176
     1
 62
    18
420
        0
176
     1
 90
       50
176
     1
 90
        3
176
     1
 62
     5
420
      255
176
     1
290
     0
176
     1
 90
       50
176
     1
 90
       50
176
     1
 90
       50
176
     1
290
     0
176
     1
 90
       50
176
     1
 62
   256
176
     0
 40
1.0
176
     0
 90
        2
176
     1
  1
strokes_ogs.tif
176
     1
290
     0
176
     1
 40
1.0
176
     1
 40
1.0
176
     1
  0
VISUALSTYLE
  5
35
102
{ACAD_REACTORS
330
2A
102
}
330
2A
100
AcDbVisualStyle
  2
Dim
 70
    11
177
     3
291
     1
 70
    58
 90
        2
176
     1
 90
        2
176
     1
 90
        0
176
     1
 90
        0
176
     1
 40
0.6
176
     1
 40
30.0
176
     1
 62
     7
420
 16777215
176
     1
 90
        1
176
     1
 90
        4
176
     1
 62
     7
176
     1
 62
   257
176
     1
 90
        1
176
     1
 90
        1
176
     1
 40
1.0
176
     1
 90
        8
176
     1
 62
     7
176
     1
 40
1.0
176
     1
 90
        1
176
     1
 90
        6
176
     1
 90
        2
176
     1
 62
     7
176
     1
 90
        5
176
     1
 90
        0
176
     1
 90
        0
176
     1
290
     0
176
     1
 90
        1
176
     1
 40
-50.0
176
     1
 90
        0
176
     1
290
     0
176
     1
290
     1
176
     1
290
     1
176
     1
290
     0
176
     1
290
     0
176
     1
290
     0
176
     1
290
     0
176
     1
290
     0
176
     1
290
     0
176
     1
 90
       50
176
     1
 40
0.0
176
     1
 40
1.0
176
     1
 90
        0
176
     1
 62
    18
420
        0
176
     1
 90
       50
176
     1
 90
        3
176
     1
 62
     5
420
      255
176
     1
290
     0
176
     1
 90
       50
176
     1
 90
       50
176
     1
 90
       50
176
     1
290
     0
176
     1
 90
       50
176
     1
 62
   256
176
     0
 40
1.0
176
     0
 90
        2
176
     1
  1
strokes_ogs.tif
176
     1
290
     0
176
     1
 40
1.0
176
     1
 40
1.0
176
     1
  0
VISUALSTYLE
  5
3D
102
{ACAD_REACTORS
330
2A
102
}
330
2A
100
AcDbVisualStyle
  2
EdgeColorOff
 70
    22
177
     3
291
     1
 70
    58
 90
        2
176
     0
 90
        2
176
     0
 90
        0
176
     0
 90
        0
176
     0
 40
0.6
176
     0
 40
30.0
176
     0
 62
     7
420
 16777215
176
     0
 90
        1
176
     0
 90
        4
176
     0
 62
     7
176
     0
 62
   257
176
     0
 90
        1
176
     0
 90
        1
176
     0
 40
1.0
176
     0
 90
        8
176
     2
 62
     7
176
     0
 40
1.0
176
     0
 90
        1
176
     0
 90
        6
176
     0
 90
        2
176
     0
 62
     7
176
     0
 90
        5
176
     0
 90
        0
176
     0
 90
        0
176
     0
290
     0
176
     0
 90
        1
176
     0
 40
0.0
176
     0
 90
        0
176
     0
290
     0
176
     0
290
     1
176
     0
290
     1
176
     0
290
     0
176
     0
290
     0
176
     0
290
     0
176
     0
290
     0
176
     0
290
     0
176
     0
290
     0
176
     0
 90
       50
176
     0
 40
0.0
176
     0
 40
1.0
176
     0
 90
        0
176
     0
 62
    18
420
        0
176
     0
 90
       50
176
     0
 90
        3
176
     0
 62
     5
420
      255
176
     0
290
     0
176
     0
 90
       50
176
     0
 90
       50
176
     0
 90
       50
176
     0
290
     0
176
     0
 90
       50
176
     0
 62
   256
176
     0
 40
1.0
176
     0
 90
        2
176
     0
  1
strokes_ogs.tif
176
     0
290
     0
176
     0
 40
1.0
176
     0
 40
1.0
176
     0
  0
VISUALSTYLE
  5
39
102
{ACAD_REACTORS
330
2A
102
}
330
2A
100
AcDbVisualStyle
  2
Facepattern
 70
    15
177
     3
291
     1
 70
    58
 90
        2
176
     1
 90
        2
176
     1
 90
        0
176
     1
 90
        0
176
     1
 40
0.6
176
     1
 40
30.0
176
     1
 62
     7
420
 16777215
176
     1
 90
        1
176
     1
 90
        4
176
     1
 62
     7
176
     1
 62
   257
176
     1
 90
        1
176
     1
 90
        1
176
     1
 40
1.0
176
     1
 90
        8
176
     1
 62
     7
176
     1
 40
1.0
176
     1
 90
        1
176
     1
 90
        6
176
     1
 90
        2
176
     1
 62
     7
176
     1
 90
        5
176
     1
 90
        0
176
     1
 90
        0
176
     1
290
     0
176
     1
 90
        1
176
     1
 40
0.0
176
     1
 90
        0
176
     1
290
     0
176
     1
290
     1
176
     1
290
     1
176
     1
290
     0
176
     1
290
     0
176
     1
290
     0
176
     1
290
     0
176
     1
290
     0
176
     1
290
     0
176
     1
 90
       50
176
     1
 40
0.0
176
     1
 40
1.0
176
     1
 90
        0
176
     1
 62
    18
420
        0
176
     1
 90
       50
176
     1
 90
        3
176
     1
 62
     5
420
      255
176
     1
290
     0
176
     1
 90
       50
176
     1
 90
       50
176
     1
 90
       50
176
     1
290
     0
176
     1
 90
       50
176
     1
 62
   256
176
     0
 40
1.0
176
     0
 90
        2
176
     1
  1
strokes_ogs.tif
176
     1
290
     0
176
     1
 40
1.0
176
     1
 40
1.0
176
     1
  0
VISUALSTYLE
  5
2B
102
{ACAD_REACTORS
330
2A
102
}
330
2A
100
AcDbVisualStyle
  2
Flat
 70
     0
177
     3
291
     1
 70
    58
 90
        2
176
     1
 90
        1
176
     1
 90
        1
176
     1
 90
        2
176
     1
 40
0.6
176
     1
 40
30.0
176
     1
 62
     7
420
 16777215
176
     1
 90
        0
176
     1
 90
        0
176
     1
 62
     7
176
     1
 62
   257
176
     1
 90
        1
176
     1
 90
        1
176
     1
 40
1.0
176
     1
 90
        8
176
     1
 62
     7
176
     1
 40
1.0
176
     1
 90
        1
176
     1
 90
        6
176
     1
 90
        2
176
     1
 62
     7
176
     1
 90
        5
176
     1
 90
        0
176
     1
 90
        0
176
     1
290
     0
176
     1
 90
       13
176
     1
 40
0.0
176
     1
 90
        0
176
     1
290
     0
176
     1
290
     1
176
     1
290
     1
176
     1
290
     0
176
     1
290
     0
176
     1
290
     0
176
     1
290
     0
176
     1
290
     0
176
     1
290
     0
176
     1
 90
       50
176
     1
 40
0.0
176
     1
 40
1.0
176
     1
 90
        0
176
     1
 62
    18
420
        0
176
     1
 90
       50
176
     1
 90
        3
176
     1
 62
     5
420
      255
176
     1
290
     0
176
     1
 90
       50
176
     1
 90
       50
176
     1
 90
       50
176
     1
290
     0
176
     1
 90
       50
176
     1
 62
   256
176
     0
 40
1.0
176
     0
 90
        2
176
     1
  1
strokes_ogs.tif
176
     1
290
     0
176
     1
 40
1.0
176
     1
 40
1.0
176
     1
  0
VISUALSTYLE
  5
2C
102
{ACAD_REACTORS
330
2A
102
}
330
2A
100
AcDbVisualStyle
  2
FlatWithEdges
 70
     1
177
     3
291
     1
 70
    58
 90
        2
176
     1
 90
        1
176
     1
 90
        1
176
     1
 90
        2
176
     1
 40
0.6
176
     1
 40
30.0
176
     1
 62
     7
420
 16777215
176
     1
 90
        1
176
     1
 90
        0
176
     1
 62
     7
176
     1
 62
   257
176
     1
 90
        1
176
     1
 90
        1
176
     1
 40
1.0
176
     1
 90
        0
176
     1
 62
   257
176
     1
 40
1.0
176
     1
 90
        1
176
     1
 90
        6
176
     1
 90
        2
176
     1
 62
     7
176
     1
 90
        5
176
     1
 90
        0
176
     1
 90
        0
176
     1
290
     0
176
     1
 90
       13
176
     1
 40
0.0
176
     1
 90
        0
176
     1
290
     0
176
     1
290
     1
176
     1
290
     1
176
     1
290
     0
176
     1
290
     0
176
     1
290
     0
176
     1
290
     0
176
     1
290
     0
176
     1
290
     0
176
     1
 90
       50
176
     1
 40
0.0
176
     1
 40
1.0
176
     1
 90
        0
176
     1
 62
    18
420
        0
176
     1
 90
       50
176
     1
 90
        3
176
     1
 62
     5
420
      255
176
     1
290
     0
176
     1
 90
       50
176
     1
 90
       50
176
     1
 90
       50
176
     1
290
     0
176
     1
 90
       50
176
     1
 62
   256
176
     0
 40
1.0
176
     0
 90
        2
176
     1
  1
strokes_ogs.tif
176
     1
290
     0
176
     1
 40
1.0
176
     1
 40
1.0
176
     1
  0
VISUALSTYLE
  5
2D
102
{ACAD_REACTORS
330
2A
102
}
330
2A
100
AcDbVisualStyle
  2
Gouraud
 70
     2
177
     3
291
     1
 70
    58
 90
        2
176
     1
 90
        2
176
     1
 90
        1
176
     1
 90
        2
176
     1
 40
0.6
176
     1
 40
30.0
176
     1
 62
     7
420
 16777215
176
     1
 90
        0
176
     1
 90
        0
176
     1
 62
     7
176
     1
 62
   257
176
     1
 90
        1
176
     1
 90
        1
176
     1
 40
1.0
176
     1
 90
        0
176
     1
 62
     7
176
     1
 40
1.0
176
     1
 90
        1
176
     1
 90
        6
176
     1
 90
        2
176
     1
 62
     7
176
     1
 90
        5
176
     1
 90
        0
176
     1
 90
        0
176
     1
290
     0
176
     1
 90
       13
176
     1
 40
0.0
176
     1
 90
        0
176
     1
290
     0
176
     1
290
     1
176
     1
290
     1
176
     1
290
     0
176
     1
290
     0
176
     1
290
     0
176
     1
290
     0
176
     1
290
     0
176
     1
290
     0
176
     1
 90
       50
176
     1
 40
0.0
176
     1
 40
1.0
176
     1
 90
        0
176
     1
 62
    18
420
        0
176
     1
 90
       50
176
     1
 90
        3
176
     1
 62
     5
420
      255
176
     1
290
     0
176
     1
 90
       50
176
     1
 90
       50
176
     1
 90
       50
176
     1
290
     0
176
     1
 90
       50
176
     1
 62
   256
176
     0
 40
1.0
176
     0
 90
        2
176
     1
  1
strokes_ogs.tif
176
     1
290
     0
176
     1
 40
1.0
176
     1
 40
1.0
176
     1
  0
VISUALSTYLE
  5
2E
102
{ACAD_REACTORS
330
2A
102
}
330
2A
100
AcDbVisualStyle
  2
GouraudWithEdges
 70
     3
177
     3
291
     1
 70
    58
 90
        2
176
     1
 90
        2
176
     1
 90
        1
176
     1
 90
        2
176
     1
 40
0.6
176
     1
 40
30.0
176
     1
 62
     7
420
 16777215
176
     1
 90
        1
176
     1
 90
        0
176
     1
 62
     7
176
     1
 62
   257
176
     1
 90
        1
176
     1
 90
        1
176
     1
 40
1.0
176
     1
 90
        0
176
     1
 62
   257
176
     1
 40
1.0
176
     1
 90
        1
176
     1
 90
        6
176
     1
 90
        2
176
     1
 62
     7
176
     1
 90
        5
176
     1
 90
        0
176
     1
 90
        0
176
     1
290
     0
176
     1
 90
       13
176
     1
 40
0.0
176
     1
 90
        0
176
     1
290
     0
176
     1
290
     1
176
     1
290
     1
176
     1
290
     0
176
     1
290
     0
176
     1
290
     0
176
     1
290
     0
176
     1
290
     0
176
     1
290
     0
176
     1
 90
       50
176
     1
 40
0.0
176
     1
 40
1.0
176
     1
 90
        0
176
     1
 62
    18
420
        0
176
     1
 90
       50
176
     1
 90
        3
176
     1
 62
     5
420
      255
176
     1
290
     0
176
     1
 90
       50
176
     1
 90
       50
176
     1
 90
       50
176
     1
290
     0
176
     1
 90
       50
176
     1
 62
   256
176
     0
 40
1.0
176
     0
 90
        2
176
     1
  1
strokes_ogs.tif
176
     1
290
     0
176
     1
 40
1.0
176
     1
 40
1.0
176
     1
  0
VISUALSTYLE
  5
31
102
{ACAD_REACTORS
330
2A
102
}
330
2A
100
AcDbVisualStyle
  2
Hidden
 70
     6
177
     3
291
     0
 70
    58
 90
        1
176
     1
 90
        2
176
     1
 90
        2
176
     1
 90
        0
176
     1
 40
0.6
176
     1
 40
30.0
176
     1
 62
     7
420
 16777215
176
     1
 90
        2
176
     1
 90
        2
176
     1
 62
     7
176
     1
 62
   257
176
     1
 90
        2
176
     1
 90
        1
176
     1
 40
40.0
176
     1
 90
        0
176
     1
 62
   257
176
     1
 40
1.0
176
     1
 90
        1
176
     1
 90
        6
176
     1
 90
        2
176
     1
 62
     7
176
     1
 90
        3
176
     1
 90
        0
176
     1
 90
        0
176
     1
290
     0
176
     1
 90
        1
176
     1
 40
0.0
176
     1
 90
        0
176
     1
290
     0
176
     1
290
     1
176
     1
290
     1
176
     1
290
     0
176
     1
290
     0
176
     1
290
     0
176
     1
290
     0
176
     1
290
     0
176
     1
290
     0
176
     1
 90
       50
176
     1
 40
0.0
176
     1
 40
1.0
176
     1
 90
        0
176
     1
 62
    18
420
        0
176
     1
 90
       50
176
     1
 90
        3
176
     1
 62
     5
420
      255
176
     1
290
     0
176
     1
 90
       50
176
     1
 90
       50
176
     1
 90
       50
176
     1
290
     0
176
     1
 90
       50
176
     1
 62
   256
176
     0
 40
1.0
176
     0
 90
        2
176
     1
  1
strokes_ogs.tif
176
     1
290
     0
176
     1
 40
1.0
176
     1
 40
1.0
176
     1
  0
VISUALSTYLE
  5
3B
102
{ACAD_REACTORS
330
2A
102
}
330
2A
100
AcDbVisualStyle
  2
JitterOff
 70
    20
177
     3
291
     1
 70
    58
 90
        2
176
     0
 90
        2
176
     0
 90
        0
176
     0
 90
        0
176
     0
 40
0.6
176
     0
 40
30.0
176
     0
 62
     7
420
 16777215
176
     0
 90
        1
176
     0
 90
        4
176
     0
 62
     7
176
     0
 62
   257
176
     0
 90
        1
176
     0
 90
        1
176
     0
 40
1.0
176
     0
 90
       10
176
     2
 62
     7
176
     0
 40
1.0
176
     0
 90
        1
176
     0
 90
        6
176
     0
 90
        2
176
     0
 62
     7
176
     0
 90
        5
176
     0
 90
        0
176
     0
 90
        0
176
     0
290
     0
176
     0
 90
        1
176
     0
 40
0.0
176
     0
 90
        0
176
     0
290
     0
176
     0
290
     1
176
     0
290
     1
176
     0
290
     0
176
     0
290
     0
176
     0
290
     0
176
     0
290
     0
176
     0
290
     0
176
     0
290
     0
176
     0
 90
       50
176
     0
 40
0.0
176
     0
 40
1.0
176
     0
 90
        0
176
     0
 62
    18
420
        0
176
     0
 90
       50
176
     0
 90
        3
176
     0
 62
     5
420
      255
176
     0
290
     0
176
     0
 90
       50
176
     0
 90
       50
176
     0
 90
       50
176
     0
290
     0
176
     0
 90
       50
176
     0
 62
   256
176
     0
 40
1.0
176
     0
 90
        2
176
     0
  1
strokes_ogs.tif
176
     0
290
     0
176
     0
 40
1.0
176
     0
 40
1.0
176
     0
  0
VISUALSTYLE
  5
38
102
{ACAD_REACTORS
330
2A
102
}
330
2A
100
AcDbVisualStyle
  2
Linepattern
 70
    14
177
     3
291
     1
 70
    58
 90
        2
176
     1
 90
        2
176
     1
 90
        0
176
     1
 90
        0
176
     1
 40
0.6
176
     1
 40
30.0
176
     1
 62
     7
420
 16777215
176
     1
 90
        1
176
     1
 90
        4
176
     1
 62
     7
176
     1
 62
   257
176
     1
 90
        7
176
     1
 90
        7
176
     1
 40
1.0
176
     1
 90
        8
176
     1
 62
     7
176
     1
 40
1.0
176
     1
 90
        1
176
     1
 90
        6
176
     1
 90
        2
176
     1
 62
     7
176
     1
 90
        5
176
     1
 90
        0
176
     1
 90
        0
176
     1
290
     0
176
     1
 90
        1
176
     1
 40
0.0
176
     1
 90
        0
176
     1
290
     0
176
     1
290
     1
176
     1
290
     1
176
     1
290
     0
176
     1
290
     0
176
     1
290
     0
176
     1
290
     0
176
     1
290
     0
176
     1
290
     0
176
     1
 90
       50
176
     1
 40
0.0
176
     1
 40
1.0
176
     1
 90
        0
176
     1
 62
    18
420
        0
176
     1
 90
       50
176
     1
 90
        3
176
     1
 62
     5
420
      255
176
     1
290
     0
176
     1
 90
       50
176
     1
 90
       50
176
     1
 90
       50
176
     1
290
     0
176
     1
 90
       50
176
     1
 62
   256
176
     0
 40
1.0
176
     0
 90
        2
176
     1
  1
strokes_ogs.tif
176
     1
290
     0
176
     1
 40
1.0
176
     1
 40
1.0
176
     1
  0
VISUALSTYLE
  5
3C
102
{ACAD_REACTORS
330
2A
102
}
330
2A
100
AcDbVisualStyle
  2
OverhangOff
 70
    21
177
     3
291
     1
 70
    58
 90
        2
176
     0
 90
        2
176
     0
 90
        0
176
     0
 90
        0
176
     0
 40
0.6
176
     0
 40
30.0
176
     0
 62
     7
420
 16777215
176
     0
 90
        1
176
     0
 90
        4
176
     0
 62
     7
176
     0
 62
   257
176
     0
 90
        1
176
     0
 90
        1
176
     0
 40
1.0
176
     0
 90
        9
176
     2
 62
     7
176
     0
 40
1.0
176
     0
 90
        1
176
     0
 90
        6
176
     0
 90
        2
176
     0
 62
     7
176
     0
 90
        5
176
     0
 90
        0
176
     0
 90
        0
176
     0
290
     0
176
     0
 90
        1
176
     0
 40
0.0
176
     0
 90
        0
176
     0
290
     0
176
     0
290
     1
176
     0
290
     1
176
     0
290
     0
176
     0
290
     0
176
     0
290
     0
176
     0
290
     0
176
     0
290
     0
176
     0
290
     0
176
     0
 90
       50
176
     0
 40
0.0
176
     0
 40
1.0
176
     0
 90
        0
176
     0
 62
    18
420
        0
176
     0
 90
       50
176
     0
 90
        3
176
     0
 62
     5
420
      255
176
     0
290
     0
176
     0
 90
       50
176
     0
 90
       50
176
     0
 90
       50
176
     0
290
     0
176
     0
 90
       50
176
     0
 62
   256
176
     0
 40
1.0
176
     0
 90
        2
176
     0
  1
strokes_ogs.tif
176
     0
290
     0
176
     0
 40
1.0
176
     0
 40
1.0
176
     0
  0
VISUALSTYLE
  5
33
102
{ACAD_REACTORS
330
2A
102
}
330
2A
100
AcDbVisualStyle
  2
Realistic
 70
     8
177
     3
291
     0
 70
    58
 90
        2
176
     1
 90
        3
176
     1
 90
        0
176
     1
 90
        2
176
     1
 40
0.6
176
     1
 40
30.0
176
     1
 62
     7
420
 16777215
176
     1
 90
        0
176
     1
 90
        0
176
     1
 62
     7
176
     1
 62
   257
176
     1
 90
        1
176
     1
 90
        1
176
     1
 40
1.0
176
     1
 90
        8
176
     1
 62
   257
176
     1
 40
1.0
176
     1
 90
        1
176
     1
 90
        6
176
     1
 90
        2
176
     1
 62
     7
176
     1
 90
        3
176
     1
 90
        0
176
     1
 90
        0
176
     1
290
     0
176
     1
 90
       13
176
     1
 40
0.0
176
     1
 90
        0
176
     1
290
     0
176
     1
290
     1
176
     1
290
     1
176
     1
290
     0
176
     1
290
     0
176
     1
290
     0
176
     1
290
     0
176
     1
290
     0
176
     1
290
     0
176
     1
 90
       50
176
     1
 40
0.0
176
     1
 40
1.0
176
     1
 90
        0
176
     1
 62
    18
420
        0
176
     1
 90
       50
176
     1
 90
        3
176
     1
 62
     5
420
      255
176
     1
290
     0
176
     1
 90
       50
176
     1
 90
       50
176
     1
 90
       50
176
     1
290
     0
176
     1
 90
       50
176
     1
 62
   256
176
     0
 40
1.0
176
     0
 90
        2
176
     1
  1
strokes_ogs.tif
176
     1
290
     0
176
     1
 40
1.0
176
     1
 40
1.0
176
     1
  0
VISUALSTYLE
  5
42
102
{ACAD_REACTORS
330
2A
102
}
330
2A
100
AcDbVisualStyle
  2
Shaded
 70
    27
177
     3
291
     0
 70
    58
 90
        2
176
     1
 90
        2
176
     1
 90
        1
176
     1
 90
        2
176
     1
 40
0.6
176
     1
 40
30.0
176
     1
 62
     7
420
 16777215
176
     1
 90
        0
176
     1
 90
        4
176
     1
 62
     7
176
     1
 62
   257
176
     1
 90
        1
176
     1
 90
        1
176
     1
 40
1.0
176
     1
 90
        8
176
     1
 62
   257
176
     1
 40
1.0
176
     1
 90
        1
176
     1
 90
        6
176
     1
 90
        2
176
     1
 62
     8
420
  7895160
176
     1
 90
        3
176
     1
 90
        0
176
     1
 90
        0
176
     1
290
     0
176
     1
 90
        5
176
     1
 40
0.0
176
     1
 90
        0
176
     1
290
     0
176
     1
290
     1
176
     1
290
     1
176
     1
290
     0
176
     1
290
     0
176
     1
290
     0
176
     1
290
     0
176
     1
290
     0
176
     1
290
     0
176
     1
 90
       50
176
     1
 40
0.0
176
     1
 40
1.0
176
     1
 90
        0
176
     1
 62
    18
420
        0
176
     1
 90
       50
176
     1
 90
        3
176
     1
 62
     5
420
      255
176
     1
290
     0
176
     1
 90
       50
176
     1
 90
       50
176
     1
 90
       50
176
     1
290
     0
176
     1
 90
       50
176
     1
 62
   256
176
     0
 40
1.0
176
     0
 90
        2
176
     1
  1
strokes_ogs.tif
176
     1
290
     0
176
     1
 40
1.0
176
     1
 40
1.0
176
     1
  0
VISUALSTYLE
  5
41
102
{ACAD_REACTORS
330
2A
102
}
330
2A
100
AcDbVisualStyle
  2
Shaded with edges
 70
    26
177
     3
291
     0
 70
    58
 90
        2
176
     1
 90
        2
176
     1
 90
        1
176
     1
 90
        2
176
     1
 40
0.6
176
     1
 40
30.0
176
     1
 62
     7
420
 16777215
176
     1
 90
        1
176
     1
 90
       10
176
     1
 62
     7
176
     1
 62
   257
176
     1
 90
        2
176
     1
 90
        1
176
     1
 40
1.0
176
     1
 90
        8
176
     1
 62
   257
176
     1
 40
1.0
176
     1
 90
        1
176
     1
 90
        6
176
     1
 90
        2
176
     1
 62
     7
176
     1
 90
        3
176
     1
 90
        0
176
     1
 90
        0
176
     1
290
     0
176
     1
 90
        5
176
     1
 40
0.0
176
     1
 90
        0
176
     1
290
     0
176
     1
290
     1
176
     1
290
     1
176
     1
290
     0
176
     1
290
     0
176
     1
290
     0
176
     1
290
     0
176
     1
290
     0
176
     1
290
     0
176
     1
 90
       50
176
     1
 40
0.0
176
     1
 40
1.0
176
     1
 90
        0
176
     1
 62
    18
420
        0
176
     1
 90
       50
176
     1
 90
        3
176
     1
 62
     5
420
      255
176
     1
290
     0
176
     1
 90
       50
176
     1
 90
       50
176
     1
 90
       50
176
     1
290
     0
176
     1
 90
       50
176
     1
 62
   256
176
     0
 40
1.0
176
     0
 90
        2
176
     1
  1
strokes_ogs.tif
176
     1
290
     0
176
     1
 40
1.0
176
     1
 40
1.0
176
     1
  0
VISUALSTYLE
  5
3E
102
{ACAD_REACTORS
330
2A
102
}
330
2A
100
AcDbVisualStyle
  2
Shades of Gray
 70
    23
177
     3
291
     0
 70
    58
 90
        2
176
     1
 90
        2
176
     1
 90
        3
176
     1
 90
        0
176
     1
 40
0.6
176
     1
 40
30.0
176
     1
 62
     7
420
 16777215
176
     1
 90
        2
176
     1
 90
        2
176
     1
 62
     7
176
     1
 62
     7
176
     1
 90
        1
176
     1
 90
        1
176
     1
 40
40.0
176
     1
 90
        8
176
     1
 62
     7
176
     1
 40
1.0
176
     1
 90
        1
176
     1
 90
        6
176
     1
 90
        2
176
     1
 62
     7
176
     1
 90
        3
176
     1
 90
        0
176
     1
 90
        0
176
     1
290
     0
176
     1
 90
        1
176
     1
 40
0.0
176
     1
 90
        0
176
     1
290
     0
176
     1
290
     1
176
     1
290
     1
176
     1
290
     0
176
     1
290
     0
176
     1
290
     0
176
     1
290
     0
176
     1
290
     0
176
     1
290
     0
176
     1
 90
       50
176
     1
 40
0.0
176
     1
 40
1.0
176
     1
 90
        0
176
     1
 62
    18
420
        0
176
     1
 90
       50
176
     1
 90
        3
176
     1
 62
     5
420
      255
176
     1
290
     0
176
     1
 90
       50
176
     1
 90
       50
176
     1
 90
       50
176
     1
290
     0
176
     1
 90
       50
176
     1
 62
   256
176
     0
 40
1.0
176
     0
 90
        2
176
     1
  1
strokes_ogs.tif
176
     1
290
     0
176
     1
 40
1.0
176
     1
 40
1.0
176
     1
  0
VISUALSTYLE
  5
3F
102
{ACAD_REACTORS
330
2A
102
}
330
2A
100
AcDbVisualStyle
  2
Sketchy
 70
    24
177
     3
291
     0
 70
    58
 90
        1
176
     1
 90
        2
176
     1
 90
        2
176
     1
 90
        0
176
     1
 40
0.6
176
     1
 40
30.0
176
     1
 62
     7
420
 16777215
176
     1
 90
        2
176
     1
 90
        2
176
     1
 62
     7
176
     1
 62
     7
176
     1
 90
        1
176
     1
 90
        1
176
     1
 40
40.0
176
     1
 90
       11
176
     1
 62
     7
176
     1
 40
1.0
176
     1
 90
        1
176
     1
 90
        6
176
     1
 90
        2
176
     1
 62
     7
176
     1
 90
        6
176
     1
 90
        0
176
     1
 90
        0
176
     1
290
     0
176
     1
 90
        1
176
     1
 40
0.0
176
     1
 90
        0
176
     1
290
     0
176
     1
290
     1
176
     1
290
     1
176
     1
290
     0
176
     1
290
     0
176
     1
290
     0
176
     1
290
     0
176
     1
290
     0
176
     1
290
     0
176
     1
 90
       50
176
     1
 40
0.0
176
     1
 40
1.0
176
     1
 90
        0
176
     1
 62
    18
420
        0
176
     1
 90
       50
176
     1
 90
        3
176
     1
 62
     5
420
      255
176
     1
290
     0
176
     1
 90
       50
176
     1
 90
       50
176
     1
 90
       50
176
     1
290
     0
176
     1
 90
       50
176
     1
 62
   256
176
     0
 40
1.0
176
     0
 90
        2
176
     1
  1
strokes_ogs.tif
176
     1
290
     0
176
     1
 40
1.0
176
     1
 40
1.0
176
     1
  0
VISUALSTYLE
  5
37
102
{ACAD_REACTORS
330
2A
102
}
330
2A
100
AcDbVisualStyle
  2
Thicken
 70
    13
177
     3
291
     1
 70
    58
 90
        2
176
     1
 90
        2
176
     1
 90
        0
176
     1
 90
        0
176
     1
 40
0.6
176
     1
 40
30.0
176
     1
 62
     7
420
 16777215
176
     1
 90
        1
176
     1
 90
        4
176
     1
 62
     7
176
     1
 62
   257
176
     1
 90
        1
176
     1
 90
        1
176
     1
 40
1.0
176
     1
 90
       12
176
     1
 62
     7
176
     1
 40
1.0
176
     1
 90
        1
176
     1
 90
        6
176
     1
 90
        2
176
     1
 62
     7
176
     1
 90
        5
176
     1
 90
        0
176
     1
 90
        0
176
     1
290
     0
176
     1
 90
        1
176
     1
 40
0.0
176
     1
 90
        0
176
     1
290
     0
176
     1
290
     1
176
     1
290
     1
176
     1
290
     0
176
     1
290
     0
176
     1
290
     0
176
     1
290
     0
176
     1
290
     0
176
     1
290
     0
176
     1
 90
       50
176
     1
 40
0.0
176
     1
 40
1.0
176
     1
 90
        0
176
     1
 62
    18
420
        0
176
     1
 90
       50
176
     1
 90
        3
176
     1
 62
     5
420
      255
176
     1
290
     0
176
     1
 90
       50
176
     1
 90
       50
176
     1
 90
       50
176
     1
290
     0
176
     1
 90
       50
176
     1
 62
   256
176
     0
 40
1.0
176
     0
 90
        2
176
     1
  1
strokes_ogs.tif
176
     1
290
     0
176
     1
 40
1.0
176
     1
 40
1.0
176
     1
  0
VISUALSTYLE
  5
30
102
{ACAD_REACTORS
330
2A
102
}
330
2A
100
AcDbVisualStyle
  2
Wireframe
 70
     5
177
     3
291
     0
 70
    58
 90
        0
176
     1
 90
        2
176
     1
 90
        0
176
     1
 90
        0
176
     1
 40
0.6
176
     1
 40
30.0
176
     1
 62
     7
420
 16777215
176
     1
 90
        1
176
     1
 90
        4
176
     1
 62
     7
176
     1
 62
   257
176
     1
 90
        1
176
     1
 90
        1
176
     1
 40
1.0
176
     1
 90
        0
176
     1
 62
   257
176
     1
 40
1.0
176
     1
 90
        1
176
     1
 90
        6
176
     1
 90
        2
176
     1
 62
     7
176
     1
 90
        3
176
     1
 90
        0
176
     1
 90
        0
176
     1
290
     0
176
     1
 90
        1
176
     1
 40
0.0
176
     1
 90
        0
176
     1
290
     0
176
     1
290
     1
176
     1
290
     1
176
     1
290
     0
176
     1
290
     0
176
     1
290
     0
176
     1
290
     0
176
     1
290
     0
176
     1
290
     0
176
     1
 90
       50
176
     1
 40
0.0
176
     1
 40
1.0
176
     1
 90
        0
176
     1
 62
    18
420
        0
176
     1
 90
       50
176
     1
 90
        3
176
     1
 62
     5
420
      255
176
     1
290
     0
176
     1
 90
       50
176
     1
 90
       50
176
     1
 90
       50
176
     1
290
     0
176
     1
 90
       50
176
     1
 62
   256
176
     0
 40
1.0
176
     0
 90
        2
176
     1
  1
strokes_ogs.tif
176
     1
290
     0
176
     1
 40
1.0
176
     1
 40
1.0
176
     1
  0
VISUALSTYLE
  5
40
102
{ACAD_REACTORS
330
2A
102
}
330
2A
100
AcDbVisualStyle
  2
X-Ray
 70
    25
177
     3
291
     0
 70
    58
 90
        2
176
     1
 90
        2
176
     1
 90
        1
176
     1
 90
        1
176
     1
 40
0.5
176
     1
 40
30.0
176
     1
 62
     7
420
 16777215
176
     1
 90
        1
176
     1
 90
        0
176
     1
 62
     7
176
     1
 62
   257
176
     1
 90
        1
176
     1
 90
        1
176
     1
 40
1.0
176
     1
 90
        8
176
     1
 62
     7
176
     1
 40
1.0
176
     1
 90
        1
176
     1
 90
        6
176
     1
 90
        2
176
     1
 62
     7
176
     1
 90
        3
176
     1
 90
        0
176
     1
 90
        0
176
     1
290
     0
176
     1
 90
       13
176
     1
 40
0.0
176
     1
 90
        0
176
     1
290
     0
176
     1
290
     1
176
     1
290
     1
176
     1
290
     0
176
     1
290
     0
176
     1
290
     0
176
     1
290
     0
176
     1
290
     0
176
     1
290
     0
176
     1
 90
       50
176
     1
 40
0.0
176
     1
 40
1.0
176
     1
 90
        0
176
     1
 62
    18
420
        0
176
     1
 90
       50
176
     1
 90
        3
176
     1
 62
     5
420
      255
176
     1
290
     0
176
     1
 90
       50
176
     1
 90
       50
176
     1
 90
       50
176
     1
290
     0
176
     1
 90
       50
176
     1
 62
   256
176
     0
 40
1.0
176
     0
 90
        2
176
     1
  1
strokes_ogs.tif
176
     1
290
     0
176
     1
 40
1.0
176
     1
 40
1.0
176
     1
  0
DICTIONARYVAR
  5
190
102
{ACAD_REACTORS
330
18F
102
}
330
18F
100
DictionaryVariables
280
     0
  1
1:1
  0
DICTIONARYVAR
  5
195
102
{ACAD_REACTORS
330
18F
102
}
330
18F
100
DictionaryVariables
280
     0
  1
Standard
  0
DICTIONARYVAR
  5
194
102
{ACAD_REACTORS
330
18F
102
}
330
18F
100
DictionaryVariables
280
     0
  1
Standard
  0
DICTIONARY
  5
191
330
6A
100
AcDbDictionary
280
     1
281
     1
  3
ACAD_ROUNDTRIP_2008_TABLESTYLE_CELLSTYLEMAP
360
192
  0
CELLSTYLEMAP
  5
192
102
{ACAD_REACTORS
330
191
102
}
330
191
100
AcDbCellStyleMap
 90
        3
300
CELLSTYLE
  1
TABLEFORMAT_BEGIN
 90
        5
170
     1
 91
        0
 92
    32768
 62
   257
 93
        1
300
CONTENTFORMAT
  1
CONTENTFORMAT_BEGIN
 90
        0
 91
        0
 92
        4
 93
        0
300

 40
0.0
140
1.0
 94
        5
 62
     0
340
11
144
0.25
309
CONTENTFORMAT_END
171
     1
301
MARGIN
  1
CELLMARGIN_BEGIN
 40
0.06
 40
0.06
 40
0.06
 40
0.06
 40
0.06
 40
0.06
309
CELLMARGIN_END
 94
        6
 95
        1
302
GRIDFORMAT
  1
GRIDFORMAT_BEGIN
 90
        0
 91
        1
 62
     0
 92
       -2
340
14
 93
        0
 40
0.045
309
GRIDFORMAT_END
 95
        2
302
GRIDFORMAT
  1
GRIDFORMAT_BEGIN
 90
        0
 91
        1
 62
     0
 92
       -2
340
14
 93
        0
 40
0.045
309
GRIDFORMAT_END
 95
        4
302
GRIDFORMAT
  1
GRIDFORMAT_BEGIN
 90
        0
 91
        1
 62
     0
 92
       -2
340
14
 93
        0
 40
0.045
309
GRIDFORMAT_END
 95
        8
302
GRIDFORMAT
  1
GRIDFORMAT_BEGIN
 90
        0
 91
        1
 62
     0
 92
       -2
340
14
 93
        0
 40
0.045
309
GRIDFORMAT_END
 95
       16
302
GRIDFORMAT
  1
GRIDFORMAT_BEGIN
 90
        0
 91
        1
 62
     0
 92
       -2
340
14
 93
        0
 40
0.045
309
GRIDFORMAT_END
 95
       32
302
GRIDFORMAT
  1
GRIDFORMAT_BEGIN
 90
        0
 91
        1
 62
     0
 92
       -2
340
14
 93
        0
 40
0.045
309
GRIDFORMAT_END
309
TABLEFORMAT_END
  1
CELLSTYLE_BEGIN
 90
        1
 91
        1
300
_TITLE
309
CELLSTYLE_END
300
CELLSTYLE
  1
TABLEFORMAT_BEGIN
 90
        5
170
     1
 91
        0
 92
        0
 62
   257
 93
        1
300
CONTENTFORMAT
  1
CONTENTFORMAT_BEGIN
 90
        0
 91
        0
 92
        4
 93
        0
300

 40
0.0
140
1.0
 94
        5
 62
     0
340
11
144
0.18
309
CONTENTFORMAT_END
171
     1
301
MARGIN
  1
CELLMARGIN_BEGIN
 40
0.06
 40
0.06
 40
0.06
 40
0.06
 40
0.06
 40
0.06
309
CELLMARGIN_END
 94
        6
 95
        1
302
GRIDFORMAT
  1
GRIDFORMAT_BEGIN
 90
        0
 91
        1
 62
     0
 92
       -2
340
14
 93
        0
 40
0.045
309
GRIDFORMAT_END
 95
        2
302
GRIDFORMAT
  1
GRIDFORMAT_BEGIN
 90
        0
 91
        1
 62
     0
 92
       -2
340
14
 93
        0
 40
0.045
309
GRIDFORMAT_END
 95
        4
302
GRIDFORMAT
  1
GRIDFORMAT_BEGIN
 90
        0
 91
        1
 62
     0
 92
       -2
340
14
 93
        0
 40
0.045
309
GRIDFORMAT_END
 95
        8
302
GRIDFORMAT
  1
GRIDFORMAT_BEGIN
 90
        0
 91
        1
 62
     0
 92
       -2
340
14
 93
        0
 40
0.045
309
GRIDFORMAT_END
 95
       16
302
GRIDFORMAT
  1
GRIDFORMAT_BEGIN
 90
        0
 91
        1
 62
     0
 92
       -2
340
14
 93
        0
 40
0.045
309
GRIDFORMAT_END
 95
       32
302
GRIDFORMAT
  1
GRIDFORMAT_BEGIN
 90
        0
 91
        1
 62
     0
 92
       -2
340
14
 93
        0
 40
0.045
309
GRIDFORMAT_END
309
TABLEFORMAT_END
  1
CELLSTYLE_BEGIN
 90
        2
 91
        1
300
_HEADER
309
CELLSTYLE_END
300
CELLSTYLE
  1
TABLEFORMAT_BEGIN
 90
        5
170
     1
 91
        0
 92
        0
 62
   257
 93
        1
300
CONTENTFORMAT
  1
CONTENTFORMAT_BEGIN
 90
        0
 91
        0
 92
        4
 93
        0
300

 40
0.0
140
1.0
 94
        2
 62
     0
340
11
144
0.18
309
CONTENTFORMAT_END
171
     1
301
MARGIN
  1
CELLMARGIN_BEGIN
 40
0.06
 40
0.06
 40
0.06
 40
0.06
 40
0.06
 40
0.06
309
CELLMARGIN_END
 94
        6
 95
        1
302
GRIDFORMAT
  1
GRIDFORMAT_BEGIN
 90
        0
 91
        1
 62
     0
 92
       -2
340
14
 93
        0
 40
0.045
309
GRIDFORMAT_END
 95
        2
302
GRIDFORMAT
  1
GRIDFORMAT_BEGIN
 90
        0
 91
        1
 62
     0
 92
       -2
340
14
 93
        0
 40
0.045
309
GRIDFORMAT_END
 95
        4
302
GRIDFORMAT
  1
GRIDFORMAT_BEGIN
 90
        0
 91
        1
 62
     0
 92
       -2
340
14
 93
        0
 40
0.045
309
GRIDFORMAT_END
 95
        8
302
GRIDFORMAT
  1
GRIDFORMAT_BEGIN
 90
        0
 91
        1
 62
     0
 92
       -2
340
14
 93
        0
 40
0.045
309
GRIDFORMAT_END
 95
       16
302
GRIDFORMAT
  1
GRIDFORMAT_BEGIN
 90
        0
 91
        1
 62
     0
 92
       -2
340
14
 93
        0
 40
0.045
309
GRIDFORMAT_END
 95
       32
302
GRIDFORMAT
  1
GRIDFORMAT_BEGIN
 90
        0
 91
        1
 62
     0
 92
       -2
340
14
 93
        0
 40
0.045
309
GRIDFORMAT_END
309
TABLEFORMAT_END
  1
CELLSTYLE_BEGIN
 90
        3
 91
        2
300
_DATA
309
CELLSTYLE_END
  0
ENDSEC
  0
EOF